  0
SECTION
  2
HEADER
  9
$ACADVER
  1
AC1009
  9
$INSBASE
 10
0
 20
0
 30
0
  9
$EXTMIN
 10
0
 20
0
  9
$EXTMAX
 10
2970
 20
2100
  9
$LIMMIN
 10
0
 20
0
  9
$LIMMAX
 10
2970
 20
2100
  9
$LTSCALE
 40
10
  0
ENDSEC
  0
SECTION
  2
TABLES
  0
TABLE
  2
LTYPE
 70
     9
  0
LTYPE
  2
CONTINUOUS
 70
    64
  3
実線
 72
    65
 73
     0
 40
0.0
  0
LTYPE
  2
DASHED1
 70
    64
  3
--  --  --  --  --  --  --  --  
 72
    65
 73
     2
 40
2.5
 49
1.25
 49
-1.25
  0
LTYPE
  2
DASHED2
 70
    64
  3
----    ----    ----    ----    
 72
    65
 73
     2
 40
5.0
 49
2.5
 49
-2.5
  0
LTYPE
  2
DASHED3
 70
    64
  3
------  ------  ------  ------  
 72
    65
 73
     2
 40
5.0
 49
3.75
 49
-1.25
  0
LTYPE
  2
CENTER1
 70
    64
  3
----- - ----- - ----- - ----- - 
 72
    65
 73
     4
 40
10.0
 49
6.25
 49
-1.25
 49
1.25
 49
-1.25
  0
LTYPE
  2
CENTER2
 70
    64
  3
----------  --  ----------  --  
 72
    65
 73
     4
 40
20.0
 49
12.5
 49
-2.5
 49
2.5
 49
-2.5
  0
LTYPE
  2
PHANTOM1
 70
    64
  3
--- - - --- - - --- - - --- - - 
 72
    65
 73
     6
 40
10.0
 49
3.25
 49
-1.25
 49
1.25
 49
-1.25
 49
1.25
 49
-1.25
  0
LTYPE
  2
PHANTOM2
 70
    64
  3
--------  -  -  --------  -  -  
 72
    65
 73
     6
 40
20.0
 49
10.0
 49
-2.5
 49
1.25
 49
-2.5
 49
1.25
 49
-2.5
  0
LTYPE
  2
DOT
 70
    64
  3
-   -   -   -   -   -   -   -   
 72
    65
 73
     2
 40
2.5
 49
0.625
 49
-1.875
  0
LTYPE
  2
DUMMY
 70
    64
  3
ダミー
 72
    65
 73
     0
 40
0.0
  0
LTYPE
  2
RAND1
 70
    64
  3
ランダム線1
 72
    65
 73
     4
 40
10.0
 49
1.0
 49
-2.0
 49
3.0
 49
-4.0
  0
LTYPE
  2
RAND2
 70
    64
  3
ランダム線2
 72
    65
 73
     4
 40
14.0
 49
2.0
 49
-3.0
 49
4.0
 49
-5.0
  0
LTYPE
  2
RAND3
 70
    64
  3
ランダム線3
 72
    65
 73
     4
 40
18.0
 49
3.0
 49
-4.0
 49
5.0
 49
-6.0
  0
LTYPE
  2
RAND4
 70
    64
  3
ランダム線4
 72
    65
 73
     4
 40
22.0
 49
4.0
 49
-5.0
 49
6.0
 49
-7.0
  0
LTYPE
  2
RAND5
 70
    64
  3
ランダム線5
 72
    65
 73
     4
 40
26.0
 49
5.0
 49
-6.0
 49
7.0
 49
-8.0
  0
LTYPE
  2
LONG1
 70
    64
  3
----------  --  ----------  --  
 72
    65
 73
     4
 40
40.0
 49
32.5
 49
-2.5
 49
2.5
 49
-2.5
  0
LTYPE
  2
LONG2
 70
    64
  3
--------  -  -  --------  -  -  
 72
    65
 73
     6
 40
40.0
 49
30.0
 49
-2.5
 49
1.25
 49
-2.5
 49
1.25
 49
-2.5
  0
LTYPE
  2
LONG3
 70
    64
  3
+++++++++++++++..+++++++++++++++
 72
    65
 73
     2
 40
40.0
 49
37.5
 49
-2.5
  0
LTYPE
  2
LONG4
 70
    64
  3
+++++++++++++++..+++++++++++++++
 72
    65
 73
     2
 40
80.0
 49
75.0
 49
-5.0
  0
LTYPE
  2
LONG5
 70
    64
  3
----------  --  ----------  --  
 72
    65
 73
     4
 40
60.0
 49
37.5
 49
-7.5
 49
7.5
 49
-7.5
  0
LTYPE
  2
dashed
 70
   64
  3
-------   -------------   ------
 72
   65
 73
    2
 40
7.5
 49
6
 49
-1.5
  0
LTYPE
  2
dashed_spaced
 70
   64
  3
----        --------        ----
 72
   65
 73
    2
 40
12
 49
6
 49
-6
  0
LTYPE
  2
long_dashed_dotted
 70
   64
  3
------------- --- --------------
 72
   65
 73
    4
 40
15.25
 49
12
 49
-1.5
 49
0.25
 49
-1.5
  0
LTYPE
  2
long_dashed_double-dotted
 70
   64
  3
----------- --- --- ------------
 72
   65
 73
    6
 40
17
 49
12
 49
-1.5
 49
0.25
 49
-1.5
 49
0.25
 49
-1.5
  0
LTYPE
  2
long_dashed_triplicate-dotted
 70
   64
  3
--------- --- --- --- ----------
 72
   65
 73
    8
 40
18.75
 49
12
 49
-1.5
 49
0.25
 49
-1.5
 49
0.25
 49
-1.5
 49
0.25
 49
-1.5
  0
LTYPE
  2
dotted
 70
   64
  3
   -       -       -       -    
 72
   65
 73
    2
 40
1.75
 49
0.25
 49
-1.5
  0
LTYPE
  2
chain
 70
   64
  3
-------------- -- --------------
 72
   65
 73
    4
 40
18.5
 49
12
 49
-1.5
 49
3.5
 49
-1.5
  0
LTYPE
  2
chain_double_dash
 70
   64
  3
------------ -- -- -------------
 72
   65
 73
    6
 40
23.5
 49
12
 49
-1.5
 49
3.5
 49
-1.5
 49
3.5
 49
-1.5
  0
LTYPE
  2
dashed_dotted
 70
   64
  3
-----------     -     ----------
 72
   65
 73
    4
 40
9.25
 49
6
 49
-1.5
 49
0.25
 49
-1.5
  0
LTYPE
  2
double-dashed_dotted
 70
   64
  3
------   -----------   -   -----
 72
   65
 73
    6
 40
16.75
 49
6
 49
-1.5
 49
6
 49
-1.5
 49
0.25
 49
-1.5
  0
LTYPE
  2
dashed_double-dotted
 70
   64
  3
---------    -    -    ---------
 72
   65
 73
    6
 40
11
 49
6
 49
-1.5
 49
0.25
 49
-1.5
 49
0.25
 49
-1.5
  0
LTYPE
  2
double-dashed_double-dotted
 70
   64
  3
-----   ---------   -   -   ----
 72
   65
 73
    8
 40
18.5
 49
6
 49
-1.5
 49
6
 49
-1.5
 49
0.25
 49
-1.5
 49
0.25
 49
-1.5
  0
LTYPE
  2
dashed_triplicate-dotted
 70
   64
  3
-------    -    -    -    ------
 72
   65
 73
    8
 40
12.75
 49
6
 49
-1.5
 49
0.25
 49
-1.5
 49
0.25
 49
-1.5
 49
0.25
 49
-1.5
  0
LTYPE
  2
double-dashed_triplicate-dotted
 70
   64
  3
-----  ---------  -  -  -  -----
 72
   65
 73
   10
 40
20.25
 49
6
 49
-1.5
 49
6
 49
-1.5
 49
0.25
 49
-1.5
 49
0.25
 49
-1.5
 49
0.25
 49
-1.5
  0
LTYPE
  2
undefined
 70
   64
  3
--------------------------------
 72
   65
 73
    0
 40
0
  0
ENDTAB
  0
TABLE
  2
STYLE
  5
3
100
AcDbSymbolTable
 70
     1
  0
STYLE
  5
10
100
AcDbSymbolTableRecord
100
AcDbTextStyleTableRecord
  2
STANDARD
 70
     0
 40
0.0
 41
1.0
 50
0.0
 71
     0
 42
0.2
  3
txt
  4
bigfont.shx
  0
STYLE
  5
26
100
AcDbSymbolTableRecord
100
AcDbTextStyleTableRecord
  2
TATEGAKI
 70
    68
 40
0.0
 41
1.0
 50
0.0
 71
     0
 42
1.0
  3
txt
  4
bigfont.shx
  0
ENDTAB
  0
TABLE
  2
LAYER
 70
    5
  0
LAYER
  2
_0-0_1
 70
   64
 62
    7
  6
CONTINUOUS
  0
LAYER
  2
_0-1_2
 70
   64
 62
    7
  6
CONTINUOUS
  0
LAYER
  2
_0-2_3
 70
   64
 62
    7
  6
CONTINUOUS
  0
LAYER
  2
_0-3_4
 70
   64
 62
    7
  6
CONTINUOUS
  0
LAYER
  2
ADD_LINE
 70
   64
 62
    7
  6
CONTINUOUS
  0
ENDTAB
  0
ENDSEC
  0
SECTION
  2
BLOCKS
  0
ENDSEC
  0
SECTION
  2
ENTITIES
  0
LINE
  8
_0-0_1
  6
CONTINUOUS
 62
    3
 10
1127.4283
 20
884.07300000000009
 11
1131.9609
 21
871.0603000000001
  0
LINE
  8
_0-0_1
  6
CONTINUOUS
 62
    3
 10
1125.1646000000001
 20
878.41370000000006
 11
1127.4283
 21
884.07300000000009
  0
LINE
  8
_0-0_1
  6
CONTINUOUS
 62
    3
 10
1131.9609
 20
871.0603000000001
 11
1133.4870000000001
 21
878.41370000000006
  0
LINE
  8
_0-0_1
  6
CONTINUOUS
 62
    3
 10
1092.8226999999999
 20
878.41370000000006
 11
1125.1646000000001
 21
878.41370000000006
  0
LINE
  8
_0-0_1
  6
CONTINUOUS
 62
    3
 10
1133.4870000000001
 20
878.41370000000006
 11
1162.5740000000001
 21
878.41370000000006
  0
LINE
  8
_0-0_1
  6
CONTINUOUS
 62
    2
 10
2193.5043000000001
 20
1047.6313
 11
1084.9158
 21
1047.6313
  0
LINE
  8
_0-0_1
  6
CONTINUOUS
 62
    2
 10
2193.5043000000001
 20
1050.1313
 11
1084.9158
 21
1050.1313
  0
LINE
  8
_0-0_1
  6
CONTINUOUS
 62
    2
 10
2193.5043000000001
 20
1052.6313
 11
1084.9158
 21
1052.6313
  0
LINE
  8
_0-0_1
  6
CONTINUOUS
 62
    2
 10
2193.5043000000001
 20
1055.1313
 11
1084.9158
 21
1055.1313
  0
LINE
  8
_0-0_1
  6
CONTINUOUS
 62
    2
 10
2193.5043000000001
 20
1057.6313
 11
1084.9158
 21
1057.6313
  0
LINE
  8
_0-0_1
  6
CONTINUOUS
 62
    2
 10
2193.5043000000001
 20
1060.1313
 11
1084.9158
 21
1060.1313
  0
LINE
  8
_0-0_1
  6
CONTINUOUS
 62
    2
 10
2193.5043000000001
 20
1062.6313
 11
1084.9158
 21
1062.6313
  0
LINE
  8
_0-0_1
  6
CONTINUOUS
 62
    2
 10
2193.5043000000001
 20
1065.1313
 11
1084.9158
 21
1065.1313
  0
LINE
  8
_0-0_1
  6
CONTINUOUS
 62
    2
 10
2193.5043000000001
 20
1067.6313
 11
1084.9158
 21
1067.6313
  0
LINE
  8
_0-0_1
  6
CONTINUOUS
 62
    3
 10
1082.9159
 20
1325.3798000000002
 11
1082.9159
 21
1272.8797999999999
  0
CIRCLE
  8
_0-0_1
  6
CONTINUOUS
 62
    3
 10
1082.9159
 20
1322.8798000000002
 40
1.6999999999999997
  0
LINE
  8
_0-0_1
  6
CONTINUOUS
 62
    3
 10
1082.9159
 20
1322.8798000000002
 11
1112.9159
 21
1322.8798000000002
  0
CIRCLE
  8
_0-0_1
  6
CONTINUOUS
 62
    3
 10
1112.9159
 20
1322.8798000000002
 40
1.6999999999999997
  0
LINE
  8
_0-0_1
  6
CONTINUOUS
 62
    3
 10
1112.9159
 20
1325.3798000000002
 11
1112.9159
 21
1272.8797999999999
  0
CIRCLE
  8
_0-0_1
  6
CONTINUOUS
 62
    3
 10
1112.9159
 20
1322.8798000000002
 40
1.6999999999999997
  0
LINE
  8
_0-0_1
  6
CONTINUOUS
 62
    3
 10
1112.9159
 20
1322.8798000000002
 11
1372.9159
 21
1322.8798000000002
  0
CIRCLE
  8
_0-0_1
  6
CONTINUOUS
 62
    3
 10
1372.9159
 20
1322.8798000000002
 40
1.6999999999999997
  0
LINE
  8
_0-0_1
  6
CONTINUOUS
 62
    3
 10
1372.9159
 20
1325.3798000000002
 11
1372.9159
 21
1272.8797999999999
  0
CIRCLE
  8
_0-0_1
  6
CONTINUOUS
 62
    3
 10
1372.9159
 20
1322.8798000000002
 40
1.6999999999999997
  0
LINE
  8
_0-0_1
  6
CONTINUOUS
 62
    3
 10
1372.9159
 20
1322.8798000000002
 11
1632.9159
 21
1322.8798000000002
  0
CIRCLE
  8
_0-0_1
  6
CONTINUOUS
 62
    3
 10
1632.9159
 20
1322.8798000000002
 40
1.6999999999999997
  0
LINE
  8
_0-0_1
  6
CONTINUOUS
 62
    3
 10
1632.9159
 20
1325.3798000000002
 11
1632.9159
 21
1272.8797999999999
  0
CIRCLE
  8
_0-0_1
  6
CONTINUOUS
 62
    3
 10
1632.9159
 20
1322.8798000000002
 40
1.6999999999999997
  0
LINE
  8
_0-0_1
  6
CONTINUOUS
 62
    3
 10
1632.9159
 20
1322.8798000000002
 11
1892.9158000000002
 21
1322.8798000000002
  0
CIRCLE
  8
_0-0_1
  6
CONTINUOUS
 62
    3
 10
1892.9158000000002
 20
1322.8798000000002
 40
1.6999999999999997
  0
LINE
  8
_0-0_1
  6
CONTINUOUS
 62
    3
 10
1892.9158000000002
 20
1325.3798000000002
 11
1892.9158000000002
 21
1272.8797999999999
  0
CIRCLE
  8
_0-0_1
  6
CONTINUOUS
 62
    3
 10
1892.9158000000002
 20
1322.8798000000002
 40
1.6999999999999997
  0
LINE
  8
_0-0_1
  6
CONTINUOUS
 62
    3
 10
1892.9158000000002
 20
1322.8798000000002
 11
2152.9158000000002
 21
1322.8798000000002
  0
CIRCLE
  8
_0-0_1
  6
CONTINUOUS
 62
    3
 10
2152.9158000000002
 20
1322.8798000000002
 40
1.6999999999999997
  0
LINE
  8
_0-0_1
  6
CONTINUOUS
 62
    3
 10
2152.9158000000002
 20
1325.3798000000002
 11
2152.9158000000002
 21
1272.8797999999999
  0
LINE
  8
_0-0_1
  6
DASHED3
 62
    3
 10
1088.4395
 20
1135.1313
 11
1100.4884
 21
1135.1313
  0
LINE
  8
_0-0_1
  6
CONTINUOUS
 62
    3
 10
1104.5925
 20
1125.5726999999999
 11
1110.2351000000001
 21
1120.1871000000001
  0
LINE
  8
_0-0_1
  6
CONTINUOUS
 62
    3
 10
1104.5925
 20
1125.5726999999999
 11
1121.2729999999999
 21
1073.3688
  0
LINE
  8
_0-0_1
  6
DASHED3
 62
    3
 10
1100.4884
 20
1135.1313
 11
1120.6186
 21
1072.1313
  0
LINE
  8
_0-0_1
  6
CONTINUOUS
 62
    3
 10
1111.8866
 20
1073.6096
 11
1116.9528
 21
1078.6758
  0
LINE
  8
_0-0_1
  6
CONTINUOUS
 62
    3
 10
1101.1926000000001
 20
1073.5222000000001
 11
1114.3842999999999
 21
1086.7139999999999
  0
LINE
  8
_0-0_1
  6
CONTINUOUS
 62
    3
 10
1090.4987000000001
 20
1073.4349
 11
1111.8159000000001
 21
1094.7521999999999
  0
LINE
  8
_0-0_1
  6
CONTINUOUS
 62
    3
 10
1082.4057
 20
1086.5552
 11
1106.6791000000001
 21
1110.8285000000001
  0
LINE
  8
_0-0_1
  6
CONTINUOUS
 62
    3
 10
1082.4057
 20
1097.1618000000001
 11
1104.1107
 21
1118.8667
  0
LINE
  8
_0-0_1
  6
CONTINUOUS
 62
    3
 10
1082.4057
 20
1107.7683999999999
 11
1101.5423000000001
 21
1126.9049
  0
LINE
  8
_0-0_1
  6
CONTINUOUS
 62
    3
 10
1082.4057
 20
1118.375
 11
1097.6621
 21
1133.6313
  0
LINE
  8
_0-0_1
  6
CONTINUOUS
 62
    3
 10
1082.4057
 20
1128.9816000000001
 11
1087.0554999999999
 21
1133.6313
  0
LINE
  8
_0-0_1
  6
DASHED1
 62
    2
 10
1054.9583
 20
1081.7366999999999
 11
1054.9583
 21
1097.7366999999999
  0
LINE
  8
_0-0_1
  6
DASHED1
 62
    2
 10
1054.9583
 20
1097.7366999999999
 11
1057.9583
 21
1097.7366999999999
  0
LINE
  8
_0-0_1
  6
DASHED1
 62
    2
 10
1054.9583
 20
1081.7366999999999
 11
1057.9583
 21
1081.7366999999999
  0
LINE
  8
_0-0_1
  6
DASHED1
 62
    2
 10
1057.9583
 20
1081.7366999999999
 11
1057.9583
 21
1097.7366999999999
  0
LINE
  8
_0-0_1
  6
DASHED1
 62
    2
 10
1112.8543999999999
 20
1092.7366999999999
 11
1127.3633
 21
1089.6865
  0
LINE
  8
_0-0_1
  6
DASHED1
 62
    2
 10
1057.9583
 20
1092.7366999999999
 11
1112.8543999999999
 21
1092.7366999999999
  0
LINE
  8
_0-0_1
  6
DASHED1
 62
    2
 10
1127.3633
 20
1089.6865
 11
1113.1058
 21
1086.7366999999999
  0
LINE
  8
_0-0_1
  6
DASHED1
 62
    2
 10
1057.9583
 20
1086.7366999999999
 11
1113.1058
 21
1086.7366999999999
  0
LINE
  8
_0-0_1
  6
DASHED1
 62
    2
 10
1524.1066000000001
 20
1115.0514000000001
 11
1540.1066000000001
 21
1115.0514000000001
  0
LINE
  8
_0-0_1
  6
DASHED1
 62
    2
 10
1540.1066000000001
 20
1115.0514000000001
 11
1540.1066000000001
 21
1112.0514000000001
  0
LINE
  8
_0-0_1
  6
DASHED1
 62
    2
 10
1524.1066000000001
 20
1115.0514000000001
 11
1524.1066000000001
 21
1112.0514000000001
  0
LINE
  8
_0-0_1
  6
DASHED1
 62
    2
 10
1524.1066000000001
 20
1112.0514000000001
 11
1540.1066000000001
 21
1112.0514000000001
  0
LINE
  8
_0-0_1
  6
DASHED1
 62
    2
 10
1535.1066000000001
 20
1057.1552999999999
 11
1532.0563999999999
 21
1042.6464000000001
  0
LINE
  8
_0-0_1
  6
DASHED1
 62
    2
 10
1535.1066000000001
 20
1112.0514000000001
 11
1535.1066000000001
 21
1057.1552999999999
  0
LINE
  8
_0-0_1
  6
DASHED1
 62
    2
 10
1532.0563999999999
 20
1042.6464000000001
 11
1529.1066000000001
 21
1056.9039
  0
LINE
  8
_0-0_1
  6
DASHED1
 62
    2
 10
1529.1066000000001
 20
1112.0514000000001
 11
1529.1066000000001
 21
1056.9039
  0
LINE
  8
_0-0_1
  6
CONTINUOUS
 62
    5
 10
1539.4045000000001
 20
1083.6980000000001
 11
1533.7413000000001
 21
1093.1367
  0
LINE
  8
_0-0_1
  6
CONTINUOUS
 62
    4
 10
1099.393
 20
1133.6313
 11
1118.5541000000001
 21
1073.664
  0
LINE
  8
_0-0_1
  6
CONTINUOUS
 62
    4
 10
1082.4057
 20
1133.6313
 11
1082.4057
 21
1073.3688
  0
LINE
  8
_0-0_1
  6
CONTINUOUS
 62
    4
 10
1082.4057
 20
1133.6313
 11
1099.393
 21
1133.6313
  0
LINE
  8
_0-0_1
  6
DASHED1
 62
    2
 10
1785.2966999999999
 20
1111.5918999999999
 11
1801.2966999999999
 21
1111.5918999999999
  0
LINE
  8
_0-0_1
  6
DASHED1
 62
    2
 10
1801.2966999999999
 20
1111.5918999999999
 11
1801.2966999999999
 21
1108.5918999999999
  0
LINE
  8
_0-0_1
  6
DASHED1
 62
    2
 10
1785.2966999999999
 20
1111.5918999999999
 11
1785.2966999999999
 21
1108.5918999999999
  0
LINE
  8
_0-0_1
  6
DASHED1
 62
    2
 10
1785.2966999999999
 20
1108.5918999999999
 11
1801.2966999999999
 21
1108.5918999999999
  0
LINE
  8
_0-0_1
  6
DASHED1
 62
    2
 10
1796.2966999999999
 20
1053.6958999999999
 11
1793.2465000000002
 21
1039.1868999999999
  0
LINE
  8
_0-0_1
  6
DASHED1
 62
    2
 10
1796.2966999999999
 20
1108.5918999999999
 11
1796.2966999999999
 21
1053.6958999999999
  0
LINE
  8
_0-0_1
  6
DASHED1
 62
    2
 10
1793.2465000000002
 20
1039.1868999999999
 11
1790.2966999999999
 21
1053.4444000000001
  0
LINE
  8
_0-0_1
  6
DASHED1
 62
    2
 10
1790.2966999999999
 20
1108.5918999999999
 11
1790.2966999999999
 21
1053.4444000000001
  0
LINE
  8
_0-0_1
  6
DASHED1
 62
    2
 10
2044.7570999999998
 20
1113.3217
 11
2060.7570999999998
 21
1113.3217
  0
LINE
  8
_0-0_1
  6
DASHED1
 62
    2
 10
2060.7570999999998
 20
1113.3217
 11
2060.7570999999998
 21
1110.3217
  0
LINE
  8
_0-0_1
  6
DASHED1
 62
    2
 10
2044.7570999999998
 20
1113.3217
 11
2044.7570999999998
 21
1110.3217
  0
LINE
  8
_0-0_1
  6
DASHED1
 62
    2
 10
2044.7570999999998
 20
1110.3217
 11
2060.7570999999998
 21
1110.3217
  0
LINE
  8
_0-0_1
  6
DASHED1
 62
    2
 10
2055.7570999999998
 20
1055.4256
 11
2052.7069000000001
 21
1040.9167
  0
LINE
  8
_0-0_1
  6
DASHED1
 62
    2
 10
2055.7570999999998
 20
1110.3217
 11
2055.7570999999998
 21
1055.4256
  0
LINE
  8
_0-0_1
  6
DASHED1
 62
    2
 10
2052.7069000000001
 20
1040.9167
 11
2049.7570999999998
 21
1055.1741999999999
  0
LINE
  8
_0-0_1
  6
DASHED1
 62
    2
 10
2049.7570999999998
 20
1110.3217
 11
2049.7570999999998
 21
1055.1741999999999
  0
LINE
  8
_0-0_1
  6
CONTINUOUS
 62
    5
 10
2060.6599000000001
 20
1083.7235000000001
 11
2054.9967000000001
 21
1093.1622
  0
LINE
  8
_0-0_1
  6
CONTINUOUS
 62
    5
 10
1800.2303999999999
 20
1083.6980000000001
 11
1794.5672
 21
1093.1367
  0
ARC
  8
_0-0_1
  6
CONTINUOUS
 62
    5
 10
2272.9151000000002
 20
1320.6575
 40
212.52318
 50
244.57801000000001
 51
246.02226999999999
  0
ARC
  8
_0-0_1
  6
CONTINUOUS
 62
    5
 10
2272.9151000000002
 20
1320.6575
 40
214.52317999999997
 50
244.57801000000001
 51
246.25963000000002
  0
ARC
  8
_0-0_1
  6
CONTINUOUS
 62
    5
 10
2221.9713000000002
 20
1190.3846000000001
 40
73.645919000000006
 50
225.20483999999999
 51
236.85617999999999
  0
ARC
  8
_0-0_1
  6
CONTINUOUS
 62
    5
 10
2210.8787000000002
 20
1182.4793
 40
81.008393999999996
 50
226.46691000000004
 51
242.05489
  0
ARC
  8
_0-0_1
  6
CONTINUOUS
 62
    5
 10
2264.4011999999998
 20
1257.0841
 40
154.70135999999999
 50
229.79871999999997
 51
237.31520999999998
  0
LINE
  8
_0-0_1
  6
CONTINUOUS
 62
    5
 10
2155.0823
 20
1141.5793000000001
 11
2155.0823
 21
1123.7501
  0
ARC
  8
_0-0_1
  6
CONTINUOUS
 62
    5
 10
2159.0823
 20
1141.5793000000001
 40
4
 50
90
 51
180
  0
LINE
  8
_0-0_1
  6
CONTINUOUS
 62
    5
 10
2160.5454
 20
1145.5793000000001
 11
2159.0823
 21
1145.5793000000001
  0
LINE
  8
_0-0_1
  6
CONTINUOUS
 62
    5
 10
2164.5454
 20
1141.5793000000001
 11
2164.5454
 21
1138.9260999999999
  0
ARC
  8
_0-0_1
  6
CONTINUOUS
 62
    5
 10
2160.5454
 20
1141.5793000000001
 40
4
 50
0
 51
90
  0
LINE
  8
_0-0_1
  6
CONTINUOUS
 62
    5
 10
2170.0823
 20
1140.9699000000001
 11
2170.0823
 21
1138.1232
  0
LINE
  8
_0-0_1
  6
CONTINUOUS
 62
    5
 10
2174.0823
 20
1144.9699000000001
 11
2186.5495999999998
 21
1144.9699000000001
  0
ARC
  8
_0-0_1
  6
CONTINUOUS
 62
    5
 10
2174.0823
 20
1140.9699000000001
 40
4
 50
90
 51
180
  0
ARC
  8
_0-0_1
  6
CONTINUOUS
 62
    5
 10
2272.9151000000002
 20
1320.6575
 40
232.52318
 50
244.57801000000001
 51
248.19632000000001
  0
ARC
  8
_0-0_1
  6
CONTINUOUS
 62
    5
 10
2152.4684999999999
 20
1121.8358000000001
 40
69.214101999999997
 50
60.501471999999993
 51
163.33506
  0
ARC
  8
_0-0_1
  6
CONTINUOUS
 62
    5
 10
2152.0734000000002
 20
1123.3191999999999
 40
50.327697999999998
 50
46.761682999999998
 51
173.62688
  0
ARC
  8
_0-0_1
  6
CONTINUOUS
 62
    5
 10
2014.0003000000002
 20
1322.3279
 40
212.52318
 50
244.57801000000001
 51
294.47764000000006
  0
ARC
  8
_0-0_1
  6
CONTINUOUS
 62
    5
 10
2014.0003000000002
 20
1322.3279
 40
214.52317999999997
 50
244.57801000000001
 51
294.78532999999999
  0
ARC
  8
_0-0_1
  6
CONTINUOUS
 62
    5
 10
2152.0734000000002
 20
1123.3191999999999
 40
48.327697999999998
 50
88.109851000000006
 51
174.95909000000003
  0
LINE
  8
_0-0_1
  6
CONTINUOUS
 62
    5
 10
2153.6673999999998
 20
1171.6206
 11
2153.6673999999998
 21
1159.4916000000001
  0
LINE
  8
_0-0_1
  6
CONTINUOUS
 62
    5
 10
1981.6552999999999
 20
1081.0133000000001
 11
1975.0884000000001
 21
1093.1622
  0
LINE
  8
_0-0_1
  6
CONTINUOUS
 62
    5
 10
1993.7815000000001
 20
1080.6839
 11
1999.2116999999998
 21
1089.5436999999999
  0
ARC
  8
_0-0_1
  6
CONTINUOUS
 62
    5
 10
1987.8132999999998
 20
1084.3418999999999
 40
7
 50
208.39301
 51
328.49572999999998
  0
LINE
  8
_0-0_1
  6
CONTINUOUS
 62
    5
 10
2073.1720999999998
 20
1084.7514000000001
 11
2079.1199999999999
 21
1099.7961
  0
ARC
  8
_0-0_1
  6
CONTINUOUS
 62
    5
 10
2066.6624000000002
 20
1087.325
 40
7
 50
210.96375
 51
338.42869000000002
  0
LINE
  8
_0-0_1
  6
CONTINUOUS
 62
    5
 10
2100.8132999999998
 20
1091.6928
 11
2093.8955000000001
 21
1103.4145000000001
  0
ARC
  8
_0-0_1
  6
CONTINUOUS
 62
    5
 10
2104.2581
 20
1093.7257999999999
 40
4
 50
210.54757000000001
 51
342.13990000000001
  0
ARC
  8
_0-0_1
  6
CONTINUOUS
 62
    5
 10
2014.0003000000002
 20
1322.3279
 40
194.52317999999997
 50
244.57801000000001
 51
291.77512000000002
  0
ARC
  8
_0-0_1
  6
CONTINUOUS
 62
    5
 10
1963.0563999999999
 20
1192.0550000000001
 40
73.645919000000006
 50
225.20483999999999
 51
236.85617999999999
  0
ARC
  8
_0-0_1
  6
CONTINUOUS
 62
    5
 10
1951.9638
 20
1184.1497999999999
 40
81.008393999999996
 50
226.46691000000004
 51
242.05489
  0
ARC
  8
_0-0_1
  6
CONTINUOUS
 62
    5
 10
2005.4863
 20
1258.7546
 40
154.70135999999999
 50
229.79871999999997
 51
237.31520999999998
  0
LINE
  8
_0-0_1
  6
CONTINUOUS
 62
    5
 10
1896.1673999999998
 20
1143.2497000000001
 11
1896.1673999999998
 21
1125.4205999999999
  0
ARC
  8
_0-0_1
  6
CONTINUOUS
 62
    5
 10
1900.1673999999998
 20
1143.2497000000001
 40
4
 50
90
 51
180
  0
LINE
  8
_0-0_1
  6
CONTINUOUS
 62
    5
 10
1901.6305000000002
 20
1147.2497000000001
 11
1900.1673999999998
 21
1147.2497000000001
  0
LINE
  8
_0-0_1
  6
CONTINUOUS
 62
    5
 10
1905.6305000000002
 20
1143.2497000000001
 11
1905.6305000000002
 21
1140.5965000000001
  0
ARC
  8
_0-0_1
  6
CONTINUOUS
 62
    5
 10
1901.6305000000002
 20
1143.2497000000001
 40
4
 50
0
 51
90
  0
LINE
  8
_0-0_1
  6
CONTINUOUS
 62
    5
 10
1911.1673999999998
 20
1142.6403
 11
1911.1673999999998
 21
1139.7936
  0
LINE
  8
_0-0_1
  6
CONTINUOUS
 62
    5
 10
1915.1673999999998
 20
1146.6403
 11
1930.4949999999999
 21
1146.6403
  0
ARC
  8
_0-0_1
  6
CONTINUOUS
 62
    5
 10
1915.1673999999998
 20
1142.6403
 40
4
 50
90
 51
180
  0
ARC
  8
_0-0_1
  6
CONTINUOUS
 62
    5
 10
2014.0003000000002
 20
1322.3279
 40
232.52318
 50
244.57801000000001
 51
295.00637
  0
ARC
  8
_0-0_1
  6
CONTINUOUS
 62
    5
 10
2154.6664999999998
 20
1119.2551000000001
 40
40.248902000000001
 50
91.422393999999997
 51
185.22383000000002
  0
ARC
  8
_0-0_1
  6
CONTINUOUS
 62
    5
 10
2110.6014
 20
1115.2263
 40
4
 50
295.00637
 51
5.2238350000000304
  0
LINE
  8
_0-0_1
  6
CONTINUOUS
 62
    5
 10
2112.1529
 20
1111.0569
 11
2108.2539999999999
 21
1093.0246
  0
ARC
  8
_0-0_1
  6
CONTINUOUS
 62
    5
 10
1892.0389
 20
1121.8103000000001
 40
69.214101999999997
 50
13.791351000000001
 51
163.33506000000003
  0
ARC
  8
_0-0_1
  6
CONTINUOUS
 62
    5
 10
1891.6437999999998
 20
1123.2936999999999
 40
50.327697999999998
 50
23.01118
 51
173.62688000000003
  0
ARC
  8
_0-0_1
  6
CONTINUOUS
 62
    5
 10
1753.5707000000002
 20
1322.3025000000002
 40
212.52318
 50
244.57801000000001
 51
294.47764000000006
  0
ARC
  8
_0-0_1
  6
CONTINUOUS
 62
    5
 10
1753.5707000000002
 20
1322.3025000000002
 40
214.52317999999997
 50
244.57801000000001
 51
294.78532999999999
  0
ARC
  8
_0-0_1
  6
CONTINUOUS
 62
    5
 10
1891.6437999999998
 20
1123.2936999999999
 40
48.327697999999998
 50
88.109851000000006
 51
174.95909000000003
  0
LINE
  8
_0-0_1
  6
CONTINUOUS
 62
    5
 10
1893.2377999999999
 20
1171.5951
 11
1893.2377999999999
 21
1159.4661000000001
  0
LINE
  8
_0-0_1
  6
CONTINUOUS
 62
    5
 10
1959.2575999999999
 20
1138.3099999999999
 11
1937.9668999999999
 21
1142.9674
  0
LINE
  8
_0-0_1
  6
CONTINUOUS
 62
    5
 10
1721.2258000000002
 20
1080.9878000000001
 11
1714.6588000000002
 21
1093.1367
  0
LINE
  8
_0-0_1
  6
CONTINUOUS
 62
    5
 10
1733.3519000000001
 20
1080.6585
 11
1738.7820999999999
 21
1089.5182
  0
ARC
  8
_0-0_1
  6
CONTINUOUS
 62
    5
 10
1727.3836999999999
 20
1084.3163999999999
 40
7
 50
208.39301
 51
328.49572999999998
  0
LINE
  8
_0-0_1
  6
CONTINUOUS
 62
    5
 10
1812.7424999999998
 20
1084.7258999999999
 11
1818.6904
 21
1099.7706000000001
  0
ARC
  8
_0-0_1
  6
CONTINUOUS
 62
    5
 10
1806.2328000000002
 20
1087.2995000000001
 40
7
 50
210.96375
 51
338.42869000000002
  0
LINE
  8
_0-0_1
  6
CONTINUOUS
 62
    5
 10
1840.3836999999999
 20
1091.6673000000001
 11
1833.4659999999999
 21
1103.3891000000001
  0
ARC
  8
_0-0_1
  6
CONTINUOUS
 62
    5
 10
1843.8285000000001
 20
1093.7003
 40
4
 50
210.54757000000001
 51
342.13990000000001
  0
ARC
  8
_0-0_1
  6
CONTINUOUS
 62
    5
 10
1753.5707000000002
 20
1322.3025000000002
 40
194.52317999999997
 50
244.57801000000001
 51
291.77512000000002
  0
ARC
  8
_0-0_1
  6
CONTINUOUS
 62
    5
 10
1702.6268
 20
1192.0295000000001
 40
73.645919000000006
 50
225.20483999999999
 51
236.85617999999999
  0
ARC
  8
_0-0_1
  6
CONTINUOUS
 62
    5
 10
1691.5342999999998
 20
1184.1242999999999
 40
81.008393999999996
 50
226.46691000000004
 51
242.05489
  0
ARC
  8
_0-0_1
  6
CONTINUOUS
 62
    5
 10
1745.0567999999998
 20
1258.7291
 40
154.70135999999999
 50
229.79871999999997
 51
237.31520999999998
  0
LINE
  8
_0-0_1
  6
CONTINUOUS
 62
    5
 10
1635.7379000000001
 20
1143.2242000000001
 11
1635.7379000000001
 21
1125.3951
  0
ARC
  8
_0-0_1
  6
CONTINUOUS
 62
    5
 10
1639.7379000000001
 20
1143.2242000000001
 40
4
 50
90
 51
180
  0
LINE
  8
_0-0_1
  6
CONTINUOUS
 62
    5
 10
1641.201
 20
1147.2242000000001
 11
1639.7379000000001
 21
1147.2242000000001
  0
LINE
  8
_0-0_1
  6
CONTINUOUS
 62
    5
 10
1645.201
 20
1143.2242000000001
 11
1645.201
 21
1140.5709999999999
  0
ARC
  8
_0-0_1
  6
CONTINUOUS
 62
    5
 10
1641.201
 20
1143.2242000000001
 40
4
 50
0
 51
90
  0
LINE
  8
_0-0_1
  6
CONTINUOUS
 62
    5
 10
1650.7379000000001
 20
1142.6148000000001
 11
1650.7379000000001
 21
1139.7681
  0
LINE
  8
_0-0_1
  6
CONTINUOUS
 62
    5
 10
1654.7379000000001
 20
1146.6148000000001
 11
1670.0654
 21
1146.6148000000001
  0
ARC
  8
_0-0_1
  6
CONTINUOUS
 62
    5
 10
1654.7379000000001
 20
1142.6148000000001
 40
4
 50
90
 51
180
  0
ARC
  8
_0-0_1
  6
CONTINUOUS
 62
    5
 10
1753.5707000000002
 20
1322.3025000000002
 40
232.52318
 50
244.57801000000001
 51
295.00637
  0
ARC
  8
_0-0_1
  6
CONTINUOUS
 62
    5
 10
1894.2368999999999
 20
1119.2295999999999
 40
40.248902000000001
 50
91.422393999999997
 51
185.22383000000002
  0
ARC
  8
_0-0_1
  6
CONTINUOUS
 62
    5
 10
1850.1718000000001
 20
1115.2009
 40
4
 50
295.00637
 51
5.2238350000000304
  0
LINE
  8
_0-0_1
  6
CONTINUOUS
 62
    5
 10
1851.7233999999999
 20
1111.0314000000001
 11
1847.8245000000002
 21
1092.9991
  0
ARC
  8
_0-0_1
  6
CONTINUOUS
 62
    5
 10
1631.2130999999999
 20
1121.8103000000001
 40
69.214101999999997
 50
13.791351000000001
 51
163.33506000000003
  0
ARC
  8
_0-0_1
  6
CONTINUOUS
 62
    5
 10
1630.8180000000002
 20
1123.2936999999999
 40
50.327697999999998
 50
23.01118
 51
173.62688000000003
  0
ARC
  8
_0-0_1
  6
CONTINUOUS
 62
    5
 10
1492.7447999999999
 20
1322.3025000000002
 40
212.52318
 50
244.57801000000001
 51
294.47764000000006
  0
ARC
  8
_0-0_1
  6
CONTINUOUS
 62
    5
 10
1492.7447999999999
 20
1322.3025000000002
 40
214.52317999999997
 50
244.57801000000001
 51
294.78532999999999
  0
ARC
  8
_0-0_1
  6
CONTINUOUS
 62
    5
 10
1630.8180000000002
 20
1123.2936999999999
 40
48.327697999999998
 50
88.109851000000006
 51
174.95909000000003
  0
LINE
  8
_0-0_1
  6
CONTINUOUS
 62
    5
 10
1632.4119999999998
 20
1171.5951
 11
1632.4119999999998
 21
1159.4661000000001
  0
LINE
  8
_0-0_1
  6
CONTINUOUS
 62
    5
 10
1698.4317000000001
 20
1138.3099999999999
 11
1677.1410000000001
 21
1142.9674
  0
LINE
  8
_0-0_1
  6
CONTINUOUS
 62
    5
 10
1460.3998999999999
 20
1080.9878000000001
 11
1453.8330000000001
 21
1093.1367
  0
LINE
  8
_0-0_1
  6
CONTINUOUS
 62
    5
 10
1472.5261
 20
1080.6585
 11
1477.9562000000001
 21
1089.5182
  0
ARC
  8
_0-0_1
  6
CONTINUOUS
 62
    5
 10
1466.5578999999998
 20
1084.3163999999999
 40
7
 50
208.39301
 51
328.49572999999998
  0
LINE
  8
_0-0_1
  6
CONTINUOUS
 62
    5
 10
1551.9167000000002
 20
1084.7258999999999
 11
1557.8645999999999
 21
1099.7706000000001
  0
ARC
  8
_0-0_1
  6
CONTINUOUS
 62
    5
 10
1545.4070000000002
 20
1087.2995000000001
 40
7
 50
210.96375
 51
338.42869000000002
  0
LINE
  8
_0-0_1
  6
CONTINUOUS
 62
    5
 10
1579.5578999999998
 20
1091.6673000000001
 11
1572.6401000000001
 21
1103.3891000000001
  0
ARC
  8
_0-0_1
  6
CONTINUOUS
 62
    5
 10
1583.0027
 20
1093.7003
 40
4
 50
210.54757000000001
 51
342.13990000000001
  0
ARC
  8
_0-0_1
  6
CONTINUOUS
 62
    5
 10
1492.7447999999999
 20
1322.3025000000002
 40
194.52317999999997
 50
244.57801000000001
 51
291.77512000000002
  0
ARC
  8
_0-0_1
  6
CONTINUOUS
 62
    5
 10
1441.8009999999999
 20
1192.0295000000001
 40
73.645919000000006
 50
225.20483999999999
 51
236.85617999999999
  0
ARC
  8
_0-0_1
  6
CONTINUOUS
 62
    5
 10
1430.7084
 20
1184.1242999999999
 40
81.008393999999996
 50
226.46691000000004
 51
242.05489
  0
ARC
  8
_0-0_1
  6
CONTINUOUS
 62
    5
 10
1484.2309
 20
1258.7291
 40
154.70135999999999
 50
229.79871999999997
 51
237.31520999999998
  0
LINE
  8
_0-0_1
  6
CONTINUOUS
 62
    5
 10
1374.9119999999998
 20
1143.2242000000001
 11
1374.9119999999998
 21
1125.3951
  0
ARC
  8
_0-0_1
  6
CONTINUOUS
 62
    5
 10
1378.912
 20
1143.2242000000001
 40
4
 50
90
 51
180
  0
LINE
  8
_0-0_1
  6
CONTINUOUS
 62
    5
 10
1380.3751
 20
1147.2242000000001
 11
1378.912
 21
1147.2242000000001
  0
LINE
  8
_0-0_1
  6
CONTINUOUS
 62
    5
 10
1384.3751
 20
1143.2242000000001
 11
1384.3751
 21
1140.5709999999999
  0
ARC
  8
_0-0_1
  6
CONTINUOUS
 62
    5
 10
1380.3751
 20
1143.2242000000001
 40
4
 50
0
 51
90
  0
LINE
  8
_0-0_1
  6
CONTINUOUS
 62
    5
 10
1389.9119999999998
 20
1142.6148000000001
 11
1389.9119999999998
 21
1139.7681
  0
LINE
  8
_0-0_1
  6
CONTINUOUS
 62
    5
 10
1393.912
 20
1146.6148000000001
 11
1409.2396000000003
 21
1146.6148000000001
  0
ARC
  8
_0-0_1
  6
CONTINUOUS
 62
    5
 10
1393.912
 20
1142.6148000000001
 40
4
 50
90
 51
180
  0
ARC
  8
_0-0_1
  6
CONTINUOUS
 62
    5
 10
1492.7447999999999
 20
1322.3025000000002
 40
232.52318
 50
244.57801000000001
 51
295.00637
  0
ARC
  8
_0-0_1
  6
CONTINUOUS
 62
    5
 10
1633.4110999999998
 20
1119.2295999999999
 40
40.248902000000001
 50
91.422393999999997
 51
185.22383000000002
  0
ARC
  8
_0-0_1
  6
CONTINUOUS
 62
    5
 10
1589.346
 20
1115.2009
 40
4
 50
295.00637
 51
5.2238350000000304
  0
LINE
  8
_0-0_1
  6
CONTINUOUS
 62
    5
 10
1590.8975
 20
1111.0314000000001
 11
1586.9985999999999
 21
1092.9991
  0
ARC
  8
_0-0_1
  6
CONTINUOUS
 62
    5
 10
1372.4793999999999
 20
1121.0826999999999
 40
69.214101999999997
 50
13.791351000000001
 51
163.33506000000003
  0
ARC
  8
_0-0_1
  6
CONTINUOUS
 62
    5
 10
1372.0843
 20
1122.5661
 40
50.327697999999998
 50
23.01118
 51
173.62688000000003
  0
ARC
  8
_0-0_1
  6
CONTINUOUS
 62
    5
 10
1234.0111999999999
 20
1321.5748000000003
 40
212.52318
 50
244.57801000000001
 51
294.47764000000006
  0
ARC
  8
_0-0_1
  6
CONTINUOUS
 62
    5
 10
1234.0111999999999
 20
1321.5748000000003
 40
214.52317999999997
 50
244.57801000000001
 51
294.78532999999999
  0
ARC
  8
_0-0_1
  6
CONTINUOUS
 62
    5
 10
1372.0843
 20
1122.5661
 40
48.327697999999998
 50
88.109851000000006
 51
174.95909000000003
  0
LINE
  8
_0-0_1
  6
CONTINUOUS
 62
    5
 10
1373.6783
 20
1170.8675000000001
 11
1373.6783
 21
1158.7384999999999
  0
LINE
  8
_0-0_1
  6
CONTINUOUS
 62
    5
 10
1439.6981000000001
 20
1137.5824
 11
1418.4074000000001
 21
1142.2397000000001
  0
LINE
  8
_0-0_1
  6
CONTINUOUS
 62
    5
 10
1201.6663000000001
 20
1080.2601999999999
 11
1195.0993000000001
 21
1092.4091000000001
  0
LINE
  8
_0-0_1
  6
CONTINUOUS
 62
    5
 10
1213.7924
 20
1079.9308000000001
 11
1219.2226000000001
 21
1088.7906
  0
ARC
  8
_0-0_1
  6
CONTINUOUS
 62
    5
 10
1207.8242
 20
1083.5888
 40
7
 50
208.39301
 51
328.49572999999998
  0
LINE
  8
_0-0_1
  6
CONTINUOUS
 62
    5
 10
1280.6708000000001
 20
1082.9703999999999
 11
1275.0077000000001
 21
1092.4091000000001
  0
LINE
  8
_0-0_1
  6
CONTINUOUS
 62
    5
 10
1293.183
 20
1083.9983
 11
1299.1309000000001
 21
1099.0429999999999
  0
ARC
  8
_0-0_1
  6
CONTINUOUS
 62
    5
 10
1286.6732999999999
 20
1086.5718999999999
 40
7
 50
210.96375
 51
338.42869000000002
  0
LINE
  8
_0-0_1
  6
CONTINUOUS
 62
    5
 10
1320.8242
 20
1090.9396999999999
 11
1313.9064000000003
 21
1102.6614
  0
ARC
  8
_0-0_1
  6
CONTINUOUS
 62
    5
 10
1324.2689999999998
 20
1092.9727
 40
4
 50
210.54757000000001
 51
342.13990000000001
  0
ARC
  8
_0-0_1
  6
CONTINUOUS
 62
    5
 10
1234.0111999999999
 20
1321.5748000000003
 40
194.52317999999997
 50
244.57801000000001
 51
291.77512000000002
  0
ARC
  8
_0-0_1
  6
CONTINUOUS
 62
    5
 10
1183.0672999999999
 20
1191.3018999999999
 40
73.645919000000006
 50
225.20483999999999
 51
236.85617999999999
  0
ARC
  8
_0-0_1
  6
CONTINUOUS
 62
    5
 10
1171.9747
 20
1183.3967
 40
81.008393999999996
 50
226.46691000000004
 51
242.05489
  0
ARC
  8
_0-0_1
  6
CONTINUOUS
 62
    5
 10
1225.4973
 20
1258.0014000000001
 40
154.70135999999999
 50
229.79871999999997
 51
237.31520999999998
  0
LINE
  8
_0-0_1
  6
CONTINUOUS
 62
    5
 10
1116.1783
 20
1142.4965999999999
 11
1116.1783
 21
1124.6675
  0
ARC
  8
_0-0_1
  6
CONTINUOUS
 62
    5
 10
1120.1783
 20
1142.4965999999999
 40
4
 50
90
 51
180
  0
LINE
  8
_0-0_1
  6
CONTINUOUS
 62
    5
 10
1121.6414
 20
1146.4965999999999
 11
1120.1783
 21
1146.4965999999999
  0
LINE
  8
_0-0_1
  6
CONTINUOUS
 62
    5
 10
1125.6414
 20
1142.4965999999999
 11
1125.6414
 21
1139.8434
  0
ARC
  8
_0-0_1
  6
CONTINUOUS
 62
    5
 10
1121.6414
 20
1142.4965999999999
 40
4
 50
0
 51
90
  0
LINE
  8
_0-0_1
  6
CONTINUOUS
 62
    5
 10
1131.1783
 20
1141.8871999999999
 11
1131.1783
 21
1139.0405000000001
  0
LINE
  8
_0-0_1
  6
CONTINUOUS
 62
    5
 10
1135.1783
 20
1145.8871999999999
 11
1150.5059000000001
 21
1145.8871999999999
  0
ARC
  8
_0-0_1
  6
CONTINUOUS
 62
    5
 10
1135.1783
 20
1141.8871999999999
 40
4
 50
90
 51
180
  0
ARC
  8
_0-0_1
  6
CONTINUOUS
 62
    5
 10
1234.0111999999999
 20
1321.5748000000003
 40
232.52318
 50
244.57801000000001
 51
295.00637
  0
ARC
  8
_0-0_1
  6
CONTINUOUS
 62
    5
 10
1374.6774
 20
1118.502
 40
40.248902000000001
 50
91.422393999999997
 51
185.22383000000002
  0
ARC
  8
_0-0_1
  6
CONTINUOUS
 62
    5
 10
1330.6123
 20
1114.4731999999999
 40
4
 50
295.00637
 51
5.2238350000000304
  0
LINE
  8
_0-0_1
  6
CONTINUOUS
 62
    5
 10
1332.1638000000003
 20
1110.3037999999999
 11
1328.2650000000001
 21
1092.2715000000001
  0
ARC
  8
_0-0_1
  6
CONTINUOUS
 62
    5
 10
1111.8368
 20
1120.981
 40
69.214101999999997
 50
13.791351000000001
 51
163.33506000000003
  0
ARC
  8
_0-0_1
  6
CONTINUOUS
 62
    5
 10
1111.4417000000001
 20
1122.4644000000001
 40
50.327697999999998
 50
23.01118
 51
173.62688000000003
  0
ARC
  8
_0-0_1
  6
CONTINUOUS
 62
    5
 10
1111.4417000000001
 20
1122.4644000000001
 40
48.327697999999998
 50
88.109851000000006
 51
174.95909000000003
  0
LINE
  8
_0-0_1
  6
CONTINUOUS
 62
    5
 10
1113.0358000000001
 20
1170.7657999999999
 11
1113.0358000000001
 21
1158.6368
  0
LINE
  8
_0-0_1
  6
CONTINUOUS
 62
    5
 10
1179.0554999999999
 20
1137.4807000000001
 11
1157.7647999999999
 21
1142.1380999999999
  0
LINE
  8
_0-0_1
  6
CONTINUOUS
 62
    5
 10
1045.5083
 20
1141.4768999999999
 11
1036.3882000000001
 21
1070.3402000000001
  0
LINE
  8
_0-0_1
  6
CONTINUOUS
 62
    5
 10
1036.3882000000001
 20
1070.3402000000001
 11
1053.5273
 21
1070.3402000000001
  0
LINE
  8
_0-0_1
  6
CONTINUOUS
 62
    5
 10
1060.8699999999999
 20
1127.6133
 11
1053.5273
 21
1070.3402000000001
  0
LINE
  8
_0-0_1
  6
CONTINUOUS
 62
    5
 10
1063.1668
 20
1125.8779999999999
 11
1056.0465999999999
 21
1070.3402000000001
  0
LINE
  8
_0-0_1
  6
CONTINUOUS
 62
    5
 10
1056.0465999999999
 20
1070.3402000000001
 11
1073.1857
 21
1070.3402000000001
  0
LINE
  8
_0-0_1
  6
CONTINUOUS
 62
    5
 10
1082.1809000000001
 20
1140.5023000000001
 11
1073.1857
 21
1070.3402000000001
  0
ARC
  8
_0-0_1
  6
CONTINUOUS
 62
    5
 10
1116.4003
 20
1117.1782000000001
 40
41.412356000000003
 50
94.526103000000006
 51
145.72146000000001
  0
LINE
  8
_0-0_1
  6
CONTINUOUS
 62
    3
 10
1372.9159
 20
1088.6313
 11
1373.5627999999999
 21
1088.6313
  0
LINE
  8
_0-0_1
  6
CONTINUOUS
 62
    3
 10
1632.9159
 20
1088.6313
 11
1633.5628000000002
 21
1088.6313
  0
LINE
  8
_0-0_1
  6
CONTINUOUS
 62
    3
 10
1892.9158000000002
 20
1088.6313
 11
1893.5628000000002
 21
1088.6313
  0
LINE
  8
_0-0_1
  6
CONTINUOUS
 62
    3
 10
2152.9158000000002
 20
1088.6313
 11
2153.5628000000002
 21
1088.6313
  0
LINE
  8
_0-0_1
  6
CONTINUOUS
 62
    3
 10
1163.5482999999999
 20
1085.3688
 11
1163.5482999999999
 21
1073.3688
  0
LINE
  8
_0-0_1
  6
CONTINUOUS
 62
    3
 10
1163.5482999999999
 20
1073.3688
 11
1121.2729999999999
 21
1073.3688
  0
LINE
  8
_0-0_1
  6
CONTINUOUS
 62
    3
 10
1163.5482999999999
 20
1085.3688
 11
1156.3905999999999
 21
1085.3688
  0
LINE
  8
_0-2_3
  6
DASHED3
 62
    3
 10
1084.9158
 20
1072.1313
 11
2193.5043000000001
 21
1072.1313
  0
LINE
  8
_0-1_2
  6
CONTINUOUS
 62
    3
 10
1197.6167
 20
965.13120000000004
 11
1199.9161999999999
 21
965.13110000000006
  0
LINE
  8
_0-1_2
  6
CONTINUOUS
 62
    3
 10
1197.6159
 20
1025.1313
 11
1199.9164000000001
 21
1025.1310000000001
  0
LINE
  8
_0-1_2
  6
CONTINUOUS
 62
    3
 10
1197.6166000000001
 20
1040.1320000000001
 11
1197.6159
 21
1025.1313
  0
LINE
  8
_0-1_2
  6
CONTINUOUS
 62
    3
 10
1154.9172000000001
 20
1042.8329000000001
 11
1194.9161999999999
 21
1042.8320000000001
  0
LINE
  8
_0-1_2
  6
CONTINUOUS
 62
    3
 10
1194.9170999999999
 20
1045.1312
 11
1154.9161999999999
 21
1045.1319000000001
  0
LINE
  8
_0-1_2
  6
CONTINUOUS
 62
    3
 10
1199.9167
 20
1040.1316999999999
 11
1199.9164000000001
 21
1025.1310000000001
  0
LINE
  8
_0-1_2
  6
CONTINUOUS
 62
    3
 10
1149.9145000000001
 20
950.13110000000006
 11
1149.9166
 21
1040.1320000000001
  0
LINE
  8
_0-1_2
  6
CONTINUOUS
 62
    3
 10
1194.9161999999999
 20
945.13059999999996
 11
1154.9141
 21
945.13149999999996
  0
LINE
  8
_0-1_2
  6
CONTINUOUS
 62
    3
 10
1199.9158
 20
950.13030000000003
 11
1199.9161999999999
 21
965.13110000000006
  0
LINE
  8
_0-1_2
  6
CONTINUOUS
 62
    3
 10
1197.6165000000001
 20
950.13040000000001
 11
1197.6167
 21
965.13120000000004
  0
LINE
  8
_0-1_2
  6
CONTINUOUS
 62
    3
 10
1154.9154000000001
 20
947.43059999999991
 11
1194.9163000000001
 21
947.43000000000006
  0
LINE
  8
_0-1_2
  6
CONTINUOUS
 62
    3
 10
1152.2149999999999
 20
950.13069999999993
 11
1152.2174
 21
1040.1324999999999
  0
LINE
  8
_0-0_1
  6
CONTINUOUS
 62
    3
 10
1224.9176
 20
986.13159999999993
 11
1217.1232
 21
990.63139999999999
  0
LINE
  8
_0-0_1
  6
CONTINUOUS
 62
    3
 10
1217.1232
 20
990.63139999999999
 11
1217.1228000000001
 21
999.63130000000001
  0
LINE
  8
_0-0_1
  6
CONTINUOUS
 62
    3
 10
1217.1228000000001
 20
999.63130000000001
 11
1224.9167
 21
1004.1315999999999
  0
LINE
  8
_0-0_1
  6
CONTINUOUS
 62
    3
 10
1224.9167
 20
1004.1315999999999
 11
1232.7111
 21
999.63180000000011
  0
LINE
  8
_0-0_1
  6
CONTINUOUS
 62
    3
 10
1232.7111
 20
999.63180000000011
 11
1232.7114999999999
 21
990.63190000000009
  0
LINE
  8
_0-0_1
  6
CONTINUOUS
 62
    3
 10
1232.7114999999999
 20
990.63190000000009
 11
1224.9176
 21
986.13159999999993
  0
LINE
  8
_0-0_1
  6
CONTINUOUS
 62
    3
 10
1229.9167
 20
985.13149999999996
 11
1229.9172000000001
 21
989.01819999999998
  0
LINE
  8
_0-0_1
  6
CONTINUOUS
 62
    3
 10
1219.9173000000001
 20
985.13130000000001
 11
1219.9169999999999
 21
989.01839999999993
  0
LINE
  8
_0-0_1
  6
CONTINUOUS
 62
    3
 10
1219.9176
 20
1005.1318000000001
 11
1219.9170999999999
 21
1001.2449999999999
  0
LINE
  8
_0-0_1
  6
CONTINUOUS
 62
    3
 10
1229.9169999999999
 20
1005.1320000000001
 11
1229.9173000000001
 21
1001.2447999999999
  0
LINE
  8
_0-0_1
  6
CONTINUOUS
 62
    3
 10
2193.5043000000001
 20
945.13139999999999
 11
1204.9167
 21
945.13139999999999
  0
LINE
  8
_0-0_1
  6
CONTINUOUS
 62
    3
 10
1199.9167
 20
1035.1315999999999
 11
1199.9167
 21
955.13159999999993
  0
LINE
  8
_0-0_1
  6
CONTINUOUS
 62
    3
 10
1204.9167
 20
947.43029999999999
 11
2193.5043000000001
 21
947.43029999999999
  0
LINE
  8
_0-0_1
  6
CONTINUOUS
 62
    3
 10
1204.9167
 20
1042.8317999999999
 11
2193.5043000000001
 21
1042.8317999999999
  0
LINE
  8
_0-0_1
  6
CONTINUOUS
 62
    3
 10
1249.9167
 20
1035.1315999999999
 11
1249.9167
 21
1025.1310000000001
  0
LINE
  8
_0-0_1
  6
CONTINUOUS
 62
    3
 10
1203.1167
 20
1035.1315999999999
 11
1203.1167
 21
955.13159999999993
  0
LINE
  8
_0-0_1
  6
CONTINUOUS
 62
    3
 10
1199.9167
 20
1035.1315999999999
 11
1204.9167
 21
1035.1315999999999
  0
LINE
  8
_0-0_1
  6
CONTINUOUS
 62
    3
 10
1204.9167
 20
1035.1315999999999
 11
1249.9167
 21
1035.1315999999999
  0
LINE
  8
_0-0_1
  6
CONTINUOUS
 62
    3
 10
1249.9167
 20
1025.1310000000001
 11
1249.9167
 21
965.13110000000006
  0
LINE
  8
_0-0_1
  6
CONTINUOUS
 62
    3
 10
1249.9167
 20
965.13110000000006
 11
1249.9167
 21
955.13159999999993
  0
LINE
  8
_0-0_1
  6
CONTINUOUS
 62
    3
 10
1199.9167
 20
955.13159999999993
 11
1204.9167
 21
955.13159999999993
  0
LINE
  8
_0-0_1
  6
CONTINUOUS
 62
    3
 10
1204.9167
 20
955.13159999999993
 11
1249.9167
 21
955.13159999999993
  0
LINE
  8
_0-0_1
  6
CONTINUOUS
 62
    3
 10
1204.9167
 20
1045.1313
 11
1204.9167
 21
1025.1310000000001
  0
LINE
  8
_0-0_1
  6
CONTINUOUS
 62
    3
 10
1204.9167
 20
1025.1310000000001
 11
1204.9167
 21
955.13159999999993
  0
LINE
  8
_0-0_1
  6
CONTINUOUS
 62
    3
 10
1204.9167
 20
955.13159999999993
 11
1204.9167
 21
945.13139999999999
  0
LINE
  8
_0-0_1
  6
CONTINUOUS
 62
    3
 10
1204.9167
 20
1025.1310000000001
 11
2193.5043000000001
 21
1025.1310000000001
  0
LINE
  8
_0-0_1
  6
CONTINUOUS
 62
    3
 10
1204.9167
 20
965.13110000000006
 11
2193.5043000000001
 21
965.13110000000006
  0
LINE
  8
_0-3_4
  6
CONTINUOUS
 62
    3
 10
1149.9158
 20
1045.1313
 11
1149.9158
 21
878.41370000000006
  0
LINE
  8
_0-3_4
  6
CONTINUOUS
 62
    3
 10
1099.9159
 20
1045.1313
 11
1099.9159
 21
878.41370000000006
  0
LINE
  8
_0-3_4
  6
CONTINUOUS
 62
    3
 10
1149.9148
 20
962.99189999999999
 11
1099.9159
 21
1012.9909
  0
LINE
  8
_0-3_4
  6
CONTINUOUS
 62
    3
 10
1149.9146000000001
 20
958.74929999999995
 11
1099.9159
 21
1008.7481
  0
LINE
  8
_0-1_2
  6
CONTINUOUS
 62
    3
 10
1099.9155000000001
 20
1000.1322
 11
1099.9161999999999
 21
990.13110000000006
  0
LINE
  8
_0-1_2
  6
CONTINUOUS
 62
    3
 10
1102.9157
 20
1000.1313
 11
1102.9160999999999
 21
990.13239999999996
  0
LINE
  8
_0-1_2
  6
CONTINUOUS
 62
    3
 10
1099.9161999999999
 20
990.13110000000006
 11
1102.9160999999999
 21
990.13239999999996
  0
LINE
  8
_0-1_2
  6
CONTINUOUS
 62
    3
 10
1099.9155000000001
 20
1000.1322
 11
1102.9157
 21
1000.1313
  0
LINE
  8
_0-1_2
  6
CONTINUOUS
 62
    3
 10
1099.9159
 20
995.13159999999993
 11
1102.9163000000001
 21
995.13159999999993
  0
LINE
  8
_0-1_2
  6
CONTINUOUS
 62
    3
 10
1164.9158
 20
995.13779999999997
 11
1159.3155999999999
 21
993.13709999999992
  0
LINE
  8
_0-1_2
  6
CONTINUOUS
 62
    3
 10
1164.9158
 20
995.13779999999997
 11
1159.3158000000001
 21
997.13709999999992
  0
LINE
  8
_0-1_2
  6
CONTINUOUS
 62
    3
 10
1119.018
 20
991.89580000000001
 11
1117.9602
 21
998.54259999999999
  0
LINE
  8
_0-1_2
  6
CONTINUOUS
 62
    3
 10
1129.0184999999999
 20
991.89769999999999
 11
1127.9608000000001
 21
998.54459999999995
  0
LINE
  8
_0-1_2
  6
CONTINUOUS
 62
    3
 10
1139.0174999999999
 20
991.89830000000006
 11
1137.9598000000001
 21
998.54500000000007
  0
LINE
  8
_0-1_2
  6
CONTINUOUS
 62
    3
 10
1149.0181
 20
991.90010000000007
 11
1147.9611
 21
998.5456999999999
  0
LINE
  8
_0-1_2
  6
CONTINUOUS
 62
    3
 10
1157.7601
 20
991.90030000000002
 11
1156.7025000000001
 21
998.54719999999998
  0
LINE
  8
_0-1_2
  6
CONTINUOUS
 62
    3
 10
1105.9137000000001
 20
997.13270000000011
 11
1159.3158000000001
 21
997.13709999999992
  0
LINE
  8
_0-1_2
  6
CONTINUOUS
 62
    3
 10
1102.9157
 20
1000.1313
 11
1105.9137000000001
 21
997.13270000000011
  0
LINE
  8
_0-1_2
  6
CONTINUOUS
 62
    3
 10
1105.9166
 20
993.13259999999991
 11
1159.3155999999999
 21
993.13709999999992
  0
LINE
  8
_0-1_2
  6
CONTINUOUS
 62
    3
 10
1102.9160999999999
 20
990.13239999999996
 11
1105.9166
 21
993.13259999999991
  0
LINE
  8
_0-1_2
  6
CONTINUOUS
 62
    3
 10
1179.9111
 20
1070.1316999999999
 11
1169.9100000000001
 21
1070.1310000000001
  0
LINE
  8
_0-1_2
  6
CONTINUOUS
 62
    3
 10
1179.9102
 20
1067.1315999999999
 11
1169.9112
 21
1067.1311000000001
  0
LINE
  8
_0-1_2
  6
CONTINUOUS
 62
    3
 10
1169.9100000000001
 20
1070.1310000000001
 11
1169.9112
 21
1067.1311000000001
  0
LINE
  8
_0-1_2
  6
CONTINUOUS
 62
    3
 10
1179.9111
 20
1070.1316999999999
 11
1179.9102
 21
1067.1315999999999
  0
LINE
  8
_0-1_2
  6
CONTINUOUS
 62
    3
 10
1174.9105
 20
1070.1313
 11
1174.9105
 21
1067.1310000000001
  0
LINE
  8
_0-1_2
  6
CONTINUOUS
 62
    3
 10
1174.9167
 20
1030.1315
 11
1172.9159
 21
1035.7317
  0
LINE
  8
_0-1_2
  6
CONTINUOUS
 62
    3
 10
1174.9167
 20
1030.1315
 11
1176.9159999999999
 21
1035.7315000000001
  0
LINE
  8
_0-1_2
  6
CONTINUOUS
 62
    3
 10
1171.6765
 20
1066.0286000000001
 11
1178.3235
 21
1067.0863999999999
  0
LINE
  8
_0-1_2
  6
CONTINUOUS
 62
    3
 10
1171.6771000000001
 20
1056.0297
 11
1178.3239000000001
 21
1057.0873999999999
  0
LINE
  8
_0-1_2
  6
CONTINUOUS
 62
    3
 10
1171.6790000000001
 20
1046.0291
 11
1178.3244999999999
 21
1047.0862
  0
LINE
  8
_0-1_2
  6
CONTINUOUS
 62
    3
 10
1171.6791000000001
 20
1037.2871
 11
1178.326
 21
1038.3448000000001
  0
LINE
  8
_0-1_2
  6
CONTINUOUS
 62
    3
 10
1176.9115999999999
 20
1064.1334999999999
 11
1176.914
 21
1035.7315000000001
  0
LINE
  8
_0-1_2
  6
CONTINUOUS
 62
    3
 10
1179.9102
 20
1067.1315999999999
 11
1176.9115999999999
 21
1064.1334999999999
  0
LINE
  8
_0-1_2
  6
CONTINUOUS
 62
    3
 10
1172.9114999999999
 20
1064.1306999999999
 11
1172.9139
 21
1035.7317
  0
LINE
  8
_0-1_2
  6
CONTINUOUS
 62
    3
 10
1169.9112
 20
1067.1311000000001
 11
1172.9114999999999
 21
1064.1306999999999
  0
LINE
  8
_0-3_4
  6
CONTINUOUS
 62
    3
 10
2193.5043000000001
 20
1070.1313
 11
1084.9158
 21
1070.1313
  0
LINE
  8
_0-3_4
  6
CONTINUOUS
 62
    3
 10
1084.9158
 20
1070.1313
 11
1084.9158
 21
1045.1313
  0
LINE
  8
_0-3_4
  6
CONTINUOUS
 62
    3
 10
2193.5043000000001
 20
1045.1313
 11
1084.9158
 21
1045.1313
  0
ARC
  8
_0-1_2
  6
CONTINUOUS
 62
    3
 10
1194.9163000000001
 20
1040.1318000000001
 40
2.7000000000000002
 50
0.01099
 51
90.003097999999994
  0
ARC
  8
_0-1_2
  6
CONTINUOUS
 62
    3
 10
1154.9175
 20
1040.1328000000001
 40
2.7000000000000002
 50
90.003098000000008
 51
179.98340999999999
  0
ARC
  8
_0-1_2
  6
CONTINUOUS
 62
    3
 10
1154.9152999999999
 20
1040.1327000000001
 40
4.9989999999999997
 50
89.991318000000007
 51
180.00197
  0
ARC
  8
_0-1_2
  6
CONTINUOUS
 62
    3
 10
1194.9177
 20
1040.1324999999999
 40
4.9989999999999997
 50
359.99557999999996
 51
90.012588999999963
  0
ARC
  8
_0-1_2
  6
CONTINUOUS
 62
    3
 10
1154.9137000000001
 20
950.13030000000003
 40
4.9989999999999997
 50
179.98068000000001
 51
270.00623000000007
  0
ARC
  8
_0-1_2
  6
CONTINUOUS
 62
    3
 10
1194.9168999999999
 20
950.12979999999993
 40
4.9989999999999997
 50
269.98493999999999
 51
0.0168699999999887
  0
ARC
  8
_0-1_2
  6
CONTINUOUS
 62
    3
 10
1194.9159999999999
 20
950.13030000000003
 40
2.7000000000000002
 50
269.99128999999999
 51
0.0109900000000208
  0
ARC
  8
_0-1_2
  6
CONTINUOUS
 62
    3
 10
1154.9149
 20
950.13079999999991
 40
2.7000000000000002
 50
179.98340999999999
 51
269.99128999999999
  0
ARC
  8
_0-0_1
  6
CONTINUOUS
 62
    3
 10
1224.9169999999999
 20
985.13130000000001
 40
5
 50
179.99697000000003
 51
0.0118600000000697
  0
ARC
  8
_0-0_1
  6
CONTINUOUS
 62
    3
 10
1224.9173000000001
 20
1005.1319000000001
 40
5
 50
0.0118599999999999
 51
179.99697
  0
LINE
  8
_0-0_1
  6
CONTINUOUS
 62
    3
 10
1167.7262000000001
 20
1088.6313
 11
2193.5043000000001
 21
1088.6313
  0
LINE
  8
_0-0_1
  6
CONTINUOUS
 62
    3
 10
1167.7262000000001
 20
1073.6313
 11
2193.5043000000001
 21
1073.6313
  0
LINE
  8
_0-0_1
  6
CONTINUOUS
 62
    3
 10
1167.7262000000001
 20
1088.6313
 11
1167.7262000000001
 21
1073.6313
  0
LINE
  8
_0-0_1
  6
CONTINUOUS
 62
    3
 10
1066.4762000000001
 20
1167.463
 11
1068.4173000000001
 21
1160.2185999999999
  0
LINE
  8
_0-0_1
  6
CONTINUOUS
 62
    3
 10
1068.4173000000001
 20
1160.2185999999999
 11
1063.114
 21
1165.5219
  0
LINE
  8
_0-0_1
  6
CONTINUOUS
 62
    3
 10
1068.4173000000001
 20
1160.2185999999999
 11
1013.5769
 21
1255.2049
  0
LINE
  8
_0-0_1
  6
CONTINUOUS
 62
    3
 10
1013.5769
 20
1255.2049
 11
965.57690000000002
 21
1255.2049
  0
LINE
  8
_0-0_1
  6
CONTINUOUS
 62
    3
 10
1677.7707999999998
 20
1168.8678
 11
1672.4675000000002
 21
1163.5645
  0
LINE
  8
_0-0_1
  6
CONTINUOUS
 62
    3
 10
1672.4675000000002
 20
1163.5645
 11
1674.4086000000002
 21
1170.8089
  0
LINE
  8
_0-0_1
  6
CONTINUOUS
 62
    3
 10
1672.4675000000002
 20
1163.5645
 11
1717.3708000000001
 21
1241.3394000000001
  0
LINE
  8
_0-0_1
  6
CONTINUOUS
 62
    3
 10
1717.3708000000001
 20
1241.3394000000001
 11
1757.8708000000001
 21
1241.3394000000001
  0
LINE
  8
_0-0_1
  6
CONTINUOUS
 62
    3
 10
1056.0172
 20
1099.9811
 11
1057.9583
 21
1092.7366999999999
  0
LINE
  8
_0-0_1
  6
CONTINUOUS
 62
    3
 10
1057.9583
 20
1092.7366999999999
 11
1052.655
 21
1098.04
  0
LINE
  8
_0-0_1
  6
CONTINUOUS
 62
    3
 10
1057.9583
 20
1092.7366999999999
 11
995.8777
 21
1200.2635
  0
LINE
  8
_0-0_1
  6
CONTINUOUS
 62
    3
 10
995.8777
 20
1200.2635
 11
815.8777
 21
1200.2635
  0
LINE
  8
_0-0_1
  6
CONTINUOUS
 62
    3
 10
1112.5705
 20
912.91550000000007
 11
1116.3205
 21
919.41069999999991
  0
LINE
  8
_0-0_1
  6
CONTINUOUS
 62
    3
 10
1116.3205
 20
919.41069999999991
 11
1116.3205
 21
911.91069999999991
  0
LINE
  8
_0-0_1
  6
CONTINUOUS
 62
    3
 10
1116.3205
 20
919.41069999999991
 11
1079.837
 21
783.25250000000005
  0
LINE
  8
_0-0_1
  6
CONTINUOUS
 62
    3
 10
1079.837
 20
783.25250000000005
 11
867.42229999999995
 21
783.25250000000005
  0
LINE
  8
_0-0_1
  6
CONTINUOUS
 62
    3
 10
1076.1791000000001
 20
1078.1211000000001
 11
1081.4824000000001
 21
1083.4244000000001
  0
LINE
  8
_0-0_1
  6
CONTINUOUS
 62
    3
 10
1081.4824000000001
 20
1083.4244000000001
 11
1079.5411999999999
 21
1076.1800000000001
  0
LINE
  8
_0-0_1
  6
CONTINUOUS
 62
    3
 10
1081.4824000000001
 20
1083.4244000000001
 11
1022.4956
 21
981.25639999999999
  0
LINE
  8
_0-0_1
  6
CONTINUOUS
 62
    3
 10
1022.4956
 20
981.25639999999999
 11
776.49559999999997
 21
981.25639999999999
  0
LINE
  8
_0-0_1
  6
CONTINUOUS
 62
    3
 10
1749.1237999999998
 20
790.6862000000001
 11
2082.0981000000002
 21
790.6862000000001
  0
LINE
  8
_0-0_1
  6
CONTINUOUS
 62
    3
 10
1582.9083000000001
 20
1074.6976
 11
1580.9670999999998
 21
1081.942
  0
LINE
  8
_0-0_1
  6
CONTINUOUS
 62
    3
 10
1580.9670999999998
 20
1081.942
 11
1586.2703999999999
 21
1076.6387
  0
LINE
  8
_0-0_1
  6
CONTINUOUS
 62
    3
 10
1580.9670999999998
 20
1081.942
 11
1765.9050999999999
 21
761.62010000000009
  0
LINE
  8
_0-0_1
  6
CONTINUOUS
 62
    3
 10
1765.9050999999999
 20
761.62010000000009
 11
2150.3474000000001
 21
761.62010000000009
  0
LINE
  8
_0-0_1
  6
CONTINUOUS
 62
    3
 10
1731.4721
 20
821.58200000000011
 11
1967.5972000000002
 21
821.58200000000011
  0
LINE
  8
_0-0_1
  6
CONTINUOUS
 62
    3
 10
1713.7955000000002
 20
851.5628999999999
 11
1906.1880999999998
 21
851.5628999999999
  0
TEXT
  8
_0-0_1
 62
    7
 10
1749.1237999999989
 20
793.18619999999987
 40
20
 41
1
 50
0
  1
　野地板：硬質木片セメントパネルｔ＝２５
  0
TEXT
  8
_0-0_1
 62
    7
 10
1765.905099999999
 20
764.12009999999987
 40
20
 41
1
 50
0
  1
　鋼製：Ｃ１００ｘ５０ｘ２０ｘ２．３＠６０６　
  0
TEXT
  8
_0-0_1
 62
    7
 10
1731.472099999999
 20
824.08199999999977
 40
20
 41
1
 50
0
  1
　下葺材：ルーフィング９４０　
  0
TEXT
  8
_0-0_1
 62
    7
 10
1713.7954999999999
 20
854.0628999999999
 40
20
 41
1
 50
0
  1
　瓦桟：１５ｘ３０以上　
  0
TEXT
  8
_0-0_1
 62
    7
 10
1715.1035755882592
 20
1250.1175985829666
 40
20
 41
1
 50
0
  1
桟　瓦
  0
TEXT
  8
_0-0_1
 62
    7
 10
1092.3483111141425
 20
1341.8038524196984
 40
20
 41
1
 50
0
  1
30
  0
TEXT
  8
_0-0_1
 62
    7
 10
1232.6446278681542
 20
1336.732901211722
 40
20
 41
1
 50
0
  1
260
  0
TEXT
  8
_0-0_1
 62
    7
 10
1492.9534565442718
 20
1336.732901211722
 40
20
 41
1
 50
0
  1
260
  0
TEXT
  8
_0-0_1
 62
    7
 10
1751.5719681510643
 20
1345.1844865583494
 40
20
 41
1
 50
0
  1
260
  0
TEXT
  8
_0-0_1
 62
    7
 10
2010.190479757857
 20
1338.4232182810476
 40
20
 41
1
 50
0
  1
260
  0
TEXT
  8
_0-0_1
 62
    7
 10
791.47187277421392
 20
1204.8881698043376
 40
20
 41
1
 50
0
  1
パッキンステンレスネジ
  0
TEXT
  8
_0-0_1
 62
    7
 10
968.95516505338537
 20
1265.7395843000536
 40
20
 41
1
 50
0
  1
左袖瓦
  0
TEXT
  8
_0-0_1
 62
    7
 10
776.49559999999906
 20
983.75639999999976
 40
20
 41
1
 50
0
  1
登り淀：40x72（防腐処理）
  0
TEXT
  8
_0-0_1
 62
    7
 10
852.32328726992989
 20
792.45080488893007
 40
20
 41
1
 50
0
  1
破風板：薄型ALCパネル　
  0
ENDSEC
  0
EOF
