  0
SECTION
  2
HEADER
  9
$ACADVER
  1
AC1009
  9
$INSBASE
 10
0
 20
0
 30
0
  9
$EXTMIN
 10
0
 20
0
  9
$EXTMAX
 10
2970
 20
2100
  9
$LIMMIN
 10
0
 20
0
  9
$LIMMAX
 10
2970
 20
2100
  9
$LTSCALE
 40
10
  0
ENDSEC
  0
SECTION
  2
TABLES
  0
TABLE
  2
LTYPE
 70
     9
  0
LTYPE
  2
CONTINUOUS
 70
    64
  3
実線
 72
    65
 73
     0
 40
0.0
  0
LTYPE
  2
DASHED1
 70
    64
  3
--  --  --  --  --  --  --  --  
 72
    65
 73
     2
 40
2.5
 49
1.25
 49
-1.25
  0
LTYPE
  2
DASHED2
 70
    64
  3
----    ----    ----    ----    
 72
    65
 73
     2
 40
5.0
 49
2.5
 49
-2.5
  0
LTYPE
  2
DASHED3
 70
    64
  3
------  ------  ------  ------  
 72
    65
 73
     2
 40
5.0
 49
3.75
 49
-1.25
  0
LTYPE
  2
CENTER1
 70
    64
  3
----- - ----- - ----- - ----- - 
 72
    65
 73
     4
 40
10.0
 49
6.25
 49
-1.25
 49
1.25
 49
-1.25
  0
LTYPE
  2
CENTER2
 70
    64
  3
----------  --  ----------  --  
 72
    65
 73
     4
 40
20.0
 49
12.5
 49
-2.5
 49
2.5
 49
-2.5
  0
LTYPE
  2
PHANTOM1
 70
    64
  3
--- - - --- - - --- - - --- - - 
 72
    65
 73
     6
 40
10.0
 49
3.25
 49
-1.25
 49
1.25
 49
-1.25
 49
1.25
 49
-1.25
  0
LTYPE
  2
PHANTOM2
 70
    64
  3
--------  -  -  --------  -  -  
 72
    65
 73
     6
 40
20.0
 49
10.0
 49
-2.5
 49
1.25
 49
-2.5
 49
1.25
 49
-2.5
  0
LTYPE
  2
DOT
 70
    64
  3
-   -   -   -   -   -   -   -   
 72
    65
 73
     2
 40
2.5
 49
0.625
 49
-1.875
  0
LTYPE
  2
DUMMY
 70
    64
  3
ダミー
 72
    65
 73
     0
 40
0.0
  0
LTYPE
  2
RAND1
 70
    64
  3
ランダム線1
 72
    65
 73
     4
 40
10.0
 49
1.0
 49
-2.0
 49
3.0
 49
-4.0
  0
LTYPE
  2
RAND2
 70
    64
  3
ランダム線2
 72
    65
 73
     4
 40
14.0
 49
2.0
 49
-3.0
 49
4.0
 49
-5.0
  0
LTYPE
  2
RAND3
 70
    64
  3
ランダム線3
 72
    65
 73
     4
 40
18.0
 49
3.0
 49
-4.0
 49
5.0
 49
-6.0
  0
LTYPE
  2
RAND4
 70
    64
  3
ランダム線4
 72
    65
 73
     4
 40
22.0
 49
4.0
 49
-5.0
 49
6.0
 49
-7.0
  0
LTYPE
  2
RAND5
 70
    64
  3
ランダム線5
 72
    65
 73
     4
 40
26.0
 49
5.0
 49
-6.0
 49
7.0
 49
-8.0
  0
LTYPE
  2
LONG1
 70
    64
  3
----------  --  ----------  --  
 72
    65
 73
     4
 40
40.0
 49
32.5
 49
-2.5
 49
2.5
 49
-2.5
  0
LTYPE
  2
LONG2
 70
    64
  3
--------  -  -  --------  -  -  
 72
    65
 73
     6
 40
40.0
 49
30.0
 49
-2.5
 49
1.25
 49
-2.5
 49
1.25
 49
-2.5
  0
LTYPE
  2
LONG3
 70
    64
  3
+++++++++++++++..+++++++++++++++
 72
    65
 73
     2
 40
40.0
 49
37.5
 49
-2.5
  0
LTYPE
  2
LONG4
 70
    64
  3
+++++++++++++++..+++++++++++++++
 72
    65
 73
     2
 40
80.0
 49
75.0
 49
-5.0
  0
LTYPE
  2
LONG5
 70
    64
  3
----------  --  ----------  --  
 72
    65
 73
     4
 40
60.0
 49
37.5
 49
-7.5
 49
7.5
 49
-7.5
  0
LTYPE
  2
dashed
 70
   64
  3
-------   -------------   ------
 72
   65
 73
    2
 40
7.5
 49
6
 49
-1.5
  0
LTYPE
  2
dashed_spaced
 70
   64
  3
----        --------        ----
 72
   65
 73
    2
 40
12
 49
6
 49
-6
  0
LTYPE
  2
long_dashed_dotted
 70
   64
  3
------------- --- --------------
 72
   65
 73
    4
 40
15.25
 49
12
 49
-1.5
 49
0.25
 49
-1.5
  0
LTYPE
  2
long_dashed_double-dotted
 70
   64
  3
----------- --- --- ------------
 72
   65
 73
    6
 40
17
 49
12
 49
-1.5
 49
0.25
 49
-1.5
 49
0.25
 49
-1.5
  0
LTYPE
  2
long_dashed_triplicate-dotted
 70
   64
  3
--------- --- --- --- ----------
 72
   65
 73
    8
 40
18.75
 49
12
 49
-1.5
 49
0.25
 49
-1.5
 49
0.25
 49
-1.5
 49
0.25
 49
-1.5
  0
LTYPE
  2
dotted
 70
   64
  3
   -       -       -       -    
 72
   65
 73
    2
 40
1.75
 49
0.25
 49
-1.5
  0
LTYPE
  2
chain
 70
   64
  3
-------------- -- --------------
 72
   65
 73
    4
 40
18.5
 49
12
 49
-1.5
 49
3.5
 49
-1.5
  0
LTYPE
  2
chain_double_dash
 70
   64
  3
------------ -- -- -------------
 72
   65
 73
    6
 40
23.5
 49
12
 49
-1.5
 49
3.5
 49
-1.5
 49
3.5
 49
-1.5
  0
LTYPE
  2
dashed_dotted
 70
   64
  3
-----------     -     ----------
 72
   65
 73
    4
 40
9.25
 49
6
 49
-1.5
 49
0.25
 49
-1.5
  0
LTYPE
  2
double-dashed_dotted
 70
   64
  3
------   -----------   -   -----
 72
   65
 73
    6
 40
16.75
 49
6
 49
-1.5
 49
6
 49
-1.5
 49
0.25
 49
-1.5
  0
LTYPE
  2
dashed_double-dotted
 70
   64
  3
---------    -    -    ---------
 72
   65
 73
    6
 40
11
 49
6
 49
-1.5
 49
0.25
 49
-1.5
 49
0.25
 49
-1.5
  0
LTYPE
  2
double-dashed_double-dotted
 70
   64
  3
-----   ---------   -   -   ----
 72
   65
 73
    8
 40
18.5
 49
6
 49
-1.5
 49
6
 49
-1.5
 49
0.25
 49
-1.5
 49
0.25
 49
-1.5
  0
LTYPE
  2
dashed_triplicate-dotted
 70
   64
  3
-------    -    -    -    ------
 72
   65
 73
    8
 40
12.75
 49
6
 49
-1.5
 49
0.25
 49
-1.5
 49
0.25
 49
-1.5
 49
0.25
 49
-1.5
  0
LTYPE
  2
double-dashed_triplicate-dotted
 70
   64
  3
-----  ---------  -  -  -  -----
 72
   65
 73
   10
 40
20.25
 49
6
 49
-1.5
 49
6
 49
-1.5
 49
0.25
 49
-1.5
 49
0.25
 49
-1.5
 49
0.25
 49
-1.5
  0
LTYPE
  2
undefined
 70
   64
  3
--------------------------------
 72
   65
 73
    0
 40
0
  0
ENDTAB
  0
TABLE
  2
STYLE
  5
3
100
AcDbSymbolTable
 70
     1
  0
STYLE
  5
10
100
AcDbSymbolTableRecord
100
AcDbTextStyleTableRecord
  2
STANDARD
 70
     0
 40
0.0
 41
1.0
 50
0.0
 71
     0
 42
0.2
  3
txt
  4
bigfont.shx
  0
STYLE
  5
26
100
AcDbSymbolTableRecord
100
AcDbTextStyleTableRecord
  2
TATEGAKI
 70
    68
 40
0.0
 41
1.0
 50
0.0
 71
     0
 42
1.0
  3
txt
  4
bigfont.shx
  0
ENDTAB
  0
TABLE
  2
LAYER
 70
    5
  0
LAYER
  2
_0-0_1
 70
   64
 62
    7
  6
CONTINUOUS
  0
LAYER
  2
_0-1_2
 70
   64
 62
    7
  6
CONTINUOUS
  0
LAYER
  2
_0-2_3
 70
   64
 62
    7
  6
CONTINUOUS
  0
LAYER
  2
_0-3_4
 70
   64
 62
    7
  6
CONTINUOUS
  0
LAYER
  2
ADD_LINE
 70
   64
 62
    7
  6
CONTINUOUS
  0
ENDTAB
  0
ENDSEC
  0
SECTION
  2
BLOCKS
  0
ENDSEC
  0
SECTION
  2
ENTITIES
  0
LINE
  8
_0-3_4
  6
CONTINUOUS
 62
    3
 10
1055.1087
 20
1016.0089
 11
1105.1088
 21
1066.0089
  0
LINE
  8
_0-3_4
  6
CONTINUOUS
 62
    3
 10
1050.8661
 20
1016.0089
 11
1100.8661
 21
1066.0089
  0
LINE
  8
_0-3_4
  6
CONTINUOUS
 62
    3
 10
842.97669999999994
 20
1016.0089
 11
892.97669999999994
 21
1066.0089
  0
LINE
  8
_0-3_4
  6
CONTINUOUS
 62
    3
 10
838.7340999999999
 20
1016.0089
 11
888.7340999999999
 21
1066.0089
  0
LINE
  8
_0-0_1
  6
CONTINUOUS
 62
    3
 10
1842.2565
 20
872.40049999999997
 11
1846.7891
 21
859.38779999999997
  0
LINE
  8
_0-0_1
  6
CONTINUOUS
 62
    3
 10
1839.9928
 20
866.74119999999994
 11
1842.2565
 21
872.40049999999997
  0
LINE
  8
_0-0_1
  6
CONTINUOUS
 62
    3
 10
1846.7891
 20
859.38779999999997
 11
1848.3152
 21
866.74119999999994
  0
LINE
  8
_0-0_1
  6
CONTINUOUS
 62
    3
 10
1807.6509000000001
 20
866.74119999999994
 11
1839.9928
 21
866.74119999999994
  0
LINE
  8
_0-0_1
  6
CONTINUOUS
 62
    3
 10
1848.3152
 20
866.74119999999994
 11
1877.4022
 21
866.74119999999994
  0
LINE
  8
_0-0_1
  6
CONTINUOUS
 62
    3
 10
1810.4919
 20
1064.7578000000001
 11
1815.7952
 21
1070.0610999999999
  0
LINE
  8
_0-0_1
  6
CONTINUOUS
 62
    3
 10
1815.7952
 20
1070.0610999999999
 11
1813.8541
 21
1062.8166000000001
  0
LINE
  8
_0-0_1
  6
CONTINUOUS
 62
    3
 10
1815.7952
 20
1070.0610999999999
 11
1681.8344000000002
 21
838.03420000000006
  0
LINE
  8
_0-0_1
  6
CONTINUOUS
 62
    3
 10
1681.8344000000002
 20
838.03420000000006
 11
1464.3344000000002
 21
838.03420000000006
  0
LINE
  8
_0-0_1
  6
CONTINUOUS
 62
    3
 10
1886.1087000000002
 20
1332.5845999999999
 11
1886.1087000000002
 21
1280.0845999999999
  0
CIRCLE
  8
_0-0_1
  6
CONTINUOUS
 62
    3
 10
1886.1087000000002
 20
1330.0845999999999
 40
1.6999999999999997
  0
LINE
  8
_0-0_1
  6
CONTINUOUS
 62
    3
 10
1886.1087000000002
 20
1330.0845999999999
 11
1856.1087000000002
 21
1330.0845999999999
  0
CIRCLE
  8
_0-0_1
  6
CONTINUOUS
 62
    3
 10
1856.1087000000002
 20
1330.0845999999999
 40
1.6999999999999997
  0
LINE
  8
_0-0_1
  6
CONTINUOUS
 62
    3
 10
1856.1087000000002
 20
1332.5845999999999
 11
1856.1087000000002
 21
1280.0845999999999
  0
CIRCLE
  8
_0-0_1
  6
CONTINUOUS
 62
    3
 10
1856.1087000000002
 20
1330.0845999999999
 40
1.6999999999999997
  0
LINE
  8
_0-0_1
  6
CONTINUOUS
 62
    3
 10
1856.1087000000002
 20
1330.0845999999999
 11
1596.1087000000002
 21
1330.0845999999999
  0
CIRCLE
  8
_0-0_1
  6
CONTINUOUS
 62
    3
 10
1596.1087000000002
 20
1330.0845999999999
 40
1.6999999999999997
  0
LINE
  8
_0-0_1
  6
CONTINUOUS
 62
    3
 10
1596.1087000000002
 20
1332.5845999999999
 11
1596.1087000000002
 21
1280.0845999999999
  0
CIRCLE
  8
_0-0_1
  6
CONTINUOUS
 62
    3
 10
1596.1087000000002
 20
1330.0845999999999
 40
1.6999999999999997
  0
LINE
  8
_0-0_1
  6
CONTINUOUS
 62
    3
 10
1596.1087000000002
 20
1330.0845999999999
 11
1336.1087
 21
1330.0845999999999
  0
CIRCLE
  8
_0-0_1
  6
CONTINUOUS
 62
    3
 10
1336.1087
 20
1330.0845999999999
 40
1.6999999999999997
  0
LINE
  8
_0-0_1
  6
CONTINUOUS
 62
    3
 10
1336.1087
 20
1332.5845999999999
 11
1336.1087
 21
1280.0845999999999
  0
CIRCLE
  8
_0-0_1
  6
CONTINUOUS
 62
    3
 10
1336.1087
 20
1330.0845999999999
 40
1.6999999999999997
  0
LINE
  8
_0-0_1
  6
CONTINUOUS
 62
    3
 10
1336.1087
 20
1330.0845999999999
 11
1076.1087
 21
1330.0845999999999
  0
CIRCLE
  8
_0-0_1
  6
CONTINUOUS
 62
    3
 10
1076.1087
 20
1330.0845999999999
 40
1.6999999999999997
  0
LINE
  8
_0-0_1
  6
CONTINUOUS
 62
    3
 10
1076.1087
 20
1332.5845999999999
 11
1076.1087
 21
1280.0845999999999
  0
CIRCLE
  8
_0-0_1
  6
CONTINUOUS
 62
    3
 10
1076.1087
 20
1330.0845999999999
 40
1.6999999999999997
  0
LINE
  8
_0-0_1
  6
CONTINUOUS
 62
    3
 10
1076.1087
 20
1330.0845999999999
 11
816.1087
 21
1330.0845999999999
  0
CIRCLE
  8
_0-0_1
  6
CONTINUOUS
 62
    3
 10
816.1087
 20
1330.0845999999999
 40
1.6999999999999997
  0
LINE
  8
_0-0_1
  6
CONTINUOUS
 62
    3
 10
816.1087
 20
1332.5845999999999
 11
816.1087
 21
1280.0845999999999
  0
LINE
  8
_0-0_1
  6
CONTINUOUS
 62
    3
 10
1864.3852000000002
 20
1122.4738
 11
1856.8472000000002
 21
1114.8306
  0
LINE
  8
_0-0_1
  6
CONTINUOUS
 62
    3
 10
1864.3852000000002
 20
1122.4738
 11
1847.5119
 21
1069.6664000000001
  0
LINE
  8
_0-0_1
  6
DASHED3
 62
    3
 10
1868.1804000000002
 20
1131.0658000000001
 11
1847.7284
 21
1067.0585000000001
  0
LINE
  8
_0-0_1
  6
DASHED3
 62
    3
 10
1868.1804000000002
 20
1131.0658000000001
 11
1878.2579999999998
 21
1131.0658000000001
  0
LINE
  8
_0-0_1
  6
CONTINUOUS
 62
    3
 10
1880.3793999999998
 20
1065.5585000000001
 11
1886.3845999999999
 21
1071.5636
  0
LINE
  8
_0-0_1
  6
CONTINUOUS
 62
    3
 10
1869.7728000000002
 20
1065.5585000000001
 11
1886.3845999999999
 21
1082.1702
  0
LINE
  8
_0-0_1
  6
CONTINUOUS
 62
    3
 10
1859.1662000000001
 20
1065.5585000000001
 11
1886.3845999999999
 21
1092.7768000000001
  0
LINE
  8
_0-0_1
  6
CONTINUOUS
 62
    3
 10
1848.9479000000001
 20
1065.9467999999999
 11
1886.3845999999999
 21
1103.3833999999999
  0
LINE
  8
_0-0_1
  6
CONTINUOUS
 62
    3
 10
1853.9283999999998
 20
1081.5338999999999
 11
1886.3845999999999
 21
1113.99
  0
LINE
  8
_0-0_1
  6
CONTINUOUS
 62
    3
 10
1858.9088999999999
 20
1097.1210000000001
 11
1886.3845999999999
 21
1124.5967000000001
  0
LINE
  8
_0-0_1
  6
CONTINUOUS
 62
    3
 10
1863.8892999999998
 20
1112.7080000000001
 11
1880.7283000000002
 21
1129.547
  0
LINE
  8
_0-0_1
  6
CONTINUOUS
 62
    3
 10
1868.8697999999999
 20
1128.2951
 11
1870.0862999999999
 21
1129.5116
  0
LINE
  8
_0-0_1
  6
CONTINUOUS
 62
    3
 10
1803.8238000000001
 20
1081.5089
 11
1814.1149999999998
 21
1081.5089
  0
LINE
  8
_0-0_1
  6
CONTINUOUS
 62
    3
 10
1803.8238000000001
 20
1069.6664000000001
 11
1803.8238000000001
 21
1081.5089
  0
LINE
  8
_0-0_1
  6
DASHED1
 62
    2
 10
1912.0790000000002
 20
1074.4681
 11
1912.0790000000002
 21
1090.4681
  0
LINE
  8
_0-0_1
  6
DASHED1
 62
    2
 10
1912.0790000000002
 20
1090.4681
 11
1909.0790000000002
 21
1090.4681
  0
LINE
  8
_0-0_1
  6
DASHED1
 62
    2
 10
1912.0790000000002
 20
1074.4681
 11
1909.0790000000002
 21
1074.4681
  0
LINE
  8
_0-0_1
  6
DASHED1
 62
    2
 10
1909.0790000000002
 20
1074.4681
 11
1909.0790000000002
 21
1090.4681
  0
LINE
  8
_0-0_1
  6
DASHED1
 62
    2
 10
1854.1828999999998
 20
1085.4681
 11
1839.674
 21
1082.4178999999999
  0
LINE
  8
_0-0_1
  6
DASHED1
 62
    2
 10
1909.0790000000002
 20
1085.4681
 11
1854.1828999999998
 21
1085.4681
  0
LINE
  8
_0-0_1
  6
DASHED1
 62
    2
 10
1839.674
 20
1082.4178999999999
 11
1853.9315000000001
 21
1079.4681
  0
LINE
  8
_0-0_1
  6
DASHED1
 62
    2
 10
1909.0790000000002
 20
1079.4681
 11
1853.9315000000001
 21
1079.4681
  0
LINE
  8
_0-0_1
  6
DASHED1
 62
    2
 10
1722.0947999999999
 20
1113.4351999999999
 11
1738.0947999999999
 21
1113.4351999999999
  0
LINE
  8
_0-0_1
  6
DASHED1
 62
    2
 10
1738.0947999999999
 20
1113.4351999999999
 11
1738.0947999999999
 21
1110.4351999999999
  0
LINE
  8
_0-0_1
  6
DASHED1
 62
    2
 10
1722.0947999999999
 20
1113.4351999999999
 11
1722.0947999999999
 21
1110.4351999999999
  0
LINE
  8
_0-0_1
  6
DASHED1
 62
    2
 10
1722.0947999999999
 20
1110.4351999999999
 11
1738.0947999999999
 21
1110.4351999999999
  0
LINE
  8
_0-0_1
  6
DASHED1
 62
    2
 10
1733.0947999999999
 20
1055.5391999999999
 11
1730.0446999999999
 21
1041.0301999999999
  0
LINE
  8
_0-0_1
  6
DASHED1
 62
    2
 10
1733.0947999999999
 20
1110.4351999999999
 11
1733.0947999999999
 21
1055.5391999999999
  0
LINE
  8
_0-0_1
  6
DASHED1
 62
    2
 10
1730.0446999999999
 20
1041.0301999999999
 11
1727.0947999999999
 21
1055.2877000000001
  0
LINE
  8
_0-0_1
  6
DASHED1
 62
    2
 10
1727.0947999999999
 20
1110.4351999999999
 11
1727.0947999999999
 21
1055.2877000000001
  0
LINE
  8
_0-0_1
  6
DASHED1
 62
    2
 10
967.95000000000005
 20
1109.1992
 11
983.95000000000005
 21
1109.1992
  0
LINE
  8
_0-0_1
  6
DASHED1
 62
    2
 10
983.95000000000005
 20
1109.1992
 11
983.95000000000005
 21
1106.1992
  0
LINE
  8
_0-0_1
  6
DASHED1
 62
    2
 10
967.95000000000005
 20
1109.1992
 11
967.95000000000005
 21
1106.1992
  0
LINE
  8
_0-0_1
  6
DASHED1
 62
    2
 10
967.95000000000005
 20
1106.1992
 11
983.95000000000005
 21
1106.1992
  0
LINE
  8
_0-0_1
  6
DASHED1
 62
    2
 10
978.95000000000005
 20
1051.3031000000001
 11
975.89979999999991
 21
1036.7942
  0
LINE
  8
_0-0_1
  6
DASHED1
 62
    2
 10
978.95000000000005
 20
1106.1992
 11
978.95000000000005
 21
1051.3031000000001
  0
LINE
  8
_0-0_1
  6
DASHED1
 62
    2
 10
975.89979999999991
 20
1036.7942
 11
972.95000000000005
 21
1051.0517
  0
LINE
  8
_0-0_1
  6
DASHED1
 62
    2
 10
972.95000000000005
 20
1106.1992
 11
972.95000000000005
 21
1051.0517
  0
LINE
  8
_0-0_1
  6
DASHED1
 62
    2
 10
1223.9509
 20
1109.1992
 11
1239.9509
 21
1109.1992
  0
LINE
  8
_0-0_1
  6
DASHED1
 62
    2
 10
1239.9509
 20
1109.1992
 11
1239.9509
 21
1106.1992
  0
LINE
  8
_0-0_1
  6
DASHED1
 62
    2
 10
1223.9509
 20
1109.1992
 11
1223.9509
 21
1106.1992
  0
LINE
  8
_0-0_1
  6
DASHED1
 62
    2
 10
1223.9509
 20
1106.1992
 11
1239.9509
 21
1106.1992
  0
LINE
  8
_0-0_1
  6
DASHED1
 62
    2
 10
1234.9509
 20
1051.3031000000001
 11
1231.9006999999999
 21
1036.7942
  0
LINE
  8
_0-0_1
  6
DASHED1
 62
    2
 10
1234.9509
 20
1106.1992
 11
1234.9509
 21
1051.3031000000001
  0
LINE
  8
_0-0_1
  6
DASHED1
 62
    2
 10
1231.9006999999999
 20
1036.7942
 11
1228.9509
 21
1051.0517
  0
LINE
  8
_0-0_1
  6
DASHED1
 62
    2
 10
1228.9509
 20
1106.1992
 11
1228.9509
 21
1051.0517
  0
LINE
  8
_0-0_1
  6
DASHED1
 62
    2
 10
1490.3301999999999
 20
1109.1992
 11
1506.3301999999999
 21
1109.1992
  0
LINE
  8
_0-0_1
  6
DASHED1
 62
    2
 10
1506.3301999999999
 20
1109.1992
 11
1506.3301999999999
 21
1106.1992
  0
LINE
  8
_0-0_1
  6
DASHED1
 62
    2
 10
1490.3301999999999
 20
1109.1992
 11
1490.3301999999999
 21
1106.1992
  0
LINE
  8
_0-0_1
  6
DASHED1
 62
    2
 10
1490.3301999999999
 20
1106.1992
 11
1506.3301999999999
 21
1106.1992
  0
LINE
  8
_0-0_1
  6
DASHED1
 62
    2
 10
1501.3301999999999
 20
1051.3031000000001
 11
1498.2800999999999
 21
1036.7942
  0
LINE
  8
_0-0_1
  6
DASHED1
 62
    2
 10
1501.3301999999999
 20
1106.1992
 11
1501.3301999999999
 21
1051.3031000000001
  0
LINE
  8
_0-0_1
  6
DASHED1
 62
    2
 10
1498.2800999999999
 20
1036.7942
 11
1495.3301999999999
 21
1051.0517
  0
LINE
  8
_0-0_1
  6
DASHED1
 62
    2
 10
1495.3301999999999
 20
1106.1992
 11
1495.3301999999999
 21
1051.0517
  0
LINE
  8
_0-0_1
  6
CONTINUOUS
 62
    5
 10
1503.8766999999998
 20
1078.2420999999999
 11
1498.2134999999998
 21
1087.6806999999999
  0
LINE
  8
_0-0_1
  6
CONTINUOUS
 62
    5
 10
1242.7677000000001
 20
1077.9305999999999
 11
1237.1044999999999
 21
1087.3693000000001
  0
LINE
  8
_0-0_1
  6
CONTINUOUS
 62
    5
 10
983.85279999999989
 20
1079.6010000000001
 11
978.18959999999993
 21
1089.0397
  0
LINE
  8
_0-0_1
  6
CONTINUOUS
 62
    4
 10
1869.2577000000001
 20
1129.5089
 11
1848.8238000000001
 21
1065.5585000000001
  0
LINE
  8
_0-0_1
  6
CONTINUOUS
 62
    4
 10
1869.3198000000002
 20
1129.5658000000001
 11
1886.3845999999999
 21
1129.5658000000001
  0
LINE
  8
_0-0_1
  6
CONTINUOUS
 62
    4
 10
1886.3845999999999
 20
1129.5658000000001
 11
1886.3845999999999
 21
1065.5585000000001
  0
LINE
  8
_0-0_1
  6
CONTINUOUS
 62
    5
 10
1818.2712000000001
 20
1145.7382
 11
1818.2712000000001
 21
1141.9627
  0
ARC
  8
_0-0_1
  6
CONTINUOUS
 62
    5
 10
1726.7946999999999
 20
1263.5797
 40
149.17964000000001
 50
307.82101999999998
 51
312.33985999999993
  0
ARC
  8
_0-0_1
  6
CONTINUOUS
 62
    5
 10
1726.7946999999999
 20
1263.5797
 40
172.17964000000001
 50
309.26612
 51
313.25087999999994
  0
LINE
  8
_0-0_1
  6
CONTINUOUS
 62
    5
 10
1827.2712000000001
 20
1153.3117
 11
1827.2712000000001
 21
1126.2674999999999
  0
LINE
  8
_0-0_1
  6
CONTINUOUS
 62
    5
 10
1835.7712000000001
 20
1130.2757999999999
 11
1835.7712000000001
 21
1127.9846
  0
LINE
  8
_0-0_1
  6
CONTINUOUS
 62
    5
 10
1844.7712000000001
 20
1138.1709000000001
 11
1844.7712000000001
 21
1112.3438000000001
  0
ARC
  8
_0-0_1
  6
CONTINUOUS
 62
    5
 10
1725.5796
 20
1356.8526999999999
 40
234.01331999999999
 50
247.56478999999996
 51
293.24524000000002
  0
ARC
  8
_0-0_1
  6
CONTINUOUS
 62
    5
 10
1725.5796
 20
1356.8526999999999
 40
254.01331999999999
 50
245.13487000000003
 51
295.70910000000003
  0
ARC
  8
_0-0_1
  6
CONTINUOUS
 62
    5
 10
1725.5796
 20
1356.8526999999999
 40
252.01332000000002
 50
247.03975000000003
 51
293.79819000000003
  0
ARC
  8
_0-0_1
  6
CONTINUOUS
 62
    5
 10
1725.5796
 20
1356.8526999999999
 40
272.01332000000002
 50
244.80213000000003
 51
295.98797999999999
  0
LINE
  8
_0-0_1
  6
CONTINUOUS
 62
    5
 10
1757.2031000000002
 20
1071.4418000000001
 11
1764.6844999999998
 21
1085.7809999999999
  0
LINE
  8
_0-0_1
  6
CONTINUOUS
 62
    5
 10
1750.0617000000002
 20
1071.5383999999999
 11
1744.6675
 21
1082.5965000000001
  0
LINE
  8
_0-0_1
  6
CONTINUOUS
 62
    5
 10
1703.9668000000001
 20
1071.5601999999999
 11
1710.0927999999999
 21
1082.1415999999999
  0
LINE
  8
_0-0_1
  6
CONTINUOUS
 62
    5
 10
1696.8663000000001
 20
1071.9032
 11
1690.5308
 21
1085.7809999999999
  0
ARC
  8
_0-0_1
  6
CONTINUOUS
 62
    5
 10
1700.5050999999999
 20
1073.5644
 40
4
 50
204.53772000000001
 51
329.93141000000003
  0
ARC
  8
_0-0_1
  6
CONTINUOUS
 62
    5
 10
1753.6568000000002
 20
1073.2920999999999
 40
4
 50
206.00334000000004
 51
332.44718
  0
LINE
  8
_0-0_1
  6
CONTINUOUS
 62
    5
 10
1609.7712000000001
 20
1137.2810999999999
 11
1609.7712000000001
 21
1110.7234000000001
  0
ARC
  8
_0-0_1
  6
CONTINUOUS
 62
    5
 10
1726.7946999999999
 20
1263.5797
 40
172.17964000000001
 50
227.18297000000004
 51
231.14230000000003
  0
LINE
  8
_0-0_1
  6
CONTINUOUS
 62
    5
 10
1618.7712000000001
 20
1129.5023000000001
 11
1618.7712000000001
 21
1126.3864000000001
  0
LINE
  8
_0-0_1
  6
CONTINUOUS
 62
    5
 10
1627.2712000000001
 20
1152.4508000000001
 11
1627.2712000000001
 21
1124.8050000000001
  0
LINE
  8
_0-0_1
  6
CONTINUOUS
 62
    5
 10
1636.2712000000001
 20
1145.0046
 11
1636.2712000000001
 21
1140.5515
  0
ARC
  8
_0-0_1
  6
CONTINUOUS
 62
    5
 10
1726.7946999999999
 20
1263.5797
 40
149.17964000000001
 50
228.1534
 51
232.64089999999999
  0
ARC
  8
_0-0_1
  6
CONTINUOUS
 62
    5
 10
1334.5762
 20
1116.0428999999999
 40
69.214101999999997
 50
13.791351000000001
 51
163.33506000000003
  0
ARC
  8
_0-0_1
  6
CONTINUOUS
 62
    5
 10
1334.1811000000002
 20
1117.5263
 40
50.327697999999998
 50
23.01118
 51
173.62688000000003
  0
ARC
  8
_0-0_1
  6
CONTINUOUS
 62
    5
 10
1196.1079999999999
 20
1316.5351000000001
 40
212.52318
 50
244.57801000000001
 51
294.47764000000006
  0
ARC
  8
_0-0_1
  6
CONTINUOUS
 62
    5
 10
1196.1079999999999
 20
1316.5351000000001
 40
214.52317999999997
 50
244.57801000000001
 51
294.78532999999999
  0
ARC
  8
_0-0_1
  6
CONTINUOUS
 62
    5
 10
1334.1811000000002
 20
1117.5263
 40
48.327697999999998
 50
88.109851000000006
 51
174.95909000000003
  0
LINE
  8
_0-0_1
  6
CONTINUOUS
 62
    5
 10
1335.7752
 20
1165.8277
 11
1335.7752
 21
1153.6986999999999
  0
LINE
  8
_0-0_1
  6
CONTINUOUS
 62
    5
 10
1401.7949000000001
 20
1132.5426
 11
1380.5042000000001
 21
1137.2
  0
LINE
  8
_0-0_1
  6
CONTINUOUS
 62
    5
 10
1163.7630999999999
 20
1075.2203999999999
 11
1157.1960999999999
 21
1087.3693000000001
  0
LINE
  8
_0-0_1
  6
CONTINUOUS
 62
    5
 10
1175.8893
 20
1074.8911000000001
 11
1181.3194000000001
 21
1083.7508
  0
ARC
  8
_0-0_1
  6
CONTINUOUS
 62
    5
 10
1169.9211
 20
1078.549
 40
7
 50
208.39301
 51
328.49572999999998
  0
LINE
  8
_0-0_1
  6
CONTINUOUS
 62
    5
 10
1255.2799
 20
1078.9585
 11
1261.2277999999999
 21
1094.0032000000001
  0
ARC
  8
_0-0_1
  6
CONTINUOUS
 62
    5
 10
1248.7701
 20
1081.5320999999999
 40
7
 50
210.96375
 51
338.42869000000002
  0
LINE
  8
_0-0_1
  6
CONTINUOUS
 62
    5
 10
1282.921
 20
1085.8998999999999
 11
1276.0033000000001
 21
1097.6216999999999
  0
ARC
  8
_0-0_1
  6
CONTINUOUS
 62
    5
 10
1286.3659000000002
 20
1087.9329
 40
4
 50
210.54757000000001
 51
342.13990000000001
  0
ARC
  8
_0-0_1
  6
CONTINUOUS
 62
    5
 10
1196.1079999999999
 20
1316.5351000000001
 40
194.52317999999997
 50
244.57801000000001
 51
291.77512000000002
  0
ARC
  8
_0-0_1
  6
CONTINUOUS
 62
    5
 10
1145.1641999999999
 20
1186.2620999999999
 40
73.645919000000006
 50
225.20483999999999
 51
236.85617999999999
  0
ARC
  8
_0-0_1
  6
CONTINUOUS
 62
    5
 10
1134.0716
 20
1178.3569
 40
81.008393999999996
 50
226.46691000000004
 51
242.05489
  0
ARC
  8
_0-0_1
  6
CONTINUOUS
 62
    5
 10
1187.5941
 20
1252.9617000000001
 40
154.70135999999999
 50
229.79871999999997
 51
237.31520999999998
  0
LINE
  8
_0-0_1
  6
CONTINUOUS
 62
    5
 10
1078.2752
 20
1137.4567999999999
 11
1078.2752
 21
1119.6277
  0
ARC
  8
_0-0_1
  6
CONTINUOUS
 62
    5
 10
1082.2752
 20
1137.4567999999999
 40
4
 50
90
 51
180
  0
LINE
  8
_0-0_1
  6
CONTINUOUS
 62
    5
 10
1083.7383
 20
1141.4567999999999
 11
1082.2752
 21
1141.4567999999999
  0
LINE
  8
_0-0_1
  6
CONTINUOUS
 62
    5
 10
1087.7383
 20
1137.4567999999999
 11
1087.7383
 21
1134.8036
  0
ARC
  8
_0-0_1
  6
CONTINUOUS
 62
    5
 10
1083.7383
 20
1137.4567999999999
 40
4
 50
0
 51
90
  0
LINE
  8
_0-0_1
  6
CONTINUOUS
 62
    5
 10
1093.2752
 20
1136.8474000000001
 11
1093.2752
 21
1134.0008
  0
LINE
  8
_0-0_1
  6
CONTINUOUS
 62
    5
 10
1097.2752
 20
1140.8474000000001
 11
1112.6027999999999
 21
1140.8474000000001
  0
ARC
  8
_0-0_1
  6
CONTINUOUS
 62
    5
 10
1097.2752
 20
1136.8474000000001
 40
4
 50
90
 51
180
  0
ARC
  8
_0-0_1
  6
CONTINUOUS
 62
    5
 10
1196.1079999999999
 20
1316.5351000000001
 40
232.52318
 50
244.57801000000001
 51
295.00637
  0
ARC
  8
_0-0_1
  6
CONTINUOUS
 62
    5
 10
1336.7742000000001
 20
1113.4621999999999
 40
40.248902000000001
 50
91.422393999999997
 51
185.22383000000002
  0
ARC
  8
_0-0_1
  6
CONTINUOUS
 62
    5
 10
1292.7091
 20
1109.4335000000001
 40
4
 50
295.00637
 51
5.2238350000000304
  0
LINE
  8
_0-0_1
  6
CONTINUOUS
 62
    5
 10
1294.2607
 20
1105.2641000000001
 11
1290.3618000000001
 21
1087.2317
  0
ARC
  8
_0-0_1
  6
CONTINUOUS
 62
    5
 10
1075.6614
 20
1117.7132999999999
 40
69.214101999999997
 50
13.791351000000001
 51
163.33506000000003
  0
ARC
  8
_0-0_1
  6
CONTINUOUS
 62
    5
 10
1075.2663
 20
1119.1967
 40
50.327697999999998
 50
23.01118
 51
173.62688000000003
  0
ARC
  8
_0-0_1
  6
CONTINUOUS
 62
    5
 10
937.19319999999993
 20
1318.2055
 40
212.52318
 50
244.57801000000001
 51
294.47764000000006
  0
ARC
  8
_0-0_1
  6
CONTINUOUS
 62
    5
 10
937.19319999999993
 20
1318.2055
 40
214.52317999999997
 50
244.57801000000001
 51
294.78532999999999
  0
ARC
  8
_0-0_1
  6
CONTINUOUS
 62
    5
 10
1075.2663
 20
1119.1967
 40
48.327697999999998
 50
88.109851000000006
 51
174.95909000000003
  0
LINE
  8
_0-0_1
  6
CONTINUOUS
 62
    5
 10
1076.8603000000001
 20
1167.4981
 11
1076.8603000000001
 21
1155.3690999999999
  0
LINE
  8
_0-0_1
  6
CONTINUOUS
 62
    5
 10
1142.8801000000001
 20
1134.213
 11
1121.5893000000001
 21
1138.8704
  0
LINE
  8
_0-0_1
  6
CONTINUOUS
 62
    5
 10
904.84819999999991
 20
1076.8907999999999
 11
898.2813000000001
 21
1089.0397
  0
LINE
  8
_0-0_1
  6
CONTINUOUS
 62
    5
 10
916.97440000000006
 20
1076.5615
 11
922.40460000000007
 21
1085.4212
  0
ARC
  8
_0-0_1
  6
CONTINUOUS
 62
    5
 10
911.00620000000004
 20
1080.2194
 40
7
 50
208.39301
 51
328.49572999999998
  0
LINE
  8
_0-0_1
  6
CONTINUOUS
 62
    5
 10
996.36500000000001
 20
1080.6288999999999
 11
1002.3128999999999
 21
1095.6736000000001
  0
ARC
  8
_0-0_1
  6
CONTINUOUS
 62
    5
 10
989.85529999999994
 20
1083.2025000000001
 40
7
 50
210.96375
 51
338.42869000000002
  0
LINE
  8
_0-0_1
  6
CONTINUOUS
 62
    5
 10
1024.0062
 20
1087.5703000000001
 11
1017.0884000000001
 21
1099.2920999999999
  0
ARC
  8
_0-0_1
  6
CONTINUOUS
 62
    5
 10
1027.451
 20
1089.6033
 40
4
 50
210.54757000000001
 51
342.13990000000001
  0
ARC
  8
_0-0_1
  6
CONTINUOUS
 62
    5
 10
937.19319999999993
 20
1318.2055
 40
194.52317999999997
 50
244.57801000000001
 51
291.77512000000002
  0
ARC
  8
_0-0_1
  6
CONTINUOUS
 62
    5
 10
886.24929999999995
 20
1187.9326000000001
 40
73.645919000000006
 50
225.20483999999999
 51
236.85617999999999
  0
ARC
  8
_0-0_1
  6
CONTINUOUS
 62
    5
 10
875.1567
 20
1180.0273
 40
81.008393999999996
 50
226.46691000000004
 51
242.05489
  0
ARC
  8
_0-0_1
  6
CONTINUOUS
 62
    5
 10
928.67920000000004
 20
1254.6321
 40
154.70135999999999
 50
229.79871999999997
 51
237.31520999999998
  0
LINE
  8
_0-0_1
  6
CONTINUOUS
 62
    5
 10
819.36030000000005
 20
1139.1271999999999
 11
819.36030000000005
 21
1121.2981
  0
ARC
  8
_0-0_1
  6
CONTINUOUS
 62
    5
 10
823.36030000000005
 20
1139.1271999999999
 40
4
 50
90
 51
180
  0
LINE
  8
_0-0_1
  6
CONTINUOUS
 62
    5
 10
824.82339999999999
 20
1143.1271999999999
 11
823.36030000000005
 21
1143.1271999999999
  0
LINE
  8
_0-0_1
  6
CONTINUOUS
 62
    5
 10
828.82339999999999
 20
1139.1271999999999
 11
828.82339999999999
 21
1136.4739999999999
  0
ARC
  8
_0-0_1
  6
CONTINUOUS
 62
    5
 10
824.82339999999999
 20
1139.1271999999999
 40
4
 50
0
 51
90
  0
LINE
  8
_0-0_1
  6
CONTINUOUS
 62
    5
 10
834.36030000000005
 20
1138.5179000000001
 11
834.36030000000005
 21
1135.6712
  0
LINE
  8
_0-0_1
  6
CONTINUOUS
 62
    5
 10
838.36030000000005
 20
1142.5179000000001
 11
853.6878999999999
 21
1142.5179000000001
  0
ARC
  8
_0-0_1
  6
CONTINUOUS
 62
    5
 10
838.36030000000005
 20
1138.5179000000001
 40
4
 50
90
 51
180
  0
ARC
  8
_0-0_1
  6
CONTINUOUS
 62
    5
 10
937.19319999999993
 20
1318.2055
 40
232.52318
 50
244.57801000000001
 51
295.00637
  0
ARC
  8
_0-0_1
  6
CONTINUOUS
 62
    5
 10
1077.8594000000001
 20
1115.1325999999999
 40
40.248902000000001
 50
91.422393999999997
 51
185.22383000000002
  0
ARC
  8
_0-0_1
  6
CONTINUOUS
 62
    5
 10
1033.7943
 20
1111.1039000000001
 40
4
 50
295.00637
 51
5.2238350000000304
  0
LINE
  8
_0-0_1
  6
CONTINUOUS
 62
    5
 10
1035.3458000000001
 20
1106.9345000000001
 11
1031.4468999999999
 21
1088.9021
  0
ARC
  8
_0-0_1
  6
CONTINUOUS
 62
    5
 10
815.23180000000002
 20
1117.6877999999999
 40
69.214101999999997
 50
13.791351000000001
 51
131.08148
  0
ARC
  8
_0-0_1
  6
CONTINUOUS
 62
    5
 10
814.83670000000006
 20
1119.1713
 40
50.327697999999998
 50
23.01118
 51
153.62195
  0
ARC
  8
_0-0_1
  6
CONTINUOUS
 62
    5
 10
814.83670000000006
 20
1119.1713
 40
48.327697999999998
 50
88.109851000000006
 51
158.90060000000003
  0
LINE
  8
_0-0_1
  6
CONTINUOUS
 62
    5
 10
816.43069999999989
 20
1167.4727
 11
816.43069999999989
 21
1155.3435999999999
  0
LINE
  8
_0-0_1
  6
CONTINUOUS
 62
    5
 10
882.45049999999992
 20
1134.1876
 11
861.1597999999999
 21
1138.8449000000001
  0
ARC
  8
_0-0_1
  6
CONTINUOUS
 62
    5
 10
767.02140000000009
 20
1089.5779
 40
4
 50
312.99266999999998
 51
342.13990000000001
  0
ARC
  8
_0-0_1
  6
CONTINUOUS
 62
    5
 10
676.7636
 20
1318.1800000000001
 40
232.52318
 50
293.57175999999998
 51
295.00637
  0
ARC
  8
_0-0_1
  6
CONTINUOUS
 62
    5
 10
817.42979999999989
 20
1115.1070999999999
 40
40.248902000000001
 50
91.422393999999997
 51
185.22383000000002
  0
ARC
  8
_0-0_1
  6
CONTINUOUS
 62
    5
 10
773.36470000000008
 20
1111.0784000000001
 40
4
 50
295.00637
 51
5.2238350000000304
  0
LINE
  8
_0-0_1
  6
CONTINUOUS
 62
    5
 10
774.91630000000009
 20
1106.9090000000001
 11
771.01739999999995
 21
1088.8766000000001
  0
ARC
  8
_0-0_1
  6
CONTINUOUS
 62
    5
 10
1595.6853000000001
 20
1116.3543
 40
69.214101999999997
 50
13.791351000000001
 51
163.33506000000003
  0
ARC
  8
_0-0_1
  6
CONTINUOUS
 62
    5
 10
1595.2901999999999
 20
1117.8378
 40
50.327697999999998
 50
23.01118
 51
173.62688000000003
  0
ARC
  8
_0-0_1
  6
CONTINUOUS
 62
    5
 10
1457.2170999999998
 20
1316.8465000000001
 40
212.52318
 50
244.57801000000001
 51
294.47764000000006
  0
ARC
  8
_0-0_1
  6
CONTINUOUS
 62
    5
 10
1457.2170999999998
 20
1316.8465000000001
 40
214.52317999999997
 50
244.57801000000001
 51
294.78532999999999
  0
ARC
  8
_0-0_1
  6
CONTINUOUS
 62
    5
 10
1595.2901999999999
 20
1117.8378
 40
48.327697999999998
 50
88.109851000000006
 51
174.95909000000003
  0
LINE
  8
_0-0_1
  6
CONTINUOUS
 62
    5
 10
1596.8842
 20
1166.1392000000001
 11
1596.8842
 21
1154.0101
  0
LINE
  8
_0-0_1
  6
CONTINUOUS
 62
    5
 10
1662.904
 20
1132.8541
 11
1641.6131999999998
 21
1137.5114000000001
  0
LINE
  8
_0-0_1
  6
CONTINUOUS
 62
    5
 10
1424.8722
 20
1075.5318
 11
1418.3052
 21
1087.6806999999999
  0
LINE
  8
_0-0_1
  6
CONTINUOUS
 62
    5
 10
1436.9983000000002
 20
1075.2025000000001
 11
1442.4285
 21
1084.0622000000001
  0
ARC
  8
_0-0_1
  6
CONTINUOUS
 62
    5
 10
1431.0300999999999
 20
1078.8604
 40
7
 50
208.39301
 51
328.49572999999998
  0
LINE
  8
_0-0_1
  6
CONTINUOUS
 62
    5
 10
1516.3888999999999
 20
1079.2699
 11
1522.3368
 21
1094.3145999999999
  0
ARC
  8
_0-0_1
  6
CONTINUOUS
 62
    5
 10
1509.8791999999999
 20
1081.8434999999999
 40
7
 50
210.96375
 51
338.42869000000002
  0
LINE
  8
_0-0_1
  6
CONTINUOUS
 62
    5
 10
1544.0300999999999
 20
1086.2112999999999
 11
1537.1122999999998
 21
1097.9331
  0
ARC
  8
_0-0_1
  6
CONTINUOUS
 62
    5
 10
1547.4749000000002
 20
1088.2444
 40
4
 50
210.54757000000001
 51
342.13990000000001
  0
ARC
  8
_0-0_1
  6
CONTINUOUS
 62
    5
 10
1457.2170999999998
 20
1316.8465000000001
 40
194.52317999999997
 50
244.57801000000001
 51
291.77512000000002
  0
ARC
  8
_0-0_1
  6
CONTINUOUS
 62
    5
 10
1406.2732000000001
 20
1186.5735999999999
 40
73.645919000000006
 50
225.20483999999999
 51
236.85617999999999
  0
ARC
  8
_0-0_1
  6
CONTINUOUS
 62
    5
 10
1395.1805999999999
 20
1178.6683
 40
81.008393999999996
 50
226.46691000000004
 51
242.05489
  0
ARC
  8
_0-0_1
  6
CONTINUOUS
 62
    5
 10
1448.7031000000002
 20
1253.2731000000001
 40
154.70135999999999
 50
229.79871999999997
 51
237.31520999999998
  0
LINE
  8
_0-0_1
  6
CONTINUOUS
 62
    5
 10
1339.3842
 20
1137.7682
 11
1339.3842
 21
1119.9391000000001
  0
ARC
  8
_0-0_1
  6
CONTINUOUS
 62
    5
 10
1343.3842
 20
1137.7682
 40
4
 50
90
 51
180
  0
LINE
  8
_0-0_1
  6
CONTINUOUS
 62
    5
 10
1344.8472999999999
 20
1141.7682
 11
1343.3842
 21
1141.7682
  0
LINE
  8
_0-0_1
  6
CONTINUOUS
 62
    5
 10
1348.8472999999999
 20
1137.7682
 11
1348.8472999999999
 21
1135.1151
  0
ARC
  8
_0-0_1
  6
CONTINUOUS
 62
    5
 10
1344.8472999999999
 20
1137.7682
 40
4
 50
0
 51
90
  0
LINE
  8
_0-0_1
  6
CONTINUOUS
 62
    5
 10
1354.3842
 20
1137.1588999999999
 11
1354.3842
 21
1134.3122000000001
  0
LINE
  8
_0-0_1
  6
CONTINUOUS
 62
    5
 10
1358.3842
 20
1141.1588999999999
 11
1373.7118
 21
1141.1588999999999
  0
ARC
  8
_0-0_1
  6
CONTINUOUS
 62
    5
 10
1358.3842
 20
1137.1588999999999
 40
4
 50
90
 51
180
  0
ARC
  8
_0-0_1
  6
CONTINUOUS
 62
    5
 10
1457.2170999999998
 20
1316.8465000000001
 40
232.52318
 50
244.57801000000001
 51
295.00637
  0
ARC
  8
_0-0_1
  6
CONTINUOUS
 62
    5
 10
1597.8833
 20
1113.7736
 40
40.248902000000001
 50
91.422393999999997
 51
185.22383000000002
  0
ARC
  8
_0-0_1
  6
CONTINUOUS
 62
    5
 10
1553.8182000000002
 20
1109.7448999999999
 40
4
 50
295.00637
 51
5.2238350000000304
  0
LINE
  8
_0-0_1
  6
CONTINUOUS
 62
    5
 10
1555.3697000000002
 20
1105.5754999999999
 11
1551.4708000000001
 21
1087.5431000000001
  0
ARC
  8
_0-0_1
  6
CONTINUOUS
 62
    5
 10
1856.0830999999998
 20
1118.7427
 40
69.214101999999997
 50
16.664929999999998
 51
166.20864
  0
ARC
  8
_0-0_1
  6
CONTINUOUS
 62
    5
 10
1856.4782
 20
1120.2261000000001
 40
50.327697999999998
 50
6.3731099999999996
 51
156.98881
  0
ARC
  8
_0-0_1
  6
CONTINUOUS
 62
    5
 10
1856.4782
 20
1120.2261000000001
 40
48.327697999999998
 50
5.0409090000000001
 51
91.890148000000011
  0
LINE
  8
_0-0_1
  6
CONTINUOUS
 62
    5
 10
1854.8842
 20
1168.5274999999999
 11
1854.8842
 21
1156.3985
  0
LINE
  8
_0-0_1
  6
CONTINUOUS
 62
    5
 10
1788.8643999999999
 20
1135.2424000000001
 11
1810.1550999999999
 21
1139.8997999999999
  0
LINE
  8
_0-0_1
  6
CONTINUOUS
 62
    5
 10
1922.4115999999999
 20
1139.2385999999999
 11
1931.5317
 21
1068.1018999999999
  0
LINE
  8
_0-0_1
  6
CONTINUOUS
 62
    5
 10
1931.5317
 20
1068.1018999999999
 11
1914.3926000000001
 21
1068.1018999999999
  0
LINE
  8
_0-0_1
  6
CONTINUOUS
 62
    5
 10
1907.0499
 20
1125.3749
 11
1914.3926000000001
 21
1068.1018999999999
  0
LINE
  8
_0-0_1
  6
CONTINUOUS
 62
    5
 10
1904.7530999999999
 20
1123.6396999999999
 11
1911.8733000000002
 21
1068.1018999999999
  0
LINE
  8
_0-0_1
  6
CONTINUOUS
 62
    5
 10
1911.8733000000002
 20
1068.1018999999999
 11
1894.7341999999999
 21
1068.1018999999999
  0
LINE
  8
_0-0_1
  6
CONTINUOUS
 62
    5
 10
1885.739
 20
1138.2639999999999
 11
1894.7341999999999
 21
1068.1018999999999
  0
ARC
  8
_0-0_1
  6
CONTINUOUS
 62
    5
 10
1851.5196000000001
 20
1114.9399000000001
 40
41.412356000000003
 50
34.278531000000001
 51
85.473896000000011
  0
LINE
  8
_0-0_1
  6
CONTINUOUS
 62
    3
 10
816.1087
 20
1084.5089
 11
816.75559999999996
 21
1084.5089
  0
LINE
  8
_0-0_1
  6
CONTINUOUS
 62
    3
 10
1076.1087
 20
1084.5089
 11
1076.7556
 21
1084.5089
  0
LINE
  8
_0-0_1
  6
CONTINUOUS
 62
    3
 10
1336.1087
 20
1084.5089
 11
1336.7556
 21
1084.5089
  0
LINE
  8
_0-0_1
  6
CONTINUOUS
 62
    3
 10
1596.1087000000002
 20
1084.5089
 11
1596.7556
 21
1084.5089
  0
LINE
  8
_0-0_1
  6
CONTINUOUS
 62
    3
 10
1803.8238000000001
 20
1069.6664000000001
 11
1847.5119
 21
1069.6664000000001
  0
LINE
  8
_0-2_3
  6
DASHED3
 62
    3
 10
1884.1087000000002
 20
1068.0089
 11
775.52019999999993
 21
1068.0089
  0
LINE
  8
_0-3_4
  6
CONTINUOUS
 62
    3
 10
1691.5048999999999
 20
1016.0089
 11
1741.5048000000002
 21
1066.0089
  0
LINE
  8
_0-3_4
  6
CONTINUOUS
 62
    3
 10
1687.2622000000001
 20
1016.0089
 11
1737.2622000000001
 21
1066.0089
  0
LINE
  8
_0-3_4
  6
CONTINUOUS
 62
    3
 10
1479.3728000000001
 20
1016.0089
 11
1529.3728000000001
 21
1066.0089
  0
LINE
  8
_0-3_4
  6
CONTINUOUS
 62
    3
 10
1475.1300999999999
 20
1016.0089
 11
1525.1302000000001
 21
1066.0089
  0
LINE
  8
_0-3_4
  6
CONTINUOUS
 62
    3
 10
1267.2408
 20
1016.0089
 11
1317.2408
 21
1066.0089
  0
LINE
  8
_0-3_4
  6
CONTINUOUS
 62
    3
 10
1262.9981
 20
1016.0089
 11
1312.9981
 21
1066.0089
  0
LINE
  8
_0-1_2
  6
CONTINUOUS
 62
    3
 10
1771.4078
 20
936.00870000000009
 11
1769.1082999999999
 21
936.00870000000009
  0
LINE
  8
_0-1_2
  6
CONTINUOUS
 62
    3
 10
1771.4087
 20
996.00890000000004
 11
1769.1080999999999
 21
996.00849999999991
  0
LINE
  8
_0-1_2
  6
CONTINUOUS
 62
    3
 10
1771.4079000000002
 20
1011.0094999999999
 11
1771.4087
 21
996.00890000000004
  0
LINE
  8
_0-1_2
  6
CONTINUOUS
 62
    3
 10
1814.1073000000001
 20
1013.7104999999999
 11
1774.1084000000001
 21
1013.7095999999999
  0
LINE
  8
_0-1_2
  6
CONTINUOUS
 62
    3
 10
1774.1073999999999
 20
1016.0087000000001
 11
1814.1082999999999
 21
1016.0093999999999
  0
LINE
  8
_0-1_2
  6
CONTINUOUS
 62
    3
 10
1769.1078000000002
 20
1011.0092
 11
1769.1080999999999
 21
996.00849999999991
  0
LINE
  8
_0-1_2
  6
CONTINUOUS
 62
    3
 10
1819.1100999999999
 20
921.00859999999989
 11
1819.1080000000002
 21
1011.0094999999999
  0
LINE
  8
_0-1_2
  6
CONTINUOUS
 62
    3
 10
1774.1084000000001
 20
916.00810000000001
 11
1814.1104
 21
916.00900000000001
  0
LINE
  8
_0-1_2
  6
CONTINUOUS
 62
    3
 10
1769.1087000000002
 20
921.00780000000009
 11
1769.1082999999999
 21
936.00870000000009
  0
LINE
  8
_0-1_2
  6
CONTINUOUS
 62
    3
 10
1771.4079999999999
 20
921.00790000000006
 11
1771.4078
 21
936.00870000000009
  0
LINE
  8
_0-1_2
  6
CONTINUOUS
 62
    3
 10
1814.1091000000001
 20
918.30809999999997
 11
1774.1082999999999
 21
918.30749999999989
  0
LINE
  8
_0-1_2
  6
CONTINUOUS
 62
    3
 10
1816.8096
 20
921.00819999999999
 11
1816.8071
 21
1011.01
  0
LINE
  8
_0-0_1
  6
CONTINUOUS
 62
    3
 10
1744.107
 20
957.00919999999996
 11
1751.9014000000002
 21
961.50890000000004
  0
LINE
  8
_0-0_1
  6
CONTINUOUS
 62
    3
 10
1751.9014000000002
 20
961.50890000000004
 11
1751.9016999999999
 21
970.50890000000004
  0
LINE
  8
_0-0_1
  6
CONTINUOUS
 62
    3
 10
1751.9016999999999
 20
970.50890000000004
 11
1744.1078000000002
 21
975.00909999999999
  0
LINE
  8
_0-0_1
  6
CONTINUOUS
 62
    3
 10
1744.1078000000002
 20
975.00909999999999
 11
1736.3134
 21
970.50929999999994
  0
LINE
  8
_0-0_1
  6
CONTINUOUS
 62
    3
 10
1736.3134
 20
970.50929999999994
 11
1736.3130000000001
 21
961.50939999999991
  0
LINE
  8
_0-0_1
  6
CONTINUOUS
 62
    3
 10
1736.3130000000001
 20
961.50939999999991
 11
1744.107
 21
957.00919999999996
  0
LINE
  8
_0-0_1
  6
CONTINUOUS
 62
    3
 10
1739.1079
 20
956.00900000000001
 11
1739.1073000000001
 21
959.89570000000003
  0
LINE
  8
_0-0_1
  6
CONTINUOUS
 62
    3
 10
1749.1071999999999
 20
956.00880000000006
 11
1749.1075000000001
 21
959.89589999999998
  0
LINE
  8
_0-0_1
  6
CONTINUOUS
 62
    3
 10
1749.1069000000002
 20
976.00929999999994
 11
1749.1073999999999
 21
972.12249999999995
  0
LINE
  8
_0-0_1
  6
CONTINUOUS
 62
    3
 10
1739.1075999999998
 20
976.00949999999989
 11
1739.1071999999999
 21
972.1223
  0
LINE
  8
_0-0_1
  6
CONTINUOUS
 62
    3
 10
775.52019999999993
 20
916.00890000000004
 11
1764.1078000000002
 21
916.00890000000004
  0
LINE
  8
_0-0_1
  6
CONTINUOUS
 62
    3
 10
1769.1078000000002
 20
1006.0091
 11
1769.1078000000002
 21
926.00909999999999
  0
LINE
  8
_0-0_1
  6
CONTINUOUS
 62
    3
 10
1764.1078000000002
 20
918.30780000000004
 11
775.52019999999993
 21
918.30780000000004
  0
LINE
  8
_0-0_1
  6
CONTINUOUS
 62
    3
 10
1764.1078000000002
 20
1013.7093
 11
775.52019999999993
 21
1013.7093
  0
LINE
  8
_0-0_1
  6
CONTINUOUS
 62
    3
 10
1719.1078000000002
 20
1006.0091
 11
1719.1078000000002
 21
996.00849999999991
  0
LINE
  8
_0-0_1
  6
CONTINUOUS
 62
    3
 10
1765.9079000000002
 20
1006.0091
 11
1765.9079000000002
 21
926.00909999999999
  0
LINE
  8
_0-0_1
  6
CONTINUOUS
 62
    3
 10
1769.1078000000002
 20
1006.0091
 11
1764.1078000000002
 21
1006.0091
  0
LINE
  8
_0-0_1
  6
CONTINUOUS
 62
    3
 10
1764.1078000000002
 20
1006.0091
 11
1719.1078000000002
 21
1006.0091
  0
LINE
  8
_0-0_1
  6
CONTINUOUS
 62
    3
 10
1719.1078000000002
 20
996.00849999999991
 11
1719.1078000000002
 21
936.00870000000009
  0
LINE
  8
_0-0_1
  6
CONTINUOUS
 62
    3
 10
1719.1078000000002
 20
936.00870000000009
 11
1719.1078000000002
 21
926.00909999999999
  0
LINE
  8
_0-0_1
  6
CONTINUOUS
 62
    3
 10
1769.1078000000002
 20
926.00909999999999
 11
1764.1078000000002
 21
926.00909999999999
  0
LINE
  8
_0-0_1
  6
CONTINUOUS
 62
    3
 10
1764.1078000000002
 20
926.00909999999999
 11
1719.1078000000002
 21
926.00909999999999
  0
LINE
  8
_0-0_1
  6
CONTINUOUS
 62
    3
 10
1764.1078000000002
 20
1016.0089
 11
1764.1078000000002
 21
996.00849999999991
  0
LINE
  8
_0-0_1
  6
CONTINUOUS
 62
    3
 10
1764.1078000000002
 20
996.00849999999991
 11
1764.1078000000002
 21
926.00909999999999
  0
LINE
  8
_0-0_1
  6
CONTINUOUS
 62
    3
 10
1764.1078000000002
 20
926.00909999999999
 11
1764.1078000000002
 21
916.00890000000004
  0
LINE
  8
_0-0_1
  6
CONTINUOUS
 62
    3
 10
1764.1078000000002
 20
996.00849999999991
 11
775.52019999999993
 21
996.00849999999991
  0
LINE
  8
_0-0_1
  6
CONTINUOUS
 62
    3
 10
1764.1078000000002
 20
936.00870000000009
 11
775.52019999999993
 21
936.00870000000009
  0
LINE
  8
_0-3_4
  6
CONTINUOUS
 62
    3
 10
1819.1087000000002
 20
1016.0089
 11
1819.1087000000002
 21
866.74119999999994
  0
LINE
  8
_0-3_4
  6
CONTINUOUS
 62
    3
 10
1869.1086
 20
1016.0089
 11
1869.1086
 21
866.74119999999994
  0
LINE
  8
_0-3_4
  6
CONTINUOUS
 62
    3
 10
1819.1097
 20
933.86940000000004
 11
1869.1086
 21
983.86840000000007
  0
LINE
  8
_0-3_4
  6
CONTINUOUS
 62
    3
 10
1819.1098999999999
 20
929.6268
 11
1869.1086
 21
979.62570000000005
  0
LINE
  8
_0-1_2
  6
CONTINUOUS
 62
    3
 10
1869.1089999999999
 20
971.00970000000007
 11
1869.1082999999999
 21
961.00870000000009
  0
LINE
  8
_0-1_2
  6
CONTINUOUS
 62
    3
 10
1866.1089000000002
 20
971.00880000000006
 11
1866.1084999999998
 21
961.00990000000002
  0
LINE
  8
_0-1_2
  6
CONTINUOUS
 62
    3
 10
1869.1082999999999
 20
961.00870000000009
 11
1866.1084999999998
 21
961.00990000000002
  0
LINE
  8
_0-1_2
  6
CONTINUOUS
 62
    3
 10
1869.1089999999999
 20
971.00970000000007
 11
1866.1089000000002
 21
971.00880000000006
  0
LINE
  8
_0-1_2
  6
CONTINUOUS
 62
    3
 10
1869.1086
 20
966.00909999999999
 11
1866.1082000000001
 21
966.00909999999999
  0
LINE
  8
_0-1_2
  6
CONTINUOUS
 62
    3
 10
1804.1088
 20
966.0154
 11
1809.7089000000001
 21
964.01459999999997
  0
LINE
  8
_0-1_2
  6
CONTINUOUS
 62
    3
 10
1804.1088
 20
966.0154
 11
1809.7087000000001
 21
968.01459999999997
  0
LINE
  8
_0-1_2
  6
CONTINUOUS
 62
    3
 10
1850.0066000000002
 20
962.77330000000006
 11
1851.0643
 21
969.42010000000005
  0
LINE
  8
_0-1_2
  6
CONTINUOUS
 62
    3
 10
1840.0059999999999
 20
962.77520000000004
 11
1841.0637000000002
 21
969.4221
  0
LINE
  8
_0-1_2
  6
CONTINUOUS
 62
    3
 10
1830.0070000000001
 20
962.77579999999989
 11
1831.0646999999999
 21
969.4224999999999
  0
LINE
  8
_0-1_2
  6
CONTINUOUS
 62
    3
 10
1820.0064000000002
 20
962.77759999999989
 11
1821.0635000000002
 21
969.42319999999995
  0
LINE
  8
_0-1_2
  6
CONTINUOUS
 62
    3
 10
1811.2644
 20
962.77780000000007
 11
1812.3220000000001
 21
969.42470000000003
  0
LINE
  8
_0-1_2
  6
CONTINUOUS
 62
    3
 10
1863.1107999999999
 20
968.01029999999992
 11
1809.7087000000001
 21
968.01459999999997
  0
LINE
  8
_0-1_2
  6
CONTINUOUS
 62
    3
 10
1866.1089000000002
 20
971.00880000000006
 11
1863.1107999999999
 21
968.01029999999992
  0
LINE
  8
_0-1_2
  6
CONTINUOUS
 62
    3
 10
1863.1080000000002
 20
964.01019999999994
 11
1809.7089000000001
 21
964.01459999999997
  0
LINE
  8
_0-1_2
  6
CONTINUOUS
 62
    3
 10
1866.1084999999998
 20
961.00990000000002
 11
1863.1080000000002
 21
964.01019999999994
  0
LINE
  8
_0-1_2
  6
CONTINUOUS
 62
    3
 10
1789.1134999999999
 20
1066.0092
 11
1799.1145000000001
 21
1066.0084999999999
  0
LINE
  8
_0-1_2
  6
CONTINUOUS
 62
    3
 10
1789.1143999999999
 20
1063.0091
 11
1799.1133
 21
1063.0087000000001
  0
LINE
  8
_0-1_2
  6
CONTINUOUS
 62
    3
 10
1799.1145000000001
 20
1066.0084999999999
 11
1799.1133
 21
1063.0087000000001
  0
LINE
  8
_0-1_2
  6
CONTINUOUS
 62
    3
 10
1789.1134999999999
 20
1066.0092
 11
1789.1143999999999
 21
1063.0091
  0
LINE
  8
_0-1_2
  6
CONTINUOUS
 62
    3
 10
1794.1140999999998
 20
1066.0089
 11
1794.1140999999998
 21
1063.0084999999999
  0
LINE
  8
_0-1_2
  6
CONTINUOUS
 62
    3
 10
1794.1078000000002
 20
1001.009
 11
1796.1086
 21
1006.6092000000001
  0
LINE
  8
_0-1_2
  6
CONTINUOUS
 62
    3
 10
1794.1078000000002
 20
1001.009
 11
1792.1084999999998
 21
1006.6089999999999
  0
LINE
  8
_0-1_2
  6
CONTINUOUS
 62
    3
 10
1797.3499000000002
 20
1046.9068
 11
1790.7031000000002
 21
1047.9645
  0
LINE
  8
_0-1_2
  6
CONTINUOUS
 62
    3
 10
1797.348
 20
1036.9061999999999
 11
1790.7011000000002
 21
1037.9639
  0
LINE
  8
_0-1_2
  6
CONTINUOUS
 62
    3
 10
1797.3474000000001
 20
1026.9072000000001
 11
1790.7006000000001
 21
1027.9648999999999
  0
LINE
  8
_0-1_2
  6
CONTINUOUS
 62
    3
 10
1797.3456000000001
 20
1016.9066
 11
1790.6999999999998
 21
1017.9637
  0
LINE
  8
_0-1_2
  6
CONTINUOUS
 62
    3
 10
1797.3454000000002
 20
1008.1647
 11
1790.6985
 21
1009.2222999999999
  0
LINE
  8
_0-1_2
  6
CONTINUOUS
 62
    3
 10
1792.1129000000001
 20
1060.011
 11
1792.1084999999998
 21
1006.6089999999999
  0
LINE
  8
_0-1_2
  6
CONTINUOUS
 62
    3
 10
1789.1143999999999
 20
1063.0091
 11
1792.1129000000001
 21
1060.011
  0
LINE
  8
_0-1_2
  6
CONTINUOUS
 62
    3
 10
1796.1129999999998
 20
1060.0083
 11
1796.1086
 21
1006.6092000000001
  0
LINE
  8
_0-1_2
  6
CONTINUOUS
 62
    3
 10
1799.1133
 20
1063.0087000000001
 11
1796.1129999999998
 21
1060.0083
  0
LINE
  8
_0-3_4
  6
CONTINUOUS
 62
    3
 10
775.52019999999993
 20
1066.0089
 11
1884.1087000000002
 21
1066.0089
  0
LINE
  8
_0-3_4
  6
CONTINUOUS
 62
    3
 10
1884.1087000000002
 20
1066.0089
 11
1884.1087000000002
 21
1016.0089
  0
LINE
  8
_0-3_4
  6
CONTINUOUS
 62
    3
 10
775.52019999999993
 20
1016.0089
 11
1884.1087000000002
 21
1016.0089
  0
ARC
  8
_0-1_2
  6
CONTINUOUS
 62
    3
 10
1774.1082999999999
 20
1011.0092999999999
 40
2.7000000000000002
 50
89.996902000000006
 51
179.98901000000001
  0
ARC
  8
_0-1_2
  6
CONTINUOUS
 62
    3
 10
1814.107
 20
1011.0102999999999
 40
2.7000000000000002
 50
0.016586
 51
89.996902000000006
  0
ARC
  8
_0-1_2
  6
CONTINUOUS
 62
    3
 10
1814.1091999999999
 20
1011.0101999999999
 40
4.9989999999999997
 50
359.99803000000003
 51
90.008681999999993
  0
ARC
  8
_0-1_2
  6
CONTINUOUS
 62
    3
 10
1774.1068
 20
1011.01
 40
4.9989999999999997
 50
89.987410999999994
 51
180.00442000000001
  0
ARC
  8
_0-1_2
  6
CONTINUOUS
 62
    3
 10
1814.1107999999999
 20
921.00780000000009
 40
4.9989999999999997
 50
269.99376999999998
 51
0.0193180000000246
  0
ARC
  8
_0-1_2
  6
CONTINUOUS
 62
    3
 10
1774.1075999999998
 20
921.00729999999999
 40
4.9989999999999997
 50
179.98312999999999
 51
270.01506000000001
  0
ARC
  8
_0-1_2
  6
CONTINUOUS
 62
    3
 10
1774.1086
 20
921.00780000000009
 40
2.7000000000000002
 50
179.98901000000004
 51
270.00871000000006
  0
ARC
  8
_0-1_2
  6
CONTINUOUS
 62
    3
 10
1814.1097
 20
921.00829999999996
 40
2.7000000000000002
 50
270.00871000000006
 51
0.0165860000000489
  0
ARC
  8
_0-0_1
  6
CONTINUOUS
 62
    3
 10
1744.1075000000001
 20
956.00890000000004
 40
5
 50
179.98813999999999
 51
0.0030209999999897
  0
ARC
  8
_0-0_1
  6
CONTINUOUS
 62
    3
 10
1744.1073000000001
 20
976.00939999999991
 40
5
 50
0.0030209999999999
 51
179.98814000000002
  0
LINE
  8
_0-0_1
  6
CONTINUOUS
 62
    3
 10
1799.3310000000001
 20
1084.5089
 11
775.52019999999993
 21
1084.5089
  0
LINE
  8
_0-0_1
  6
CONTINUOUS
 62
    3
 10
1799.3310000000001
 20
1069.5089
 11
775.52019999999993
 21
1069.5089
  0
LINE
  8
_0-0_1
  6
CONTINUOUS
 62
    3
 10
1799.3310000000001
 20
1084.5089
 11
1799.3310000000001
 21
1069.5089
  0
LINE
  8
_0-0_1
  6
CONTINUOUS
 62
    3
 10
1898.0419999999999
 20
1167.7716
 11
1892.7386999999999
 21
1162.4683
  0
LINE
  8
_0-0_1
  6
CONTINUOUS
 62
    3
 10
1892.7386999999999
 20
1162.4683
 11
1894.6797999999999
 21
1169.7127
  0
LINE
  8
_0-0_1
  6
CONTINUOUS
 62
    3
 10
1892.7386999999999
 20
1162.4683
 11
1941.8643000000002
 21
1247.5563
  0
LINE
  8
_0-0_1
  6
CONTINUOUS
 62
    3
 10
1941.8643000000002
 20
1247.5563
 11
1989.8643000000002
 21
1247.5563
  0
LINE
  8
_0-0_1
  6
CONTINUOUS
 62
    3
 10
1366.7481
 20
1169.3893
 11
1361.4447999999998
 21
1164.086
  0
LINE
  8
_0-0_1
  6
CONTINUOUS
 62
    3
 10
1361.4447999999998
 20
1164.086
 11
1363.386
 21
1171.3304000000001
  0
LINE
  8
_0-0_1
  6
CONTINUOUS
 62
    3
 10
1361.4447999999998
 20
1164.086
 11
1406.3481999999999
 21
1241.8608999999999
  0
LINE
  8
_0-0_1
  6
CONTINUOUS
 62
    3
 10
1406.3481999999999
 20
1241.8608999999999
 11
1446.8481999999999
 21
1241.8608999999999
  0
LINE
  8
_0-0_1
  6
CONTINUOUS
 62
    3
 10
1914.3823000000002
 20
1090.7714000000001
 11
1909.0790000000002
 21
1085.4681
  0
LINE
  8
_0-0_1
  6
CONTINUOUS
 62
    3
 10
1909.0790000000002
 20
1085.4681
 11
1911.0201000000002
 21
1092.7125000000001
  0
LINE
  8
_0-0_1
  6
CONTINUOUS
 62
    3
 10
1909.0790000000002
 20
1085.4681
 11
1961.6988999999999
 21
1176.6085
  0
LINE
  8
_0-0_1
  6
CONTINUOUS
 62
    3
 10
1961.6988999999999
 20
1176.6085
 11
2141.6988999999999
 21
1176.6085
  0
LINE
  8
_0-0_1
  6
CONTINUOUS
 62
    3
 10
1854.3049999999998
 20
883.07359999999994
 11
1854.3049999999998
 21
890.57359999999994
  0
LINE
  8
_0-0_1
  6
CONTINUOUS
 62
    3
 10
1854.3049999999998
 20
890.57359999999994
 11
1858.0549999999998
 21
884.0784000000001
  0
LINE
  8
_0-0_1
  6
CONTINUOUS
 62
    3
 10
1854.3049999999998
 20
890.57359999999994
 11
1890.7885000000001
 21
754.41529999999989
  0
LINE
  8
_0-0_1
  6
CONTINUOUS
 62
    3
 10
1890.7885000000001
 20
754.41529999999989
 11
2099.1696000000002
 21
754.41529999999989
  0
LINE
  8
_0-0_1
  6
CONTINUOUS
 62
    3
 10
1876.9113000000002
 20
1082.8413
 11
1874.9702000000002
 21
1090.0857000000001
  0
LINE
  8
_0-0_1
  6
CONTINUOUS
 62
    3
 10
1874.9702000000002
 20
1090.0857000000001
 11
1880.2734999999998
 21
1084.7824000000001
  0
LINE
  8
_0-0_1
  6
CONTINUOUS
 62
    3
 10
1874.9702000000002
 20
1090.0857000000001
 11
1954.2509
 21
952.76739999999995
  0
LINE
  8
_0-0_1
  6
CONTINUOUS
 62
    3
 10
1954.2509
 20
952.76739999999995
 11
2200.2509
 21
952.76739999999995
  0
LINE
  8
_0-0_1
  6
CONTINUOUS
 62
    3
 10
1205.9972
 20
788.70000000000005
 11
938.68810000000008
 21
788.70000000000005
  0
LINE
  8
_0-0_1
  6
CONTINUOUS
 62
    3
 10
1368.8505
 20
1074.6525999999999
 11
1374.1538
 21
1079.9558999999999
  0
LINE
  8
_0-0_1
  6
CONTINUOUS
 62
    3
 10
1374.1538
 20
1079.9558999999999
 11
1372.2127
 21
1072.7113999999999
  0
LINE
  8
_0-0_1
  6
CONTINUOUS
 62
    3
 10
1374.1538
 20
1079.9558999999999
 11
1189.2157999999999
 21
759.63390000000004
  0
LINE
  8
_0-0_1
  6
CONTINUOUS
 62
    3
 10
1189.2157999999999
 20
759.63390000000004
 11
870.57339999999999
 21
759.63390000000004
  0
LINE
  8
_0-0_1
  6
CONTINUOUS
 62
    3
 10
1223.6488999999999
 20
819.59580000000005
 11
987.52369999999996
 21
819.59580000000005
  0
LINE
  8
_0-0_1
  6
CONTINUOUS
 62
    3
 10
1241.3254999999999
 20
849.57670000000007
 11
1048.9328
 21
849.57670000000007
  0
TEXT
  8
_0-0_1
 62
    7
 10
1941.8643000000006
 20
1250.0563000000006
 40
20
 41
1
 50
0
  1
右袖瓦
  0
TEXT
  8
_0-0_1
 62
    7
 10
1961.6988999999994
 20
1178.1085000000003
 40
20
 41
1
 50
0
  1
パッキンステンレスネジ
  0
TEXT
  8
_0-0_1
 62
    7
 10
1402.3668478280961
 20
1249.6309097724406
 40
20
 41
1
 50
0
  1
　桟　瓦
  0
TEXT
  8
_0-0_1
 62
    7
 10
938.12628043375275
 20
1342.4790232513096
 40
20
 41
1
 50
0
  1
260
  0
TEXT
  8
_0-0_1
 62
    7
 10
1195.7049178267428
 20
1337.9863725991054
 40
20
 41
1
 50
0
  1
260
  0
TEXT
  8
_0-0_1
 62
    7
 10
1456.2786556545359
 20
1339.4839228165065
 40
20
 41
1
 50
0
  1
260
  0
TEXT
  8
_0-0_1
 62
    7
 10
1710.8621926127248
 20
1337.9863725991054
 40
20
 41
1
 50
0
  1
260
  0
TEXT
  8
_0-0_1
 62
    7
 10
1862.1147645702365
 20
1336.4888223817045
 40
20
 41
1
 50
0
  1
30
  0
TEXT
  8
_0-0_1
 62
    7
 10
1386.7623584581825
 20
843.23669671838786
 40
20
 41
1
 50
0
  1
捨水切カラー鋼板0.35ｍｍ以上
  0
TEXT
  8
_0-0_1
 62
    7
 10
1954.2508999999998
 20
955.26739999999961
 40
20
 41
1
 50
0
  1
登り淀：40x72（防腐処理）
  0
TEXT
  8
_0-0_1
 62
    7
 10
1890.7885000000008
 20
756.91530000000057
 40
20
 41
1
 50
0
  1
破風板：薄型ALCパネル　
  0
TEXT
  8
_0-0_1
 62
    7
 10
1011.9071512511363
 20
858.41302089681085
 40
20
 41
1
 50
0
  1
　瓦桟：１５ｘ３０以上　
  0
TEXT
  8
_0-0_1
 62
    7
 10
990.66029740134411
 20
821.9898428685957
 40
20
 41
1
 50
0
  1
　下葺材：ルーフィング
  0
TEXT
  8
_0-0_1
 62
    7
 10
887.46129298806841
 20
790.11956209390758
 40
20
 41
1
 50
0
  1
　下地：ＡＬＣパネル　ｔ＝５０
  0
TEXT
  8
_0-0_1
 62
    7
 10
808.54440726026905
 20
764.31981099058862
 40
20
 41
1
 50
0
  1
　鋼製：Ｃ１００ｘ５０ｘ２０ｘ２．３
  0
ENDSEC
  0
EOF
