  0
SECTION
  2
HEADER
  9
$ACADVER
  1
AC1009
  9
$INSBASE
 10
0
 20
0
 30
0
  9
$EXTMIN
 10
0
 20
0
  9
$EXTMAX
 10
2970
 20
2100
  9
$LIMMIN
 10
0
 20
0
  9
$LIMMAX
 10
2970
 20
2100
  9
$LTSCALE
 40
10
  0
ENDSEC
  0
SECTION
  2
TABLES
  0
TABLE
  2
LTYPE
 70
     9
  0
LTYPE
  2
CONTINUOUS
 70
    64
  3
実線
 72
    65
 73
     0
 40
0.0
  0
LTYPE
  2
DASHED1
 70
    64
  3
--  --  --  --  --  --  --  --  
 72
    65
 73
     2
 40
2.5
 49
1.25
 49
-1.25
  0
LTYPE
  2
DASHED2
 70
    64
  3
----    ----    ----    ----    
 72
    65
 73
     2
 40
5.0
 49
2.5
 49
-2.5
  0
LTYPE
  2
DASHED3
 70
    64
  3
------  ------  ------  ------  
 72
    65
 73
     2
 40
5.0
 49
3.75
 49
-1.25
  0
LTYPE
  2
CENTER1
 70
    64
  3
----- - ----- - ----- - ----- - 
 72
    65
 73
     4
 40
10.0
 49
6.25
 49
-1.25
 49
1.25
 49
-1.25
  0
LTYPE
  2
CENTER2
 70
    64
  3
----------  --  ----------  --  
 72
    65
 73
     4
 40
20.0
 49
12.5
 49
-2.5
 49
2.5
 49
-2.5
  0
LTYPE
  2
PHANTOM1
 70
    64
  3
--- - - --- - - --- - - --- - - 
 72
    65
 73
     6
 40
10.0
 49
3.25
 49
-1.25
 49
1.25
 49
-1.25
 49
1.25
 49
-1.25
  0
LTYPE
  2
PHANTOM2
 70
    64
  3
--------  -  -  --------  -  -  
 72
    65
 73
     6
 40
20.0
 49
10.0
 49
-2.5
 49
1.25
 49
-2.5
 49
1.25
 49
-2.5
  0
LTYPE
  2
DOT
 70
    64
  3
-   -   -   -   -   -   -   -   
 72
    65
 73
     2
 40
2.5
 49
0.625
 49
-1.875
  0
LTYPE
  2
DUMMY
 70
    64
  3
ダミー
 72
    65
 73
     0
 40
0.0
  0
LTYPE
  2
RAND1
 70
    64
  3
ランダム線1
 72
    65
 73
     4
 40
10.0
 49
1.0
 49
-2.0
 49
3.0
 49
-4.0
  0
LTYPE
  2
RAND2
 70
    64
  3
ランダム線2
 72
    65
 73
     4
 40
14.0
 49
2.0
 49
-3.0
 49
4.0
 49
-5.0
  0
LTYPE
  2
RAND3
 70
    64
  3
ランダム線3
 72
    65
 73
     4
 40
18.0
 49
3.0
 49
-4.0
 49
5.0
 49
-6.0
  0
LTYPE
  2
RAND4
 70
    64
  3
ランダム線4
 72
    65
 73
     4
 40
22.0
 49
4.0
 49
-5.0
 49
6.0
 49
-7.0
  0
LTYPE
  2
RAND5
 70
    64
  3
ランダム線5
 72
    65
 73
     4
 40
26.0
 49
5.0
 49
-6.0
 49
7.0
 49
-8.0
  0
LTYPE
  2
LONG1
 70
    64
  3
----------  --  ----------  --  
 72
    65
 73
     4
 40
40.0
 49
32.5
 49
-2.5
 49
2.5
 49
-2.5
  0
LTYPE
  2
LONG2
 70
    64
  3
--------  -  -  --------  -  -  
 72
    65
 73
     6
 40
40.0
 49
30.0
 49
-2.5
 49
1.25
 49
-2.5
 49
1.25
 49
-2.5
  0
LTYPE
  2
LONG3
 70
    64
  3
+++++++++++++++..+++++++++++++++
 72
    65
 73
     2
 40
40.0
 49
37.5
 49
-2.5
  0
LTYPE
  2
LONG4
 70
    64
  3
+++++++++++++++..+++++++++++++++
 72
    65
 73
     2
 40
80.0
 49
75.0
 49
-5.0
  0
LTYPE
  2
LONG5
 70
    64
  3
----------  --  ----------  --  
 72
    65
 73
     4
 40
60.0
 49
37.5
 49
-7.5
 49
7.5
 49
-7.5
  0
LTYPE
  2
dashed
 70
   64
  3
-------   -------------   ------
 72
   65
 73
    2
 40
7.5
 49
6
 49
-1.5
  0
LTYPE
  2
dashed_spaced
 70
   64
  3
----        --------        ----
 72
   65
 73
    2
 40
12
 49
6
 49
-6
  0
LTYPE
  2
long_dashed_dotted
 70
   64
  3
------------- --- --------------
 72
   65
 73
    4
 40
15.25
 49
12
 49
-1.5
 49
0.25
 49
-1.5
  0
LTYPE
  2
long_dashed_double-dotted
 70
   64
  3
----------- --- --- ------------
 72
   65
 73
    6
 40
17
 49
12
 49
-1.5
 49
0.25
 49
-1.5
 49
0.25
 49
-1.5
  0
LTYPE
  2
long_dashed_triplicate-dotted
 70
   64
  3
--------- --- --- --- ----------
 72
   65
 73
    8
 40
18.75
 49
12
 49
-1.5
 49
0.25
 49
-1.5
 49
0.25
 49
-1.5
 49
0.25
 49
-1.5
  0
LTYPE
  2
dotted
 70
   64
  3
   -       -       -       -    
 72
   65
 73
    2
 40
1.75
 49
0.25
 49
-1.5
  0
LTYPE
  2
chain
 70
   64
  3
-------------- -- --------------
 72
   65
 73
    4
 40
18.5
 49
12
 49
-1.5
 49
3.5
 49
-1.5
  0
LTYPE
  2
chain_double_dash
 70
   64
  3
------------ -- -- -------------
 72
   65
 73
    6
 40
23.5
 49
12
 49
-1.5
 49
3.5
 49
-1.5
 49
3.5
 49
-1.5
  0
LTYPE
  2
dashed_dotted
 70
   64
  3
-----------     -     ----------
 72
   65
 73
    4
 40
9.25
 49
6
 49
-1.5
 49
0.25
 49
-1.5
  0
LTYPE
  2
double-dashed_dotted
 70
   64
  3
------   -----------   -   -----
 72
   65
 73
    6
 40
16.75
 49
6
 49
-1.5
 49
6
 49
-1.5
 49
0.25
 49
-1.5
  0
LTYPE
  2
dashed_double-dotted
 70
   64
  3
---------    -    -    ---------
 72
   65
 73
    6
 40
11
 49
6
 49
-1.5
 49
0.25
 49
-1.5
 49
0.25
 49
-1.5
  0
LTYPE
  2
double-dashed_double-dotted
 70
   64
  3
-----   ---------   -   -   ----
 72
   65
 73
    8
 40
18.5
 49
6
 49
-1.5
 49
6
 49
-1.5
 49
0.25
 49
-1.5
 49
0.25
 49
-1.5
  0
LTYPE
  2
dashed_triplicate-dotted
 70
   64
  3
-------    -    -    -    ------
 72
   65
 73
    8
 40
12.75
 49
6
 49
-1.5
 49
0.25
 49
-1.5
 49
0.25
 49
-1.5
 49
0.25
 49
-1.5
  0
LTYPE
  2
double-dashed_triplicate-dotted
 70
   64
  3
-----  ---------  -  -  -  -----
 72
   65
 73
   10
 40
20.25
 49
6
 49
-1.5
 49
6
 49
-1.5
 49
0.25
 49
-1.5
 49
0.25
 49
-1.5
 49
0.25
 49
-1.5
  0
LTYPE
  2
undefined
 70
   64
  3
--------------------------------
 72
   65
 73
    0
 40
0
  0
ENDTAB
  0
TABLE
  2
STYLE
  5
3
100
AcDbSymbolTable
 70
     1
  0
STYLE
  5
10
100
AcDbSymbolTableRecord
100
AcDbTextStyleTableRecord
  2
STANDARD
 70
     0
 40
0.0
 41
1.0
 50
0.0
 71
     0
 42
0.2
  3
txt
  4
bigfont.shx
  0
STYLE
  5
26
100
AcDbSymbolTableRecord
100
AcDbTextStyleTableRecord
  2
TATEGAKI
 70
    68
 40
0.0
 41
1.0
 50
0.0
 71
     0
 42
1.0
  3
txt
  4
bigfont.shx
  0
ENDTAB
  0
TABLE
  2
LAYER
 70
    6
  0
LAYER
  2
_0-0_1
 70
   64
 62
    7
  6
CONTINUOUS
  0
LAYER
  2
_0-1_2
 70
   64
 62
    7
  6
CONTINUOUS
  0
LAYER
  2
_0-2_3
 70
   64
 62
    7
  6
CONTINUOUS
  0
LAYER
  2
_0-3_4
 70
   64
 62
    7
  6
CONTINUOUS
  0
LAYER
  2
_0-4_6
 70
   64
 62
    7
  6
CONTINUOUS
  0
LAYER
  2
ADD_LINE
 70
   64
 62
    7
  6
CONTINUOUS
  0
ENDTAB
  0
ENDSEC
  0
SECTION
  2
BLOCKS
  0
ENDSEC
  0
SECTION
  2
ENTITIES
  0
LINE
  8
_0-4_6
  6
CONTINUOUS
 62
    3
 10
1680.0664000000002
 20
1077.3974000000001
 11
1613.9521
 21
1102.4752000000001
  0
LINE
  8
_0-4_6
  6
CONTINUOUS
 62
    3
 10
1683.9353000000001
 20
1079.1384
 11
1617.8209999999999
 21
1104.2163
  0
LINE
  8
_0-4_6
  6
CONTINUOUS
 62
    3
 10
1873.5142000000001
 20
1164.4486999999999
 11
1807.3998999999999
 21
1189.5264999999999
  0
LINE
  8
_0-4_6
  6
CONTINUOUS
 62
    3
 10
1877.3832000000002
 20
1166.1896999999999
 11
1811.2687999999998
 21
1191.2675999999999
  0
LINE
  8
_0-0_1
  6
CONTINUOUS
 62
    3
 10
1177.9988000000001
 20
692.4507000000001
 11
1170.7637999999999
 21
705.17450000000008
  0
LINE
  8
_0-0_1
  6
CONTINUOUS
 62
    3
 10
1204.4443000000001
 20
727.37869999999998
 11
1178.0129999999999
 21
702.12210000000005
  0
LINE
  8
_0-0_1
  6
CONTINUOUS
 62
    3
 10
1169.2511
 20
693.7496000000001
 11
1148.3100999999999
 21
673.73929999999996
  0
LINE
  8
_0-0_1
  6
CONTINUOUS
 62
    3
 10
1169.2063000000001
 20
693.70679999999993
 11
1177.9988000000001
 21
692.4507000000001
  0
LINE
  8
_0-0_1
  6
CONTINUOUS
 62
    3
 10
1170.7637999999999
 20
705.17450000000008
 11
1178.0129999999999
 21
702.12210000000005
  0
LINE
  8
_0-0_1
  6
CONTINUOUS
 62
    3
 10
1639.3676
 20
1171.8983000000001
 11
1641.3087
 21
1164.6539
  0
LINE
  8
_0-0_1
  6
CONTINUOUS
 62
    3
 10
1641.3087
 20
1164.6539
 11
1636.0054
 21
1169.9572000000001
  0
LINE
  8
_0-0_1
  6
CONTINUOUS
 62
    3
 10
1641.3087
 20
1164.6539
 11
1586.1478000000002
 21
1260.1955
  0
LINE
  8
_0-0_1
  6
CONTINUOUS
 62
    3
 10
1586.1478000000002
 20
1260.1955
 11
1545.6478000000002
 21
1260.1955
  0
LINE
  8
_0-0_1
  6
CONTINUOUS
 62
    3
 10
2140.0774999999999
 20
1171.4541999999999
 11
2078.0661
 21
1143.5494000000001
  0
LINE
  8
_0-0_1
  6
CONTINUOUS
 62
    3
 10
2146.6884
 20
1168.9462000000001
 11
2147.5091000000002
 21
1167.1222
  0
LINE
  8
_0-0_1
  6
CONTINUOUS
 62
    3
 10
2147.5091000000002
 20
1167.1222
 11
2065.4362999999998
 21
1130.1890000000001
  0
ARC
  8
_0-0_1
  6
CONTINUOUS
 62
    3
 10
2073.9630000000002
 20
1152.6708000000001
 40
10.001999
 50
204.2319
 51
294.21913000000001
  0
ARC
  8
_0-0_1
  6
CONTINUOUS
 62
    3
 10
2142.1298999999999
 20
1166.8954000000001
 40
4.9989999999999997
 50
24.224954
 51
114.23559000000002
  0
LINE
  8
_0-0_1
  6
CONTINUOUS
 62
    3
 10
2030.9902999999999
 20
1167.327
 11
2032.7302
 21
1166.0737999999999
  0
LINE
  8
_0-0_1
  6
CONTINUOUS
 62
    3
 10
2014.1219000000001
 20
1181.6658
 11
2023.2609000000002
 21
1168.2337
  0
LINE
  8
_0-0_1
  6
CONTINUOUS
 62
    3
 10
2019.6783999999998
 20
1184.1659999999999
 11
2028.8164999999999
 21
1170.7329999999999
  0
LINE
  8
_0-0_1
  6
CONTINUOUS
 62
    3
 10
2014.1219000000001
 20
1181.6658
 11
2013.1187
 21
1179.0211999999999
  0
LINE
  8
_0-0_1
  6
CONTINUOUS
 62
    3
 10
2029.3494999999998
 20
1170.9737
 11
2020.6876999999999
 21
1167.0755999999999
  0
LINE
  8
_0-0_1
  6
CONTINUOUS
 62
    3
 10
2014.1219000000001
 20
1181.6658
 11
2020.6876999999999
 21
1167.0755999999999
  0
LINE
  8
_0-0_1
  6
CONTINUOUS
 62
    3
 10
2018.0423000000001
 20
1168.0784000000001
 11
2020.6876999999999
 21
1167.0755999999999
  0
LINE
  8
_0-0_1
  6
CONTINUOUS
 62
    3
 10
2013.1187
 20
1179.0211999999999
 11
2018.0423000000001
 21
1168.0784000000001
  0
ARC
  8
_0-0_1
  6
CONTINUOUS
 62
    3
 10
2035.9506999999999
 20
1171.3121000000001
 40
6.1580000000000004
 50
169.90002999999999
 51
203.85469000000001
  0
LINE
  8
_0-0_1
  6
CONTINUOUS
 62
    3
 10
2030.3272000000002
 20
1213.0843
 11
2028.5039000000002
 21
1212.2630999999999
  0
LINE
  8
_0-0_1
  6
CONTINUOUS
 62
    3
 10
2065.4360999999999
 20
1130.1895
 11
2028.5039000000002
 21
1212.2630999999999
  0
LINE
  8
_0-0_1
  6
CONTINUOUS
 62
    3
 10
2036.9389000000001
 20
1210.5758000000001
 11
2064.8429999999998
 21
1148.5650000000001
  0
LINE
  8
_0-0_1
  6
CONTINUOUS
 62
    3
 10
2037.9223999999999
 20
1183.6035999999999
 11
2035.1864
 21
1182.3720000000001
  0
LINE
  8
_0-0_1
  6
CONTINUOUS
 62
    3
 10
2031.3568
 20
1198.1939
 11
2028.6210000000001
 21
1196.9623999999999
  0
LINE
  8
_0-0_1
  6
CONTINUOUS
 62
    3
 10
2041.7511
 20
1167.7827
 11
2028.6210000000001
 21
1196.9623999999999
  0
LINE
  8
_0-0_1
  6
CONTINUOUS
 62
    3
 10
2044.4879999999998
 20
1169.0136
 11
2041.7511
 21
1167.7827
  0
LINE
  8
_0-0_1
  6
CONTINUOUS
 62
    3
 10
2029.8867
 20
1172.3921
 11
2038.0275999999999
 21
1176.0561
  0
LINE
  8
_0-0_1
  6
CONTINUOUS
 62
    3
 10
2024.2015000000001
 20
1185.027
 11
2032.3422999999998
 21
1188.6895999999999
  0
LINE
  8
_0-0_1
  6
CONTINUOUS
 62
    3
 10
2021.3573999999999
 20
1191.3444999999999
 11
2029.4996999999998
 21
1195.0083999999999
  0
LINE
  8
_0-0_1
  6
CONTINUOUS
 62
    3
 10
2021.1419000000001
 20
1189.2139999999999
 11
2021.3573999999999
 21
1191.3444999999999
  0
LINE
  8
_0-0_1
  6
CONTINUOUS
 62
    3
 10
2030.9902999999999
 20
1167.327
 11
2021.1419000000001
 21
1189.2139999999999
  0
LINE
  8
_0-0_1
  6
CONTINUOUS
 62
    3
 10
2032.7302
 20
1166.0737999999999
 11
2040.8715999999999
 21
1169.7372
  0
LINE
  8
_0-0_1
  6
CONTINUOUS
 62
    3
 10
2052.4973
 20
1197.7589
 11
2044.3564999999999
 21
1194.0951
  0
LINE
  8
_0-0_1
  6
CONTINUOUS
 62
    3
 10
2058.1828
 20
1185.1241
 11
2050.0410999999999
 21
1181.4607000000001
  0
LINE
  8
_0-0_1
  6
CONTINUOUS
 62
    3
 10
2061.0266000000001
 20
1178.8065999999999
 11
2052.8845999999999
 21
1175.1425999999999
  0
LINE
  8
_0-0_1
  6
CONTINUOUS
 62
    3
 10
2061.2422999999999
 20
1180.9369999999999
 11
2061.0266000000001
 21
1178.8065999999999
  0
LINE
  8
_0-0_1
  6
CONTINUOUS
 62
    3
 10
2051.3935999999999
 20
1202.8241
 11
2061.2422999999999
 21
1180.9369999999999
  0
LINE
  8
_0-0_1
  6
CONTINUOUS
 62
    3
 10
2049.6541999999999
 20
1204.0771999999999
 11
2041.5126
 21
1200.4139
  0
LINE
  8
_0-0_1
  6
CONTINUOUS
 62
    3
 10
2051.3935999999999
 20
1202.8241
 11
2049.6541999999999
 21
1204.0771999999999
  0
LINE
  8
_0-0_1
  6
CONTINUOUS
 62
    3
 10
2022.7846
 20
1185.5634
 11
2014.1219000000001
 21
1181.6658
  0
ARC
  8
_0-0_1
  6
CONTINUOUS
 62
    3
 10
2032.3802000000001
 20
1208.5251000000001
 40
4.9989999999999997
 50
24.224954
 51
114.23559000000002
  0
ARC
  8
_0-0_1
  6
CONTINUOUS
 62
    3
 10
2027.4050999999999
 20
1190.2761
 40
6.1470010000000013
 50
204.58611000000002
 51
238.59338000000002
  0
ARC
  8
_0-0_1
  6
CONTINUOUS
 62
    3
 10
2046.9477999999999
 20
1187.6674
 40
22.898997999999999
 50
186.62354999999999
 51
221.83906999999999
  0
ARC
  8
_0-0_1
  6
CONTINUOUS
 62
    3
 10
2054.9762999999998
 20
1179.8761
 40
6.1479999999999997
 50
24.562933999999998
 51
58.577674000000009
  0
ARC
  8
_0-0_1
  6
CONTINUOUS
 62
    3
 10
2046.4441000000002
 20
1198.8384000000001
 40
6.1479999999999997
 50
349.89965999999998
 51
23.901924000000019
  0
ARC
  8
_0-0_1
  6
CONTINUOUS
 62
    3
 10
2035.3998000000001
 20
1182.4685999999999
 40
22.936000999999997
 50
6.651644000000001
 51
41.808413999999999
  0
LINE
  8
_0-0_1
  6
CONTINUOUS
 62
    3
 10
1984.5998
 20
1192.5057999999999
 11
1982.5023999999999
 21
1191.5617999999999
  0
LINE
  8
_0-0_1
  6
CONTINUOUS
 62
    3
 10
2009.2217999999998
 20
1137.7905000000001
 11
2007.1244000000002
 21
1136.8465000000001
  0
LINE
  8
_0-0_1
  6
CONTINUOUS
 62
    3
 10
2016.9137000000001
 20
1226.4567
 11
1979.1601999999998
 21
1209.4674
  0
LINE
  8
_0-0_1
  6
CONTINUOUS
 62
    3
 10
1984.5998
 20
1192.5057999999999
 11
1978.1570999999999
 21
1206.8227999999999
  0
LINE
  8
_0-0_1
  6
CONTINUOUS
 62
    3
 10
2015.6646000000001
 20
1123.4734000000001
 11
2009.2217999999998
 21
1137.7905000000001
  0
LINE
  8
_0-0_1
  6
CONTINUOUS
 62
    3
 10
2056.0628000000002
 20
1139.4593
 11
2018.3092999999999
 21
1122.4702
  0
LINE
  8
_0-0_1
  6
CONTINUOUS
 62
    3
 10
1982.5023999999999
 20
1191.5617999999999
 11
1976.0598
 21
1205.8789999999999
  0
LINE
  8
_0-0_1
  6
CONTINUOUS
 62
    3
 10
2015.9701
 20
1228.5540000000001
 11
1978.2165
 21
1211.5648000000001
  0
LINE
  8
_0-0_1
  6
CONTINUOUS
 62
    3
 10
2013.5671000000002
 20
1122.5293999999999
 11
2007.1244000000002
 21
1136.8465000000001
  0
LINE
  8
_0-0_1
  6
CONTINUOUS
 62
    3
 10
2057.0065
 20
1137.3617999999999
 11
2019.2530999999999
 21
1120.3728000000001
  0
LINE
  8
_0-0_1
  6
CONTINUOUS
 62
    3
 10
2057.0657999999999
 20
1142.104
 11
2019.5583000000001
 21
1225.4536000000001
  0
LINE
  8
_0-0_1
  6
CONTINUOUS
 62
    3
 10
2021.6556999999998
 20
1226.3972000000001
 11
2059.1632
 21
1143.0476000000001
  0
ARC
  8
_0-0_1
  6
CONTINUOUS
 62
    3
 10
1979.9810000000002
 20
1207.6436000000001
 40
2.000003
 50
114.22777000000002
 51
204.22776000000002
  0
ARC
  8
_0-0_1
  6
CONTINUOUS
 62
    3
 10
2017.4884999999999
 20
1124.2941000000001
 40
2.000003
 50
204.22776000000002
 51
294.22775999999999
  0
ARC
  8
_0-0_1
  6
CONTINUOUS
 62
    3
 10
2017.4884999999999
 20
1124.2941000000001
 40
4.2999999999999998
 50
204.22776000000002
 51
294.22775999999999
  0
ARC
  8
_0-0_1
  6
CONTINUOUS
 62
    3
 10
1979.9810000000002
 20
1207.6436000000001
 40
4.2999999999999998
 50
114.22777000000002
 51
204.22776000000002
  0
ARC
  8
_0-0_1
  6
CONTINUOUS
 62
    3
 10
2017.7343999999998
 20
1224.6327000000001
 40
2.000003
 50
24.227764000000004
 51
114.22777000000002
  0
ARC
  8
_0-0_1
  6
CONTINUOUS
 62
    3
 10
2055.2420000000002
 20
1141.2831000000001
 40
2.000003
 50
294.22775999999999
 51
24.227764000000008
  0
ARC
  8
_0-0_1
  6
CONTINUOUS
 62
    3
 10
2055.2420000000002
 20
1141.2831000000001
 40
4.2999999999999998
 50
294.22775999999999
 51
24.227764000000008
  0
ARC
  8
_0-0_1
  6
CONTINUOUS
 62
    3
 10
2017.7343999999998
 20
1224.6327000000001
 40
4.2999999999999998
 50
24.227764000000004
 51
114.22777000000002
  0
LINE
  8
_0-0_1
  6
CONTINUOUS
 62
    3
 10
1981.0925000000002
 20
1267.6880000000001
 11
1971.9722000000002
 21
1263.5840000000001
  0
LINE
  8
_0-0_1
  6
CONTINUOUS
 62
    3
 10
1982.3225000000002
 20
1264.9516000000001
 11
1973.2040999999999
 21
1260.8489
  0
LINE
  8
_0-0_1
  6
CONTINUOUS
 62
    3
 10
1971.9722000000002
 20
1263.5840000000001
 11
1973.2040999999999
 21
1260.8489
  0
LINE
  8
_0-0_1
  6
CONTINUOUS
 62
    3
 10
1981.0925000000002
 20
1267.6880000000001
 11
1982.3225000000002
 21
1264.9516000000001
  0
LINE
  8
_0-0_1
  6
CONTINUOUS
 62
    3
 10
1976.5324999999998
 20
1265.6360999999999
 11
1977.7633000000001
 21
1262.8996
  0
LINE
  8
_0-0_1
  6
CONTINUOUS
 62
    3
 10
2003.2060000000001
 20
1206.3613
 11
1999.0837999999999
 21
1210.6475
  0
LINE
  8
_0-0_1
  6
CONTINUOUS
 62
    3
 10
2003.2060000000001
 20
1206.3613
 11
2002.7314999999999
 21
1212.2882999999999
  0
LINE
  8
_0-0_1
  6
CONTINUOUS
 62
    3
 10
1981.4185000000002
 20
1246.8882000000001
 11
1987.0463
 21
1250.5796
  0
LINE
  8
_0-0_1
  6
CONTINUOUS
 62
    3
 10
1983.4704999999999
 20
1242.3289
 11
1989.0992999999999
 21
1246.0195000000001
  0
LINE
  8
_0-0_1
  6
CONTINUOUS
 62
    3
 10
1985.5234
 20
1237.7686000000001
 11
1991.1509999999998
 21
1241.4603
  0
LINE
  8
_0-0_1
  6
CONTINUOUS
 62
    3
 10
1987.5743000000002
 20
1233.2084
 11
1993.2020000000002
 21
1236.9010000000001
  0
LINE
  8
_0-0_1
  6
CONTINUOUS
 62
    3
 10
1989.6262000000002
 20
1228.6502
 11
1995.2538
 21
1232.3416999999999
  0
LINE
  8
_0-0_1
  6
CONTINUOUS
 62
    3
 10
1991.6779999999999
 20
1224.0898999999999
 11
1997.3069
 21
1227.7817
  0
LINE
  8
_0-0_1
  6
CONTINUOUS
 62
    3
 10
1993.7307999999998
 20
1219.5308
 11
1999.3577
 21
1223.2213999999999
  0
LINE
  8
_0-0_1
  6
CONTINUOUS
 62
    3
 10
1995.7819
 20
1214.9704999999999
 11
2001.4096
 21
1218.6623
  0
LINE
  8
_0-0_1
  6
CONTINUOUS
 62
    3
 10
1997.3177999999998
 20
1211.5585000000001
 11
2002.9452000000001
 21
1215.2501
  0
LINE
  8
_0-0_1
  6
CONTINUOUS
 62
    3
 10
1980.8182000000002
 20
1260.9873
 11
2002.7314999999999
 21
1212.2882999999999
  0
LINE
  8
_0-0_1
  6
CONTINUOUS
 62
    3
 10
1982.3225000000002
 20
1264.9516000000001
 11
1980.8182000000002
 21
1260.9873
  0
LINE
  8
_0-0_1
  6
CONTINUOUS
 62
    3
 10
1977.1714000000002
 20
1259.3434
 11
1999.0837999999999
 21
1210.6475
  0
LINE
  8
_0-0_1
  6
CONTINUOUS
 62
    3
 10
1973.2040999999999
 20
1260.8489
 11
1977.1714000000002
 21
1259.3434
  0
LINE
  8
_0-0_1
  6
CONTINUOUS
 62
    3
 10
917.66030000000001
 20
1072.3557000000001
 11
935.10719999999992
 21
1022.8395
  0
CIRCLE
  8
_0-0_1
  6
CONTINUOUS
 62
    3
 10
918.49109999999996
 20
1069.9978000000001
 40
1.6999999999999997
  0
LINE
  8
_0-0_1
  6
CONTINUOUS
 62
    3
 10
918.49109999999996
 20
1069.9978000000001
 11
1163.7145
 21
1156.4010000000001
  0
CIRCLE
  8
_0-0_1
  6
CONTINUOUS
 62
    3
 10
1163.7145
 20
1156.4010000000001
 40
1.6999999999999997
  0
LINE
  8
_0-0_1
  6
CONTINUOUS
 62
    3
 10
1162.8837000000001
 20
1158.759
 11
1180.3305
 21
1109.2427
  0
LINE
  8
_0-0_1
  6
CONTINUOUS
 62
    3
 10
1623.1903000000002
 20
1416.3689999999999
 11
1640.6370999999999
 21
1366.8526999999999
  0
CIRCLE
  8
_0-0_1
  6
CONTINUOUS
 62
    3
 10
1624.0210999999999
 20
1414.011
 40
1.6999999999999997
  0
LINE
  8
_0-0_1
  6
CONTINUOUS
 62
    3
 10
1624.0210999999999
 20
1414.011
 11
1869.2442999999998
 21
1500.4142999999999
  0
CIRCLE
  8
_0-0_1
  6
CONTINUOUS
 62
    3
 10
1869.2442999999998
 20
1500.4142999999999
 40
1.6999999999999997
  0
LINE
  8
_0-0_1
  6
CONTINUOUS
 62
    3
 10
1868.4135000000001
 20
1502.7721999999999
 11
1885.8602999999998
 21
1453.2559000000001
  0
LINE
  8
_0-0_1
  6
CONTINUOUS
 62
    3
 10
1152.6828
 20
1186.9725000000001
 11
1170.1296
 21
1137.4562000000001
  0
CIRCLE
  8
_0-0_1
  6
CONTINUOUS
 62
    3
 10
1153.5136
 20
1184.6146000000001
 40
1.6999999999999997
  0
LINE
  8
_0-0_1
  6
CONTINUOUS
 62
    3
 10
1153.5136
 20
1184.6146000000001
 11
1398.7370000000001
 21
1271.0178000000001
  0
CIRCLE
  8
_0-0_1
  6
CONTINUOUS
 62
    3
 10
1398.7370000000001
 20
1271.0178000000001
 40
1.6999999999999997
  0
LINE
  8
_0-0_1
  6
CONTINUOUS
 62
    3
 10
1397.9061999999999
 20
1273.3757000000001
 11
1415.3530000000001
 21
1223.8595
  0
LINE
  8
_0-0_1
  6
CONTINUOUS
 62
    3
 10
1387.9366
 20
1301.6706999999999
 11
1405.3834000000002
 21
1252.1545000000001
  0
CIRCLE
  8
_0-0_1
  6
CONTINUOUS
 62
    3
 10
1388.7673999999997
 20
1299.3127999999999
 40
1.6999999999999997
  0
LINE
  8
_0-0_1
  6
CONTINUOUS
 62
    3
 10
1388.7673999999997
 20
1299.3127999999999
 11
1633.9906999999998
 21
1385.7161000000001
  0
CIRCLE
  8
_0-0_1
  6
CONTINUOUS
 62
    3
 10
1633.9906999999998
 20
1385.7161000000001
 40
1.6999999999999997
  0
LINE
  8
_0-0_1
  6
CONTINUOUS
 62
    3
 10
1633.1599000000001
 20
1388.0740000000001
 11
1650.6066999999998
 21
1338.5577000000001
  0
LINE
  8
_0-0_1
  6
CONTINUOUS
 62
    3
 10
1277.9804999999999
 20
954.84179999999992
 11
1250.6146000000001
 21
942.52710000000002
  0
LINE
  8
_0-0_1
  6
CONTINUOUS
 62
    3
 10
1515.7170999999998
 20
1061.8235
 11
1488.3512999999998
 21
1049.5088000000001
  0
LINE
  8
_0-0_1
  6
CONTINUOUS
 62
    3
 10
1753.4537999999998
 20
1168.8053
 11
1726.0879
 21
1156.4906000000001
  0
LINE
  8
_0-0_1
  6
CONTINUOUS
 62
    5
 10
1741.8402000000001
 20
1203.5896
 11
1742.8371999999999
 21
1200.7601
  0
LINE
  8
_0-0_1
  6
CONTINUOUS
 62
    5
 10
1741.8402000000001
 20
1203.5896
 11
1750.3287
 21
1206.5805
  0
LINE
  8
_0-0_1
  6
CONTINUOUS
 62
    5
 10
1675.5918000000001
 20
1268.8296
 11
1702.9295999999999
 21
1191.2417
  0
LINE
  8
_0-0_1
  6
CONTINUOUS
 62
    5
 10
1702.9295999999999
 20
1191.2417
 11
1986.8227999999999
 21
1291.2700999999997
  0
LINE
  8
_0-0_1
  6
CONTINUOUS
 62
    5
 10
1694.2743
 20
1219.3889999999999
 11
1932.7402999999999
 21
1321.3878
  0
LINE
  8
_0-0_1
  6
CONTINUOUS
 62
    5
 10
1986.8227999999999
 20
1291.2700999999997
 11
1990.8105999999998
 21
1279.9521
  0
LINE
  8
_0-0_1
  6
CONTINUOUS
 62
    5
 10
1990.8105999999998
 20
1279.9521
 11
1999.2991000000002
 21
1282.9429
  0
LINE
  8
_0-0_1
  6
CONTINUOUS
 62
    5
 10
1979.8440000000001
 20
1311.0764999999997
 11
1980.8409000000001
 21
1308.2471
  0
LINE
  8
_0-0_1
  6
CONTINUOUS
 62
    5
 10
1696.9477999999999
 20
1208.2186999999999
 11
1980.8409000000001
 21
1308.2471
  0
LINE
  8
_0-0_1
  6
CONTINUOUS
 62
    5
 10
1675.6017000000002
 20
1269.232
 11
1920.6900999999998
 21
1355.5877
  0
LINE
  8
_0-0_1
  6
CONTINUOUS
 62
    5
 10
1979.8440000000001
 20
1311.0764999999997
 11
1988.3323999999998
 21
1314.0673999999999
  0
LINE
  8
_0-0_1
  6
CONTINUOUS
 62
    5
 10
1988.3323999999998
 20
1314.0673999999999
 11
1999.2991000000002
 21
1282.9429
  0
LINE
  8
_0-0_1
  6
CONTINUOUS
 62
    5
 10
1913.9009999999998
 20
1375.2885000000001
 11
1941.2386999999999
 21
1297.7003999999999
  0
LINE
  8
_0-0_1
  6
CONTINUOUS
 62
    5
 10
1941.2386999999999
 20
1297.7003999999999
 11
2120.4034999999999
 21
1360.8283000000001
  0
LINE
  8
_0-0_1
  6
CONTINUOUS
 62
    5
 10
1932.5834
 20
1325.8476999999998
 11
2103.9843999999998
 21
1399.1608999999999
  0
LINE
  8
_0-0_1
  6
CONTINUOUS
 62
    5
 10
1935.2568999999999
 20
1314.6774
 11
2113.3009000000002
 21
1377.4103
  0
LINE
  8
_0-0_1
  6
CONTINUOUS
 62
    5
 10
1913.9106999999999
 20
1375.6907000000001
 11
2087.7946999999999
 21
1436.9579000000001
  0
LINE
  8
_0-0_1
  6
CONTINUOUS
 62
    5
 10
989.15550000000007
 20
869.44340000000011
 11
1273.0487000000001
 21
969.47170000000006
  0
LINE
  8
_0-0_1
  6
CONTINUOUS
 62
    5
 10
980.50019999999995
 20
897.59059999999999
 11
1218.9663
 21
999.58940000000007
  0
LINE
  8
_0-0_1
  6
CONTINUOUS
 62
    5
 10
1273.0487000000001
 20
969.47170000000006
 11
1277.0364999999999
 21
958.15370000000007
  0
LINE
  8
_0-0_1
  6
CONTINUOUS
 62
    5
 10
1277.0364999999999
 20
958.15370000000007
 11
1285.5250000000001
 21
961.14460000000008
  0
LINE
  8
_0-0_1
  6
CONTINUOUS
 62
    5
 10
1266.0699999999999
 20
989.27819999999997
 11
1267.0669
 21
986.44869999999992
  0
LINE
  8
_0-0_1
  6
CONTINUOUS
 62
    5
 10
983.17380000000003
 20
886.42039999999997
 11
1267.0669
 21
986.44869999999992
  0
LINE
  8
_0-0_1
  6
CONTINUOUS
 62
    5
 10
1266.0699999999999
 20
989.27819999999997
 11
1274.5585000000001
 21
992.26909999999998
  0
LINE
  8
_0-0_1
  6
CONTINUOUS
 62
    5
 10
1274.5585000000001
 20
992.26909999999998
 11
1285.5250000000001
 21
961.14460000000008
  0
LINE
  8
_0-0_1
  6
CONTINUOUS
 62
    5
 10
1200.0663
 20
1054.9458999999999
 11
1227.4041
 21
977.3578
  0
LINE
  8
_0-0_1
  6
CONTINUOUS
 62
    5
 10
1227.4041
 20
977.3578
 11
1511.2972
 21
1077.3861999999999
  0
LINE
  8
_0-0_1
  6
CONTINUOUS
 62
    5
 10
1218.7488000000001
 20
1005.5051000000001
 11
1457.2148000000002
 21
1107.5038999999999
  0
LINE
  8
_0-0_1
  6
CONTINUOUS
 62
    5
 10
1511.2972
 20
1077.3861999999999
 11
1515.2851000000001
 21
1066.0681999999999
  0
LINE
  8
_0-0_1
  6
CONTINUOUS
 62
    5
 10
1515.2851000000001
 20
1066.0681999999999
 11
1523.7736
 21
1069.0590999999999
  0
LINE
  8
_0-0_1
  6
CONTINUOUS
 62
    5
 10
1504.3184999999999
 20
1097.1927000000001
 11
1505.3155000000002
 21
1094.3632
  0
LINE
  8
_0-0_1
  6
CONTINUOUS
 62
    5
 10
1221.4223
 20
994.33480000000009
 11
1505.3155000000002
 21
1094.3632
  0
LINE
  8
_0-0_1
  6
CONTINUOUS
 62
    5
 10
1200.0761
 20
1055.3480999999999
 11
1445.1646000000001
 21
1141.7039
  0
LINE
  8
_0-0_1
  6
CONTINUOUS
 62
    5
 10
1504.3184999999999
 20
1097.1927000000001
 11
1512.8069999999998
 21
1100.1836000000001
  0
LINE
  8
_0-0_1
  6
CONTINUOUS
 62
    5
 10
1512.8069999999998
 20
1100.1836000000001
 11
1523.7736
 21
1069.0590999999999
  0
LINE
  8
_0-0_1
  6
CONTINUOUS
 62
    5
 10
1437.5880000000002
 20
1161.3426999999999
 11
1464.9258
 21
1083.7547
  0
LINE
  8
_0-0_1
  6
CONTINUOUS
 62
    5
 10
1464.9258
 20
1083.7547
 11
1748.819
 21
1183.7831000000001
  0
LINE
  8
_0-0_1
  6
CONTINUOUS
 62
    5
 10
1456.2705000000001
 20
1111.902
 11
1694.7366000000002
 21
1213.9007999999999
  0
LINE
  8
_0-0_1
  6
CONTINUOUS
 62
    5
 10
1748.819
 20
1183.7831000000001
 11
1752.8067999999998
 21
1172.4650999999999
  0
LINE
  8
_0-0_1
  6
CONTINUOUS
 62
    5
 10
1752.8067999999998
 20
1172.4650999999999
 11
1761.2953000000002
 21
1175.4559999999999
  0
LINE
  8
_0-0_1
  6
CONTINUOUS
 62
    5
 10
1458.944
 20
1100.7317
 11
1742.8371999999999
 21
1200.7601
  0
LINE
  8
_0-0_1
  6
CONTINUOUS
 62
    5
 10
1437.5979000000002
 20
1161.7449999999999
 11
1682.6864
 21
1248.1007
  0
LINE
  8
_0-0_1
  6
CONTINUOUS
 62
    5
 10
1750.3287
 20
1206.5805
 11
1761.2953000000002
 21
1175.4559999999999
  0
LINE
  8
_0-0_1
  6
CONTINUOUS
 62
    5
 10
961.69280000000003
 20
947.38609999999994
 11
989.15550000000007
 21
869.44340000000011
  0
LINE
  8
_0-0_1
  6
CONTINUOUS
 62
    5
 10
961.69280000000003
 20
947.38609999999994
 11
1206.9160999999999
 21
1033.7893999999999
  0
LINE
  8
_0-0_1
  6
CONTINUOUS
 62
    3
 10
1984.6988000000001
 20
1289.3145999999999
 11
1957.3328999999999
 21
1276.9999
  0
LINE
  8
_0-0_1
  6
CONTINUOUS
 62
    3
 10
1719.5963000000002
 20
1170.0182
 11
1726.0879
 21
1156.4906000000001
  0
LINE
  8
_0-0_1
  6
CONTINUOUS
 62
    3
 10
1509.2255
 20
1075.3511000000001
 11
1515.7170999999998
 21
1061.8235
  0
LINE
  8
_0-0_1
  6
CONTINUOUS
 62
    3
 10
1481.8595999999998
 20
1063.0364
 11
1488.3512999999998
 21
1049.5088000000001
  0
LINE
  8
_0-0_1
  6
CONTINUOUS
 62
    3
 10
1509.2255
 20
1075.3511000000001
 11
1481.8595999999998
 21
1063.0364
  0
LINE
  8
_0-0_1
  6
CONTINUOUS
 62
    3
 10
1244.123
 20
956.05459999999994
 11
1250.6146000000001
 21
942.52710000000002
  0
LINE
  8
_0-0_1
  6
CONTINUOUS
 62
    3
 10
1984.6988000000001
 20
1289.3145999999999
 11
1991.0365999999999
 21
1276.1074000000001
  0
LINE
  8
_0-0_1
  6
CONTINUOUS
 62
    3
 10
1957.3328999999999
 20
1276.9999
 11
1963.8245000000002
 21
1263.4722999999999
  0
LINE
  8
_0-0_1
  6
CONTINUOUS
 62
    3
 10
1991.4549999999999
 20
1275.9060999999999
 11
1963.8245000000002
 21
1263.4722999999999
  0
LINE
  8
_0-0_1
  6
CONTINUOUS
 62
    3
 10
1746.9621999999999
 20
1182.3327999999999
 11
1719.5963000000002
 21
1170.0182
  0
LINE
  8
_0-0_1
  6
CONTINUOUS
 62
    3
 10
1746.9621999999999
 20
1182.3327999999999
 11
1753.4537999999998
 21
1168.8053
  0
LINE
  8
_0-0_1
  6
CONTINUOUS
 62
    3
 10
1271.4889000000001
 20
968.36930000000007
 11
1277.9804999999999
 21
954.84179999999992
  0
LINE
  8
_0-0_1
  6
CONTINUOUS
 62
    3
 10
1271.4889000000001
 20
968.36930000000007
 11
1244.123
 21
956.05459999999994
  0
LINE
  8
_0-0_1
  6
DASHED1
 62
    2
 10
1958.2199999999998
 20
1308.5884000000001
 11
1973.5682999999999
 21
1313.1084000000001
  0
LINE
  8
_0-0_1
  6
DASHED1
 62
    2
 10
1973.5682999999999
 20
1313.1084000000001
 11
1974.4158000000002
 21
1310.2306000000001
  0
LINE
  8
_0-0_1
  6
DASHED1
 62
    2
 10
1958.2199999999998
 20
1308.5884000000001
 11
1959.0675000000001
 21
1305.7106000000001
  0
LINE
  8
_0-0_1
  6
DASHED1
 62
    2
 10
1959.0675000000001
 20
1305.7106000000001
 11
1974.4158000000002
 21
1310.2306000000001
  0
LINE
  8
_0-0_1
  6
DASHED1
 62
    2
 10
1984.4692
 20
1246.5055
 11
1976.2456000000002
 21
1265.0798
  0
LINE
  8
_0-0_1
  6
DASHED1
 62
    2
 10
1963.8638999999998
 20
1307.123
 11
1976.2456000000002
 21
1265.0798
  0
LINE
  8
_0-0_1
  6
DASHED1
 62
    2
 10
1984.6619999999998
 20
1245.8511000000001
 11
1982.9937
 21
1263.4043999999999
  0
LINE
  8
_0-0_1
  6
DASHED1
 62
    2
 10
1969.6194999999998
 20
1308.8181
 11
1982.9937
 21
1263.4043999999999
  0
LINE
  8
_0-0_1
  6
DASHED1
 62
    2
 10
1718.6363999999999
 20
1203.3593000000001
 11
1733.9845999999998
 21
1207.8794
  0
LINE
  8
_0-0_1
  6
DASHED1
 62
    2
 10
1733.9845999999998
 20
1207.8794
 11
1734.8321000000001
 21
1205.0016000000001
  0
LINE
  8
_0-0_1
  6
DASHED1
 62
    2
 10
1718.6363999999999
 20
1203.3593000000001
 11
1719.4839000000002
 21
1200.4815000000001
  0
LINE
  8
_0-0_1
  6
DASHED1
 62
    2
 10
1719.4839000000002
 20
1200.4815000000001
 11
1734.8321000000001
 21
1205.0016000000001
  0
LINE
  8
_0-0_1
  6
DASHED1
 62
    2
 10
1744.8856000000001
 20
1141.2764999999999
 11
1736.6619000000001
 21
1159.8507
  0
LINE
  8
_0-0_1
  6
DASHED1
 62
    2
 10
1724.2802000000001
 20
1201.894
 11
1736.6619000000001
 21
1159.8507
  0
LINE
  8
_0-0_1
  6
DASHED1
 62
    2
 10
1745.0783000000001
 20
1140.6220000000001
 11
1743.4101000000001
 21
1158.1753000000001
  0
LINE
  8
_0-0_1
  6
DASHED1
 62
    2
 10
1730.0358000000001
 20
1203.5889999999999
 11
1743.4101000000001
 21
1158.1753000000001
  0
LINE
  8
_0-0_1
  6
DASHED1
 62
    2
 10
1482.9122000000002
 20
1092.0958000000001
 11
1498.2604000000001
 21
1096.6159
  0
LINE
  8
_0-0_1
  6
DASHED1
 62
    2
 10
1498.2604000000001
 20
1096.6159
 11
1499.1079
 21
1093.7381
  0
LINE
  8
_0-0_1
  6
DASHED1
 62
    2
 10
1482.9122000000002
 20
1092.0958000000001
 11
1483.7597000000001
 21
1089.2181
  0
LINE
  8
_0-0_1
  6
DASHED1
 62
    2
 10
1483.7597000000001
 20
1089.2181
 11
1499.1079
 21
1093.7381
  0
LINE
  8
_0-0_1
  6
DASHED1
 62
    2
 10
1509.1614
 20
1030.0130999999999
 11
1500.9376999999999
 21
1048.5872999999999
  0
LINE
  8
_0-0_1
  6
DASHED1
 62
    2
 10
1488.556
 20
1090.6306
 11
1500.9376999999999
 21
1048.5872999999999
  0
LINE
  8
_0-0_1
  6
DASHED1
 62
    2
 10
1509.3542000000002
 20
1029.3585
 11
1507.6858999999999
 21
1046.9119000000001
  0
LINE
  8
_0-0_1
  6
DASHED1
 62
    2
 10
1494.3116
 20
1092.3255999999999
 11
1507.6858999999999
 21
1046.9119000000001
  0
LINE
  8
_0-0_1
  6
DASHED1
 62
    2
 10
1246.2916
 20
985.85400000000004
 11
1261.6397999999999
 21
990.37400000000002
  0
LINE
  8
_0-0_1
  6
DASHED1
 62
    2
 10
1261.6397999999999
 20
990.37400000000002
 11
1262.4873
 21
987.49620000000004
  0
LINE
  8
_0-0_1
  6
DASHED1
 62
    2
 10
1246.2916
 20
985.85400000000004
 11
1247.1391000000001
 21
982.97620000000006
  0
LINE
  8
_0-0_1
  6
DASHED1
 62
    2
 10
1247.1391000000001
 20
982.97620000000006
 11
1262.4873
 21
987.49620000000004
  0
LINE
  8
_0-0_1
  6
DASHED1
 62
    2
 10
1272.5408
 20
923.77119999999991
 11
1264.3171
 21
942.34539999999993
  0
LINE
  8
_0-0_1
  6
DASHED1
 62
    2
 10
1251.9354000000001
 20
984.38869999999997
 11
1264.3171
 21
942.34539999999993
  0
LINE
  8
_0-0_1
  6
DASHED1
 62
    2
 10
1272.7335
 20
923.11660000000006
 11
1271.0653
 21
940.67000000000007
  0
LINE
  8
_0-0_1
  6
DASHED1
 62
    2
 10
1257.691
 20
986.08369999999991
 11
1271.0653
 21
940.67000000000007
  0
LINE
  8
_0-0_1
  6
DASHED1
 62
    2
 10
1048.3932
 20
981.25379999999996
 11
1089.232
 21
877.0972999999999
  0
LINE
  8
_0-0_1
  6
DASHED1
 62
    2
 10
1092.2855
 20
859.35549999999989
 11
1089.232
 21
877.0972999999999
  0
LINE
  8
_0-0_1
  6
DASHED1
 62
    2
 10
1042.8072
 20
979.06359999999995
 11
1083.9223999999999
 21
874.20209999999997
  0
LINE
  8
_0-0_1
  6
DASHED1
 62
    2
 10
1092.3232
 20
858.86680000000001
 11
1083.9223999999999
 21
874.20209999999997
  0
LINE
  8
_0-0_1
  6
DASHED1
 62
    2
 10
1038.1522
 20
977.23839999999996
 11
1053.0482
 21
983.07899999999995
  0
LINE
  8
_0-0_1
  6
DASHED1
 62
    2
 10
1037.0571
 20
980.03140000000008
 11
1038.1522
 21
977.23839999999996
  0
LINE
  8
_0-0_1
  6
DASHED1
 62
    2
 10
1051.9530999999999
 20
985.87200000000007
 11
1053.0482
 21
983.07899999999995
  0
LINE
  8
_0-0_1
  6
DASHED1
 62
    2
 10
1037.0571
 20
980.03140000000008
 11
1051.9530999999999
 21
985.87200000000007
  0
LINE
  8
_0-0_1
  6
CONTINUOUS
 62
    3
 10
1271.4889000000001
 20
968.36930000000007
 11
1250.6146000000001
 21
942.52710000000002
  0
LINE
  8
_0-0_1
  6
CONTINUOUS
 62
    3
 10
1509.2255
 20
1075.3511000000001
 11
1488.3512999999998
 21
1049.5088000000001
  0
LINE
  8
_0-0_1
  6
CONTINUOUS
 62
    3
 10
1746.9621999999999
 20
1182.3327999999999
 11
1726.0879
 21
1156.4906000000001
  0
LINE
  8
_0-0_1
  6
CONTINUOUS
 62
    3
 10
1984.6988000000001
 20
1289.3145999999999
 11
1963.8245000000002
 21
1263.4722999999999
  0
LINE
  8
_0-0_1
  6
CONTINUOUS
 62
    3
 10
1092.5223000000001
 20
874.6413
 11
1096.2723000000001
 21
881.13650000000007
  0
LINE
  8
_0-0_1
  6
CONTINUOUS
 62
    3
 10
1096.2723000000001
 20
881.13650000000007
 11
1096.2723000000001
 21
873.63650000000007
  0
LINE
  8
_0-0_1
  6
CONTINUOUS
 62
    3
 10
1096.2723000000001
 20
881.13650000000007
 11
1042.4182000000001
 21
680.15030000000002
  0
LINE
  8
_0-0_1
  6
CONTINUOUS
 62
    3
 10
1042.4182000000001
 20
680.15030000000002
 11
886.37110000000007
 21
680.15030000000002
  0
LINE
  8
_0-3_4
  6
CONTINUOUS
 62
    3
 10
1061.8664000000001
 20
854.03719999999998
 11
1082.3846000000001
 21
808.44100000000003
  0
LINE
  8
_0-4_6
  6
CONTINUOUS
 62
    3
 10
1293.1707000000001
 20
903.29459999999995
 11
1227.0563999999999
 21
928.37249999999995
  0
LINE
  8
_0-4_6
  6
CONTINUOUS
 62
    3
 10
1297.0396000000001
 20
905.03559999999993
 11
1230.9253000000001
 21
930.11359999999991
  0
LINE
  8
_0-4_6
  6
CONTINUOUS
 62
    3
 10
1486.6185
 20
990.346
 11
1420.5042000000001
 21
1015.4239
  0
LINE
  8
_0-4_6
  6
CONTINUOUS
 62
    3
 10
1490.4875000000002
 20
992.08699999999999
 11
1424.3731
 21
1017.1649
  0
LINE
  8
_0-2_3
  6
DASHED3
 62
    3
 10
1061.0456999999999
 20
855.8610000000001
 11
2123.5709000000002
 21
1333.9964
  0
LINE
  8
_0-1_2
  6
CONTINUOUS
 62
    3
 10
1193.3655000000001
 20
836.4507000000001
 11
1195.463
 21
837.39450000000011
  0
LINE
  8
_0-1_2
  6
CONTINUOUS
 62
    3
 10
1217.9872
 20
781.73530000000005
 11
1220.0847000000001
 21
782.67900000000009
  0
LINE
  8
_0-1_2
  6
CONTINUOUS
 62
    3
 10
1146.5246
 20
834.7820999999999
 11
1184.2782999999999
 21
851.77099999999996
  0
LINE
  8
_0-1_2
  6
CONTINUOUS
 62
    3
 10
1193.3655000000001
 20
836.4507000000001
 11
1186.9229
 21
850.76790000000005
  0
LINE
  8
_0-1_2
  6
CONTINUOUS
 62
    3
 10
1224.4297999999999
 20
767.41820000000007
 11
1217.9872
 21
781.73530000000005
  0
LINE
  8
_0-1_2
  6
CONTINUOUS
 62
    3
 10
1185.6731
 20
747.78449999999998
 11
1223.4266
 21
764.77340000000004
  0
LINE
  8
_0-1_2
  6
CONTINUOUS
 62
    3
 10
1195.463
 20
837.39450000000011
 11
1189.0202999999999
 21
851.71160000000009
  0
LINE
  8
_0-1_2
  6
CONTINUOUS
 62
    3
 10
1145.5807
 20
836.87930000000006
 11
1183.3344
 21
853.86830000000009
  0
LINE
  8
_0-1_2
  6
CONTINUOUS
 62
    3
 10
1226.5273999999999
 20
768.36190000000011
 11
1220.0847000000001
 21
782.67900000000009
  0
LINE
  8
_0-1_2
  6
CONTINUOUS
 62
    3
 10
1186.617
 20
745.6871000000001
 11
1224.3705
 21
762.67609999999991
  0
LINE
  8
_0-1_2
  6
CONTINUOUS
 62
    3
 10
1183.0284999999999
 20
748.78770000000009
 11
1145.5215000000001
 21
832.13760000000002
  0
LINE
  8
_0-1_2
  6
CONTINUOUS
 62
    3
 10
1143.4242999999999
 20
831.19350000000009
 11
1180.9313
 21
747.8438000000001
  0
LINE
  8
_0-0_1
  6
CONTINUOUS
 62
    3
 10
1148.4998000000001
 20
893.02209999999991
 11
1139.3794
 21
888.91810000000009
  0
LINE
  8
_0-0_1
  6
CONTINUOUS
 62
    3
 10
1149.7297000000001
 20
890.28559999999993
 11
1140.6113
 21
886.18299999999999
  0
LINE
  8
_0-0_1
  6
CONTINUOUS
 62
    3
 10
1139.3794
 20
888.91810000000009
 11
1140.6113
 21
886.18299999999999
  0
LINE
  8
_0-0_1
  6
CONTINUOUS
 62
    3
 10
1148.4998000000001
 20
893.02209999999991
 11
1149.7297000000001
 21
890.28559999999993
  0
LINE
  8
_0-0_1
  6
CONTINUOUS
 62
    3
 10
1143.9396999999999
 20
890.97019999999998
 11
1145.1704999999999
 21
888.2337
  0
LINE
  8
_0-0_1
  6
CONTINUOUS
 62
    3
 10
1170.6132
 20
831.69540000000006
 11
1166.491
 21
835.98160000000007
  0
LINE
  8
_0-0_1
  6
CONTINUOUS
 62
    3
 10
1170.6132
 20
831.69540000000006
 11
1170.1387999999999
 21
837.62239999999997
  0
LINE
  8
_0-0_1
  6
CONTINUOUS
 62
    3
 10
1148.8258000000001
 20
872.2222999999999
 11
1154.4535000000001
 21
875.91370000000006
  0
LINE
  8
_0-0_1
  6
CONTINUOUS
 62
    3
 10
1150.8777
 20
867.66300000000001
 11
1156.5065999999999
 21
871.35349999999994
  0
LINE
  8
_0-0_1
  6
CONTINUOUS
 62
    3
 10
1152.9306999999999
 20
863.10269999999991
 11
1158.5581999999999
 21
866.7944
  0
LINE
  8
_0-0_1
  6
CONTINUOUS
 62
    3
 10
1154.9815000000001
 20
858.54250000000002
 11
1160.6092000000001
 21
862.2351000000001
  0
LINE
  8
_0-0_1
  6
CONTINUOUS
 62
    3
 10
1157.0334
 20
853.98430000000008
 11
1162.6611
 21
857.67579999999998
  0
LINE
  8
_0-0_1
  6
CONTINUOUS
 62
    3
 10
1159.0853
 20
849.42399999999998
 11
1164.7140999999999
 21
853.11580000000004
  0
LINE
  8
_0-0_1
  6
CONTINUOUS
 62
    3
 10
1161.1380999999999
 20
844.86490000000003
 11
1166.7650000000001
 21
848.55539999999996
  0
LINE
  8
_0-0_1
  6
CONTINUOUS
 62
    3
 10
1163.1891000000001
 20
840.30459999999994
 11
1168.8168000000001
 21
843.99639999999999
  0
LINE
  8
_0-0_1
  6
CONTINUOUS
 62
    3
 10
1164.7249999999999
 20
836.8925999999999
 11
1170.3524
 21
840.58420000000001
  0
LINE
  8
_0-0_1
  6
CONTINUOUS
 62
    3
 10
1148.2255
 20
886.32140000000004
 11
1170.1387999999999
 21
837.62239999999997
  0
LINE
  8
_0-0_1
  6
CONTINUOUS
 62
    3
 10
1149.7297000000001
 20
890.28559999999993
 11
1148.2255
 21
886.32140000000004
  0
LINE
  8
_0-0_1
  6
CONTINUOUS
 62
    3
 10
1144.5787
 20
884.67750000000001
 11
1166.491
 21
835.98160000000007
  0
LINE
  8
_0-0_1
  6
CONTINUOUS
 62
    3
 10
1140.6113
 20
886.18299999999999
 11
1144.5787
 21
884.67750000000001
  0
LINE
  8
_0-1_2
  6
CONTINUOUS
 62
    3
 10
1189.0202999999999
 20
851.71160000000009
 11
1226.5274999999999
 21
768.36200000000008
  0
LINE
  8
_0-1_2
  6
CONTINUOUS
 62
    3
 10
1193.1239
 20
853.55819999999994
 11
1230.6312
 21
770.20859999999993
  0
LINE
  8
_0-1_2
  6
CONTINUOUS
 62
    3
 10
1189.0202999999999
 20
851.71160000000009
 11
1193.1239
 21
853.55819999999994
  0
LINE
  8
_0-1_2
  6
CONTINUOUS
 62
    3
 10
1230.6312
 20
770.20859999999993
 11
1226.5272
 21
768.3617999999999
  0
LINE
  8
_0-0_1
  6
CONTINUOUS
 62
    3
 10
1236.4991
 20
757.16859999999997
 11
1199.5673999999999
 21
839.24240000000009
  0
LINE
  8
_0-0_1
  6
CONTINUOUS
 62
    3
 10
1208.0024000000001
 20
837.55500000000006
 11
1235.9060999999999
 21
775.54420000000005
  0
LINE
  8
_0-0_1
  6
CONTINUOUS
 62
    3
 10
1201.3905999999999
 20
840.06359999999995
 11
1199.5673999999999
 21
839.24240000000009
  0
LINE
  8
_0-0_1
  6
CONTINUOUS
 62
    3
 10
1311.1408000000001
 20
798.43299999999999
 11
1249.1292000000001
 21
770.52849999999989
  0
LINE
  8
_0-0_1
  6
CONTINUOUS
 62
    3
 10
1207.7733000000001
 20
810.03770000000009
 11
1205.0373
 21
808.80610000000001
  0
LINE
  8
_0-0_1
  6
CONTINUOUS
 62
    3
 10
1201.2077999999999
 20
824.62799999999993
 11
1198.472
 21
823.39650000000006
  0
LINE
  8
_0-0_1
  6
CONTINUOUS
 62
    3
 10
1211.6020000000001
 20
794.21669999999995
 11
1198.472
 21
823.39650000000006
  0
LINE
  8
_0-0_1
  6
CONTINUOUS
 62
    3
 10
1214.3388
 20
795.44759999999997
 11
1211.6020000000001
 21
794.21669999999995
  0
LINE
  8
_0-0_1
  6
CONTINUOUS
 62
    3
 10
1199.7375
 20
798.82619999999997
 11
1207.8785
 21
802.49009999999998
  0
LINE
  8
_0-0_1
  6
CONTINUOUS
 62
    3
 10
1194.0524
 20
811.46109999999999
 11
1202.1931999999999
 21
815.1237000000001
  0
LINE
  8
_0-0_1
  6
CONTINUOUS
 62
    3
 10
1191.2083
 20
817.7786000000001
 11
1199.3507
 21
821.44250000000011
  0
LINE
  8
_0-0_1
  6
CONTINUOUS
 62
    3
 10
1190.9929
 20
815.64810000000011
 11
1191.2083
 21
817.7786000000001
  0
LINE
  8
_0-0_1
  6
CONTINUOUS
 62
    3
 10
1200.8412000000001
 20
793.76109999999994
 11
1190.9929
 21
815.64810000000011
  0
LINE
  8
_0-0_1
  6
CONTINUOUS
 62
    3
 10
1202.5809999999999
 20
792.50790000000006
 11
1210.7224000000001
 21
796.17129999999997
  0
LINE
  8
_0-0_1
  6
CONTINUOUS
 62
    3
 10
1200.8412000000001
 20
793.76109999999994
 11
1202.5809999999999
 21
792.50790000000006
  0
LINE
  8
_0-0_1
  6
CONTINUOUS
 62
    3
 10
1183.9728
 20
808.09999999999991
 11
1193.1117999999999
 21
794.66779999999994
  0
LINE
  8
_0-0_1
  6
CONTINUOUS
 62
    3
 10
1189.5293999999999
 20
810.60010000000011
 11
1198.6674
 21
797.16709999999989
  0
LINE
  8
_0-0_1
  6
CONTINUOUS
 62
    3
 10
1223.5607
 20
824.73810000000003
 11
1215.4199000000001
 21
821.07429999999999
  0
LINE
  8
_0-0_1
  6
CONTINUOUS
 62
    3
 10
1229.2462
 20
812.10329999999999
 11
1221.1043999999999
 21
808.44000000000005
  0
LINE
  8
_0-0_1
  6
CONTINUOUS
 62
    3
 10
1232.0898999999999
 20
805.78580000000011
 11
1223.9478999999999
 21
802.12179999999989
  0
LINE
  8
_0-0_1
  6
CONTINUOUS
 62
    3
 10
1232.3055999999999
 20
807.91619999999989
 11
1232.0898999999999
 21
805.78580000000011
  0
LINE
  8
_0-0_1
  6
CONTINUOUS
 62
    3
 10
1222.4570000000001
 20
829.80330000000004
 11
1232.3055999999999
 21
807.91619999999989
  0
LINE
  8
_0-0_1
  6
CONTINUOUS
 62
    3
 10
1220.7175999999999
 20
831.05639999999994
 11
1212.576
 21
827.39319999999998
  0
LINE
  8
_0-0_1
  6
CONTINUOUS
 62
    3
 10
1222.4570000000001
 20
829.80330000000004
 11
1220.7175999999999
 21
831.05639999999994
  0
LINE
  8
_0-0_1
  6
CONTINUOUS
 62
    3
 10
1317.7516000000001
 20
795.92499999999995
 11
1318.5723000000003
 21
794.10100000000011
  0
LINE
  8
_0-0_1
  6
CONTINUOUS
 62
    3
 10
1318.5723000000003
 20
794.10100000000011
 11
1236.4992999999999
 21
757.16820000000007
  0
LINE
  8
_0-0_1
  6
CONTINUOUS
 62
    3
 10
1192.6355000000001
 20
811.99749999999995
 11
1183.9728
 21
808.09999999999991
  0
LINE
  8
_0-0_1
  6
CONTINUOUS
 62
    3
 10
1183.9728
 20
808.09999999999991
 11
1182.9695999999999
 21
805.45530000000008
  0
LINE
  8
_0-0_1
  6
CONTINUOUS
 62
    3
 10
1199.2003
 20
797.40779999999995
 11
1190.5385000000001
 21
793.50980000000004
  0
LINE
  8
_0-0_1
  6
CONTINUOUS
 62
    3
 10
1183.9728
 20
808.09999999999991
 11
1190.5385000000001
 21
793.50980000000004
  0
LINE
  8
_0-0_1
  6
CONTINUOUS
 62
    3
 10
1187.8931
 20
794.51260000000002
 11
1190.5385000000001
 21
793.50980000000004
  0
LINE
  8
_0-0_1
  6
CONTINUOUS
 62
    3
 10
1182.9695999999999
 20
805.45530000000008
 11
1187.8931
 21
794.51260000000002
  0
LINE
  8
_0-0_1
  6
CONTINUOUS
 62
    3
 10
1114.5293999999999
 20
773.56050000000005
 11
1118.6335999999999
 21
764.4402
  0
LINE
  8
_0-0_1
  6
CONTINUOUS
 62
    3
 10
1117.2659000000001
 20
774.79050000000007
 11
1121.3686
 21
765.6721
  0
LINE
  8
_0-0_1
  6
CONTINUOUS
 62
    3
 10
1118.6335999999999
 20
764.4402
 11
1121.3686
 21
765.6721
  0
LINE
  8
_0-0_1
  6
CONTINUOUS
 62
    3
 10
1114.5293999999999
 20
773.56050000000005
 11
1117.2659000000001
 21
774.79050000000007
  0
LINE
  8
_0-0_1
  6
CONTINUOUS
 62
    3
 10
1116.5814
 20
769.0005000000001
 11
1119.3179
 21
770.23129999999992
  0
LINE
  8
_0-0_1
  6
CONTINUOUS
 62
    3
 10
1175.8558
 20
795.67499999999995
 11
1171.5696
 21
791.55259999999998
  0
LINE
  8
_0-0_1
  6
CONTINUOUS
 62
    3
 10
1175.8558
 20
795.67499999999995
 11
1169.9287999999999
 21
795.20039999999995
  0
LINE
  8
_0-0_1
  6
CONTINUOUS
 62
    3
 10
1135.3293000000001
 20
773.88679999999999
 11
1131.6377
 21
779.51459999999997
  0
LINE
  8
_0-0_1
  6
CONTINUOUS
 62
    3
 10
1139.8885
 20
775.9387999999999
 11
1136.1977999999999
 21
781.56770000000006
  0
LINE
  8
_0-0_1
  6
CONTINUOUS
 62
    3
 10
1144.4487999999999
 20
777.99189999999999
 11
1140.7570000000001
 21
783.61930000000007
  0
LINE
  8
_0-0_1
  6
CONTINUOUS
 62
    3
 10
1149.0089
 20
780.04279999999994
 11
1145.3162
 21
785.67039999999997
  0
LINE
  8
_0-0_1
  6
CONTINUOUS
 62
    3
 10
1153.5671
 20
782.09480000000008
 11
1149.8755000000001
 21
787.72240000000011
  0
LINE
  8
_0-0_1
  6
CONTINUOUS
 62
    3
 10
1158.1273000000001
 20
784.14679999999998
 11
1154.4354000000001
 21
789.77549999999997
  0
LINE
  8
_0-0_1
  6
CONTINUOUS
 62
    3
 10
1162.6864
 20
786.19959999999992
 11
1158.9957999999999
 21
791.8264999999999
  0
LINE
  8
_0-0_1
  6
CONTINUOUS
 62
    3
 10
1167.2466999999999
 20
788.25070000000005
 11
1163.5547999999999
 21
793.87840000000006
  0
LINE
  8
_0-0_1
  6
CONTINUOUS
 62
    3
 10
1170.6586
 20
789.78680000000008
 11
1166.9668999999999
 21
795.41399999999999
  0
LINE
  8
_0-0_1
  6
CONTINUOUS
 62
    3
 10
1121.2302
 20
773.28629999999998
 11
1169.9287999999999
 21
795.20039999999995
  0
LINE
  8
_0-0_1
  6
CONTINUOUS
 62
    3
 10
1117.2659000000001
 20
774.79050000000007
 11
1121.2302
 21
773.28629999999998
  0
LINE
  8
_0-0_1
  6
CONTINUOUS
 62
    3
 10
1122.8741
 20
769.63959999999997
 11
1171.5696
 21
791.55259999999998
  0
LINE
  8
_0-0_1
  6
CONTINUOUS
 62
    3
 10
1121.3686
 20
765.6721
 11
1122.8741
 21
769.63959999999997
  0
LINE
  8
_0-2_3
  6
CONTINUOUS
 62
    3
 10
1186.7994000000001
 20
734.80330000000004
 11
2190.0499
 21
1186.2651000000001
  0
LINE
  8
_0-4_6
  6
CONTINUOUS
 62
    3
 10
1141.6595
 20
835.11460000000011
 11
1195.0065999999999
 21
716.5648000000001
  0
LINE
  8
_0-4_6
  6
CONTINUOUS
 62
    3
 10
1096.0634
 20
814.59650000000011
 11
1156.3864000000001
 21
680.54449999999997
  0
LINE
  8
_0-4_6
  6
CONTINUOUS
 62
    3
 10
1169.1632
 20
773.99520000000007
 11
1103.0488
 21
799.07320000000004
  0
LINE
  8
_0-4_6
  6
CONTINUOUS
 62
    3
 10
1170.9042999999999
 20
770.1262999999999
 11
1104.7899
 21
795.2041999999999
  0
LINE
  8
_0-4_6
  6
CONTINUOUS
 62
    3
 10
1082.3844999999999
 20
808.44110000000001
 11
2144.9099000000001
 21
1286.5764999999999
  0
LINE
  8
_0-4_6
  6
CONTINUOUS
 62
    3
 10
1061.8664000000001
 20
854.03719999999998
 11
2124.3917000000001
 21
1332.1726000000001
  0
LINE
  8
_0-4_6
  6
CONTINUOUS
 62
    3
 10
1061.8664000000001
 20
854.03719999999998
 11
1082.3844999999999
 21
808.44110000000001
  0
ARC
  8
_0-1_2
  6
CONTINUOUS
 62
    3
 10
1185.0989999999999
 20
849.94710000000009
 40
2.000003
 50
24.227606000000002
 51
114.22759000000003
  0
ARC
  8
_0-1_2
  6
CONTINUOUS
 62
    3
 10
1222.6059
 20
766.5972999999999
 40
2.000003
 50
294.2276
 51
24.227605999999994
  0
ARC
  8
_0-1_2
  6
CONTINUOUS
 62
    3
 10
1222.6059
 20
766.5972999999999
 40
4.2999999999999998
 50
294.2276
 51
24.227605999999994
  0
ARC
  8
_0-1_2
  6
CONTINUOUS
 62
    3
 10
1185.0989999999999
 20
849.94710000000009
 40
4.2999999999999998
 50
24.227606000000002
 51
114.22759000000003
  0
ARC
  8
_0-1_2
  6
CONTINUOUS
 62
    3
 10
1147.3454999999999
 20
832.95820000000003
 40
2.000003
 50
114.22759000000001
 51
204.2276
  0
ARC
  8
_0-1_2
  6
CONTINUOUS
 62
    3
 10
1184.8525
 20
749.6083000000001
 40
2.000003
 50
204.22760000000002
 51
294.22760000000005
  0
ARC
  8
_0-1_2
  6
CONTINUOUS
 62
    3
 10
1184.8525
 20
749.6083000000001
 40
4.2999999999999998
 50
204.22760000000002
 51
294.22760000000005
  0
ARC
  8
_0-1_2
  6
CONTINUOUS
 62
    3
 10
1147.3454999999999
 20
832.95820000000003
 40
4.2999999999999998
 50
114.22759000000001
 51
204.2276
  0
ARC
  8
_0-0_1
  6
CONTINUOUS
 62
    3
 10
1245.0262
 20
779.65000000000009
 40
10.001999
 50
204.23162000000002
 51
294.21884999999997
  0
ARC
  8
_0-0_1
  6
CONTINUOUS
 62
    3
 10
1203.4436000000001
 20
835.50440000000003
 40
4.9989999999999997
 50
24.224675999999999
 51
114.23530999999998
  0
ARC
  8
_0-0_1
  6
CONTINUOUS
 62
    3
 10
1313.1931
 20
793.87429999999995
 40
4.9989999999999997
 50
24.224675999999999
 51
114.23530999999998
  0
ARC
  8
_0-0_1
  6
CONTINUOUS
 62
    3
 10
1197.2561000000001
 20
816.71019999999999
 40
6.1470010000000013
 50
204.58582999999999
 51
238.59309999999999
  0
ARC
  8
_0-0_1
  6
CONTINUOUS
 62
    3
 10
1205.8016
 20
797.74620000000004
 40
6.1580000000000004
 50
169.89975999999999
 51
203.85441
  0
ARC
  8
_0-0_1
  6
CONTINUOUS
 62
    3
 10
1216.7987000000001
 20
814.10140000000001
 40
22.898997999999999
 50
186.62326999999999
 51
221.83878999999999
  0
ARC
  8
_0-0_1
  6
CONTINUOUS
 62
    3
 10
1226.0396000000001
 20
806.85529999999994
 40
6.1479999999999997
 50
24.562656
 51
58.577396
  0
ARC
  8
_0-0_1
  6
CONTINUOUS
 62
    3
 10
1217.5074999999999
 20
825.81770000000006
 40
6.1479999999999997
 50
349.89938000000006
 51
23.901646000000021
  0
ARC
  8
_0-0_1
  6
CONTINUOUS
 62
    3
 10
1206.4630999999999
 20
809.44789999999989
 40
22.936000999999997
 50
6.6513660000000003
 51
41.808135999999998
  0
LINE
  8
_0-0_1
  6
CONTINUOUS
 62
    3
 10
1137.5069000000001
 20
722.4973
 11
1115.9628
 21
770.3732
  0
CIRCLE
  8
_0-0_1
  6
CONTINUOUS
 62
    3
 10
1136.481
 20
724.77710000000002
 40
1.6999999999999997
  0
LINE
  8
_0-0_1
  6
CONTINUOUS
 62
    3
 10
1136.481
 20
724.77710000000002
 11
1068.1018999999999
 21
694.00659999999993
  0
CIRCLE
  8
_0-0_1
  6
CONTINUOUS
 62
    3
 10
1068.1018999999999
 20
694.00659999999993
 40
1.6999999999999997
  0
LINE
  8
_0-0_1
  6
CONTINUOUS
 62
    3
 10
1069.1278
 20
691.72679999999991
 11
1047.5836999999999
 21
739.60269999999991
  0
LINE
  8
_0-0_1
  6
CONTINUOUS
 62
    3
 10
1046.4521
 20
988.49829999999997
 11
1048.3932
 21
981.25379999999996
  0
LINE
  8
_0-0_1
  6
CONTINUOUS
 62
    3
 10
1048.3932
 20
981.25379999999996
 11
1043.0898999999999
 21
986.55709999999999
  0
LINE
  8
_0-0_1
  6
CONTINUOUS
 62
    3
 10
1048.3932
 20
981.25379999999996
 11
959.95000000000005
 21
1134.4419
  0
LINE
  8
_0-0_1
  6
CONTINUOUS
 62
    3
 10
959.95000000000005
 20
1134.4419
 11
779.95000000000005
 21
1134.4419
  0
LINE
  8
_0-0_1
  6
CONTINUOUS
 62
    3
 10
1141.8089
 20
726.8907999999999
 11
1145.5589
 21
733.38599999999997
  0
LINE
  8
_0-0_1
  6
CONTINUOUS
 62
    3
 10
1145.5589
 20
733.38599999999997
 11
1145.5589
 21
725.88599999999997
  0
LINE
  8
_0-0_1
  6
CONTINUOUS
 62
    3
 10
1145.5589
 20
733.38599999999997
 11
1109.0753999999999
 21
597.22769999999991
  0
LINE
  8
_0-0_1
  6
CONTINUOUS
 62
    3
 10
1109.0753999999999
 20
597.22769999999991
 11
890.4541999999999
 21
597.22769999999991
  0
LINE
  8
_0-0_1
  6
CONTINUOUS
 62
    3
 10
1104.0268000000001
 20
894.3746000000001
 11
1111.2013999999999
 21
878.43100000000004
  0
LINE
  8
_0-0_1
  6
CONTINUOUS
 62
    3
 10
1073.1587999999999
 20
895.59950000000003
 11
1104.0268000000001
 21
894.3746000000001
  0
LINE
  8
_0-0_1
  6
CONTINUOUS
 62
    3
 10
1074.3143
 20
862.92849999999999
 11
1061.8934999999999
 21
890.53009999999995
  0
LINE
  8
_0-0_1
  6
CONTINUOUS
 62
    3
 10
1073.1587999999999
 20
895.59950000000003
 11
1061.8934999999999
 21
890.53009999999995
  0
LINE
  8
_0-0_1
  6
CONTINUOUS
 62
    3
 10
1061.8934999999999
 20
890.53009999999995
 11
1111.2013999999999
 21
878.43100000000004
  0
LINE
  8
_0-0_1
  6
CONTINUOUS
 62
    3
 10
1092.6054999999999
 20
894.82780000000002
 11
1074.3142
 21
862.92840000000001
  0
LINE
  8
_0-0_1
  6
CONTINUOUS
 62
    3
 10
1720.4115000000002
 20
793.84269999999992
 11
1987.7204999999999
 21
793.84269999999992
  0
LINE
  8
_0-0_1
  6
CONTINUOUS
 62
    3
 10
1554.1959999999999
 20
1077.8541
 11
1552.2548000000002
 21
1085.0986
  0
LINE
  8
_0-0_1
  6
CONTINUOUS
 62
    3
 10
1552.2548000000002
 20
1085.0986
 11
1557.5581000000002
 21
1079.7953
  0
LINE
  8
_0-0_1
  6
CONTINUOUS
 62
    3
 10
1552.2548000000002
 20
1085.0986
 11
1737.1927999999998
 21
764.77659999999992
  0
LINE
  8
_0-0_1
  6
CONTINUOUS
 62
    3
 10
1737.1927999999998
 20
764.77659999999992
 11
2055.8352
 21
764.77659999999992
  0
LINE
  8
_0-0_1
  6
CONTINUOUS
 62
    3
 10
1702.7597999999998
 20
824.73849999999993
 11
1938.8849
 21
824.73849999999993
  0
LINE
  8
_0-0_1
  6
CONTINUOUS
 62
    3
 10
1685.0830999999998
 20
854.71939999999995
 11
1877.4758000000002
 21
854.71939999999995
  0
TEXT
  8
_0-0_1
 62
    7
 10
1562.1478000000006
 20
1262.6954999999996
 40
20
 41
1
 50
0
  1
　
  0
TEXT
  8
_0-0_1
 62
    7
 10
779.95000000000061
 20
1135.9418999999998
 40
20
 41
1
 50
0
  1
パッキンステンレスネジ
  0
TEXT
  8
_0-0_1
 62
    7
 10
1720.4115000000006
 20
796.34269999999958
 40
20
 41
1
 50
0
  1
　下地：ＡＬＣパネル　ｔ＝５０
  0
TEXT
  8
_0-0_1
 62
    7
 10
1737.1928000000007
 20
767.27659999999958
 40
20
 41
1
 50
0
  1
　鋼製：Ｃ１００ｘ５０ｘ２０ｘ２．３
  0
TEXT
  8
_0-0_1
 62
    7
 10
1702.7598000000007
 20
827.23849999999959
 40
20
 41
1
 50
0
  1
　下葺材：ルーフィング９４０　
  0
TEXT
  8
_0-0_1
 62
    7
 10
1685.0831000000007
 20
857.21939999999961
 40
20
 41
1
 50
0
  1
　瓦桟：１５ｘ３０以上　
  0
TEXT
  8
_0-0_1
 62
    7
 10
1544.2805912304657
 20
1267.1469773445936
 40
20
 41
1
 50
0
  1
桟　瓦
  0
TEXT
  8
_0-0_1
 62
    7
 10
1027.7662987988047
 20
1124.6074248337793
 40
20
 41
1
 50
19.409661000000028
  1
260
  0
TEXT
  8
_0-0_1
 62
    7
 10
1256.1361194881736
 20
1241.0913602189614
 40
20
 41
1
 50
19.40966100000001
  1
260
  0
TEXT
  8
_0-0_1
 62
    7
 10
1492.1693569792005
 20
1352.9772455231487
 40
20
 41
1
 50
19.40966100000001
  1
260
  0
TEXT
  8
_0-0_1
 62
    7
 10
1737.3986946322148
 20
1464.8631308273366
 40
20
 41
1
 50
19.40966099999995
  1
260
  0
TEXT
  8
_0-0_1
 62
    7
 10
1089.0736332120578
 20
713.84828426498052
 40
20
 41
1
 50
24.227700000000016
  1
75
  0
TEXT
  8
_0-0_1
 62
    7
 10
889.51026279508949
 20
690.7926789042732
 40
20
 41
1
 50
0
  1
瓦　座：36x40　
  0
TEXT
  8
_0-0_1
 62
    7
 10
863.31532950856865
 20
606.04436533023534
 40
20
 41
1
 50
0
  1
破風板：薄型ALCパネル　
  0
ENDSEC
  0
EOF
