  0
SECTION
  2
HEADER
  9
$ACADVER
  1
AC1009
  9
$INSBASE
 10
0
 20
0
 30
0
  9
$EXTMIN
 10
0
 20
0
  9
$EXTMAX
 10
2970
 20
2100
  9
$LIMMIN
 10
0
 20
0
  9
$LIMMAX
 10
2970
 20
2100
  9
$LTSCALE
 40
10
  0
ENDSEC
  0
SECTION
  2
TABLES
  0
TABLE
  2
LTYPE
 70
     9
  0
LTYPE
  2
CONTINUOUS
 70
    64
  3
実線
 72
    65
 73
     0
 40
0.0
  0
LTYPE
  2
DASHED1
 70
    64
  3
--  --  --  --  --  --  --  --  
 72
    65
 73
     2
 40
2.5
 49
1.25
 49
-1.25
  0
LTYPE
  2
DASHED2
 70
    64
  3
----    ----    ----    ----    
 72
    65
 73
     2
 40
5.0
 49
2.5
 49
-2.5
  0
LTYPE
  2
DASHED3
 70
    64
  3
------  ------  ------  ------  
 72
    65
 73
     2
 40
5.0
 49
3.75
 49
-1.25
  0
LTYPE
  2
CENTER1
 70
    64
  3
----- - ----- - ----- - ----- - 
 72
    65
 73
     4
 40
10.0
 49
6.25
 49
-1.25
 49
1.25
 49
-1.25
  0
LTYPE
  2
CENTER2
 70
    64
  3
----------  --  ----------  --  
 72
    65
 73
     4
 40
20.0
 49
12.5
 49
-2.5
 49
2.5
 49
-2.5
  0
LTYPE
  2
PHANTOM1
 70
    64
  3
--- - - --- - - --- - - --- - - 
 72
    65
 73
     6
 40
10.0
 49
3.25
 49
-1.25
 49
1.25
 49
-1.25
 49
1.25
 49
-1.25
  0
LTYPE
  2
PHANTOM2
 70
    64
  3
--------  -  -  --------  -  -  
 72
    65
 73
     6
 40
20.0
 49
10.0
 49
-2.5
 49
1.25
 49
-2.5
 49
1.25
 49
-2.5
  0
LTYPE
  2
DOT
 70
    64
  3
-   -   -   -   -   -   -   -   
 72
    65
 73
     2
 40
2.5
 49
0.625
 49
-1.875
  0
LTYPE
  2
DUMMY
 70
    64
  3
ダミー
 72
    65
 73
     0
 40
0.0
  0
LTYPE
  2
RAND1
 70
    64
  3
ランダム線1
 72
    65
 73
     4
 40
10.0
 49
1.0
 49
-2.0
 49
3.0
 49
-4.0
  0
LTYPE
  2
RAND2
 70
    64
  3
ランダム線2
 72
    65
 73
     4
 40
14.0
 49
2.0
 49
-3.0
 49
4.0
 49
-5.0
  0
LTYPE
  2
RAND3
 70
    64
  3
ランダム線3
 72
    65
 73
     4
 40
18.0
 49
3.0
 49
-4.0
 49
5.0
 49
-6.0
  0
LTYPE
  2
RAND4
 70
    64
  3
ランダム線4
 72
    65
 73
     4
 40
22.0
 49
4.0
 49
-5.0
 49
6.0
 49
-7.0
  0
LTYPE
  2
RAND5
 70
    64
  3
ランダム線5
 72
    65
 73
     4
 40
26.0
 49
5.0
 49
-6.0
 49
7.0
 49
-8.0
  0
LTYPE
  2
LONG1
 70
    64
  3
----------  --  ----------  --  
 72
    65
 73
     4
 40
40.0
 49
32.5
 49
-2.5
 49
2.5
 49
-2.5
  0
LTYPE
  2
LONG2
 70
    64
  3
--------  -  -  --------  -  -  
 72
    65
 73
     6
 40
40.0
 49
30.0
 49
-2.5
 49
1.25
 49
-2.5
 49
1.25
 49
-2.5
  0
LTYPE
  2
LONG3
 70
    64
  3
+++++++++++++++..+++++++++++++++
 72
    65
 73
     2
 40
40.0
 49
37.5
 49
-2.5
  0
LTYPE
  2
LONG4
 70
    64
  3
+++++++++++++++..+++++++++++++++
 72
    65
 73
     2
 40
80.0
 49
75.0
 49
-5.0
  0
LTYPE
  2
LONG5
 70
    64
  3
----------  --  ----------  --  
 72
    65
 73
     4
 40
60.0
 49
37.5
 49
-7.5
 49
7.5
 49
-7.5
  0
LTYPE
  2
dashed
 70
   64
  3
-------   -------------   ------
 72
   65
 73
    2
 40
7.5
 49
6
 49
-1.5
  0
LTYPE
  2
dashed_spaced
 70
   64
  3
----        --------        ----
 72
   65
 73
    2
 40
12
 49
6
 49
-6
  0
LTYPE
  2
long_dashed_dotted
 70
   64
  3
------------- --- --------------
 72
   65
 73
    4
 40
15.25
 49
12
 49
-1.5
 49
0.25
 49
-1.5
  0
LTYPE
  2
long_dashed_double-dotted
 70
   64
  3
----------- --- --- ------------
 72
   65
 73
    6
 40
17
 49
12
 49
-1.5
 49
0.25
 49
-1.5
 49
0.25
 49
-1.5
  0
LTYPE
  2
long_dashed_triplicate-dotted
 70
   64
  3
--------- --- --- --- ----------
 72
   65
 73
    8
 40
18.75
 49
12
 49
-1.5
 49
0.25
 49
-1.5
 49
0.25
 49
-1.5
 49
0.25
 49
-1.5
  0
LTYPE
  2
dotted
 70
   64
  3
   -       -       -       -    
 72
   65
 73
    2
 40
1.75
 49
0.25
 49
-1.5
  0
LTYPE
  2
chain
 70
   64
  3
-------------- -- --------------
 72
   65
 73
    4
 40
18.5
 49
12
 49
-1.5
 49
3.5
 49
-1.5
  0
LTYPE
  2
chain_double_dash
 70
   64
  3
------------ -- -- -------------
 72
   65
 73
    6
 40
23.5
 49
12
 49
-1.5
 49
3.5
 49
-1.5
 49
3.5
 49
-1.5
  0
LTYPE
  2
dashed_dotted
 70
   64
  3
-----------     -     ----------
 72
   65
 73
    4
 40
9.25
 49
6
 49
-1.5
 49
0.25
 49
-1.5
  0
LTYPE
  2
double-dashed_dotted
 70
   64
  3
------   -----------   -   -----
 72
   65
 73
    6
 40
16.75
 49
6
 49
-1.5
 49
6
 49
-1.5
 49
0.25
 49
-1.5
  0
LTYPE
  2
dashed_double-dotted
 70
   64
  3
---------    -    -    ---------
 72
   65
 73
    6
 40
11
 49
6
 49
-1.5
 49
0.25
 49
-1.5
 49
0.25
 49
-1.5
  0
LTYPE
  2
double-dashed_double-dotted
 70
   64
  3
-----   ---------   -   -   ----
 72
   65
 73
    8
 40
18.5
 49
6
 49
-1.5
 49
6
 49
-1.5
 49
0.25
 49
-1.5
 49
0.25
 49
-1.5
  0
LTYPE
  2
dashed_triplicate-dotted
 70
   64
  3
-------    -    -    -    ------
 72
   65
 73
    8
 40
12.75
 49
6
 49
-1.5
 49
0.25
 49
-1.5
 49
0.25
 49
-1.5
 49
0.25
 49
-1.5
  0
LTYPE
  2
double-dashed_triplicate-dotted
 70
   64
  3
-----  ---------  -  -  -  -----
 72
   65
 73
   10
 40
20.25
 49
6
 49
-1.5
 49
6
 49
-1.5
 49
0.25
 49
-1.5
 49
0.25
 49
-1.5
 49
0.25
 49
-1.5
  0
LTYPE
  2
undefined
 70
   64
  3
--------------------------------
 72
   65
 73
    0
 40
0
  0
ENDTAB
  0
TABLE
  2
STYLE
  5
3
100
AcDbSymbolTable
 70
     1
  0
STYLE
  5
10
100
AcDbSymbolTableRecord
100
AcDbTextStyleTableRecord
  2
STANDARD
 70
     0
 40
0.0
 41
1.0
 50
0.0
 71
     0
 42
0.2
  3
txt
  4
bigfont.shx
  0
STYLE
  5
26
100
AcDbSymbolTableRecord
100
AcDbTextStyleTableRecord
  2
TATEGAKI
 70
    68
 40
0.0
 41
1.0
 50
0.0
 71
     0
 42
1.0
  3
txt
  4
bigfont.shx
  0
ENDTAB
  0
TABLE
  2
LAYER
 70
    6
  0
LAYER
  2
_0-0_1
 70
   64
 62
    7
  6
CONTINUOUS
  0
LAYER
  2
_0-1_2
 70
   64
 62
    7
  6
CONTINUOUS
  0
LAYER
  2
_0-2_3
 70
   64
 62
    7
  6
CONTINUOUS
  0
LAYER
  2
_0-3_4
 70
   64
 62
    7
  6
CONTINUOUS
  0
LAYER
  2
_0-4_6
 70
   64
 62
    7
  6
CONTINUOUS
  0
LAYER
  2
ADD_LINE
 70
   64
 62
    7
  6
CONTINUOUS
  0
ENDTAB
  0
ENDSEC
  0
SECTION
  2
BLOCKS
  0
ENDSEC
  0
SECTION
  2
ENTITIES
  0
LINE
  8
_0-0_1
  6
CONTINUOUS
 62
    3
 10
1167.8996999999999
 20
704.13490000000002
 11
1160.6646000000001
 21
716.8587
  0
LINE
  8
_0-0_1
  6
CONTINUOUS
 62
    3
 10
1194.3451
 20
739.0628999999999
 11
1167.9139
 21
713.80639999999994
  0
LINE
  8
_0-0_1
  6
CONTINUOUS
 62
    3
 10
1159.1519000000001
 20
705.43380000000002
 11
1138.2109
 21
685.4235000000001
  0
LINE
  8
_0-0_1
  6
CONTINUOUS
 62
    3
 10
1159.1070999999999
 20
705.39100000000008
 11
1167.8996999999999
 21
704.13490000000002
  0
LINE
  8
_0-0_1
  6
CONTINUOUS
 62
    3
 10
1160.6646000000001
 20
716.8587
 11
1167.9139
 21
713.80639999999994
  0
LINE
  8
_0-0_1
  6
DASHED3
 62
    3
 10
1061.4108000000001
 20
844.29119999999989
 11
2131.7356
 21
1325.9364
  0
LINE
  8
_0-0_1
  6
CONTINUOUS
 62
    3
 10
1062.0263
 20
842.92329999999993
 11
2132.3512000000001
 21
1324.5685000000001
  0
LINE
  8
_0-0_1
  6
CONTINUOUS
 62
    2
 10
1071.2594999999999
 20
822.40509999999995
 11
2141.5844000000002
 21
1304.0503000000001
  0
LINE
  8
_0-0_1
  6
CONTINUOUS
 62
    2
 10
1070.2336
 20
824.68489999999997
 11
2140.5585000000001
 21
1306.3300999999999
  0
LINE
  8
_0-0_1
  6
CONTINUOUS
 62
    2
 10
1069.2076999999999
 20
826.96469999999999
 11
2139.5326
 21
1308.6098999999999
  0
LINE
  8
_0-0_1
  6
CONTINUOUS
 62
    2
 10
1068.1818000000001
 20
829.24450000000002
 11
2138.5066000000002
 21
1310.8896999999999
  0
LINE
  8
_0-0_1
  6
CONTINUOUS
 62
    2
 10
1067.1558
 20
831.52430000000004
 11
2137.4807000000001
 21
1313.1695
  0
LINE
  8
_0-0_1
  6
CONTINUOUS
 62
    2
 10
1066.1298999999999
 20
833.80410000000006
 11
2136.4548
 21
1315.4493
  0
LINE
  8
_0-0_1
  6
CONTINUOUS
 62
    2
 10
1065.104
 20
836.08390000000009
 11
2135.4288999999999
 21
1317.7291
  0
LINE
  8
_0-0_1
  6
CONTINUOUS
 62
    2
 10
1064.0780999999999
 20
838.36370000000011
 11
2134.4029999999998
 21
1320.0089
  0
LINE
  8
_0-0_1
  6
CONTINUOUS
 62
    2
 10
1063.0522000000001
 20
840.6434999999999
 11
2133.3771000000002
 21
1322.2887000000001
  0
LINE
  8
_0-0_1
  6
CONTINUOUS
 62
    3
 10
1642.6327999999999
 20
1165.6177
 11
1644.5738999999999
 21
1158.3732
  0
LINE
  8
_0-0_1
  6
CONTINUOUS
 62
    3
 10
1644.5738999999999
 20
1158.3732
 11
1639.2705999999998
 21
1163.6765
  0
LINE
  8
_0-0_1
  6
CONTINUOUS
 62
    3
 10
1644.5738999999999
 20
1158.3732
 11
1590.6902
 21
1251.7025000000001
  0
LINE
  8
_0-0_1
  6
CONTINUOUS
 62
    3
 10
1590.6902
 20
1251.7025000000001
 11
1550.1902
 21
1251.7025000000001
  0
LINE
  8
_0-0_1
  6
CONTINUOUS
 62
    3
 10
1853.6660000000002
 20
1058.7981
 11
1791.6545999999998
 21
1030.8933
  0
LINE
  8
_0-0_1
  6
CONTINUOUS
 62
    3
 10
1860.2768999999998
 20
1056.2900999999999
 11
1861.0976000000001
 21
1054.4661000000001
  0
LINE
  8
_0-0_1
  6
CONTINUOUS
 62
    3
 10
1861.0976000000001
 20
1054.4661000000001
 11
1779.0248000000001
 21
1017.5329999999999
  0
ARC
  8
_0-0_1
  6
CONTINUOUS
 62
    3
 10
1787.5515
 20
1040.0147999999999
 40
10.001999
 50
204.2319
 51
294.21913000000001
  0
ARC
  8
_0-0_1
  6
CONTINUOUS
 62
    3
 10
1855.7184000000002
 20
1054.2393999999999
 40
4.9989999999999997
 50
24.224954
 51
114.23559000000002
  0
LINE
  8
_0-0_1
  6
CONTINUOUS
 62
    3
 10
1744.5789
 20
1054.671
 11
1746.3186999999998
 21
1053.4177999999999
  0
LINE
  8
_0-0_1
  6
CONTINUOUS
 62
    3
 10
1727.7103999999999
 20
1069.0098
 11
1736.8494999999998
 21
1055.5776000000001
  0
LINE
  8
_0-0_1
  6
CONTINUOUS
 62
    3
 10
1733.2669999999998
 20
1071.5099
 11
1742.4050000000002
 21
1058.0769
  0
LINE
  8
_0-0_1
  6
CONTINUOUS
 62
    3
 10
1727.7103999999999
 20
1069.0098
 11
1726.7073
 21
1066.3651
  0
LINE
  8
_0-0_1
  6
CONTINUOUS
 62
    3
 10
1742.9380000000001
 20
1058.3177000000001
 11
1734.2761999999998
 21
1054.4195999999999
  0
LINE
  8
_0-0_1
  6
CONTINUOUS
 62
    3
 10
1727.7103999999999
 20
1069.0098
 11
1734.2761999999998
 21
1054.4195999999999
  0
LINE
  8
_0-0_1
  6
CONTINUOUS
 62
    3
 10
1731.6307999999999
 20
1055.4223
 11
1734.2761999999998
 21
1054.4195999999999
  0
LINE
  8
_0-0_1
  6
CONTINUOUS
 62
    3
 10
1726.7073
 20
1066.3651
 11
1731.6307999999999
 21
1055.4223
  0
ARC
  8
_0-0_1
  6
CONTINUOUS
 62
    3
 10
1749.5392000000002
 20
1058.6560999999999
 40
6.1580000000000004
 50
169.90002999999999
 51
203.85469000000001
  0
LINE
  8
_0-0_1
  6
CONTINUOUS
 62
    3
 10
1743.9157
 20
1100.4282000000001
 11
1742.0924
 21
1099.607
  0
LINE
  8
_0-0_1
  6
CONTINUOUS
 62
    3
 10
1779.0246000000002
 20
1017.5334
 11
1742.0924
 21
1099.607
  0
LINE
  8
_0-0_1
  6
CONTINUOUS
 62
    3
 10
1750.5275000000001
 20
1097.9196999999999
 11
1778.4315000000001
 21
1035.9090000000001
  0
LINE
  8
_0-0_1
  6
CONTINUOUS
 62
    3
 10
1751.5109000000002
 20
1070.9476
 11
1748.7748999999999
 21
1069.7159999999999
  0
LINE
  8
_0-0_1
  6
CONTINUOUS
 62
    3
 10
1744.9454000000001
 20
1085.5379
 11
1742.2094999999999
 21
1084.3063999999999
  0
LINE
  8
_0-0_1
  6
CONTINUOUS
 62
    3
 10
1755.3397
 20
1055.1266000000001
 11
1742.2094999999999
 21
1084.3063999999999
  0
LINE
  8
_0-0_1
  6
CONTINUOUS
 62
    3
 10
1758.0765000000001
 20
1056.3575000000001
 11
1755.3397
 21
1055.1266000000001
  0
LINE
  8
_0-0_1
  6
CONTINUOUS
 62
    3
 10
1743.4751999999999
 20
1059.7361000000001
 11
1751.6161000000002
 21
1063.4000000000001
  0
LINE
  8
_0-0_1
  6
CONTINUOUS
 62
    3
 10
1737.79
 20
1072.3708999999999
 11
1745.9308000000001
 21
1076.0336
  0
LINE
  8
_0-0_1
  6
CONTINUOUS
 62
    3
 10
1734.9459000000002
 20
1078.6884
 11
1743.0882999999999
 21
1082.3524
  0
LINE
  8
_0-0_1
  6
CONTINUOUS
 62
    3
 10
1734.7303999999999
 20
1076.5579
 11
1734.9459000000002
 21
1078.6884
  0
LINE
  8
_0-0_1
  6
CONTINUOUS
 62
    3
 10
1744.5789
 20
1054.671
 11
1734.7303999999999
 21
1076.5579
  0
LINE
  8
_0-0_1
  6
CONTINUOUS
 62
    3
 10
1746.3186999999998
 20
1053.4177999999999
 11
1754.4600999999998
 21
1057.0812000000001
  0
LINE
  8
_0-0_1
  6
CONTINUOUS
 62
    3
 10
1766.0857999999998
 20
1085.1029000000001
 11
1757.9450000000002
 21
1081.4390000000001
  0
LINE
  8
_0-0_1
  6
CONTINUOUS
 62
    3
 10
1771.7714000000001
 20
1072.4680000000001
 11
1763.6296000000002
 21
1068.8046999999999
  0
LINE
  8
_0-0_1
  6
CONTINUOUS
 62
    3
 10
1774.6151
 20
1066.1505
 11
1766.4731000000002
 21
1062.4865
  0
LINE
  8
_0-0_1
  6
CONTINUOUS
 62
    3
 10
1774.8308000000002
 20
1068.2809999999999
 11
1774.6151
 21
1066.1505
  0
LINE
  8
_0-0_1
  6
CONTINUOUS
 62
    3
 10
1764.9821999999999
 20
1090.1679999999999
 11
1774.8308000000002
 21
1068.2809999999999
  0
LINE
  8
_0-0_1
  6
CONTINUOUS
 62
    3
 10
1763.2426999999998
 20
1091.4211
 11
1755.1012000000001
 21
1087.7579000000001
  0
LINE
  8
_0-0_1
  6
CONTINUOUS
 62
    3
 10
1764.9821999999999
 20
1090.1679999999999
 11
1763.2426999999998
 21
1091.4211
  0
LINE
  8
_0-0_1
  6
CONTINUOUS
 62
    3
 10
1736.3730999999998
 20
1072.9073000000001
 11
1727.7103999999999
 21
1069.0098
  0
ARC
  8
_0-0_1
  6
CONTINUOUS
 62
    3
 10
1745.9686999999999
 20
1095.8690999999999
 40
4.9989999999999997
 50
24.224954
 51
114.23559000000002
  0
ARC
  8
_0-0_1
  6
CONTINUOUS
 62
    3
 10
1740.9935999999998
 20
1077.6201000000001
 40
6.1470010000000013
 50
204.58611000000002
 51
238.59338000000002
  0
ARC
  8
_0-0_1
  6
CONTINUOUS
 62
    3
 10
1760.5363000000002
 20
1075.0114000000001
 40
22.898997999999999
 50
186.62354999999999
 51
221.83906999999999
  0
ARC
  8
_0-0_1
  6
CONTINUOUS
 62
    3
 10
1768.5648000000001
 20
1067.22
 40
6.1479999999999997
 50
24.562933999999998
 51
58.577674000000009
  0
ARC
  8
_0-0_1
  6
CONTINUOUS
 62
    3
 10
1760.0326
 20
1086.1823999999999
 40
6.1479999999999997
 50
349.89965999999998
 51
23.901924000000019
  0
ARC
  8
_0-0_1
  6
CONTINUOUS
 62
    3
 10
1748.9883
 20
1069.8126
 40
22.936000999999997
 50
6.651644000000001
 51
41.808413999999999
  0
LINE
  8
_0-0_1
  6
CONTINUOUS
 62
    3
 10
1696.2082
 20
1128.3049000000001
 11
1705.3285000000001
 21
1132.4091000000001
  0
LINE
  8
_0-0_1
  6
CONTINUOUS
 62
    3
 10
1697.4405999999999
 20
1125.5695000000001
 11
1706.5585999999998
 21
1129.6732
  0
LINE
  8
_0-0_1
  6
CONTINUOUS
 62
    3
 10
1705.3285000000001
 20
1132.4091000000001
 11
1706.5585999999998
 21
1129.6732
  0
LINE
  8
_0-0_1
  6
CONTINUOUS
 62
    3
 10
1696.2082
 20
1128.3049000000001
 11
1697.4405999999999
 21
1125.5695000000001
  0
LINE
  8
_0-0_1
  6
CONTINUOUS
 62
    3
 10
1700.7682
 20
1130.357
 11
1702
 21
1127.6208999999999
  0
LINE
  8
_0-0_1
  6
CONTINUOUS
 62
    3
 10
1719.1694000000002
 20
1089.4644000000001
 11
1718.6954000000001
 21
1095.3923
  0
LINE
  8
_0-0_1
  6
CONTINUOUS
 62
    3
 10
1719.1694000000002
 20
1089.4644000000001
 11
1715.0481
 21
1093.7503999999999
  0
LINE
  8
_0-0_1
  6
CONTINUOUS
 62
    3
 10
1711.4937
 20
1114.4102
 11
1704.9985000000001
 21
1112.6465000000001
  0
LINE
  8
_0-0_1
  6
CONTINUOUS
 62
    3
 10
1713.5459999999998
 20
1109.8501000000001
 11
1707.0497999999998
 21
1108.0857000000001
  0
LINE
  8
_0-0_1
  6
CONTINUOUS
 62
    3
 10
1715.5967999999998
 20
1105.2900999999999
 11
1709.1028999999999
 21
1103.5263
  0
LINE
  8
_0-0_1
  6
CONTINUOUS
 62
    3
 10
1717.6496000000002
 20
1100.7306000000001
 11
1711.1543000000001
 21
1098.9670000000001
  0
LINE
  8
_0-0_1
  6
CONTINUOUS
 62
    3
 10
1719.1846999999998
 20
1097.3181999999999
 11
1712.6896000000002
 21
1095.5546999999999
  0
LINE
  8
_0-0_1
  6
CONTINUOUS
 62
    3
 10
1701.4052999999999
 20
1124.0662
 11
1715.0481
 21
1093.7503999999999
  0
LINE
  8
_0-0_1
  6
CONTINUOUS
 62
    3
 10
1697.4405999999999
 20
1125.5695000000001
 11
1701.4052999999999
 21
1124.0662
  0
LINE
  8
_0-0_1
  6
CONTINUOUS
 62
    3
 10
1705.0540999999998
 20
1125.7052000000001
 11
1718.6954000000001
 21
1095.3923
  0
LINE
  8
_0-0_1
  6
CONTINUOUS
 62
    3
 10
1706.5585999999998
 20
1129.6732
 11
1705.0540999999998
 21
1125.7052000000001
  0
LINE
  8
_0-0_1
  6
CONTINUOUS
 62
    3
 10
1698.1884
 20
1079.8497
 11
1696.0909999999999
 21
1078.9058
  0
LINE
  8
_0-0_1
  6
CONTINUOUS
 62
    3
 10
1722.8103999999998
 20
1025.1343999999999
 11
1720.7129
 21
1024.1904999999999
  0
LINE
  8
_0-0_1
  6
CONTINUOUS
 62
    3
 10
1730.5023000000001
 20
1113.8006
 11
1692.7487000000001
 21
1096.8114
  0
LINE
  8
_0-0_1
  6
CONTINUOUS
 62
    3
 10
1698.1884
 20
1079.8497
 11
1691.7456000000002
 21
1094.1668
  0
LINE
  8
_0-0_1
  6
CONTINUOUS
 62
    3
 10
1729.2530999999999
 20
1010.8172999999999
 11
1722.8103999999998
 21
1025.1343999999999
  0
LINE
  8
_0-0_1
  6
CONTINUOUS
 62
    3
 10
1769.6513
 20
1026.8032000000001
 11
1731.8978999999999
 21
1009.8141000000001
  0
LINE
  8
_0-0_1
  6
CONTINUOUS
 62
    3
 10
1696.0909999999999
 20
1078.9058
 11
1689.6482999999998
 21
1093.2229
  0
LINE
  8
_0-0_1
  6
CONTINUOUS
 62
    3
 10
1729.5585999999998
 20
1115.8979999999999
 11
1691.8049999999998
 21
1098.9087999999999
  0
LINE
  8
_0-0_1
  6
CONTINUOUS
 62
    3
 10
1727.1556
 20
1009.8733
 11
1720.7129
 21
1024.1904999999999
  0
LINE
  8
_0-0_1
  6
CONTINUOUS
 62
    3
 10
1770.5949999999998
 20
1024.7058
 11
1732.8416000000002
 21
1007.7167999999999
  0
LINE
  8
_0-0_1
  6
CONTINUOUS
 62
    3
 10
1770.6543000000001
 20
1029.4478999999999
 11
1733.1468
 21
1112.7974999999999
  0
LINE
  8
_0-0_1
  6
CONTINUOUS
 62
    3
 10
1735.2442000000001
 20
1113.7411
 11
1772.7516999999998
 21
1030.3915999999999
  0
ARC
  8
_0-0_1
  6
CONTINUOUS
 62
    3
 10
1693.5695000000001
 20
1094.9875
 40
2.000003
 50
114.22777000000002
 51
204.22776000000002
  0
ARC
  8
_0-0_1
  6
CONTINUOUS
 62
    3
 10
1731.0771
 20
1011.6379999999999
 40
2.000003
 50
204.22776000000002
 51
294.22775999999999
  0
ARC
  8
_0-0_1
  6
CONTINUOUS
 62
    3
 10
1731.0771
 20
1011.6379999999999
 40
4.2999999999999998
 50
204.22776000000002
 51
294.22775999999999
  0
ARC
  8
_0-0_1
  6
CONTINUOUS
 62
    3
 10
1693.5695000000001
 20
1094.9875
 40
4.2999999999999998
 50
114.22777000000002
 51
204.22776000000002
  0
ARC
  8
_0-0_1
  6
CONTINUOUS
 62
    3
 10
1731.3229000000001
 20
1111.9766
 40
2.000003
 50
24.227764000000004
 51
114.22777000000002
  0
ARC
  8
_0-0_1
  6
CONTINUOUS
 62
    3
 10
1768.8305
 20
1028.627
 40
2.000003
 50
294.22775999999999
 51
24.227764000000008
  0
ARC
  8
_0-0_1
  6
CONTINUOUS
 62
    3
 10
1768.8305
 20
1028.627
 40
4.2999999999999998
 50
294.22775999999999
 51
24.227764000000008
  0
ARC
  8
_0-0_1
  6
CONTINUOUS
 62
    3
 10
1731.3229000000001
 20
1111.9766
 40
4.2999999999999998
 50
24.227764000000004
 51
114.22777000000002
  0
LINE
  8
_0-0_1
  6
CONTINUOUS
 62
    3
 10
918.07799999999997
 20
1060.6714999999999
 11
935.52479999999991
 21
1011.1552999999999
  0
CIRCLE
  8
_0-0_1
  6
CONTINUOUS
 62
    3
 10
918.90879999999993
 20
1058.3136
 40
1.6999999999999997
  0
LINE
  8
_0-0_1
  6
CONTINUOUS
 62
    3
 10
918.90879999999993
 20
1058.3136
 11
1164.1321
 21
1144.7167999999999
  0
CIRCLE
  8
_0-0_1
  6
CONTINUOUS
 62
    3
 10
1164.1321
 20
1144.7167999999999
 40
1.6999999999999997
  0
LINE
  8
_0-0_1
  6
CONTINUOUS
 62
    3
 10
1163.3013000000001
 20
1147.0748000000001
 11
1180.7481
 21
1097.5585000000001
  0
LINE
  8
_0-0_1
  6
CONTINUOUS
 62
    3
 10
1623.6079
 20
1404.6848
 11
1641.0547000000001
 21
1355.1685
  0
CIRCLE
  8
_0-0_1
  6
CONTINUOUS
 62
    3
 10
1624.4387000000002
 20
1402.3268000000003
 40
1.6999999999999997
  0
LINE
  8
_0-0_1
  6
CONTINUOUS
 62
    3
 10
1624.4387000000002
 20
1402.3268000000003
 11
1869.6619999999998
 21
1488.7301
  0
CIRCLE
  8
_0-0_1
  6
CONTINUOUS
 62
    3
 10
1869.6619999999998
 20
1488.7301
 40
1.6999999999999997
  0
LINE
  8
_0-0_1
  6
CONTINUOUS
 62
    3
 10
1868.8312000000001
 20
1491.088
 11
1886.2779999999998
 21
1441.5717
  0
LINE
  8
_0-0_1
  6
CONTINUOUS
 62
    3
 10
1153.1005
 20
1175.2882999999999
 11
1170.5473
 21
1125.7719999999999
  0
CIRCLE
  8
_0-0_1
  6
CONTINUOUS
 62
    3
 10
1153.9313
 20
1172.9304
 40
1.6999999999999997
  0
LINE
  8
_0-0_1
  6
CONTINUOUS
 62
    3
 10
1153.9313
 20
1172.9304
 11
1399.1545999999998
 21
1259.3335999999999
  0
CIRCLE
  8
_0-0_1
  6
CONTINUOUS
 62
    3
 10
1399.1545999999998
 20
1259.3335999999999
 40
1.6999999999999997
  0
LINE
  8
_0-0_1
  6
CONTINUOUS
 62
    3
 10
1398.3238000000001
 20
1261.6914999999999
 11
1415.7706000000003
 21
1212.1753000000001
  0
LINE
  8
_0-0_1
  6
CONTINUOUS
 62
    3
 10
1388.3542
 20
1289.9865
 11
1405.8009999999999
 21
1240.4703
  0
CIRCLE
  8
_0-0_1
  6
CONTINUOUS
 62
    3
 10
1389.1849999999999
 20
1287.6286
 40
1.6999999999999997
  0
LINE
  8
_0-0_1
  6
CONTINUOUS
 62
    3
 10
1389.1849999999999
 20
1287.6286
 11
1634.4083000000001
 21
1374.0318
  0
CIRCLE
  8
_0-0_1
  6
CONTINUOUS
 62
    3
 10
1634.4083000000001
 20
1374.0318
 40
1.6999999999999997
  0
LINE
  8
_0-0_1
  6
CONTINUOUS
 62
    3
 10
1633.5774999999999
 20
1376.3897999999999
 11
1651.0243
 21
1326.8734999999997
  0
LINE
  8
_0-0_1
  6
CONTINUOUS
 62
    3
 10
1278.3982000000001
 20
943.1576
 11
1251.0323000000001
 21
930.8429000000001
  0
LINE
  8
_0-0_1
  6
CONTINUOUS
 62
    3
 10
1516.1347999999998
 20
1050.1393
 11
1488.7689
 21
1037.8245999999999
  0
LINE
  8
_0-0_1
  6
CONTINUOUS
 62
    3
 10
1753.8714
 20
1157.1211000000001
 11
1726.5055000000002
 21
1144.8063999999999
  0
LINE
  8
_0-0_1
  6
CONTINUOUS
 62
    5
 10
1742.2579000000001
 20
1191.9054000000001
 11
1743.2548999999999
 21
1189.0759
  0
LINE
  8
_0-0_1
  6
CONTINUOUS
 62
    5
 10
1742.2579000000001
 20
1191.9054000000001
 11
1750.7464
 21
1194.8963000000001
  0
LINE
  8
_0-0_1
  6
CONTINUOUS
 62
    5
 10
1676.0095000000001
 20
1257.1454000000001
 11
1703.3472000000002
 21
1179.5574999999999
  0
LINE
  8
_0-0_1
  6
CONTINUOUS
 62
    5
 10
1703.3472000000002
 20
1179.5574999999999
 11
1987.2404000000001
 21
1279.5859
  0
LINE
  8
_0-0_1
  6
CONTINUOUS
 62
    5
 10
1694.6918999999998
 20
1207.7048
 11
1933.1579999999999
 21
1309.7036000000001
  0
LINE
  8
_0-0_1
  6
CONTINUOUS
 62
    5
 10
1987.2404000000001
 20
1279.5859
 11
1991.2282
 21
1268.2679000000001
  0
LINE
  8
_0-0_1
  6
CONTINUOUS
 62
    5
 10
1991.2282
 20
1268.2679000000001
 11
1999.7166999999999
 21
1271.2587000000001
  0
LINE
  8
_0-0_1
  6
CONTINUOUS
 62
    5
 10
1980.2617
 20
1299.3923
 11
1981.2586000000001
 21
1296.5627999999997
  0
LINE
  8
_0-0_1
  6
CONTINUOUS
 62
    5
 10
1697.3654999999999
 20
1196.5345
 11
1981.2586000000001
 21
1296.5627999999997
  0
LINE
  8
_0-0_1
  6
CONTINUOUS
 62
    5
 10
1676.0192999999999
 20
1257.5478000000001
 11
1921.1078000000002
 21
1343.9034999999999
  0
LINE
  8
_0-0_1
  6
CONTINUOUS
 62
    5
 10
1980.2617
 20
1299.3923
 11
1988.7501000000002
 21
1302.3831999999998
  0
LINE
  8
_0-0_1
  6
CONTINUOUS
 62
    5
 10
1988.7501000000002
 20
1302.3831999999998
 11
1999.7166999999999
 21
1271.2587000000001
  0
LINE
  8
_0-0_1
  6
CONTINUOUS
 62
    5
 10
1914.3186000000001
 20
1363.6043
 11
1941.6563000000001
 21
1286.0162
  0
LINE
  8
_0-0_1
  6
CONTINUOUS
 62
    5
 10
1941.6563000000001
 20
1286.0162
 11
2120.8211999999999
 21
1349.1441
  0
LINE
  8
_0-0_1
  6
CONTINUOUS
 62
    5
 10
1933.0010000000002
 20
1314.1635000000001
 11
2104.4020999999998
 21
1387.4766
  0
LINE
  8
_0-0_1
  6
CONTINUOUS
 62
    5
 10
1935.6745999999998
 20
1302.9931999999999
 11
2113.7186000000002
 21
1365.7260999999999
  0
LINE
  8
_0-0_1
  6
CONTINUOUS
 62
    5
 10
1914.3283999999999
 20
1364.0065
 11
2088.2123000000001
 21
1425.2737
  0
LINE
  8
_0-0_1
  6
CONTINUOUS
 62
    5
 10
989.57320000000004
 20
857.75909999999999
 11
1273.4663
 21
957.78749999999991
  0
LINE
  8
_0-0_1
  6
CONTINUOUS
 62
    5
 10
980.91789999999992
 20
885.90640000000008
 11
1219.3839
 21
987.90519999999992
  0
LINE
  8
_0-0_1
  6
CONTINUOUS
 62
    5
 10
1273.4663
 20
957.78749999999991
 11
1277.4541999999999
 21
946.46949999999993
  0
LINE
  8
_0-0_1
  6
CONTINUOUS
 62
    5
 10
1277.4541999999999
 20
946.46949999999993
 11
1285.9427000000001
 21
949.46039999999994
  0
LINE
  8
_0-0_1
  6
CONTINUOUS
 62
    5
 10
1266.4875999999999
 20
977.59400000000005
 11
1267.4846
 21
974.7645
  0
LINE
  8
_0-0_1
  6
CONTINUOUS
 62
    5
 10
983.59140000000002
 20
874.73610000000008
 11
1267.4846
 21
974.7645
  0
LINE
  8
_0-0_1
  6
CONTINUOUS
 62
    5
 10
1266.4875999999999
 20
977.59400000000005
 11
1274.9761000000001
 21
980.58490000000006
  0
LINE
  8
_0-0_1
  6
CONTINUOUS
 62
    5
 10
1274.9761000000001
 20
980.58490000000006
 11
1285.9427000000001
 21
949.46039999999994
  0
LINE
  8
_0-0_1
  6
CONTINUOUS
 62
    5
 10
1200.4839999999999
 20
1043.2616
 11
1227.8217
 21
965.67360000000008
  0
LINE
  8
_0-0_1
  6
CONTINUOUS
 62
    5
 10
1227.8217
 20
965.67360000000008
 11
1511.7148999999999
 21
1065.702
  0
LINE
  8
_0-0_1
  6
CONTINUOUS
 62
    5
 10
1219.1664000000001
 20
993.82089999999994
 11
1457.6325000000002
 21
1095.8197
  0
LINE
  8
_0-0_1
  6
CONTINUOUS
 62
    5
 10
1511.7148999999999
 20
1065.702
 11
1515.7026999999998
 21
1054.384
  0
LINE
  8
_0-0_1
  6
CONTINUOUS
 62
    5
 10
1515.7026999999998
 20
1054.384
 11
1524.1912000000002
 21
1057.3749
  0
LINE
  8
_0-0_1
  6
CONTINUOUS
 62
    5
 10
1504.7361999999998
 20
1085.5084999999999
 11
1505.7330999999999
 21
1082.6790000000001
  0
LINE
  8
_0-0_1
  6
CONTINUOUS
 62
    5
 10
1221.8399999999999
 20
982.65059999999994
 11
1505.7330999999999
 21
1082.6790000000001
  0
LINE
  8
_0-0_1
  6
CONTINUOUS
 62
    5
 10
1200.4938
 20
1043.6639
 11
1445.5823
 21
1130.0197000000001
  0
LINE
  8
_0-0_1
  6
CONTINUOUS
 62
    5
 10
1504.7361999999998
 20
1085.5084999999999
 11
1513.2247000000002
 21
1088.4993999999999
  0
LINE
  8
_0-0_1
  6
CONTINUOUS
 62
    5
 10
1513.2247000000002
 20
1088.4993999999999
 11
1524.1912000000002
 21
1057.3749
  0
LINE
  8
_0-0_1
  6
CONTINUOUS
 62
    5
 10
1438.0057000000002
 20
1149.6585
 11
1465.3434999999999
 21
1072.0705
  0
LINE
  8
_0-0_1
  6
CONTINUOUS
 62
    5
 10
1465.3434999999999
 20
1072.0705
 11
1749.2366000000002
 21
1172.0989
  0
LINE
  8
_0-0_1
  6
CONTINUOUS
 62
    5
 10
1456.6880999999998
 20
1100.2177999999999
 11
1695.1541999999999
 21
1202.2166
  0
LINE
  8
_0-0_1
  6
CONTINUOUS
 62
    5
 10
1749.2366000000002
 20
1172.0989
 11
1753.2244999999998
 21
1160.7809
  0
LINE
  8
_0-0_1
  6
CONTINUOUS
 62
    5
 10
1753.2244999999998
 20
1160.7809
 11
1761.7130000000002
 21
1163.7718
  0
LINE
  8
_0-0_1
  6
CONTINUOUS
 62
    5
 10
1459.3616999999999
 20
1089.0474999999999
 11
1743.2548999999999
 21
1189.0759
  0
LINE
  8
_0-0_1
  6
CONTINUOUS
 62
    5
 10
1438.0155
 20
1150.0608
 11
1683.1039999999998
 21
1236.4165
  0
LINE
  8
_0-0_1
  6
CONTINUOUS
 62
    5
 10
1750.7464
 20
1194.8963000000001
 11
1761.7130000000002
 21
1163.7718
  0
LINE
  8
_0-0_1
  6
CONTINUOUS
 62
    5
 10
962.11040000000003
 20
935.70190000000002
 11
989.57320000000004
 21
857.75909999999999
  0
LINE
  8
_0-0_1
  6
CONTINUOUS
 62
    5
 10
962.11040000000003
 20
935.70190000000002
 11
1207.3338000000001
 21
1022.1052
  0
LINE
  8
_0-0_1
  6
CONTINUOUS
 62
    3
 10
1985.1163999999999
 20
1277.6304
 11
1957.7505000000001
 21
1265.3157000000001
  0
LINE
  8
_0-0_1
  6
CONTINUOUS
 62
    3
 10
1720.0138999999999
 20
1158.3339000000001
 11
1726.5055000000002
 21
1144.8063999999999
  0
LINE
  8
_0-0_1
  6
CONTINUOUS
 62
    3
 10
1509.6432
 20
1063.6668999999999
 11
1516.1347999999998
 21
1050.1393
  0
LINE
  8
_0-0_1
  6
CONTINUOUS
 62
    3
 10
1482.2773000000002
 20
1051.3522
 11
1488.7689
 21
1037.8245999999999
  0
LINE
  8
_0-0_1
  6
CONTINUOUS
 62
    3
 10
1509.6432
 20
1063.6668999999999
 11
1482.2773000000002
 21
1051.3522
  0
LINE
  8
_0-0_1
  6
CONTINUOUS
 62
    3
 10
1244.5407
 20
944.37040000000002
 11
1251.0323000000001
 21
930.8429000000001
  0
LINE
  8
_0-0_1
  6
CONTINUOUS
 62
    3
 10
1985.1163999999999
 20
1277.6304
 11
1991.4542999999999
 21
1264.4232
  0
LINE
  8
_0-0_1
  6
CONTINUOUS
 62
    3
 10
1957.7505000000001
 20
1265.3157000000001
 11
1964.2420999999999
 21
1251.7881
  0
LINE
  8
_0-0_1
  6
CONTINUOUS
 62
    3
 10
1991.8726000000001
 20
1264.2219
 11
1964.2420999999999
 21
1251.7881
  0
LINE
  8
_0-0_1
  6
CONTINUOUS
 62
    3
 10
1747.3798000000002
 20
1170.6486
 11
1720.0138999999999
 21
1158.3339000000001
  0
LINE
  8
_0-0_1
  6
CONTINUOUS
 62
    3
 10
1747.3798000000002
 20
1170.6486
 11
1753.8714
 21
1157.1211000000001
  0
LINE
  8
_0-0_1
  6
CONTINUOUS
 62
    3
 10
1271.9065000000001
 20
956.68509999999992
 11
1278.3982000000001
 21
943.1576
  0
LINE
  8
_0-0_1
  6
CONTINUOUS
 62
    3
 10
1271.9065000000001
 20
956.68509999999992
 11
1244.5407
 21
944.37040000000002
  0
LINE
  8
_0-0_1
  6
DASHED1
 62
    2
 10
1958.6376
 20
1296.9041999999999
 11
1973.9859000000001
 21
1301.4241999999999
  0
LINE
  8
_0-0_1
  6
DASHED1
 62
    2
 10
1973.9859000000001
 20
1301.4241999999999
 11
1974.8334
 21
1298.5463999999999
  0
LINE
  8
_0-0_1
  6
DASHED1
 62
    2
 10
1958.6376
 20
1296.9041999999999
 11
1959.4850999999999
 21
1294.0263
  0
LINE
  8
_0-0_1
  6
DASHED1
 62
    2
 10
1959.4850999999999
 20
1294.0263
 11
1974.8334
 21
1298.5463999999999
  0
LINE
  8
_0-0_1
  6
DASHED1
 62
    2
 10
1984.8869
 20
1234.8213000000001
 11
1976.6633000000002
 21
1253.3956000000001
  0
LINE
  8
_0-0_1
  6
DASHED1
 62
    2
 10
1964.2815000000001
 20
1295.4387999999999
 11
1976.6633000000002
 21
1253.3956000000001
  0
LINE
  8
_0-0_1
  6
DASHED1
 62
    2
 10
1985.0796
 20
1234.1668
 11
1983.4114
 21
1251.7202
  0
LINE
  8
_0-0_1
  6
DASHED1
 62
    2
 10
1970.0371
 20
1297.1339
 11
1983.4114
 21
1251.7202
  0
LINE
  8
_0-0_1
  6
DASHED1
 62
    2
 10
1719.0540000000001
 20
1191.6750999999999
 11
1734.4023000000002
 21
1196.1950999999999
  0
LINE
  8
_0-0_1
  6
DASHED1
 62
    2
 10
1734.4023000000002
 20
1196.1950999999999
 11
1735.2498000000001
 21
1193.3172999999999
  0
LINE
  8
_0-0_1
  6
DASHED1
 62
    2
 10
1719.0540000000001
 20
1191.6750999999999
 11
1719.9014999999999
 21
1188.7973
  0
LINE
  8
_0-0_1
  6
DASHED1
 62
    2
 10
1719.9014999999999
 20
1188.7973
 11
1735.2498000000001
 21
1193.3172999999999
  0
LINE
  8
_0-0_1
  6
DASHED1
 62
    2
 10
1745.3033
 20
1129.5923
 11
1737.0796
 21
1148.1665
  0
LINE
  8
_0-0_1
  6
DASHED1
 62
    2
 10
1724.6979000000001
 20
1190.2098000000001
 11
1737.0796
 21
1148.1665
  0
LINE
  8
_0-0_1
  6
DASHED1
 62
    2
 10
1745.4960000000001
 20
1128.9377999999999
 11
1743.8278
 21
1146.4911
  0
LINE
  8
_0-0_1
  6
DASHED1
 62
    2
 10
1730.4535000000001
 20
1191.9048
 11
1743.8278
 21
1146.4911
  0
LINE
  8
_0-0_1
  6
DASHED1
 62
    2
 10
1483.3298
 20
1080.4115999999999
 11
1498.6781000000001
 21
1084.9317000000001
  0
LINE
  8
_0-0_1
  6
DASHED1
 62
    2
 10
1498.6781000000001
 20
1084.9317000000001
 11
1499.5255999999999
 21
1082.0539000000001
  0
LINE
  8
_0-0_1
  6
DASHED1
 62
    2
 10
1483.3298
 20
1080.4115999999999
 11
1484.1772999999998
 21
1077.5337999999999
  0
LINE
  8
_0-0_1
  6
DASHED1
 62
    2
 10
1484.1772999999998
 20
1077.5337999999999
 11
1499.5255999999999
 21
1082.0539000000001
  0
LINE
  8
_0-0_1
  6
DASHED1
 62
    2
 10
1509.5790999999999
 20
1018.3289
 11
1501.3553999999999
 21
1036.903
  0
LINE
  8
_0-0_1
  6
DASHED1
 62
    2
 10
1488.9737
 20
1078.9464
 11
1501.3553999999999
 21
1036.903
  0
LINE
  8
_0-0_1
  6
DASHED1
 62
    2
 10
1509.7718
 20
1017.6742999999999
 11
1508.1035999999999
 21
1035.2276999999999
  0
LINE
  8
_0-0_1
  6
DASHED1
 62
    2
 10
1494.7293
 20
1080.6414
 11
1508.1035999999999
 21
1035.2276999999999
  0
LINE
  8
_0-0_1
  6
DASHED1
 62
    2
 10
1246.7092
 20
974.16969999999992
 11
1262.0574999999999
 21
978.6898000000001
  0
LINE
  8
_0-0_1
  6
DASHED1
 62
    2
 10
1262.0574999999999
 20
978.6898000000001
 11
1262.905
 21
975.8119999999999
  0
LINE
  8
_0-0_1
  6
DASHED1
 62
    2
 10
1246.7092
 20
974.16969999999992
 11
1247.5567000000001
 21
971.29189999999994
  0
LINE
  8
_0-0_1
  6
DASHED1
 62
    2
 10
1247.5567000000001
 20
971.29189999999994
 11
1262.905
 21
975.8119999999999
  0
LINE
  8
_0-0_1
  6
DASHED1
 62
    2
 10
1272.9585
 20
912.08699999999999
 11
1264.7348
 21
930.66110000000003
  0
LINE
  8
_0-0_1
  6
DASHED1
 62
    2
 10
1252.3531
 20
972.70450000000005
 11
1264.7348
 21
930.66110000000003
  0
LINE
  8
_0-0_1
  6
DASHED1
 62
    2
 10
1273.1512
 20
911.43239999999992
 11
1271.4829999999999
 21
928.98579999999993
  0
LINE
  8
_0-0_1
  6
DASHED1
 62
    2
 10
1258.1087
 20
974.39949999999999
 11
1271.4829999999999
 21
928.98579999999993
  0
LINE
  8
_0-0_1
  6
DASHED1
 62
    2
 10
1048.8108
 20
969.56960000000004
 11
1089.6496
 21
865.41309999999999
  0
LINE
  8
_0-0_1
  6
DASHED1
 62
    2
 10
1092.7030999999999
 20
847.67129999999997
 11
1089.6496
 21
865.41309999999999
  0
LINE
  8
_0-0_1
  6
DASHED1
 62
    2
 10
1043.2248999999999
 20
967.37940000000003
 11
1084.3400999999999
 21
862.51790000000005
  0
LINE
  8
_0-0_1
  6
DASHED1
 62
    2
 10
1092.7408
 20
847.18260000000009
 11
1084.3400999999999
 21
862.51790000000005
  0
LINE
  8
_0-0_1
  6
DASHED1
 62
    2
 10
1038.5699
 20
965.55420000000004
 11
1053.4657999999999
 21
971.39480000000003
  0
LINE
  8
_0-0_1
  6
DASHED1
 62
    2
 10
1037.4748
 20
968.34719999999993
 11
1038.5699
 21
965.55420000000004
  0
LINE
  8
_0-0_1
  6
DASHED1
 62
    2
 10
1052.3706999999999
 20
974.18779999999992
 11
1053.4657999999999
 21
971.39480000000003
  0
LINE
  8
_0-0_1
  6
DASHED1
 62
    2
 10
1037.4748
 20
968.34719999999993
 11
1052.3706999999999
 21
974.18779999999992
  0
LINE
  8
_0-0_1
  6
CONTINUOUS
 62
    3
 10
1271.9065000000001
 20
956.68509999999992
 11
1251.0323000000001
 21
930.8429000000001
  0
LINE
  8
_0-0_1
  6
CONTINUOUS
 62
    3
 10
1509.6432
 20
1063.6668999999999
 11
1488.7689
 21
1037.8245999999999
  0
LINE
  8
_0-0_1
  6
CONTINUOUS
 62
    3
 10
1747.3798000000002
 20
1170.6486
 11
1726.5055000000002
 21
1144.8063999999999
  0
LINE
  8
_0-0_1
  6
CONTINUOUS
 62
    3
 10
1985.1163999999999
 20
1277.6304
 11
1964.2420999999999
 21
1251.7881
  0
LINE
  8
_0-0_1
  6
CONTINUOUS
 62
    3
 10
1093.1010000000001
 20
864.50839999999994
 11
1096.8510000000001
 21
871.00360000000001
  0
LINE
  8
_0-0_1
  6
CONTINUOUS
 62
    3
 10
1096.8510000000001
 20
871.00360000000001
 11
1096.8510000000001
 21
863.50360000000001
  0
LINE
  8
_0-0_1
  6
CONTINUOUS
 62
    3
 10
1096.8510000000001
 20
871.00360000000001
 11
1044.7070000000001
 21
676.39969999999994
  0
LINE
  8
_0-0_1
  6
CONTINUOUS
 62
    3
 10
1044.7070000000001
 20
676.39969999999994
 11
886.89820000000009
 21
676.39969999999994
  0
LINE
  8
_0-3_4
  6
CONTINUOUS
 62
    3
 10
1062.0263
 20
842.92329999999993
 11
1072.2854
 21
820.12519999999995
  0
LINE
  8
_0-1_2
  6
CONTINUOUS
 62
    3
 10
1183.2663
 20
848.13490000000002
 11
1185.3638000000001
 21
849.07870000000003
  0
LINE
  8
_0-1_2
  6
CONTINUOUS
 62
    3
 10
1207.8879999999999
 20
793.41949999999997
 11
1209.9855
 21
794.36329999999998
  0
LINE
  8
_0-1_2
  6
CONTINUOUS
 62
    3
 10
1136.4255000000001
 20
846.46630000000005
 11
1174.1792
 21
863.4552000000001
  0
LINE
  8
_0-1_2
  6
CONTINUOUS
 62
    3
 10
1183.2663
 20
848.13490000000002
 11
1176.8236999999999
 21
862.45209999999997
  0
LINE
  8
_0-1_2
  6
CONTINUOUS
 62
    3
 10
1214.3307
 20
779.10239999999999
 11
1207.8879999999999
 21
793.41949999999997
  0
LINE
  8
_0-1_2
  6
CONTINUOUS
 62
    3
 10
1175.5740000000001
 20
759.4686999999999
 11
1213.3275000000001
 21
776.45759999999996
  0
LINE
  8
_0-1_2
  6
CONTINUOUS
 62
    3
 10
1185.3638000000001
 20
849.07870000000003
 11
1178.9211
 21
863.39580000000001
  0
LINE
  8
_0-1_2
  6
CONTINUOUS
 62
    3
 10
1135.4816000000001
 20
848.56349999999998
 11
1173.2353000000001
 21
865.55250000000001
  0
LINE
  8
_0-1_2
  6
CONTINUOUS
 62
    3
 10
1216.4283
 20
780.04610000000002
 11
1209.9855
 21
794.36329999999998
  0
LINE
  8
_0-1_2
  6
CONTINUOUS
 62
    3
 10
1176.5179000000001
 20
757.37130000000002
 11
1214.2713000000001
 21
774.36030000000005
  0
LINE
  8
_0-1_2
  6
CONTINUOUS
 62
    3
 10
1172.9294
 20
760.47190000000001
 11
1135.4223999999999
 21
843.82179999999994
  0
LINE
  8
_0-1_2
  6
CONTINUOUS
 62
    3
 10
1133.3251
 20
842.8777
 11
1170.8321000000001
 21
759.52800000000002
  0
LINE
  8
_0-0_1
  6
CONTINUOUS
 62
    3
 10
1148.0974000000001
 20
881.69010000000003
 11
1138.9771000000001
 21
877.58609999999999
  0
LINE
  8
_0-0_1
  6
CONTINUOUS
 62
    3
 10
1149.3273999999999
 20
878.95360000000005
 11
1140.2090000000001
 21
874.85100000000011
  0
LINE
  8
_0-0_1
  6
CONTINUOUS
 62
    3
 10
1138.9771000000001
 20
877.58609999999999
 11
1140.2090000000001
 21
874.85100000000011
  0
LINE
  8
_0-0_1
  6
CONTINUOUS
 62
    3
 10
1148.0974000000001
 20
881.69010000000003
 11
1149.3273999999999
 21
878.95360000000005
  0
LINE
  8
_0-0_1
  6
CONTINUOUS
 62
    3
 10
1143.5373999999999
 20
879.6382000000001
 11
1144.7682
 21
876.90169999999989
  0
LINE
  8
_0-0_1
  6
CONTINUOUS
 62
    3
 10
1164.0278000000001
 20
834.10449999999992
 11
1159.9055000000001
 21
838.39069999999992
  0
LINE
  8
_0-0_1
  6
CONTINUOUS
 62
    3
 10
1164.0278000000001
 20
834.10449999999992
 11
1163.5533
 21
840.03150000000005
  0
LINE
  8
_0-0_1
  6
CONTINUOUS
 62
    3
 10
1148.4233999999999
 20
860.89030000000002
 11
1154.0512000000001
 21
864.58169999999996
  0
LINE
  8
_0-0_1
  6
CONTINUOUS
 62
    3
 10
1150.4754
 20
856.3309999999999
 11
1156.1042
 21
860.02150000000006
  0
LINE
  8
_0-0_1
  6
CONTINUOUS
 62
    3
 10
1152.5282999999999
 20
851.77070000000003
 11
1158.1559
 21
855.46239999999989
  0
LINE
  8
_0-0_1
  6
CONTINUOUS
 62
    3
 10
1154.5791999999999
 20
847.21049999999991
 11
1160.2068999999999
 21
850.90309999999999
  0
LINE
  8
_0-0_1
  6
CONTINUOUS
 62
    3
 10
1156.6311000000001
 20
842.65229999999997
 11
1162.2587000000001
 21
846.3438000000001
  0
LINE
  8
_0-0_1
  6
CONTINUOUS
 62
    3
 10
1158.6829
 20
838.0920000000001
 11
1164.3117999999999
 21
841.78379999999993
  0
LINE
  8
_0-0_1
  6
CONTINUOUS
 62
    3
 10
1154.5526
 20
847.27399999999989
 11
1160.1795
 21
850.96450000000004
  0
LINE
  8
_0-0_1
  6
CONTINUOUS
 62
    3
 10
1156.6035999999999
 20
842.71370000000002
 11
1162.2313999999999
 21
846.4054000000001
  0
LINE
  8
_0-0_1
  6
CONTINUOUS
 62
    3
 10
1158.1396
 20
839.30169999999998
 11
1163.7670000000001
 21
842.99330000000009
  0
LINE
  8
_0-0_1
  6
CONTINUOUS
 62
    3
 10
1146.5929000000001
 20
877.72330000000011
 11
1163.5533
 21
840.03150000000005
  0
LINE
  8
_0-0_1
  6
CONTINUOUS
 62
    3
 10
1149.3273999999999
 20
878.95360000000005
 11
1147.8231000000001
 21
874.98929999999996
  0
LINE
  8
_0-0_1
  6
CONTINUOUS
 62
    3
 10
1143.0813000000001
 20
875.77929999999992
 11
1159.9055000000001
 21
838.39069999999992
  0
LINE
  8
_0-0_1
  6
CONTINUOUS
 62
    3
 10
1140.2090000000001
 20
874.85100000000011
 11
1144.1763000000001
 21
873.3454999999999
  0
LINE
  8
_0-1_2
  6
CONTINUOUS
 62
    3
 10
1178.9211
 20
863.39589999999998
 11
1216.4284
 21
780.0462
  0
LINE
  8
_0-1_2
  6
CONTINUOUS
 62
    3
 10
1183.0246999999999
 20
865.24250000000006
 11
1220.5319999999999
 21
781.89280000000008
  0
LINE
  8
_0-1_2
  6
CONTINUOUS
 62
    3
 10
1178.9211
 20
863.39580000000001
 11
1183.0246999999999
 21
865.24240000000009
  0
LINE
  8
_0-1_2
  6
CONTINUOUS
 62
    3
 10
1220.5319999999999
 20
781.89280000000008
 11
1216.4280000000001
 21
780.04600000000005
  0
LINE
  8
_0-0_1
  6
CONTINUOUS
 62
    3
 10
1226.4000000000001
 20
768.85279999999989
 11
1189.4682
 21
850.92660000000001
  0
LINE
  8
_0-0_1
  6
CONTINUOUS
 62
    3
 10
1197.9032
 20
849.23929999999996
 11
1225.807
 21
787.22839999999997
  0
LINE
  8
_0-0_1
  6
CONTINUOUS
 62
    3
 10
1191.2915
 20
851.7478000000001
 11
1189.4682
 21
850.92660000000001
  0
LINE
  8
_0-0_1
  6
CONTINUOUS
 62
    3
 10
1301.0416
 20
810.11719999999991
 11
1239.0300999999999
 21
782.21270000000004
  0
LINE
  8
_0-0_1
  6
CONTINUOUS
 62
    3
 10
1197.6741999999999
 20
821.72190000000001
 11
1194.9382000000001
 21
820.49029999999993
  0
LINE
  8
_0-0_1
  6
CONTINUOUS
 62
    3
 10
1191.1087
 20
836.31220000000008
 11
1188.3728000000001
 21
835.08069999999998
  0
LINE
  8
_0-0_1
  6
CONTINUOUS
 62
    3
 10
1201.5028
 20
805.90090000000009
 11
1188.3728000000001
 21
835.08069999999998
  0
LINE
  8
_0-0_1
  6
CONTINUOUS
 62
    3
 10
1204.2397000000001
 20
807.13180000000011
 11
1201.5028
 21
805.90090000000009
  0
LINE
  8
_0-0_1
  6
CONTINUOUS
 62
    3
 10
1189.6384
 20
810.51039999999989
 11
1197.7792999999999
 21
814.1742999999999
  0
LINE
  8
_0-0_1
  6
CONTINUOUS
 62
    3
 10
1183.9531999999999
 20
823.14529999999991
 11
1192.0940000000001
 21
826.80790000000002
  0
LINE
  8
_0-0_1
  6
CONTINUOUS
 62
    3
 10
1181.1092000000001
 20
829.46280000000002
 11
1189.2515000000001
 21
833.1268
  0
LINE
  8
_0-0_1
  6
CONTINUOUS
 62
    3
 10
1180.8937000000001
 20
827.33230000000003
 11
1181.1092000000001
 21
829.46280000000002
  0
LINE
  8
_0-0_1
  6
CONTINUOUS
 62
    3
 10
1190.742
 20
805.44530000000009
 11
1180.8937000000001
 21
827.33230000000003
  0
LINE
  8
_0-0_1
  6
CONTINUOUS
 62
    3
 10
1192.4819
 20
804.19209999999998
 11
1200.6233
 21
807.85549999999989
  0
LINE
  8
_0-0_1
  6
CONTINUOUS
 62
    3
 10
1190.742
 20
805.44530000000009
 11
1192.4819
 21
804.19209999999998
  0
LINE
  8
_0-0_1
  6
CONTINUOUS
 62
    3
 10
1173.8737000000001
 20
819.78420000000006
 11
1183.0126
 21
806.35200000000009
  0
LINE
  8
_0-0_1
  6
CONTINUOUS
 62
    3
 10
1179.4302
 20
822.28430000000003
 11
1188.5681999999999
 21
808.85130000000004
  0
LINE
  8
_0-0_1
  6
CONTINUOUS
 62
    3
 10
1213.4614999999999
 20
836.42229999999995
 11
1205.3207
 21
832.75849999999991
  0
LINE
  8
_0-0_1
  6
CONTINUOUS
 62
    3
 10
1219.1469999999999
 20
823.78749999999991
 11
1211.0053
 21
820.12419999999997
  0
LINE
  8
_0-0_1
  6
CONTINUOUS
 62
    3
 10
1221.9908
 20
817.47000000000003
 11
1213.8487
 21
813.80600000000004
  0
LINE
  8
_0-0_1
  6
CONTINUOUS
 62
    3
 10
1222.2064
 20
819.60040000000004
 11
1221.9908
 21
817.47000000000003
  0
LINE
  8
_0-0_1
  6
CONTINUOUS
 62
    3
 10
1212.3579
 20
841.48749999999995
 11
1222.2064
 21
819.60040000000004
  0
LINE
  8
_0-0_1
  6
CONTINUOUS
 62
    3
 10
1210.6185
 20
842.74060000000009
 11
1202.4767999999999
 21
839.0773999999999
  0
LINE
  8
_0-0_1
  6
CONTINUOUS
 62
    3
 10
1212.3579
 20
841.48749999999995
 11
1210.6185
 21
842.74060000000009
  0
LINE
  8
_0-0_1
  6
CONTINUOUS
 62
    3
 10
1307.6523999999999
 20
807.6092000000001
 11
1308.4730999999999
 21
805.78520000000003
  0
LINE
  8
_0-0_1
  6
CONTINUOUS
 62
    3
 10
1308.4730999999999
 20
805.78520000000003
 11
1226.4001000000001
 21
768.85239999999999
  0
LINE
  8
_0-0_1
  6
CONTINUOUS
 62
    3
 10
1182.5364
 20
823.68170000000009
 11
1173.8737000000001
 21
819.78420000000006
  0
LINE
  8
_0-0_1
  6
CONTINUOUS
 62
    3
 10
1173.8737000000001
 20
819.78420000000006
 11
1172.8705
 21
817.1395
  0
LINE
  8
_0-0_1
  6
CONTINUOUS
 62
    3
 10
1189.1012000000001
 20
809.0920000000001
 11
1180.4393
 21
805.19399999999996
  0
LINE
  8
_0-0_1
  6
CONTINUOUS
 62
    3
 10
1173.8737000000001
 20
819.78420000000006
 11
1180.4393
 21
805.19399999999996
  0
LINE
  8
_0-0_1
  6
CONTINUOUS
 62
    3
 10
1177.7940000000001
 20
806.19679999999994
 11
1180.4393
 21
805.19399999999996
  0
LINE
  8
_0-0_1
  6
CONTINUOUS
 62
    3
 10
1172.8705
 20
817.1395
 11
1177.7940000000001
 21
806.19679999999994
  0
LINE
  8
_0-0_1
  6
CONTINUOUS
 62
    3
 10
1104.4303
 20
785.24469999999997
 11
1108.5345
 21
776.1244999999999
  0
LINE
  8
_0-0_1
  6
CONTINUOUS
 62
    3
 10
1107.1667
 20
786.47469999999998
 11
1111.2695000000001
 21
777.35629999999992
  0
LINE
  8
_0-0_1
  6
CONTINUOUS
 62
    3
 10
1108.5345
 20
776.1244999999999
 11
1111.2695000000001
 21
777.35629999999992
  0
LINE
  8
_0-0_1
  6
CONTINUOUS
 62
    3
 10
1104.4303
 20
785.24469999999997
 11
1107.1667
 21
786.47469999999998
  0
LINE
  8
_0-0_1
  6
CONTINUOUS
 62
    3
 10
1106.4822999999999
 20
780.68470000000002
 11
1109.2186999999999
 21
781.91550000000007
  0
LINE
  8
_0-0_1
  6
CONTINUOUS
 62
    3
 10
1165.7565999999999
 20
807.3592000000001
 11
1161.4704999999999
 21
803.2367999999999
  0
LINE
  8
_0-0_1
  6
CONTINUOUS
 62
    3
 10
1165.7565999999999
 20
807.3592000000001
 11
1159.8296
 21
806.88460000000009
  0
LINE
  8
_0-0_1
  6
CONTINUOUS
 62
    3
 10
1125.2301
 20
785.57099999999991
 11
1121.5385000000001
 21
791.19879999999989
  0
LINE
  8
_0-0_1
  6
CONTINUOUS
 62
    3
 10
1129.7892999999999
 20
787.62300000000005
 11
1126.0987
 21
793.25189999999998
  0
LINE
  8
_0-0_1
  6
CONTINUOUS
 62
    3
 10
1134.3496
 20
789.67609999999991
 11
1130.6578
 21
795.30349999999999
  0
LINE
  8
_0-0_1
  6
CONTINUOUS
 62
    3
 10
1138.9096999999999
 20
791.72700000000009
 11
1135.2171000000001
 21
797.35459999999989
  0
LINE
  8
_0-0_1
  6
CONTINUOUS
 62
    3
 10
1143.4679000000001
 20
793.779
 11
1139.7763
 21
799.40660000000003
  0
LINE
  8
_0-0_1
  6
CONTINUOUS
 62
    3
 10
1148.0282
 20
795.8309999999999
 11
1144.3362
 21
801.45970000000011
  0
LINE
  8
_0-0_1
  6
CONTINUOUS
 62
    3
 10
1152.5871999999999
 20
797.88380000000006
 11
1148.8966
 21
803.51070000000004
  0
LINE
  8
_0-0_1
  6
CONTINUOUS
 62
    3
 10
1157.1476
 20
799.93499999999995
 11
1153.4557
 21
805.56259999999997
  0
LINE
  8
_0-0_1
  6
CONTINUOUS
 62
    3
 10
1160.5595000000001
 20
801.471
 11
1156.8678
 21
807.09819999999991
  0
LINE
  8
_0-0_1
  6
CONTINUOUS
 62
    3
 10
1111.1310000000001
 20
784.9704999999999
 11
1159.8296
 21
806.88460000000009
  0
LINE
  8
_0-0_1
  6
CONTINUOUS
 62
    3
 10
1107.1667
 20
786.47469999999998
 11
1111.1310000000001
 21
784.9704999999999
  0
LINE
  8
_0-0_1
  6
CONTINUOUS
 62
    3
 10
1112.7748999999999
 20
781.32379999999989
 11
1161.4704999999999
 21
803.2367999999999
  0
LINE
  8
_0-0_1
  6
CONTINUOUS
 62
    3
 10
1111.2695000000001
 20
777.35629999999992
 11
1112.7748999999999
 21
781.32379999999989
  0
LINE
  8
_0-2_3
  6
CONTINUOUS
 62
    3
 10
1176.7002
 20
746.48749999999995
 11
2187.7503000000002
 21
1201.4591
  0
LINE
  8
_0-4_6
  6
CONTINUOUS
 62
    3
 10
1131.5604000000001
 20
846.79880000000003
 11
1184.9074000000001
 21
728.24900000000002
  0
LINE
  8
_0-4_6
  6
CONTINUOUS
 62
    3
 10
1085.9641999999999
 20
826.28070000000002
 11
1146.713
 21
691.28269999999998
  0
LINE
  8
_0-4_6
  6
CONTINUOUS
 62
    3
 10
1159.0640000000001
 20
785.67939999999999
 11
1092.9495999999999
 21
810.75739999999996
  0
LINE
  8
_0-4_6
  6
CONTINUOUS
 62
    3
 10
1160.8051
 20
781.81050000000005
 11
1094.6908000000001
 21
806.88840000000005
  0
LINE
  8
_0-4_6
  6
CONTINUOUS
 62
    3
 10
1072.2854
 20
820.12529999999992
 11
2142.6102999999998
 21
1301.7705000000001
  0
ARC
  8
_0-1_2
  6
CONTINUOUS
 62
    3
 10
1174.9998000000001
 20
861.63130000000001
 40
2.000003
 50
24.227606000000002
 51
114.22759000000003
  0
ARC
  8
_0-1_2
  6
CONTINUOUS
 62
    3
 10
1212.5068000000001
 20
778.28150000000005
 40
2.000003
 50
294.2276
 51
24.227605999999994
  0
ARC
  8
_0-1_2
  6
CONTINUOUS
 62
    3
 10
1212.5068000000001
 20
778.28150000000005
 40
4.2999999999999998
 50
294.2276
 51
24.227605999999994
  0
ARC
  8
_0-1_2
  6
CONTINUOUS
 62
    3
 10
1174.9998000000001
 20
861.63130000000001
 40
4.2999999999999998
 50
24.227606000000002
 51
114.22759000000003
  0
ARC
  8
_0-1_2
  6
CONTINUOUS
 62
    3
 10
1137.2462
 20
844.64239999999995
 40
2.000003
 50
114.22759000000001
 51
204.2276
  0
ARC
  8
_0-1_2
  6
CONTINUOUS
 62
    3
 10
1174.7533000000001
 20
761.29250000000002
 40
2.000003
 50
204.22760000000002
 51
294.22760000000005
  0
ARC
  8
_0-1_2
  6
CONTINUOUS
 62
    3
 10
1174.7533000000001
 20
761.29250000000002
 40
4.2999999999999998
 50
204.22760000000002
 51
294.22760000000005
  0
ARC
  8
_0-1_2
  6
CONTINUOUS
 62
    3
 10
1137.2464
 20
844.64239999999995
 40
4.2999999999999998
 50
114.22759000000001
 51
204.2276
  0
ARC
  8
_0-0_1
  6
CONTINUOUS
 62
    3
 10
1234.9269999999999
 20
791.33420000000001
 40
10.001999
 50
204.23162000000002
 51
294.21884999999997
  0
ARC
  8
_0-0_1
  6
CONTINUOUS
 62
    3
 10
1193.3444999999999
 20
847.18869999999993
 40
4.9989999999999997
 50
24.224675999999999
 51
114.23530999999998
  0
ARC
  8
_0-0_1
  6
CONTINUOUS
 62
    3
 10
1303.0939000000001
 20
805.55850000000009
 40
4.9989999999999997
 50
24.224675999999999
 51
114.23530999999998
  0
ARC
  8
_0-0_1
  6
CONTINUOUS
 62
    3
 10
1187.1569
 20
828.39439999999991
 40
6.1470010000000013
 50
204.58582999999999
 51
238.59309999999999
  0
ARC
  8
_0-0_1
  6
CONTINUOUS
 62
    3
 10
1195.7023999999999
 20
809.43039999999996
 40
6.1580000000000004
 50
169.89975999999999
 51
203.85441
  0
ARC
  8
_0-0_1
  6
CONTINUOUS
 62
    3
 10
1206.6994999999999
 20
825.78559999999993
 40
22.898997999999999
 50
186.62326999999999
 51
221.83878999999999
  0
ARC
  8
_0-0_1
  6
CONTINUOUS
 62
    3
 10
1215.9404
 20
818.53950000000009
 40
6.1479999999999997
 50
24.562656
 51
58.577396
  0
ARC
  8
_0-0_1
  6
CONTINUOUS
 62
    3
 10
1207.4083000000001
 20
837.50189999999998
 40
6.1479999999999997
 50
349.89938000000006
 51
23.901646000000021
  0
ARC
  8
_0-0_1
  6
CONTINUOUS
 62
    3
 10
1196.3639000000001
 20
821.13210000000004
 40
22.936000999999997
 50
6.6513660000000003
 51
41.808135999999998
  0
LINE
  8
_0-0_1
  6
CONTINUOUS
 62
    3
 10
1137.9245000000001
 20
710.81310000000008
 11
1116.3804
 21
758.68900000000008
  0
CIRCLE
  8
_0-0_1
  6
CONTINUOUS
 62
    3
 10
1136.8986
 20
713.0929000000001
 40
1.6999999999999997
  0
LINE
  8
_0-0_1
  6
CONTINUOUS
 62
    3
 10
1136.8986
 20
713.0929000000001
 11
1068.5196000000001
 21
682.32240000000002
  0
CIRCLE
  8
_0-0_1
  6
CONTINUOUS
 62
    3
 10
1068.5196000000001
 20
682.32240000000002
 40
1.6999999999999997
  0
LINE
  8
_0-0_1
  6
CONTINUOUS
 62
    3
 10
1069.5454999999999
 20
680.04259999999999
 11
1048.0014000000001
 21
727.91849999999999
  0
LINE
  8
_0-0_1
  6
CONTINUOUS
 62
    3
 10
1046.8697
 20
976.81410000000005
 11
1048.8108999999999
 21
969.56960000000004
  0
LINE
  8
_0-0_1
  6
CONTINUOUS
 62
    3
 10
1048.8108999999999
 20
969.56960000000004
 11
1043.5074999999999
 21
974.87290000000007
  0
LINE
  8
_0-0_1
  6
CONTINUOUS
 62
    3
 10
1048.8108999999999
 20
969.56960000000004
 11
962.2496000000001
 21
1119.4981
  0
LINE
  8
_0-0_1
  6
CONTINUOUS
 62
    3
 10
962.2496000000001
 20
1119.4981
 11
782.2496000000001
 21
1119.4981
  0
LINE
  8
_0-0_1
  6
CONTINUOUS
 62
    3
 10
1140.5635
 20
738.57500000000005
 11
1144.3135
 21
745.07020000000011
  0
LINE
  8
_0-0_1
  6
CONTINUOUS
 62
    3
 10
1144.3135
 20
745.07020000000011
 11
1144.3135
 21
737.57020000000011
  0
LINE
  8
_0-0_1
  6
CONTINUOUS
 62
    3
 10
1144.3135
 20
745.07020000000011
 11
1107.8299999999999
 21
608.91190000000006
  0
LINE
  8
_0-0_1
  6
CONTINUOUS
 62
    3
 10
1107.8299999999999
 20
608.91190000000006
 11
889.46720000000005
 21
608.91190000000006
  0
LINE
  8
_0-0_1
  6
CONTINUOUS
 62
    3
 10
1104.0174
 20
883.63679999999999
 11
1111.5663999999999
 21
866.86120000000005
  0
LINE
  8
_0-0_1
  6
CONTINUOUS
 62
    3
 10
1073.7145
 20
885.13830000000007
 11
1104.0174
 21
883.63679999999999
  0
LINE
  8
_0-0_1
  6
CONTINUOUS
 62
    3
 10
1074.4481000000001
 20
851.87220000000002
 11
1061.8757000000001
 21
879.81089999999995
  0
LINE
  8
_0-0_1
  6
CONTINUOUS
 62
    3
 10
1073.7145
 20
885.13830000000007
 11
1061.8757000000001
 21
879.81089999999995
  0
LINE
  8
_0-0_1
  6
CONTINUOUS
 62
    3
 10
1111.5663999999999
 20
866.86120000000005
 11
1061.8757000000001
 21
879.81089999999995
  0
LINE
  8
_0-0_1
  6
CONTINUOUS
 62
    3
 10
1093.3655000000001
 20
884.16460000000006
 11
1074.4481000000001
 21
851.87220000000002
  0
LINE
  8
_0-0_1
  6
CONTINUOUS
 62
    3
 10
1723.1197000000002
 20
781.80520000000001
 11
2056.0940999999998
 21
781.80520000000001
  0
LINE
  8
_0-0_1
  6
CONTINUOUS
 62
    3
 10
1556.9041999999999
 20
1065.8166000000001
 11
1554.9630999999999
 21
1073.0610999999999
  0
LINE
  8
_0-0_1
  6
CONTINUOUS
 62
    3
 10
1554.9630999999999
 20
1073.0610999999999
 11
1560.2664
 21
1067.7578000000001
  0
LINE
  8
_0-0_1
  6
CONTINUOUS
 62
    3
 10
1554.9630999999999
 20
1073.0610999999999
 11
1739.9011
 21
752.73910000000001
  0
LINE
  8
_0-0_1
  6
CONTINUOUS
 62
    3
 10
1739.9011
 20
752.73910000000001
 11
2124.3434000000002
 21
752.73910000000001
  0
LINE
  8
_0-0_1
  6
CONTINUOUS
 62
    3
 10
1705.4679999999998
 20
812.70100000000002
 11
1941.5931999999998
 21
812.70100000000002
  0
LINE
  8
_0-0_1
  6
CONTINUOUS
 62
    3
 10
1687.7914000000001
 20
842.68190000000004
 11
1880.1840999999999
 21
842.68190000000004
  0
TEXT
  8
_0-0_1
 62
    7
 10
1723.1197
 20
784.30519999999945
 40
20
 41
1
 50
0
  1
　野地板：硬質木片セメントパネルｔ＝２５
  0
TEXT
  8
_0-0_1
 62
    7
 10
1739.9011
 20
755.23909999999944
 40
20
 41
1
 50
0
  1
　鋼製：Ｃ１００ｘ５０ｘ２０ｘ２．３＠６０６　
  0
TEXT
  8
_0-0_1
 62
    7
 10
1705.4680000000003
 20
815.20099999999957
 40
20
 41
1
 50
0
  1
　下葺材：ルーフィング９４０　
  0
TEXT
  8
_0-0_1
 62
    7
 10
1687.7914000000001
 20
845.1819000000005
 40
20
 41
1
 50
0
  1
　瓦桟：１５ｘ３０以上　
  0
TEXT
  8
_0-0_1
 62
    7
 10
1549.7262283846521
 20
1257.9882061469696
 40
20
 41
1
 50
0
  1
桟　瓦
  0
TEXT
  8
_0-0_1
 62
    7
 10
1031.9207929503041
 20
1109.5726354810733
 40
20
 41
1
 50
19.409660999999996
  1
260
  0
TEXT
  8
_0-0_1
 62
    7
 10
1261.140396534299
 20
1223.3579063249267
 40
20
 41
1
 50
19.40966100000001
  1
260
  0
TEXT
  8
_0-0_1
 62
    7
 10
1496.9562477034442
 20
1345.3884866502185
 40
20
 41
1
 50
19.40966100000001
  1
260
  0
TEXT
  8
_0-0_1
 62
    7
 10
1737.7192845614532
 20
1452.5775099089217
 40
20
 41
1
 50
19.40966099999995
  1
260
  0
TEXT
  8
_0-0_1
 62
    7
 10
1091.2870212166622
 20
705.55247089057957
 40
20
 41
1
 50
24.227700000000016
  1
75
  0
TEXT
  8
_0-0_1
 62
    7
 10
881.19151179575715
 20
612.51007718480628
 40
20
 41
1
 50
0
  1
破風板：薄型ALCパネル　
  0
TEXT
  8
_0-0_1
 62
    7
 10
897.52017393696178
 20
685.24684490471816
 40
20
 41
1
 50
0
  1
瓦　座：36x40　
  0
TEXT
  8
_0-0_1
 62
    7
 10
756.49990999019383
 20
1127.6051465482637
 40
20
 41
1
 50
0
  1
パッキンステンレスネジ
  0
ENDSEC
  0
EOF
