  0
SECTION
  2
HEADER
  9
$ACADVER
  1
AC1009
  9
$INSBASE
 10
0
 20
0
 30
0
  9
$EXTMIN
 10
0
 20
0
  9
$EXTMAX
 10
2970
 20
2100
  9
$LIMMIN
 10
0
 20
0
  9
$LIMMAX
 10
2970
 20
2100
  9
$LTSCALE
 40
10
  0
ENDSEC
  0
SECTION
  2
TABLES
  0
TABLE
  2
LTYPE
 70
     9
  0
LTYPE
  2
CONTINUOUS
 70
    64
  3
実線
 72
    65
 73
     0
 40
0.0
  0
LTYPE
  2
DASHED1
 70
    64
  3
--  --  --  --  --  --  --  --  
 72
    65
 73
     2
 40
2.5
 49
1.25
 49
-1.25
  0
LTYPE
  2
DASHED2
 70
    64
  3
----    ----    ----    ----    
 72
    65
 73
     2
 40
5.0
 49
2.5
 49
-2.5
  0
LTYPE
  2
DASHED3
 70
    64
  3
------  ------  ------  ------  
 72
    65
 73
     2
 40
5.0
 49
3.75
 49
-1.25
  0
LTYPE
  2
CENTER1
 70
    64
  3
----- - ----- - ----- - ----- - 
 72
    65
 73
     4
 40
10.0
 49
6.25
 49
-1.25
 49
1.25
 49
-1.25
  0
LTYPE
  2
CENTER2
 70
    64
  3
----------  --  ----------  --  
 72
    65
 73
     4
 40
20.0
 49
12.5
 49
-2.5
 49
2.5
 49
-2.5
  0
LTYPE
  2
PHANTOM1
 70
    64
  3
--- - - --- - - --- - - --- - - 
 72
    65
 73
     6
 40
10.0
 49
3.25
 49
-1.25
 49
1.25
 49
-1.25
 49
1.25
 49
-1.25
  0
LTYPE
  2
PHANTOM2
 70
    64
  3
--------  -  -  --------  -  -  
 72
    65
 73
     6
 40
20.0
 49
10.0
 49
-2.5
 49
1.25
 49
-2.5
 49
1.25
 49
-2.5
  0
LTYPE
  2
DOT
 70
    64
  3
-   -   -   -   -   -   -   -   
 72
    65
 73
     2
 40
2.5
 49
0.625
 49
-1.875
  0
LTYPE
  2
DUMMY
 70
    64
  3
ダミー
 72
    65
 73
     0
 40
0.0
  0
LTYPE
  2
RAND1
 70
    64
  3
ランダム線1
 72
    65
 73
     4
 40
10.0
 49
1.0
 49
-2.0
 49
3.0
 49
-4.0
  0
LTYPE
  2
RAND2
 70
    64
  3
ランダム線2
 72
    65
 73
     4
 40
14.0
 49
2.0
 49
-3.0
 49
4.0
 49
-5.0
  0
LTYPE
  2
RAND3
 70
    64
  3
ランダム線3
 72
    65
 73
     4
 40
18.0
 49
3.0
 49
-4.0
 49
5.0
 49
-6.0
  0
LTYPE
  2
RAND4
 70
    64
  3
ランダム線4
 72
    65
 73
     4
 40
22.0
 49
4.0
 49
-5.0
 49
6.0
 49
-7.0
  0
LTYPE
  2
RAND5
 70
    64
  3
ランダム線5
 72
    65
 73
     4
 40
26.0
 49
5.0
 49
-6.0
 49
7.0
 49
-8.0
  0
LTYPE
  2
LONG1
 70
    64
  3
----------  --  ----------  --  
 72
    65
 73
     4
 40
40.0
 49
32.5
 49
-2.5
 49
2.5
 49
-2.5
  0
LTYPE
  2
LONG2
 70
    64
  3
--------  -  -  --------  -  -  
 72
    65
 73
     6
 40
40.0
 49
30.0
 49
-2.5
 49
1.25
 49
-2.5
 49
1.25
 49
-2.5
  0
LTYPE
  2
LONG3
 70
    64
  3
+++++++++++++++..+++++++++++++++
 72
    65
 73
     2
 40
40.0
 49
37.5
 49
-2.5
  0
LTYPE
  2
LONG4
 70
    64
  3
+++++++++++++++..+++++++++++++++
 72
    65
 73
     2
 40
80.0
 49
75.0
 49
-5.0
  0
LTYPE
  2
LONG5
 70
    64
  3
----------  --  ----------  --  
 72
    65
 73
     4
 40
60.0
 49
37.5
 49
-7.5
 49
7.5
 49
-7.5
  0
LTYPE
  2
dashed
 70
   64
  3
-------   -------------   ------
 72
   65
 73
    2
 40
7.5
 49
6
 49
-1.5
  0
LTYPE
  2
dashed_spaced
 70
   64
  3
----        --------        ----
 72
   65
 73
    2
 40
12
 49
6
 49
-6
  0
LTYPE
  2
long_dashed_dotted
 70
   64
  3
------------- --- --------------
 72
   65
 73
    4
 40
15.25
 49
12
 49
-1.5
 49
0.25
 49
-1.5
  0
LTYPE
  2
long_dashed_double-dotted
 70
   64
  3
----------- --- --- ------------
 72
   65
 73
    6
 40
17
 49
12
 49
-1.5
 49
0.25
 49
-1.5
 49
0.25
 49
-1.5
  0
LTYPE
  2
long_dashed_triplicate-dotted
 70
   64
  3
--------- --- --- --- ----------
 72
   65
 73
    8
 40
18.75
 49
12
 49
-1.5
 49
0.25
 49
-1.5
 49
0.25
 49
-1.5
 49
0.25
 49
-1.5
  0
LTYPE
  2
dotted
 70
   64
  3
   -       -       -       -    
 72
   65
 73
    2
 40
1.75
 49
0.25
 49
-1.5
  0
LTYPE
  2
chain
 70
   64
  3
-------------- -- --------------
 72
   65
 73
    4
 40
18.5
 49
12
 49
-1.5
 49
3.5
 49
-1.5
  0
LTYPE
  2
chain_double_dash
 70
   64
  3
------------ -- -- -------------
 72
   65
 73
    6
 40
23.5
 49
12
 49
-1.5
 49
3.5
 49
-1.5
 49
3.5
 49
-1.5
  0
LTYPE
  2
dashed_dotted
 70
   64
  3
-----------     -     ----------
 72
   65
 73
    4
 40
9.25
 49
6
 49
-1.5
 49
0.25
 49
-1.5
  0
LTYPE
  2
double-dashed_dotted
 70
   64
  3
------   -----------   -   -----
 72
   65
 73
    6
 40
16.75
 49
6
 49
-1.5
 49
6
 49
-1.5
 49
0.25
 49
-1.5
  0
LTYPE
  2
dashed_double-dotted
 70
   64
  3
---------    -    -    ---------
 72
   65
 73
    6
 40
11
 49
6
 49
-1.5
 49
0.25
 49
-1.5
 49
0.25
 49
-1.5
  0
LTYPE
  2
double-dashed_double-dotted
 70
   64
  3
-----   ---------   -   -   ----
 72
   65
 73
    8
 40
18.5
 49
6
 49
-1.5
 49
6
 49
-1.5
 49
0.25
 49
-1.5
 49
0.25
 49
-1.5
  0
LTYPE
  2
dashed_triplicate-dotted
 70
   64
  3
-------    -    -    -    ------
 72
   65
 73
    8
 40
12.75
 49
6
 49
-1.5
 49
0.25
 49
-1.5
 49
0.25
 49
-1.5
 49
0.25
 49
-1.5
  0
LTYPE
  2
double-dashed_triplicate-dotted
 70
   64
  3
-----  ---------  -  -  -  -----
 72
   65
 73
   10
 40
20.25
 49
6
 49
-1.5
 49
6
 49
-1.5
 49
0.25
 49
-1.5
 49
0.25
 49
-1.5
 49
0.25
 49
-1.5
  0
LTYPE
  2
undefined
 70
   64
  3
--------------------------------
 72
   65
 73
    0
 40
0
  0
ENDTAB
  0
TABLE
  2
STYLE
  5
3
100
AcDbSymbolTable
 70
     1
  0
STYLE
  5
10
100
AcDbSymbolTableRecord
100
AcDbTextStyleTableRecord
  2
STANDARD
 70
     0
 40
0.0
 41
1.0
 50
0.0
 71
     0
 42
0.2
  3
txt
  4
bigfont.shx
  0
STYLE
  5
26
100
AcDbSymbolTableRecord
100
AcDbTextStyleTableRecord
  2
TATEGAKI
 70
    68
 40
0.0
 41
1.0
 50
0.0
 71
     0
 42
1.0
  3
txt
  4
bigfont.shx
  0
ENDTAB
  0
TABLE
  2
LAYER
 70
    8
  0
LAYER
  2
_0-0_LAYER001
 70
   64
 62
    7
  6
CONTINUOUS
  0
LAYER
  2
_0-1_LAYER002
 70
   64
 62
    7
  6
CONTINUOUS
  0
LAYER
  2
_0-2_LAYER003
 70
   64
 62
    7
  6
CONTINUOUS
  0
LAYER
  2
_0-3_LAYER004
 70
   64
 62
    7
  6
CONTINUOUS
  0
LAYER
  2
_0-4_LAYER006
 70
   64
 62
    7
  6
CONTINUOUS
  0
LAYER
  2
_0-5_LAYER007
 70
   64
 62
    7
  6
CONTINUOUS
  0
LAYER
  2
_0-6_LAYER009
 70
   64
 62
    7
  6
CONTINUOUS
  0
LAYER
  2
ADD_LINE
 70
   64
 62
    7
  6
CONTINUOUS
  0
ENDTAB
  0
ENDSEC
  0
SECTION
  2
BLOCKS
  0
ENDSEC
  0
SECTION
  2
ENTITIES
  0
LINE
  8
_0-0_LAYER001
  6
CONTINUOUS
 62
    2
 10
1903.5749999999998
 20
1048.2663
 11
1903.5749999999998
 21
1523.8860999999999
  0
LINE
  8
_0-0_LAYER001
  6
CONTINUOUS
 62
    2
 10
1918.5749999999998
 20
1519.7278000000001
 11
1918.5749999999998
 21
728.79310000000009
  0
LINE
  8
_0-0_LAYER001
  6
CONTINUOUS
 62
    2
 10
1903.5749999999998
 20
1048.2663
 11
1853.5749999999998
 21
1048.2663
  0
LINE
  8
_0-6_LAYER009
  6
CONTINUOUS
 62
    2
 10
1372.752
 20
831.89640000000009
 11
1306.6376
 21
856.97430000000008
  0
LINE
  8
_0-6_LAYER009
  6
CONTINUOUS
 62
    2
 10
1376.6208000000001
 20
833.63740000000007
 11
1310.5065
 21
858.71540000000005
  0
LINE
  8
_0-6_LAYER009
  6
CONTINUOUS
 62
    2
 10
1179.3041000000001
 20
744.84500000000003
 11
1113.1898000000001
 21
769.92290000000003
  0
LINE
  8
_0-6_LAYER009
  6
CONTINUOUS
 62
    2
 10
1183.173
 20
746.58600000000001
 11
1117.0587
 21
771.66399999999999
  0
LINE
  8
_0-3_LAYER004
  6
CONTINUOUS
 62
    2
 10
1782.9340999999999
 20
1073.5003999999999
 11
1804.8200999999999
 21
1083.3490999999999
  0
LINE
  8
_0-6_LAYER009
  6
CONTINUOUS
 62
    2
 10
1853.5749999999998
 20
1048.2663
 11
946.66650000000004
 21
640.15830000000005
  0
LINE
  8
_0-6_LAYER009
  6
CONTINUOUS
 62
    2
 10
1566.1997999999999
 20
918.94779999999992
 11
1500.0855000000001
 21
944.02569999999992
  0
LINE
  8
_0-6_LAYER009
  6
CONTINUOUS
 62
    2
 10
1570.0686999999998
 20
920.6887999999999
 11
1503.9542999999999
 21
945.7666999999999
  0
LINE
  8
_0-6_LAYER009
  6
CONTINUOUS
 62
    2
 10
1759.6475999999998
 20
1005.9991
 11
1693.5333000000001
 21
1031.077
  0
LINE
  8
_0-6_LAYER009
  6
CONTINUOUS
 62
    2
 10
1763.5167000000001
 20
1007.7401
 11
1697.4022
 21
1032.818
  0
LINE
  8
_0-1_LAYER002
  6
CONTINUOUS
 62
    2
 10
1861.0295000000001
 20
963.89450000000011
 11
1863.1266000000001
 21
964.83809999999994
  0
LINE
  8
_0-1_LAYER002
  6
CONTINUOUS
 62
    2
 10
1836.4056999999998
 20
1018.6090999999999
 11
1838.5036
 21
1019.5527
  0
LINE
  8
_0-1_LAYER002
  6
CONTINUOUS
 62
    2
 10
1830.2503000000002
 20
1032.2887000000001
 11
1836.4056999999998
 21
1018.6090999999999
  0
LINE
  8
_0-1_LAYER002
  6
CONTINUOUS
 62
    2
 10
1790.2039
 20
1017.2284999999999
 11
1826.6795000000002
 21
1033.6424999999999
  0
LINE
  8
_0-1_LAYER002
  6
CONTINUOUS
 62
    2
 10
1825.7368999999999
 20
1035.7394999999999
 11
1789.2593999999999
 21
1019.3244
  0
LINE
  8
_0-1_LAYER002
  6
CONTINUOUS
 62
    2
 10
1832.3479000000002
 20
1033.2321999999999
 11
1838.5036
 21
1019.5527
  0
LINE
  8
_0-1_LAYER002
  6
CONTINUOUS
 62
    2
 10
1823.6851999999999
 20
930.6395
 11
1786.7518
 21
1012.7131999999999
  0
LINE
  8
_0-1_LAYER002
  6
CONTINUOUS
 62
    2
 10
1866.7748000000001
 20
944.54739999999993
 11
1830.2962000000002
 21
928.13200000000006
  0
LINE
  8
_0-1_LAYER002
  6
CONTINUOUS
 62
    2
 10
1869.2822000000001
 20
951.1585
 11
1863.1266000000001
 21
964.83809999999994
  0
LINE
  8
_0-1_LAYER002
  6
CONTINUOUS
 62
    2
 10
1867.1855
 20
950.21489999999994
 11
1861.0295000000001
 21
963.89450000000011
  0
LINE
  8
_0-1_LAYER002
  6
CONTINUOUS
 62
    2
 10
1829.3537999999999
 20
930.22910000000002
 11
1865.8312999999998
 21
946.64429999999993
  0
LINE
  8
_0-1_LAYER002
  6
CONTINUOUS
 62
    2
 10
1825.7831000000001
 20
931.58310000000006
 11
1788.8501000000001
 21
1013.6578999999999
  0
LINE
  8
_0-0_LAYER001
  6
CONTINUOUS
 62
    2
 10
1829.8413999999998
 20
916.96250000000009
 11
1792.9072999999999
 21
999.03520000000003
  0
LINE
  8
_0-0_LAYER001
  6
CONTINUOUS
 62
    2
 10
1788.5761000000002
 20
991.60310000000004
 11
1816.4816000000001
 21
929.59300000000007
  0
LINE
  8
_0-0_LAYER001
  6
CONTINUOUS
 62
    2
 10
1791.0835000000002
 20
998.2152000000001
 11
1792.9072999999999
 21
999.03520000000003
  0
LINE
  8
_0-0_LAYER001
  6
CONTINUOUS
 62
    2
 10
1749.4549000000002
 20
888.46440000000007
 11
1811.4659999999999
 21
916.36999999999989
  0
LINE
  8
_0-0_LAYER001
  6
CONTINUOUS
 62
    2
 10
1807.3157000000001
 20
972.62159999999994
 11
1810.0520999999999
 21
973.85249999999996
  0
LINE
  8
_0-0_LAYER001
  6
CONTINUOUS
 62
    2
 10
1800.7498999999998
 20
987.21180000000004
 11
1803.4861000000001
 21
988.44270000000006
  0
LINE
  8
_0-0_LAYER001
  6
CONTINUOUS
 62
    2
 10
1816.6174999999998
 20
959.26350000000002
 11
1803.4861000000001
 21
988.44270000000006
  0
LINE
  8
_0-0_LAYER001
  6
CONTINUOUS
 62
    2
 10
1813.8811999999998
 20
958.03150000000005
 11
1816.6174999999998
 21
959.26350000000002
  0
LINE
  8
_0-0_LAYER001
  6
CONTINUOUS
 62
    2
 10
1815.8887
 20
985.25099999999998
 11
1826.5578
 21
990.05300000000011
  0
LINE
  8
_0-0_LAYER001
  6
CONTINUOUS
 62
    2
 10
1822.4540000000002
 20
970.66190000000006
 11
1833.1233000000002
 21
975.46270000000004
  0
LINE
  8
_0-0_LAYER001
  6
CONTINUOUS
 62
    2
 10
1821.0360999999998
 20
971.20039999999995
 11
1812.8948
 21
967.53729999999996
  0
LINE
  8
_0-0_LAYER001
  6
CONTINUOUS
 62
    2
 10
1815.3501999999999
 20
983.83490000000006
 11
1807.2098999999998
 21
980.17110000000002
  0
LINE
  8
_0-0_LAYER001
  6
CONTINUOUS
 62
    2
 10
1812.5081
 20
990.15329999999994
 11
1804.3656000000001
 21
986.48919999999998
  0
LINE
  8
_0-0_LAYER001
  6
CONTINUOUS
 62
    2
 10
1814.2455
 20
988.90159999999992
 11
1812.5081
 21
990.15329999999994
  0
LINE
  8
_0-0_LAYER001
  6
CONTINUOUS
 62
    2
 10
1824.0949999999998
 20
967.01510000000007
 11
1814.2455
 21
988.90159999999992
  0
LINE
  8
_0-0_LAYER001
  6
CONTINUOUS
 62
    2
 10
1823.8791999999999
 20
964.88190000000009
 11
1815.7379999999998
 21
961.21810000000005
  0
LINE
  8
_0-0_LAYER001
  6
CONTINUOUS
 62
    2
 10
1824.0949999999998
 20
967.01510000000007
 11
1823.8791999999999
 21
964.88190000000009
  0
LINE
  8
_0-0_LAYER001
  6
CONTINUOUS
 62
    2
 10
1834.1273000000001
 20
978.10770000000002
 11
1833.1233000000002
 21
975.46270000000004
  0
LINE
  8
_0-0_LAYER001
  6
CONTINUOUS
 62
    2
 10
1829.2026000000001
 20
989.04999999999995
 11
1834.1273000000001
 21
978.10770000000002
  0
LINE
  8
_0-0_LAYER001
  6
CONTINUOUS
 62
    2
 10
1826.5578
 20
990.05300000000011
 11
1829.2026000000001
 21
989.04999999999995
  0
LINE
  8
_0-0_LAYER001
  6
CONTINUOUS
 62
    2
 10
1826.5578
 20
990.05300000000011
 11
1833.1233000000002
 21
975.46270000000004
  0
LINE
  8
_0-0_LAYER001
  6
CONTINUOUS
 62
    2
 10
1826.5578
 20
990.05300000000011
 11
1830.5500999999999
 21
974.30490000000009
  0
LINE
  8
_0-0_LAYER001
  6
CONTINUOUS
 62
    2
 10
1821.0016000000001
 20
987.55240000000003
 11
1824.9949999999999
 21
971.80439999999999
  0
LINE
  8
_0-0_LAYER001
  6
CONTINUOUS
 62
    2
 10
1787.8505
 20
971.45839999999998
 11
1795.9917
 21
975.12149999999997
  0
LINE
  8
_0-0_LAYER001
  6
CONTINUOUS
 62
    2
 10
1793.5363000000002
 20
958.82369999999992
 11
1801.6777000000002
 21
962.48780000000011
  0
LINE
  8
_0-0_LAYER001
  6
CONTINUOUS
 62
    2
 10
1796.3787000000002
 20
952.50559999999996
 11
1804.5207
 21
956.16949999999997
  0
LINE
  8
_0-0_LAYER001
  6
CONTINUOUS
 62
    2
 10
1794.6410000000001
 20
953.75710000000004
 11
1796.3787000000002
 21
952.50559999999996
  0
LINE
  8
_0-0_LAYER001
  6
CONTINUOUS
 62
    2
 10
1784.7916
 20
975.64370000000008
 11
1794.6410000000001
 21
953.75710000000004
  0
LINE
  8
_0-0_LAYER001
  6
CONTINUOUS
 62
    2
 10
1785.0072
 20
977.77659999999992
 11
1793.1484
 21
981.44070000000011
  0
LINE
  8
_0-0_LAYER001
  6
CONTINUOUS
 62
    2
 10
1784.7916
 20
975.64370000000008
 11
1785.0072
 21
977.77659999999992
  0
LINE
  8
_0-0_LAYER001
  6
CONTINUOUS
 62
    2
 10
1746.9476
 20
881.85320000000002
 11
1747.7683000000002
 21
880.02929999999992
  0
LINE
  8
_0-0_LAYER001
  6
CONTINUOUS
 62
    2
 10
1747.7683000000002
 20
880.02929999999992
 11
1829.8416000000002
 21
916.96209999999996
  0
LINE
  8
_0-0_LAYER001
  6
CONTINUOUS
 62
    2
 10
1791.54
 20
1075.1811
 11
1782.4196999999999
 21
1071.0771
  0
LINE
  8
_0-0_LAYER001
  6
CONTINUOUS
 62
    2
 10
1792.7698999999998
 20
1072.4446
 11
1783.6514999999999
 21
1068.3420000000001
  0
LINE
  8
_0-0_LAYER001
  6
CONTINUOUS
 62
    2
 10
1782.4196999999999
 20
1071.0771
 11
1783.6514999999999
 21
1068.3420000000001
  0
LINE
  8
_0-0_LAYER001
  6
CONTINUOUS
 62
    2
 10
1791.54
 20
1075.1811
 11
1792.7698999999998
 21
1072.4446
  0
LINE
  8
_0-0_LAYER001
  6
CONTINUOUS
 62
    2
 10
1786.9798999999998
 20
1073.1291000000001
 11
1788.2105999999999
 21
1070.3927000000001
  0
LINE
  8
_0-0_LAYER001
  6
CONTINUOUS
 62
    2
 10
1813.6534000000001
 20
1013.8543
 11
1809.5313000000001
 21
1018.1405
  0
LINE
  8
_0-0_LAYER001
  6
CONTINUOUS
 62
    2
 10
1813.6534000000001
 20
1013.8543
 11
1813.1790000000001
 21
1019.7813000000001
  0
LINE
  8
_0-0_LAYER001
  6
CONTINUOUS
 62
    2
 10
1791.866
 20
1054.3812
 11
1797.4938999999999
 21
1058.0726999999999
  0
LINE
  8
_0-0_LAYER001
  6
CONTINUOUS
 62
    2
 10
1793.9180000000001
 20
1049.8219999999999
 11
1799.5468999999998
 21
1053.5126
  0
LINE
  8
_0-0_LAYER001
  6
CONTINUOUS
 62
    2
 10
1795.9708999999998
 20
1045.2617
 11
1801.5983999999999
 21
1048.9532999999999
  0
LINE
  8
_0-0_LAYER001
  6
CONTINUOUS
 62
    2
 10
1798.0218
 20
1040.7014999999999
 11
1803.6495
 21
1044.3941
  0
LINE
  8
_0-0_LAYER001
  6
CONTINUOUS
 62
    2
 10
1800.0736000000002
 20
1036.1432
 11
1805.7013999999999
 21
1039.8348000000001
  0
LINE
  8
_0-0_LAYER001
  6
CONTINUOUS
 62
    2
 10
1802.1255999999998
 20
1031.5830000000001
 11
1807.7543999999998
 21
1035.2746999999999
  0
LINE
  8
_0-0_LAYER001
  6
CONTINUOUS
 62
    2
 10
1804.1783999999998
 20
1027.0237999999999
 11
1809.8051999999998
 21
1030.7144000000001
  0
LINE
  8
_0-0_LAYER001
  6
CONTINUOUS
 62
    2
 10
1806.2293
 20
1022.4635000000001
 11
1811.857
 21
1026.1552999999999
  0
LINE
  8
_0-0_LAYER001
  6
CONTINUOUS
 62
    2
 10
1807.7654000000002
 20
1019.0515
 11
1813.3928000000001
 21
1022.7431999999999
  0
LINE
  8
_0-0_LAYER001
  6
CONTINUOUS
 62
    2
 10
1791.2656999999999
 20
1068.4802999999999
 11
1813.1790000000001
 21
1019.7813000000001
  0
LINE
  8
_0-0_LAYER001
  6
CONTINUOUS
 62
    2
 10
1792.7698999999998
 20
1072.4446
 11
1791.2656999999999
 21
1068.4802999999999
  0
LINE
  8
_0-0_LAYER001
  6
CONTINUOUS
 62
    2
 10
1787.6188999999999
 20
1066.8363999999999
 11
1809.5313000000001
 21
1018.1405
  0
LINE
  8
_0-0_LAYER001
  6
CONTINUOUS
 62
    2
 10
1783.6514999999999
 20
1068.3420000000001
 11
1787.6188999999999
 21
1066.8363999999999
  0
LINE
  8
_0-2_LAYER003
  6
CONTINUOUS
 62
    2
 10
1918.5749999999998
 20
956.89190000000008
 11
991.80649999999991
 21
539.84690999999998
  0
LINE
  8
_0-6_LAYER009
  6
CONTINUOUS
 62
    2
 10
1853.5749999999998
 20
1048.2663
 11
1833.0569
 21
1093.8624
  0
LINE
  8
_0-6_LAYER009
  6
CONTINUOUS
 62
    2
 10
1833.0569
 20
1093.8624
 11
926.14820000000009
 21
685.75450000000001
  0
LINE
  8
_0-2_LAYER003
  6
DASHED3
 62
    2
 10
1852.0749999999998
 20
1104.6138000000001
 11
925.32760000000007
 21
687.57819999999992
  0
ARC
  8
_0-1_LAYER002
  6
CONTINUOUS
 62
    2
 10
1827.7878999999998
 20
1031.1803
 40
2.7000000000000002
 50
24.240376999999999
 51
114.23248
  0
ARC
  8
_0-1_LAYER002
  6
CONTINUOUS
 62
    2
 10
1791.3121999999998
 20
1014.7662
 40
2.7000000000000002
 50
114.23248000000001
 51
204.21279999999999
  0
ARC
  8
_0-1_LAYER002
  6
CONTINUOUS
 62
    2
 10
1791.3101999999999
 20
1014.7652
 40
4.9989999999999997
 50
114.22009000000001
 51
204.23074000000003
  0
ARC
  8
_0-1_LAYER002
  6
CONTINUOUS
 62
    2
 10
1827.7889
 20
1031.1814999999999
 40
4.9989999999999997
 50
24.224357000000001
 51
114.24136000000001
  0
ARC
  8
_0-1_LAYER002
  6
CONTINUOUS
 62
    2
 10
1828.2442000000001
 20
932.69029999999998
 40
4.9989999999999997
 50
204.20946000000004
 51
294.23500000000001
  0
ARC
  8
_0-1_LAYER002
  6
CONTINUOUS
 62
    2
 10
1864.7239
 20
949.10660000000007
 40
4.9989999999999997
 50
294.21370999999999
 51
24.245647000000019
  0
ARC
  8
_0-1_LAYER002
  6
CONTINUOUS
 62
    2
 10
1864.7228
 20
949.10660000000007
 40
2.7000000000000002
 50
294.22066999999998
 51
24.240377000000009
  0
ARC
  8
_0-1_LAYER002
  6
CONTINUOUS
 62
    2
 10
1828.2451000000001
 20
932.69119999999998
 40
2.7000000000000002
 50
204.21279999999999
 51
294.22066999999998
  0
ARC
  8
_0-0_LAYER001
  6
CONTINUOUS
 62
    2
 10
1807.3602000000001
 20
925.49019999999996
 40
10.001999
 50
294.23665999999992
 51
24.223896999999997
  0
ARC
  8
_0-0_LAYER001
  6
CONTINUOUS
 62
    2
 10
1793.1343000000002
 20
993.65499999999997
 40
4.9989999999999997
 50
114.22009000000001
 51
204.23074000000003
  0
ARC
  8
_0-0_LAYER001
  6
CONTINUOUS
 62
    2
 10
1751.5055000000002
 20
883.90499999999997
 40
4.9989999999999997
 50
114.22009000000001
 51
204.23074000000003
  0
ARC
  8
_0-0_LAYER001
  6
CONTINUOUS
 62
    2
 10
1809.2968000000001
 20
984.91830000000004
 40
6.1470010000000013
 50
349.86246
 51
23.869747000000004
  0
ARC
  8
_0-0_LAYER001
  6
CONTINUOUS
 62
    2
 10
1817.8227999999999
 20
965.94560000000001
 40
6.1580000000000004
 50
24.600926999999999
 51
58.555577
  0
ARC
  8
_0-0_LAYER001
  6
CONTINUOUS
 62
    2
 10
1798.2885000000001
 20
968.56169999999997
 40
22.898997999999999
 50
6.6164970000000007
 51
41.832006999999997
  0
ARC
  8
_0-0_LAYER001
  6
CONTINUOUS
 62
    2
 10
1799.5907000000002
 20
957.74319999999989
 40
6.1479999999999997
 50
169.87799999999999
 51
203.89275000000001
  0
ARC
  8
_0-0_LAYER001
  6
CONTINUOUS
 62
    2
 10
1791.0571
 20
976.70479999999998
 40
6.1479999999999997
 50
204.55376000000004
 51
238.55601999999999
  0
ARC
  8
_0-0_LAYER001
  6
CONTINUOUS
 62
    2
 10
1810.6334000000002
 20
974.11449999999991
 40
22.936000999999997
 50
186.64732000000004
 51
221.80409000000003
  0
LINE
  8
_0-0_LAYER001
  6
DASHED3
 62
    2
 10
1852.0749999999998
 20
1104.6138000000001
 11
1852.0749999999998
 21
1293.7921000000001
  0
LINE
  8
_0-0_LAYER001
  6
CONTINUOUS
 62
    2
 10
2062.8416999999999
 20
1104.6138000000001
 11
2010.3416999999999
 21
1104.6138000000001
  0
CIRCLE
  8
_0-0_LAYER001
  6
CONTINUOUS
 62
    2
 10
2060.3416999999999
 20
1104.6138000000001
 40
1.6999999999999997
  0
LINE
  8
_0-0_LAYER001
  6
CONTINUOUS
 62
    2
 10
2060.3416999999999
 20
1104.6138000000001
 11
2060.3416999999999
 21
1304.6138000000001
  0
CIRCLE
  8
_0-0_LAYER001
  6
CONTINUOUS
 62
    2
 10
2060.3416999999999
 20
1304.6138000000001
 40
1.6999999999999997
  0
LINE
  8
_0-0_LAYER001
  6
CONTINUOUS
 62
    2
 10
2062.8416999999999
 20
1304.6138000000001
 11
2010.3416999999999
 21
1304.6138000000001
  0
LINE
  8
_0-0_LAYER001
  6
CONTINUOUS
 62
    2
 10
1839.6257999999998
 20
1100.3571999999999
 11
1812.2660000000001
 21
1088.0298
  0
LINE
  8
_0-0_LAYER001
  6
CONTINUOUS
 62
    4
 10
1126.9072000000001
 20
778.38830000000007
 11
1099.5413000000001
 21
766.07359999999994
  0
LINE
  8
_0-0_LAYER001
  6
CONTINUOUS
 62
    4
 10
1364.6438000000001
 20
885.37010000000009
 11
1337.2779
 21
873.05539999999996
  0
LINE
  8
_0-0_LAYER001
  6
CONTINUOUS
 62
    4
 10
1353.0302999999999
 20
920.1543999999999
 11
1354.0273
 21
917.32490000000007
  0
LINE
  8
_0-0_LAYER001
  6
CONTINUOUS
 62
    4
 10
1353.0302999999999
 20
920.1543999999999
 11
1361.5188000000001
 21
923.14529999999991
  0
LINE
  8
_0-0_LAYER001
  6
CONTINUOUS
 62
    4
 10
1286.7819
 20
985.39439999999991
 11
1314.1197
 21
907.80649999999991
  0
LINE
  8
_0-0_LAYER001
  6
CONTINUOUS
 62
    4
 10
1314.1197
 20
907.80649999999991
 11
1598.0128
 21
1007.8349000000001
  0
LINE
  8
_0-0_LAYER001
  6
CONTINUOUS
 62
    4
 10
1305.4643000000001
 20
935.9538
 11
1543.9304000000002
 21
1037.9526000000001
  0
LINE
  8
_0-0_LAYER001
  6
CONTINUOUS
 62
    4
 10
1598.0128
 20
1007.8349000000001
 11
1602.0005999999998
 21
996.51690000000008
  0
LINE
  8
_0-0_LAYER001
  6
CONTINUOUS
 62
    4
 10
1602.0005999999998
 20
996.51690000000008
 11
1610.4892
 21
999.50770000000011
  0
LINE
  8
_0-0_LAYER001
  6
CONTINUOUS
 62
    4
 10
1591.0340999999999
 20
1027.6413
 11
1592.0309999999999
 21
1024.8118999999999
  0
LINE
  8
_0-0_LAYER001
  6
CONTINUOUS
 62
    4
 10
1308.1378999999997
 20
924.7835
 11
1592.0309999999999
 21
1024.8118999999999
  0
LINE
  8
_0-0_LAYER001
  6
CONTINUOUS
 62
    4
 10
1286.7917
 20
985.79680000000008
 11
1531.8802000000001
 21
1072.1524999999999
  0
LINE
  8
_0-0_LAYER001
  6
CONTINUOUS
 62
    4
 10
1591.0340999999999
 20
1027.6413
 11
1599.5225
 21
1030.6322
  0
LINE
  8
_0-0_LAYER001
  6
CONTINUOUS
 62
    4
 10
1599.5225
 20
1030.6322
 11
1610.4892
 21
999.50770000000011
  0
LINE
  8
_0-0_LAYER001
  6
CONTINUOUS
 62
    4
 10
1525.0909999999999
 20
1091.8533
 11
1552.4286999999999
 21
1014.2652
  0
LINE
  8
_0-0_LAYER001
  6
CONTINUOUS
 62
    4
 10
1552.4286999999999
 20
1014.2652
 11
1836.3218999999999
 21
1114.2936
  0
LINE
  8
_0-0_LAYER001
  6
CONTINUOUS
 62
    4
 10
1543.7734
 20
1042.4124999999999
 11
1828.3092999999999
 21
1164.1167
  0
LINE
  8
_0-0_LAYER001
  6
CONTINUOUS
 62
    4
 10
1836.3218999999999
 20
1114.2936
 11
1840.3098
 21
1102.9756
  0
LINE
  8
_0-0_LAYER001
  6
CONTINUOUS
 62
    4
 10
1840.3098
 20
1102.9756
 11
1848.7982999999999
 21
1105.9665
  0
LINE
  8
_0-0_LAYER001
  6
CONTINUOUS
 62
    4
 10
1829.3431999999998
 20
1134.1002000000001
 11
1830.3400999999999
 21
1131.2706000000001
  0
LINE
  8
_0-0_LAYER001
  6
CONTINUOUS
 62
    4
 10
1546.4470000000001
 20
1031.2421999999999
 11
1830.3400999999999
 21
1131.2706000000001
  0
LINE
  8
_0-0_LAYER001
  6
CONTINUOUS
 62
    4
 10
1525.1008000000002
 20
1092.2555
 11
1817.3476000000001
 21
1195.2272
  0
LINE
  8
_0-0_LAYER001
  6
CONTINUOUS
 62
    4
 10
1829.3431999999998
 20
1134.1002000000001
 11
1837.8317000000002
 21
1137.0909999999999
  0
LINE
  8
_0-0_LAYER001
  6
CONTINUOUS
 62
    4
 10
1817.3476000000001
 20
1195.2272
 11
1848.7982999999999
 21
1105.9665
  0
LINE
  8
_0-0_LAYER001
  6
CONTINUOUS
 62
    4
 10
908.7514000000001
 20
718.6422
 11
1122.4873
 21
793.95100000000002
  0
LINE
  8
_0-0_LAYER001
  6
CONTINUOUS
 62
    4
 10
894.86619999999994
 20
749.84120000000007
 11
1068.4049
 21
824.06870000000004
  0
LINE
  8
_0-0_LAYER001
  6
CONTINUOUS
 62
    4
 10
1122.4873
 20
793.95100000000002
 11
1126.4751000000001
 21
782.63300000000004
  0
LINE
  8
_0-0_LAYER001
  6
CONTINUOUS
 62
    4
 10
1126.4751000000001
 20
782.63300000000004
 11
1134.9636
 21
785.62390000000005
  0
LINE
  8
_0-0_LAYER001
  6
CONTINUOUS
 62
    4
 10
1115.5085999999999
 20
813.75749999999994
 11
1116.5055
 21
810.92800000000011
  0
LINE
  8
_0-0_LAYER001
  6
CONTINUOUS
 62
    4
 10
901.40910000000008
 20
735.13979999999992
 11
1116.5055
 21
810.92800000000011
  0
LINE
  8
_0-0_LAYER001
  6
CONTINUOUS
 62
    4
 10
875.04220000000009
 20
794.38409999999999
 11
1056.3547000000001
 21
858.26870000000008
  0
LINE
  8
_0-0_LAYER001
  6
CONTINUOUS
 62
    4
 10
1115.5085999999999
 20
813.75749999999994
 11
1123.9971
 21
816.74839999999995
  0
LINE
  8
_0-0_LAYER001
  6
CONTINUOUS
 62
    4
 10
1123.9971
 20
816.74839999999995
 11
1134.9636
 21
785.62390000000005
  0
LINE
  8
_0-0_LAYER001
  6
CONTINUOUS
 62
    4
 10
1048.7781
 20
877.90750000000003
 11
1076.1159
 21
800.31950000000006
  0
LINE
  8
_0-0_LAYER001
  6
CONTINUOUS
 62
    4
 10
1076.1159
 20
800.31950000000006
 11
1360.009
 21
900.34789999999998
  0
LINE
  8
_0-0_LAYER001
  6
CONTINUOUS
 62
    4
 10
1067.4606000000001
 20
828.46679999999992
 11
1305.9266
 21
930.46559999999999
  0
LINE
  8
_0-0_LAYER001
  6
CONTINUOUS
 62
    4
 10
1360.009
 20
900.34789999999998
 11
1363.9969000000001
 21
889.0299
  0
LINE
  8
_0-0_LAYER001
  6
CONTINUOUS
 62
    4
 10
1363.9969000000001
 20
889.0299
 11
1372.4854
 21
892.02080000000001
  0
LINE
  8
_0-0_LAYER001
  6
CONTINUOUS
 62
    4
 10
1070.1341
 20
817.29649999999992
 11
1354.0273
 21
917.32490000000007
  0
LINE
  8
_0-0_LAYER001
  6
CONTINUOUS
 62
    4
 10
1048.7879
 20
878.3098
 11
1293.8764000000001
 21
964.66550000000007
  0
LINE
  8
_0-0_LAYER001
  6
CONTINUOUS
 62
    4
 10
1361.5188000000001
 20
923.14529999999991
 11
1372.4854
 21
892.02080000000001
  0
LINE
  8
_0-0_LAYER001
  6
CONTINUOUS
 62
    4
 10
1833.6255000000001
 20
1112.8611000000001
 11
1806.2595999999999
 21
1100.5464999999999
  0
LINE
  8
_0-0_LAYER001
  6
CONTINUOUS
 62
    4
 10
1595.8888000000002
 20
1005.8794
 11
1568.5228999999999
 21
993.5646999999999
  0
LINE
  8
_0-0_LAYER001
  6
CONTINUOUS
 62
    4
 10
1330.7863
 20
886.58300000000008
 11
1337.2779
 21
873.05539999999996
  0
LINE
  8
_0-0_LAYER001
  6
CONTINUOUS
 62
    4
 10
1120.4156
 20
791.91589999999997
 11
1126.9072000000001
 21
778.38830000000007
  0
LINE
  8
_0-0_LAYER001
  6
CONTINUOUS
 62
    4
 10
1093.0497
 20
779.60120000000006
 11
1099.5413000000001
 21
766.07359999999994
  0
LINE
  8
_0-0_LAYER001
  6
CONTINUOUS
 62
    4
 10
1120.4156
 20
791.91589999999997
 11
1093.0497
 21
779.60120000000006
  0
LINE
  8
_0-0_LAYER001
  6
CONTINUOUS
 62
    4
 10
1833.6253999999999
 20
1112.8611000000001
 11
1839.6257999999998
 21
1100.3571999999999
  0
LINE
  8
_0-0_LAYER001
  6
CONTINUOUS
 62
    4
 10
1806.2595999999999
 20
1100.5464999999999
 11
1812.2660000000001
 21
1088.0298
  0
LINE
  8
_0-0_LAYER001
  6
CONTINUOUS
 62
    4
 10
1595.8888000000002
 20
1005.8794
 11
1602.2267000000002
 21
992.67219999999998
  0
LINE
  8
_0-0_LAYER001
  6
CONTINUOUS
 62
    4
 10
1568.5228999999999
 20
993.5646999999999
 11
1575.0146
 21
980.03710000000001
  0
LINE
  8
_0-0_LAYER001
  6
CONTINUOUS
 62
    4
 10
1602.6451000000002
 20
992.47090000000003
 11
1575.0146
 21
980.03710000000001
  0
LINE
  8
_0-0_LAYER001
  6
CONTINUOUS
 62
    4
 10
1358.1522
 20
898.89760000000001
 11
1330.7863
 21
886.58300000000008
  0
LINE
  8
_0-0_LAYER001
  6
CONTINUOUS
 62
    4
 10
1358.1522
 20
898.89760000000001
 11
1364.6438000000001
 21
885.37010000000009
  0
LINE
  8
_0-0_LAYER001
  6
DASHED1
 62
    1
 10
1811.4245999999998
 20
1131.3141000000001
 11
1826.7728999999999
 21
1135.8342
  0
LINE
  8
_0-0_LAYER001
  6
DASHED1
 62
    1
 10
1826.7728999999999
 20
1135.8342
 11
1827.6203999999998
 21
1132.9563000000001
  0
LINE
  8
_0-0_LAYER001
  6
DASHED1
 62
    1
 10
1811.4245999999998
 20
1131.3141000000001
 11
1812.2721000000001
 21
1128.4363000000001
  0
LINE
  8
_0-0_LAYER001
  6
DASHED1
 62
    1
 10
1812.2721000000001
 20
1128.4363000000001
 11
1827.6203999999998
 21
1132.9563000000001
  0
LINE
  8
_0-0_LAYER001
  6
DASHED1
 62
    1
 10
1837.6738
 20
1069.2312999999999
 11
1829.4501
 21
1087.8055999999999
  0
LINE
  8
_0-0_LAYER001
  6
DASHED1
 62
    1
 10
1817.0684999999999
 20
1129.8488
 11
1829.4501
 21
1087.8055999999999
  0
LINE
  8
_0-0_LAYER001
  6
DASHED1
 62
    1
 10
1837.8665999999998
 20
1068.5768
 11
1836.1983
 21
1086.1301000000001
  0
LINE
  8
_0-0_LAYER001
  6
DASHED1
 62
    1
 10
1822.8240999999998
 20
1131.5438999999999
 11
1836.1983
 21
1086.1301000000001
  0
LINE
  8
_0-0_LAYER001
  6
DASHED1
 62
    1
 10
1569.4099999999999
 20
1025.1532
 11
1584.7584000000002
 21
1029.6732
  0
LINE
  8
_0-0_LAYER001
  6
DASHED1
 62
    1
 10
1584.7584000000002
 20
1029.6732
 11
1585.6057999999998
 21
1026.7954
  0
LINE
  8
_0-0_LAYER001
  6
DASHED1
 62
    1
 10
1569.4099999999999
 20
1025.1532
 11
1570.2575000000002
 21
1022.2754
  0
LINE
  8
_0-0_LAYER001
  6
DASHED1
 62
    1
 10
1570.2575000000002
 20
1022.2754
 11
1585.6057999999998
 21
1026.7954
  0
LINE
  8
_0-0_LAYER001
  6
DASHED1
 62
    1
 10
1595.6592999999998
 20
963.07030000000009
 11
1587.4357
 21
981.64460000000008
  0
LINE
  8
_0-0_LAYER001
  6
DASHED1
 62
    1
 10
1575.0538999999999
 20
1023.6877999999999
 11
1587.4357
 21
981.64460000000008
  0
LINE
  8
_0-0_LAYER001
  6
DASHED1
 62
    1
 10
1595.8519999999999
 20
962.41589999999997
 11
1594.1837999999998
 21
979.9692
  0
LINE
  8
_0-0_LAYER001
  6
DASHED1
 62
    1
 10
1580.8094999999998
 20
1025.3829000000001
 11
1594.1837999999998
 21
979.9692
  0
LINE
  8
_0-0_LAYER001
  6
DASHED1
 62
    1
 10
1329.8263999999999
 20
919.92409999999995
 11
1345.1747
 21
924.44419999999991
  0
LINE
  8
_0-0_LAYER001
  6
DASHED1
 62
    1
 10
1345.1747
 20
924.44419999999991
 11
1346.0222000000001
 21
921.56639999999993
  0
LINE
  8
_0-0_LAYER001
  6
DASHED1
 62
    1
 10
1329.8263999999999
 20
919.92409999999995
 11
1330.6738999999998
 21
917.04629999999997
  0
LINE
  8
_0-0_LAYER001
  6
DASHED1
 62
    1
 10
1330.6738999999998
 20
917.04629999999997
 11
1346.0222000000001
 21
921.56639999999993
  0
LINE
  8
_0-0_LAYER001
  6
DASHED1
 62
    1
 10
1356.0757000000001
 20
857.84130000000005
 11
1347.8520000000001
 21
876.41550000000007
  0
LINE
  8
_0-0_LAYER001
  6
DASHED1
 62
    1
 10
1335.4703
 20
918.45880000000011
 11
1347.8520000000001
 21
876.41550000000007
  0
LINE
  8
_0-0_LAYER001
  6
DASHED1
 62
    1
 10
1356.2683999999999
 20
857.18679999999995
 11
1354.6002000000001
 21
874.74009999999998
  0
LINE
  8
_0-0_LAYER001
  6
DASHED1
 62
    1
 10
1341.2258999999999
 20
920.15380000000005
 11
1354.6002000000001
 21
874.74009999999998
  0
LINE
  8
_0-0_LAYER001
  6
DASHED1
 62
    1
 10
1094.1022
 20
808.66059999999993
 11
1109.4504999999999
 21
813.18069999999989
  0
LINE
  8
_0-0_LAYER001
  6
DASHED1
 62
    1
 10
1109.4504999999999
 20
813.18069999999989
 11
1110.298
 21
810.30289999999991
  0
LINE
  8
_0-0_LAYER001
  6
DASHED1
 62
    1
 10
1094.1022
 20
808.66059999999993
 11
1094.9496999999999
 21
805.78289999999993
  0
LINE
  8
_0-0_LAYER001
  6
DASHED1
 62
    1
 10
1094.9496999999999
 20
805.78289999999993
 11
1110.298
 21
810.30289999999991
  0
LINE
  8
_0-0_LAYER001
  6
DASHED1
 62
    1
 10
1120.3515
 20
746.5779
 11
1112.1278
 21
765.15210000000002
  0
LINE
  8
_0-0_LAYER001
  6
DASHED1
 62
    1
 10
1099.7461000000001
 20
807.19540000000006
 11
1112.1278
 21
765.15210000000002
  0
LINE
  8
_0-0_LAYER001
  6
DASHED1
 62
    1
 10
1120.5442
 20
745.92329999999993
 11
1118.876
 21
763.47669999999994
  0
LINE
  8
_0-0_LAYER001
  6
DASHED1
 62
    1
 10
1105.5017
 20
808.8904
 11
1118.876
 21
763.47669999999994
  0
LINE
  8
_0-0_LAYER001
  6
CONTINUOUS
 62
    2
 10
1833.6253999999999
 20
1112.8611000000001
 11
1812.2660000000001
 21
1088.0298
  0
LINE
  8
_0-0_LAYER001
  6
CONTINUOUS
 62
    2
 10
1595.8888000000002
 20
1005.8794
 11
1575.0146
 21
980.03710000000001
  0
LINE
  8
_0-0_LAYER001
  6
CONTINUOUS
 62
    2
 10
1358.1522
 20
898.89760000000001
 11
1337.2779
 21
873.05539999999996
  0
LINE
  8
_0-0_LAYER001
  6
CONTINUOUS
 62
    2
 10
1120.4156
 20
791.91589999999997
 11
1099.5413000000001
 21
766.07359999999994
  0
LINE
  8
_0-0_LAYER001
  6
DASHED1
 62
    2
 10
1866.8154
 20
1314.4799
 11
1871.9573999999998
 21
1312.7861000000003
  0
LINE
  8
_0-0_LAYER001
  6
DASHED1
 62
    2
 10
1871.9573999999998
 20
1312.7861000000003
 11
1866.2788999999998
 21
1311.4176
  0
LINE
  8
_0-0_LAYER001
  6
CONTINUOUS
 62
    2
 10
1984.2269999999999
 20
1335.6039000000001
 11
1956.7269999999999
 21
1335.6039000000001
  0
CIRCLE
  8
_0-0_LAYER001
  6
CONTINUOUS
 62
    2
 10
1981.7269999999999
 20
1335.6039000000001
 40
1.6999999999999997
  0
LINE
  8
_0-0_LAYER001
  6
CONTINUOUS
 62
    2
 10
1981.7269999999999
 20
1335.6039000000001
 11
1981.7269999999999
 21
1235.6039000000001
  0
CIRCLE
  8
_0-0_LAYER001
  6
CONTINUOUS
 62
    2
 10
1981.7269999999999
 20
1235.6039000000001
 40
1.6999999999999997
  0
LINE
  8
_0-0_LAYER001
  6
CONTINUOUS
 62
    2
 10
1984.2269999999999
 20
1235.6039000000001
 11
1956.7269999999999
 21
1235.6039000000001
  0
LINE
  8
_0-0_LAYER001
  6
CONTINUOUS
 62
    2
 10
1853.5749999999998
 20
1251.6952000000001
 11
1899.8352
 21
1297.9554000000003
  0
LINE
  8
_0-0_LAYER001
  6
CONTINUOUS
 62
    2
 10
1853.5749999999998
 20
1463.8272999999999
 11
1899.8352
 21
1510.0873999999999
  0
LINE
  8
_0-0_LAYER001
  6
CONTINUOUS
 62
    2
 10
1853.5749999999998
 20
1255.9378999999999
 11
1899.8352
 21
1302.1980000000003
  0
LINE
  8
_0-0_LAYER001
  6
CONTINUOUS
 62
    2
 10
1853.5749999999998
 20
1468.0699
 11
1899.8352
 21
1514.3299999999999
  0
LINE
  8
_0-0_LAYER001
  6
CONTINUOUS
 62
    2
 10
1863.9749999999999
 20
1344.404
 11
1865.5749999999998
 21
1344.404
  0
LINE
  8
_0-0_LAYER001
  6
CONTINUOUS
 62
    2
 10
1863.9749999999999
 20
1339.6039000000001
 11
1865.5749999999998
 21
1339.6039000000001
  0
LINE
  8
_0-5_LAYER007
  6
CONTINUOUS
 62
    2
 10
1849.5749999999998
 20
1235.7674
 11
1849.5749999999998
 21
1334.0038999999999
  0
LINE
  8
_0-5_LAYER007
  6
CONTINUOUS
 62
    2
 10
1849.5749999999998
 20
1334.0038999999999
 11
1847.4369999999999
 21
1322.1959999999999
  0
LINE
  8
_0-2_LAYER003
  6
CONTINUOUS
 62
    2
 10
1847.1750000000002
 20
1303.604
 11
1848.4173999999998
 21
1308.2403999999999
  0
LINE
  8
_0-2_LAYER003
  6
CONTINUOUS
 62
    2
 10
1847.1750000000002
 20
1303.604
 11
1847.1750000000002
 21
1335.6039000000001
  0
LINE
  8
_0-6_LAYER009
  6
CONTINUOUS
 62
    2
 10
1865.5749999999998
 20
1334.0038999999999
 11
1865.5749999999998
 21
1350.0039999999999
  0
LINE
  8
_0-2_LAYER003
  6
CONTINUOUS
 62
    2
 10
1863.9749999999999
 20
1335.6039000000001
 11
1863.9749999999999
 21
1347.604
  0
LINE
  8
_0-2_LAYER003
  6
CONTINUOUS
 62
    2
 10
1863.9749999999999
 20
1335.6039000000001
 11
1847.1750000000002
 21
1335.6039000000001
  0
LINE
  8
_0-4_LAYER006
  6
CONTINUOUS
 62
    2
 10
1863.9749999999999
 20
1335.6039000000001
 11
1855.4405000000002
 21
1344.1385
  0
LINE
  8
_0-4_LAYER006
  6
CONTINUOUS
 62
    2
 10
1860.5808999999999
 20
1335.6039000000001
 11
1855.5221000000001
 21
1340.6628000000001
  0
LINE
  8
_0-4_LAYER006
  6
CONTINUOUS
 62
    2
 10
1857.1867999999999
 20
1335.6039000000001
 11
1855.0356000000002
 21
1337.7552000000001
  0
LINE
  8
_0-4_LAYER006
  6
CONTINUOUS
 62
    2
 10
1855.2934
 20
1338.9223999999999
 11
1863.9749999999999
 21
1347.6039000000001
  0
LINE
  8
_0-4_LAYER006
  6
CONTINUOUS
 62
    2
 10
1855.5650000000001
 20
1342.5880999999999
 11
1862.9809
 21
1350.0039999999999
  0
LINE
  8
_0-4_LAYER006
  6
CONTINUOUS
 62
    2
 10
1855.1889999999999
 20
1345.6062999999999
 11
1859.5866999999998
 21
1350.0039999999999
  0
LINE
  8
_0-4_LAYER006
  6
CONTINUOUS
 62
    2
 10
1858.7633000000001
 20
1335.6039000000001
 11
1862.7071000000001
 21
1339.5478000000001
  0
LINE
  8
_0-4_LAYER006
  6
CONTINUOUS
 62
    2
 10
1862.1574000000001
 20
1335.6039000000001
 11
1863.7329
 21
1337.1794
  0
LINE
  8
_0-4_LAYER006
  6
CONTINUOUS
 62
    2
 10
1862.5030999999999
 20
1340.47
 11
1854.1453999999999
 21
1348.8276999999998
  0
LINE
  8
_0-4_LAYER006
  6
CONTINUOUS
 62
    2
 10
1862.5538000000001
 20
1343.8135
 11
1856.3634000000002
 21
1350.0039999999999
  0
LINE
  8
_0-4_LAYER006
  6
CONTINUOUS
 62
    2
 10
1855.3690999999999
 20
1335.6039000000001
 11
1862.3962999999999
 21
1342.6311000000001
  0
LINE
  8
_0-4_LAYER006
  6
CONTINUOUS
 62
    2
 10
1854.4007999999999
 20
1348.2122999999999
 11
1856.1925000000001
 21
1350.0039999999999
  0
LINE
  8
_0-4_LAYER006
  6
CONTINUOUS
 62
    2
 10
1863.4429
 20
1346.3186000000001
 11
1859.7575999999999
 21
1350.0039999999999
  0
LINE
  8
_0-4_LAYER006
  6
CONTINUOUS
 62
    2
 10
1863.9749999999999
 20
1349.1805999999999
 11
1863.1516999999999
 21
1350.0039999999999
  0
LINE
  8
_0-4_LAYER006
  6
CONTINUOUS
 62
    2
 10
1863.9749999999999
 20
1347.6039000000001
 11
1863.9749999999999
 21
1350.0039999999999
  0
LINE
  8
_0-3_LAYER004
  6
CONTINUOUS
 62
    2
 10
1847.1754000000001
 20
1307.7427
 11
1847.1754000000001
 21
1317.7462
  0
LINE
  8
_0-3_LAYER004
  6
CONTINUOUS
 62
    2
 10
1845.2575000000002
 20
1307.7427
 11
1845.2573000000002
 21
1317.7462
  0
LINE
  8
_0-3_LAYER004
  6
CONTINUOUS
 62
    2
 10
1845.2573000000002
 20
1317.7462
 11
1847.1754000000001
 21
1317.7462
  0
LINE
  8
_0-3_LAYER004
  6
CONTINUOUS
 62
    2
 10
1845.2575000000002
 20
1307.7427
 11
1847.1754000000001
 21
1307.7427
  0
LINE
  8
_0-3_LAYER004
  6
CONTINUOUS
 62
    2
 10
1845.2579999999998
 20
1312.748
 11
1847.1750000000002
 21
1312.748
  0
LINE
  8
_0-3_LAYER004
  6
DASHED1
 62
    2
 10
1866.8154
 20
1314.4799
 11
1847.1758
 21
1314.4810000000002
  0
LINE
  8
_0-3_LAYER004
  6
DASHED1
 62
    2
 10
1866.2788999999998
 20
1311.4176
 11
1847.1750999999999
 21
1311.4186
  0
LINE
  8
_0-4_LAYER006
  6
CONTINUOUS
 62
    2
 10
1847.1750000000002
 20
1318.4049
 11
1846.2709
 21
1319.3089
  0
LINE
  8
_0-4_LAYER006
  6
CONTINUOUS
 62
    2
 10
1847.1750000000002
 20
1315.5764999999999
 11
1844.6678000000002
 21
1318.0835999999999
  0
LINE
  8
_0-4_LAYER006
  6
CONTINUOUS
 62
    2
 10
1847.1750000000002
 20
1318.4049
 11
1842.5293000000001
 21
1313.7592
  0
LINE
  8
_0-4_LAYER006
  6
CONTINUOUS
 62
    2
 10
1847.1750000000002
 20
1312.748
 11
1843.4459000000002
 21
1316.4771999999998
  0
LINE
  8
_0-4_LAYER006
  6
CONTINUOUS
 62
    2
 10
1847.1750000000002
 20
1309.9196000000002
 11
1842.6534999999999
 21
1314.4411
  0
LINE
  8
_0-4_LAYER006
  6
CONTINUOUS
 62
    2
 10
1847.1750000000002
 20
1307.0912000000001
 11
1842.5293000000001
 21
1311.7369000000003
  0
LINE
  8
_0-4_LAYER006
  6
CONTINUOUS
 62
    2
 10
1845.7608
 20
1314.1622000000002
 11
1842.6534999999999
 21
1311.0549000000001
  0
LINE
  8
_0-4_LAYER006
  6
CONTINUOUS
 62
    2
 10
1847.1750000000002
 20
1312.748
 11
1843.4459000000002
 21
1309.0189
  0
LINE
  8
_0-4_LAYER006
  6
CONTINUOUS
 62
    2
 10
1847.1750000000002
 20
1309.9196000000002
 11
1844.6678000000002
 21
1307.4124000000002
  0
LINE
  8
_0-4_LAYER006
  6
CONTINUOUS
 62
    2
 10
1847.1750000000002
 20
1307.0912000000001
 11
1846.2709
 21
1306.1869999999999
  0
LINE
  8
_0-6_LAYER009
  6
CONTINUOUS
 62
    2
 10
1865.5749999999998
 20
1334.0038999999999
 11
1853.5749999999998
 21
1334.0038999999999
  0
LINE
  8
_0-6_LAYER009
  6
CONTINUOUS
 62
    2
 10
1853.5749999999998
 20
1334.0038999999999
 11
1853.5749999999998
 21
1289.3876
  0
LINE
  8
_0-6_LAYER009
  6
CONTINUOUS
 62
    2
 10
1865.5749999999998
 20
1350.0039999999999
 11
1853.5749999999998
 21
1350.0039999999999
  0
ARC
  8
_0-2_LAYER003
  6
CONTINUOUS
 62
    2
 10
1871.6248999999998
 20
1342.0038999999999
 40
9.2499219999999998
 50
145.79423
 51
214.20577
  0
ARC
  8
_0-0_LAYER001
  6
CONTINUOUS
 62
    2
 10
1866.7874999999999
 20
1342.0038999999999
 40
4.4124889999999999
 50
129.59737999999999
 51
230.40262000000004
  0
ARC
  8
_0-2_LAYER003
  6
CONTINUOUS
 62
    2
 10
1838.5751
 20
1342.0038999999999
 40
16.999911999999998
 50
337.88465000000002
 51
28.072639999999978
  0
ARC
  8
_0-2_LAYER003
  6
CONTINUOUS
 62
    2
 10
1850.0158000000001
 20
1312.748
 40
7.5544529999999996
 50
112.08833
 51
247.91166999999999
  0
LINE
  8
_0-0_LAYER001
  6
CONTINUOUS
 62
    2
 10
1736.2714000000001
 20
1186.7261000000001
 11
1746.5704000000001
 21
1186.7261000000001
  0
LINE
  8
_0-0_LAYER001
  6
CONTINUOUS
 62
    2
 10
1760.0246999999999
 20
1194.8022000000001
 11
1736.2714000000001
 21
1186.7261000000001
  0
LINE
  8
_0-0_LAYER001
  6
CONTINUOUS
 62
    2
 10
1764.9423000000002
 20
1203.5822000000001
 11
1853.5749999999998
 21
1219.2104999999999
  0
LINE
  8
_0-0_LAYER001
  6
CONTINUOUS
 62
    2
 10
1762.3377
 20
1218.3543
 11
1850.9703
 21
1233.9826
  0
LINE
  8
_0-0_LAYER001
  6
CONTINUOUS
 62
    2
 10
1762.3377
 20
1218.3543
 11
1764.9423000000002
 21
1203.5822000000001
  0
LINE
  8
_0-0_LAYER001
  6
CONTINUOUS
 62
    2
 10
1850.9703
 20
1233.9826
 11
1853.5749999999998
 21
1219.2104999999999
  0
LINE
  8
_0-0_LAYER001
  6
CONTINUOUS
 62
    2
 10
1853.5749999999998
 20
1219.2104999999999
 11
1762.3377
 21
1218.3543
  0
LINE
  8
_0-0_LAYER001
  6
DASHED1
 62
    2
 10
1901.5749999999998
 20
1199.2104999999999
 11
1896.5749999999998
 21
1202.2104999999999
  0
LINE
  8
_0-0_LAYER001
  6
DASHED1
 62
    2
 10
1896.5749999999998
 20
1196.2106000000001
 11
1901.5749999999998
 21
1199.2104999999999
  0
LINE
  8
_0-0_LAYER001
  6
CONTINUOUS
 62
    2
 10
1829.5749000000001
 20
1196.2106000000001
 11
1829.5749000000001
 21
1202.2104999999999
  0
LINE
  8
_0-0_LAYER001
  6
CONTINUOUS
 62
    2
 10
1823.5749999999998
 20
1193.2104999999999
 11
1823.5749999999998
 21
1205.2106000000001
  0
LINE
  8
_0-0_LAYER001
  6
CONTINUOUS
 62
    2
 10
1832.462
 20
1196.2106000000001
 11
1835.9250000000002
 21
1202.2104999999999
  0
LINE
  8
_0-0_LAYER001
  6
CONTINUOUS
 62
    2
 10
1823.5749999999998
 20
1193.2104999999999
 11
1829.5749000000001
 21
1196.2106000000001
  0
LINE
  8
_0-0_LAYER001
  6
CONTINUOUS
 62
    2
 10
1829.5749000000001
 20
1202.2104999999999
 11
1823.5749999999998
 21
1205.2106000000001
  0
LINE
  8
_0-0_LAYER001
  6
DASHED1
 62
    2
 10
1896.5749999999998
 20
1202.2104999999999
 11
1853.5749999999998
 21
1202.2104999999999
  0
LINE
  8
_0-0_LAYER001
  6
DASHED1
 62
    2
 10
1896.5749999999998
 20
1196.2106000000001
 11
1853.5749999999998
 21
1196.2106000000001
  0
LINE
  8
_0-0_LAYER001
  6
CONTINUOUS
 62
    2
 10
1853.5749999999998
 20
1194.9604999999999
 11
1853.5749999999998
 21
1203.4606000000001
  0
LINE
  8
_0-0_LAYER001
  6
CONTINUOUS
 62
    2
 10
1823.5749999999998
 20
1179.2104999999999
 11
1853.5749999999998
 21
1179.2104999999999
  0
LINE
  8
_0-0_LAYER001
  6
CONTINUOUS
 62
    2
 10
1853.5749999999998
 20
1202.2104999999999
 11
1829.5749000000001
 21
1202.2104999999999
  0
LINE
  8
_0-0_LAYER001
  6
CONTINUOUS
 62
    2
 10
1853.5749999999998
 20
1196.2106000000001
 11
1829.5749000000001
 21
1196.2106000000001
  0
LINE
  8
_0-0_LAYER001
  6
CONTINUOUS
 62
    2
 10
1838.1851000000001
 20
1196.2106000000001
 11
1841.6482000000001
 21
1202.2104999999999
  0
LINE
  8
_0-0_LAYER001
  6
CONTINUOUS
 62
    2
 10
1843.9081999999999
 20
1196.2106000000001
 11
1847.3712999999998
 21
1202.2104999999999
  0
LINE
  8
_0-0_LAYER001
  6
CONTINUOUS
 62
    2
 10
1849.6314000000002
 20
1196.2106000000001
 11
1853.0944
 21
1202.2104999999999
  0
LINE
  8
_0-0_LAYER001
  6
CONTINUOUS
 62
    2
 10
1823.5749999999998
 20
1179.2104999999999
 11
1823.5749999999998
 21
1213.9206999999999
  0
LINE
  8
_0-0_LAYER001
  6
CONTINUOUS
 62
    2
 10
1853.5749999999998
 20
1179.2104999999999
 11
1827.0790000000002
 21
1214.5386000000001
  0
LINE
  8
_0-0_LAYER001
  6
CONTINUOUS
 62
    2
 10
1755.7195999999999
 20
1219.2181
 11
1849.5749999999998
 21
1235.7674
  0
LINE
  8
_0-0_LAYER001
  6
CONTINUOUS
 62
    2
 10
1832.7532000000001
 20
1230.7705000000001
 11
1841.5225999999998
 21
1232.3167000000001
  0
LINE
  8
_0-0_LAYER001
  6
CONTINUOUS
 62
    2
 10
1840.2788999999998
 20
1203.0585000000001
 11
1843.7206000000001
 21
1194.8195000000001
  0
LINE
  8
_0-0_LAYER001
  6
CONTINUOUS
 62
    2
 10
1839.2390999999998
 20
1230.2941000000001
 11
1843.9288999999999
 21
1203.7022999999999
  0
LINE
  8
_0-0_LAYER001
  6
CONTINUOUS
 62
    2
 10
1843.7206000000001
 20
1194.8195000000001
 11
1843.9288999999999
 21
1203.7022999999999
  0
LINE
  8
_0-0_LAYER001
  6
CONTINUOUS
 62
    2
 10
1835.5891000000001
 20
1229.6518000000001
 11
1832.7532000000001
 21
1230.7705000000001
  0
LINE
  8
_0-0_LAYER001
  6
CONTINUOUS
 62
    2
 10
1839.2390999999998
 20
1230.2941000000001
 11
1841.5225999999998
 21
1232.3167000000001
  0
LINE
  8
_0-0_LAYER001
  6
CONTINUOUS
 62
    2
 10
1835.5891000000001
 20
1229.6518000000001
 11
1840.2788999999998
 21
1203.0585000000001
  0
LINE
  8
_0-0_LAYER001
  6
CONTINUOUS
 62
    2
 10
1755.7195999999999
 20
1219.2181
 11
1760.0246999999999
 21
1194.8022000000001
  0
LINE
  8
_0-0_LAYER001
  6
CONTINUOUS
 62
    2
 10
1853.5749999999998
 20
1048.2663
 11
1853.5749999999998
 21
1316.6067
  0
LINE
  8
_0-0_LAYER001
  6
CONTINUOUS
 62
    2
 10
1853.5749999999998
 20
1350.0039999999999
 11
1853.5749999999998
 21
1510.9204999999999
  0
LINE
  8
_0-0_LAYER001
  6
CONTINUOUS
 62
    2
 10
1841.2743
 20
1180.4884999999999
 11
1839.3332
 21
1187.7329
  0
LINE
  8
_0-0_LAYER001
  6
CONTINUOUS
 62
    2
 10
1839.3332
 20
1187.7329
 11
1844.6365000000001
 21
1182.4295999999999
  0
LINE
  8
_0-0_LAYER001
  6
CONTINUOUS
 62
    2
 10
1839.3332
 20
1187.7329
 11
1964.4576999999999
 21
971.01099999999997
  0
LINE
  8
_0-0_LAYER001
  6
CONTINUOUS
 62
    2
 10
1777.0569999999998
 20
1218.7145
 11
1778.9980999999998
 21
1211.4701
  0
LINE
  8
_0-0_LAYER001
  6
CONTINUOUS
 62
    2
 10
1778.9980999999998
 20
1211.4701
 11
1773.6948000000002
 21
1216.7734
  0
LINE
  8
_0-0_LAYER001
  6
CONTINUOUS
 62
    2
 10
1778.9980999999998
 20
1211.4701
 11
1689.0727000000002
 21
1367.2255
  0
LINE
  8
_0-0_LAYER001
  6
CONTINUOUS
 62
    2
 10
1689.0727000000002
 20
1367.2255
 11
1569.0727000000002
 21
1367.2255
  0
LINE
  8
_0-0_LAYER001
  6
CONTINUOUS
 62
    2
 10
1804.4623999999999
 20
1235.1366
 11
1806.4034999999999
 21
1227.8922
  0
LINE
  8
_0-0_LAYER001
  6
CONTINUOUS
 62
    2
 10
1806.4034999999999
 20
1227.8922
 11
1801.1001999999999
 21
1233.1955
  0
LINE
  8
_0-0_LAYER001
  6
CONTINUOUS
 62
    2
 10
1806.4034999999999
 20
1227.8922
 11
1683.6586000000002
 21
1440.4926
  0
LINE
  8
_0-0_LAYER001
  6
CONTINUOUS
 62
    2
 10
1683.6586000000002
 20
1440.4926
 11
1449.6586000000002
 21
1440.4926
  0
LINE
  8
_0-0_LAYER001
  6
CONTINUOUS
 62
    2
 10
1749.8753000000002
 20
1380.1964
 11
1749.8753000000002
 21
1352.6964
  0
CIRCLE
  8
_0-0_LAYER001
  6
CONTINUOUS
 62
    2
 10
1749.8753000000002
 20
1377.6964
 40
1.6999999999999997
  0
LINE
  8
_0-0_LAYER001
  6
CONTINUOUS
 62
    2
 10
1749.8753000000002
 20
1377.6964
 11
1847.7066
 21
1377.6964
  0
CIRCLE
  8
_0-0_LAYER001
  6
CONTINUOUS
 62
    2
 10
1847.7066
 20
1377.6964
 40
1.6999999999999997
  0
LINE
  8
_0-0_LAYER001
  6
CONTINUOUS
 62
    2
 10
1847.7066
 20
1380.1964
 11
1847.7066
 21
1352.6964
  0
LINE
  8
_0-0_LAYER001
  6
CONTINUOUS
 62
    2
 10
1870.3209999999999
 20
1447.0866000000001
 11
1872.2620999999999
 21
1439.8421000000003
  0
LINE
  8
_0-0_LAYER001
  6
CONTINUOUS
 62
    2
 10
1872.2620999999999
 20
1439.8421000000003
 11
1866.9587999999999
 21
1445.1454000000001
  0
LINE
  8
_0-0_LAYER001
  6
CONTINUOUS
 62
    2
 10
1872.2620999999999
 20
1439.8421000000003
 11
1812.9041999999999
 21
1542.653
  0
LINE
  8
_0-0_LAYER001
  6
CONTINUOUS
 62
    2
 10
1812.9041999999999
 20
1542.653
 11
1582.8634000000002
 21
1542.653
  0
LINE
  8
_0-0_LAYER001
  6
CONTINUOUS
 62
    2
 10
1867.0455000000002
 20
1347.9292
 11
1860.5502999999999
 21
1344.1792
  0
LINE
  8
_0-0_LAYER001
  6
CONTINUOUS
 62
    2
 10
1860.5502999999999
 20
1344.1792
 11
1864.3002999999999
 21
1350.6744000000001
  0
LINE
  8
_0-0_LAYER001
  6
CONTINUOUS
 62
    2
 10
1860.5502999999999
 20
1344.1792
 11
1968.1064000000001
 21
1451.7353000000001
  0
LINE
  8
_0-0_LAYER001
  6
CONTINUOUS
 62
    2
 10
1968.1064000000001
 20
1451.7353000000001
 11
2049.1064000000001
 21
1451.7353000000001
  0
LINE
  8
_0-0_LAYER001
  6
CONTINUOUS
 62
    2
 10
1010.6857
 20
985.42930000000001
 11
1019.8244999999999
 21
959.49219999999991
  0
CIRCLE
  8
_0-0_LAYER001
  6
CONTINUOUS
 62
    2
 10
1011.5165
 20
983.07140000000004
 40
1.6999999999999997
  0
LINE
  8
_0-0_LAYER001
  6
CONTINUOUS
 62
    2
 10
1011.5165
 20
983.07140000000004
 11
1256.7398000000001
 21
1069.4746
  0
CIRCLE
  8
_0-0_LAYER001
  6
CONTINUOUS
 62
    2
 10
1256.7398000000001
 20
1069.4746
 40
1.6999999999999997
  0
LINE
  8
_0-0_LAYER001
  6
CONTINUOUS
 62
    2
 10
1255.9090000000001
 20
1071.8325
 11
1265.0479
 21
1045.8954000000001
  0
LINE
  8
_0-0_LAYER001
  6
CONTINUOUS
 62
    2
 10
1245.9394
 20
1100.1275000000001
 11
1255.0781999999999
 21
1074.1904
  0
CIRCLE
  8
_0-0_LAYER001
  6
CONTINUOUS
 62
    2
 10
1246.7701999999999
 20
1097.7696000000001
 40
1.6999999999999997
  0
LINE
  8
_0-0_LAYER001
  6
CONTINUOUS
 62
    2
 10
1246.7701999999999
 20
1097.7696000000001
 11
1491.9935
 21
1184.1728000000001
  0
CIRCLE
  8
_0-0_LAYER001
  6
CONTINUOUS
 62
    2
 10
1491.9935
 20
1184.1728000000001
 40
1.6999999999999997
  0
LINE
  8
_0-0_LAYER001
  6
CONTINUOUS
 62
    2
 10
1491.1626999999999
 20
1186.5307
 11
1500.3015
 21
1160.5936999999999
  0
LINE
  8
_0-0_LAYER001
  6
CONTINUOUS
 62
    2
 10
1481.1931
 20
1214.8257000000001
 11
1490.3319000000001
 21
1188.8887
  0
CIRCLE
  8
_0-0_LAYER001
  6
CONTINUOUS
 62
    2
 10
1482.0239000000001
 20
1212.4677999999999
 40
1.6999999999999997
  0
LINE
  8
_0-0_LAYER001
  6
CONTINUOUS
 62
    2
 10
1482.0239000000001
 20
1212.4677999999999
 11
1774.9117999999999
 21
1315.6655000000001
  0
CIRCLE
  8
_0-0_LAYER001
  6
CONTINUOUS
 62
    2
 10
1774.9117999999999
 20
1315.6655000000001
 40
1.6999999999999997
  0
LINE
  8
_0-0_LAYER001
  6
CONTINUOUS
 62
    2
 10
1774.9117999999999
 20
1315.6655000000001
 11
1784.0506
 21
1289.7284
  0
LINE
  8
_0-0_LAYER001
  6
CONTINUOUS
 62
    2
 10
1518.1594
 20
593.08879999999999
 11
1785.4684999999999
 21
593.08879999999999
  0
LINE
  8
_0-0_LAYER001
  6
CONTINUOUS
 62
    2
 10
1351.9439
 20
877.10020000000009
 11
1350.0027
 21
884.3447000000001
  0
LINE
  8
_0-0_LAYER001
  6
CONTINUOUS
 62
    2
 10
1350.0027
 20
884.3447000000001
 11
1355.306
 21
879.04140000000007
  0
LINE
  8
_0-0_LAYER001
  6
CONTINUOUS
 62
    2
 10
1350.0027
 20
884.3447000000001
 11
1534.9407000000001
 21
564.02273000000002
  0
LINE
  8
_0-0_LAYER001
  6
CONTINUOUS
 62
    2
 10
1500.5077000000001
 20
623.9846
 11
1736.6327999999999
 21
623.9846
  0
LINE
  8
_0-0_LAYER001
  6
CONTINUOUS
 62
    2
 10
1482.8310000000001
 20
653.96550000000002
 11
1675.2237
 21
653.96550000000002
  0
CIRCLE
  8
_0-0_LAYER001
  6
CONTINUOUS
 62
    2
 10
1796.5358000000001
 20
1195.9005
 40
0.9363839999999999
  0
CIRCLE
  8
_0-0_LAYER001
  6
CONTINUOUS
 62
    2
 10
1798.3505
 20
1200.0880999999999
 40
0.326396
  0
CIRCLE
  8
_0-0_LAYER001
  6
CONTINUOUS
 62
    2
 10
1788.2916
 20
1201.5044
 40
0.577968
  0
CIRCLE
  8
_0-0_LAYER001
  6
CONTINUOUS
 62
    2
 10
1789.5418
 20
1197.6496999999999
 40
0.813673
  0
CIRCLE
  8
_0-0_LAYER001
  6
CONTINUOUS
 62
    2
 10
1794.1952000000001
 20
1203.9353000000001
 40
0.3489989999999999
  0
CIRCLE
  8
_0-0_LAYER001
  6
CONTINUOUS
 62
    2
 10
1796.5358000000001
 20
1176.0930000000001
 40
0.9363839999999999
  0
CIRCLE
  8
_0-0_LAYER001
  6
CONTINUOUS
 62
    2
 10
1798.3505
 20
1180.2807
 40
0.326396
  0
CIRCLE
  8
_0-0_LAYER001
  6
CONTINUOUS
 62
    2
 10
1788.2916
 20
1181.6969999999999
 40
0.577968
  0
CIRCLE
  8
_0-0_LAYER001
  6
CONTINUOUS
 62
    2
 10
1789.5418
 20
1177.8423
 40
0.813673
  0
CIRCLE
  8
_0-0_LAYER001
  6
CONTINUOUS
 62
    2
 10
1794.1952000000001
 20
1184.1278
 40
0.3489989999999999
  0
CIRCLE
  8
_0-0_LAYER001
  6
CONTINUOUS
 62
    2
 10
1814.1424999999999
 20
1181.9619
 40
0.9363839999999999
  0
CIRCLE
  8
_0-0_LAYER001
  6
CONTINUOUS
 62
    2
 10
1815.9571000000001
 20
1186.1495
 40
0.326396
  0
CIRCLE
  8
_0-0_LAYER001
  6
CONTINUOUS
 62
    2
 10
1805.8982999999998
 20
1187.5658000000001
 40
0.577968
  0
CIRCLE
  8
_0-0_LAYER001
  6
CONTINUOUS
 62
    2
 10
1807.1484
 20
1183.7112
 40
0.813673
  0
CIRCLE
  8
_0-0_LAYER001
  6
CONTINUOUS
 62
    2
 10
1811.8018000000002
 20
1189.9966999999999
 40
0.3489989999999999
  0
CIRCLE
  8
_0-0_LAYER001
  6
CONTINUOUS
 62
    2
 10
1812.8586
 20
1199.5685000000001
 40
0.9363839999999999
  0
CIRCLE
  8
_0-0_LAYER001
  6
CONTINUOUS
 62
    2
 10
1814.6732999999999
 20
1203.7562
 40
0.326396
  0
CIRCLE
  8
_0-0_LAYER001
  6
CONTINUOUS
 62
    2
 10
1804.6143999999999
 20
1205.1724999999999
 40
0.577968
  0
CIRCLE
  8
_0-0_LAYER001
  6
CONTINUOUS
 62
    2
 10
1805.8645999999999
 20
1201.3178
 40
0.813673
  0
CIRCLE
  8
_0-0_LAYER001
  6
CONTINUOUS
 62
    2
 10
1810.518
 20
1207.6033
 40
0.3489989999999999
  0
CIRCLE
  8
_0-0_LAYER001
  6
CONTINUOUS
 62
    2
 10
1796.5358000000001
 20
1159.0365999999999
 40
0.9363839999999999
  0
CIRCLE
  8
_0-0_LAYER001
  6
CONTINUOUS
 62
    2
 10
1798.3505
 20
1163.2242000000001
 40
0.326396
  0
CIRCLE
  8
_0-0_LAYER001
  6
CONTINUOUS
 62
    2
 10
1788.2916
 20
1164.6405
 40
0.577968
  0
CIRCLE
  8
_0-0_LAYER001
  6
CONTINUOUS
 62
    2
 10
1789.5418
 20
1160.7859000000001
 40
0.813673
  0
CIRCLE
  8
_0-0_LAYER001
  6
CONTINUOUS
 62
    2
 10
1794.1952000000001
 20
1167.0714
 40
0.3489989999999999
  0
CIRCLE
  8
_0-0_LAYER001
  6
CONTINUOUS
 62
    2
 10
1805.8982999999998
 20
1170.5093999999999
 40
0.577968
  0
CIRCLE
  8
_0-0_LAYER001
  6
CONTINUOUS
 62
    2
 10
1807.1484
 20
1166.6548
 40
0.813673
  0
ARC
  8
_0-0_LAYER001
  6
CONTINUOUS
 62
    2
 10
1632.3164999999999
 20
1185.6715999999999
 40
151.60504
 50
343.43085000000002
 51
7.9076170000000117
  0
LINE
  8
_0-0_LAYER001
  6
CONTINUOUS
 62
    2
 10
1788.2804000000001
 20
1177.9688000000001
 11
1795.5248000000001
 21
1179.9099000000001
  0
LINE
  8
_0-0_LAYER001
  6
CONTINUOUS
 62
    2
 10
1795.5248000000001
 20
1179.9099000000001
 11
1790.2215000000001
 21
1174.6066000000001
  0
LINE
  8
_0-0_LAYER001
  6
CONTINUOUS
 62
    2
 10
1795.5248000000001
 20
1179.9099000000001
 11
1749.7860000000001
 21
1153.5026
  0
LINE
  8
_0-0_LAYER001
  6
CONTINUOUS
 62
    2
 10
1749.7860000000001
 20
1153.5026
 11
1704.6109000000001
 21
1231.7481
  0
LINE
  8
_0-0_LAYER001
  6
CONTINUOUS
 62
    2
 10
1704.6109000000001
 20
1231.7481
 11
1668.6109000000001
 21
1231.7481
  0
LINE
  8
_0-1_LAYER002
  6
CONTINUOUS
 62
    7
 10
1482.8310000000001
 20
653.96550000000002
 11
1675.2237
 21
653.96550000000002
  0
LINE
  8
_0-1_LAYER002
  6
CONTINUOUS
 62
    7
 10
1500.5077000000001
 20
623.9846
 11
1736.6327999999999
 21
623.9846
  0
LINE
  8
_0-1_LAYER002
  6
CONTINUOUS
 62
    7
 10
1518.1594
 20
593.08879999999999
 11
1785.4684999999999
 21
593.08879999999999
  0
LINE
  8
_0-1_LAYER002
  6
CONTINUOUS
 62
    7
 10
1956.7269999999999
 20
1335.6039000000001
 11
1983.4269999999997
 21
1335.6039000000001
  0
LINE
  8
_0-1_LAYER002
  6
CONTINUOUS
 62
    7
 10
1981.7269999999999
 20
1335.6039000000001
 11
1981.7269999999999
 21
1235.6039000000001
  0
LINE
  8
_0-1_LAYER002
  6
CONTINUOUS
 62
    7
 10
1956.7269999999999
 20
1235.6039000000001
 11
1984.2269999999999
 21
1235.6039000000001
  0
LINE
  8
_0-1_LAYER002
  6
CONTINUOUS
 62
    7
 10
2010.3416999999999
 20
1304.6138000000001
 11
2062.8416999999999
 21
1304.6138000000001
  0
LINE
  8
_0-1_LAYER002
  6
CONTINUOUS
 62
    7
 10
2060.3416999999999
 20
1304.6138000000001
 11
2060.3416999999999
 21
1104.6138000000001
  0
LINE
  8
_0-1_LAYER002
  6
CONTINUOUS
 62
    7
 10
2058.6417000000001
 20
1104.6138000000001
 11
2062.8416999999999
 21
1104.6138000000001
  0
LINE
  8
_0-1_LAYER002
  6
CONTINUOUS
 62
    7
 10
2062.8416999999999
 20
1104.6138000000001
 11
2010.3416999999999
 21
1104.6138000000001
  0
LINE
  8
_0-1_LAYER002
  6
CONTINUOUS
 62
    7
 10
1968.1064000000001
 20
1451.7353000000001
 11
2049.1064000000001
 21
1451.7353000000001
  0
LINE
  8
_0-1_LAYER002
  6
CONTINUOUS
 62
    7
 10
1853.5749999999998
 20
1048.2663
 11
1903.5749999999998
 21
1048.2663
  0
LINE
  8
_0-1_LAYER002
  6
CONTINUOUS
 62
    7
 10
1903.5749999999998
 20
1048.2663
 11
1903.5749999999998
 21
1523.8860999999999
  0
LINE
  8
_0-1_LAYER002
  6
CONTINUOUS
 62
    7
 10
1918.5749999999998
 20
1519.7278000000001
 11
1918.5749999999998
 21
728.79310000000009
  0
LINE
  8
_0-1_LAYER002
  6
CONTINUOUS
 62
    7
 10
1853.5749999999998
 20
1048.2663
 11
1853.5749999999998
 21
1334.0038999999999
  0
LINE
  8
_0-1_LAYER002
  6
CONTINUOUS
 62
    7
 10
1853.5749999999998
 20
1334.0038999999999
 11
1865.5749999999998
 21
1334.0038999999999
  0
LINE
  8
_0-1_LAYER002
  6
CONTINUOUS
 62
    7
 10
1865.5749999999998
 20
1334.0038999999999
 11
1865.5749999999998
 21
1347.9292
  0
LINE
  8
_0-1_LAYER002
  6
CONTINUOUS
 62
    7
 10
1865.5749999999998
 20
1347.9292
 11
1865.5749999999998
 21
1350.0039999999999
  0
LINE
  8
_0-1_LAYER002
  6
CONTINUOUS
 62
    7
 10
1865.5749999999998
 20
1350.0039999999999
 11
1853.5749999999998
 21
1350.0039999999999
  0
LINE
  8
_0-1_LAYER002
  6
CONTINUOUS
 62
    7
 10
1853.5749999999998
 20
1350.0039999999999
 11
1863.9749999999999
 21
1350.0039999999999
  0
LINE
  8
_0-1_LAYER002
  6
CONTINUOUS
 62
    7
 10
1863.9749999999999
 20
1350.0039999999999
 11
1863.9749999999999
 21
1335.6039000000001
  0
LINE
  8
_0-1_LAYER002
  6
CONTINUOUS
 62
    7
 10
1863.9749999999999
 20
1335.6039000000001
 11
1847.1750000000002
 21
1335.6039000000001
  0
LINE
  8
_0-1_LAYER002
  6
CONTINUOUS
 62
    7
 10
1847.1750000000002
 20
1335.6039000000001
 11
1847.1750000000002
 21
1303.604
  0
LINE
  8
_0-1_LAYER002
  6
CONTINUOUS
 62
    7
 10
1849.5749999999998
 20
1334.0038999999999
 11
1849.5749999999998
 21
1235.7674
  0
LINE
  8
_0-1_LAYER002
  6
CONTINUOUS
 62
    7
 10
1852.0749999999998
 20
1104.6138000000001
 11
1852.0749999999998
 21
1293.7921000000001
  0
LINE
  8
_0-1_LAYER002
  6
CONTINUOUS
 62
    7
 10
1823.5749999999998
 20
1213.9206999999999
 11
1823.5749999999998
 21
1179.2104999999999
  0
LINE
  8
_0-1_LAYER002
  6
CONTINUOUS
 62
    7
 10
1823.5749999999998
 20
1179.2104999999999
 11
1853.5749999999998
 21
1179.2104999999999
  0
LINE
  8
_0-1_LAYER002
  6
CONTINUOUS
 62
    7
 10
1829.5749000000001
 20
1196.2106000000001
 11
1896.5749999999998
 21
1196.2106000000001
  0
LINE
  8
_0-1_LAYER002
  6
CONTINUOUS
 62
    7
 10
1829.5749000000001
 20
1202.2104999999999
 11
1896.5749999999998
 21
1202.2104999999999
  0
LINE
  8
_0-1_LAYER002
  6
CONTINUOUS
 62
    7
 10
1829.5749000000001
 20
1202.2104999999999
 11
1829.5749000000001
 21
1196.2106000000001
  0
LINE
  8
_0-1_LAYER002
  6
CONTINUOUS
 62
    7
 10
1853.5749999999998
 20
1350.0039999999999
 11
1853.5749999999998
 21
1510.9204999999999
  0
LINE
  8
_0-1_LAYER002
  6
CONTINUOUS
 62
    7
 10
1847.7066
 20
1377.6964
 11
1749.8753000000002
 21
1377.6964
  0
LINE
  8
_0-1_LAYER002
  6
CONTINUOUS
 62
    7
 10
1749.8753000000002
 20
1352.6964
 11
1749.8753000000002
 21
1379.3964000000001
  0
LINE
  8
_0-1_LAYER002
  6
CONTINUOUS
 62
    7
 10
1847.7066
 20
1352.6964
 11
1847.7066
 21
1377.6964
  0
LINE
  8
_0-1_LAYER002
  6
CONTINUOUS
 62
    7
 10
1847.7066
 20
1377.6964
 11
1847.7066
 21
1379.3964000000001
  0
LINE
  8
_0-1_LAYER002
  6
CONTINUOUS
 62
    7
 10
1812.9041999999999
 20
1542.653
 11
1582.8634000000002
 21
1542.653
  0
LINE
  8
_0-1_LAYER002
  6
CONTINUOUS
 62
    7
 10
1683.6586000000002
 20
1440.4926
 11
1449.6586000000002
 21
1440.4926
  0
LINE
  8
_0-1_LAYER002
  6
CONTINUOUS
 62
    7
 10
1569.0727000000002
 20
1367.2255
 11
1689.0727000000002
 21
1367.2255
  0
LINE
  8
_0-1_LAYER002
  6
CONTINUOUS
 62
    7
 10
991.80649999999991
 20
539.84690999999998
 11
1918.5749999999998
 21
956.89190000000008
  0
LINE
  8
_0-1_LAYER002
  6
CONTINUOUS
 62
    7
 10
946.66650000000004
 20
640.15830000000005
 11
1853.5749999999998
 21
1048.2663
  0
LINE
  8
_0-1_LAYER002
  6
CONTINUOUS
 62
    7
 10
1853.5749999999998
 20
1048.2663
 11
1833.0569
 21
1093.8624
  0
LINE
  8
_0-1_LAYER002
  6
CONTINUOUS
 62
    7
 10
1833.0569
 20
1093.8624
 11
926.14820000000009
 21
685.75450000000001
  0
LINE
  8
_0-1_LAYER002
  6
CONTINUOUS
 62
    7
 10
925.32760000000007
 20
687.57819999999992
 11
1852.0749999999998
 21
1104.6138000000001
  0
LINE
  8
_0-1_LAYER002
  6
CONTINUOUS
 62
    7
 10
1812.2660000000001
 20
1088.0298
 11
1839.6257999999998
 21
1100.3571999999999
  0
LINE
  8
_0-1_LAYER002
  6
CONTINUOUS
 62
    7
 10
1839.6257999999998
 20
1100.3571999999999
 11
1833.6255000000001
 21
1112.8611000000001
  0
LINE
  8
_0-1_LAYER002
  6
CONTINUOUS
 62
    7
 10
1833.6255000000001
 20
1112.8611000000001
 11
1806.2595999999999
 21
1100.5464999999999
  0
LINE
  8
_0-1_LAYER002
  6
CONTINUOUS
 62
    7
 10
1806.2595999999999
 20
1100.5464999999999
 11
1812.2660000000001
 21
1088.0298
  0
LINE
  8
_0-1_LAYER002
  6
CONTINUOUS
 62
    7
 10
1812.2660000000001
 20
1088.0298
 11
1833.6255000000001
 21
1112.8611000000001
  0
LINE
  8
_0-1_LAYER002
  6
CONTINUOUS
 62
    7
 10
1668.6109000000001
 20
1231.7481
 11
1704.6109000000001
 21
1231.7481
  0
LINE
  8
_0-1_LAYER002
  6
CONTINUOUS
 62
    7
 10
1704.6109000000001
 20
1231.7481
 11
1749.7860000000001
 21
1153.5026
  0
LINE
  8
_0-1_LAYER002
  6
CONTINUOUS
 62
    7
 10
1749.7860000000001
 20
1153.5026
 11
1795.5248000000001
 21
1179.9099000000001
  0
LINE
  8
_0-1_LAYER002
  6
CONTINUOUS
 62
    7
 10
1795.5248000000001
 20
1179.9099000000001
 11
1788.2804000000001
 21
1177.9688000000001
  0
LINE
  8
_0-1_LAYER002
  6
CONTINUOUS
 62
    7
 10
1795.5248000000001
 20
1179.9099000000001
 11
1790.2215000000001
 21
1174.6066000000001
  0
LINE
  8
_0-1_LAYER002
  6
CONTINUOUS
 62
    7
 10
1736.2714000000001
 20
1186.7261000000001
 11
1746.5704000000001
 21
1186.7261000000001
  0
LINE
  8
_0-1_LAYER002
  6
CONTINUOUS
 62
    7
 10
1736.2714000000001
 20
1186.7261000000001
 11
1760.0246999999999
 21
1194.8022000000001
  0
LINE
  8
_0-1_LAYER002
  6
CONTINUOUS
 62
    7
 10
1760.0246999999999
 20
1194.8022000000001
 11
1755.7195999999999
 21
1219.2181
  0
LINE
  8
_0-1_LAYER002
  6
CONTINUOUS
 62
    7
 10
1755.7195999999999
 20
1219.2181
 11
1849.5749999999998
 21
1235.7674
  0
LINE
  8
_0-1_LAYER002
  6
CONTINUOUS
 62
    7
 10
1762.3377
 20
1218.3543
 11
1764.9423000000002
 21
1203.5822000000001
  0
LINE
  8
_0-1_LAYER002
  6
CONTINUOUS
 62
    7
 10
1764.9423000000002
 20
1203.5822000000001
 11
1853.5749999999998
 21
1219.2104999999999
  0
LINE
  8
_0-1_LAYER002
  6
CONTINUOUS
 62
    7
 10
1853.5749999999998
 20
1219.2104999999999
 11
1850.9703
 21
1233.9826
  0
LINE
  8
_0-1_LAYER002
  6
CONTINUOUS
 62
    7
 10
1850.9703
 20
1233.9826
 11
1762.3377
 21
1218.3543
  0
LINE
  8
_0-1_LAYER002
  6
CONTINUOUS
 62
    7
 10
1762.3377
 20
1218.3543
 11
1853.5749999999998
 21
1219.2104999999999
  0
LINE
  8
_0-1_LAYER002
  6
CONTINUOUS
 62
    7
 10
1839.3332
 20
1187.7329
 11
1841.2743
 21
1180.4884999999999
  0
LINE
  8
_0-1_LAYER002
  6
CONTINUOUS
 62
    7
 10
1839.3332
 20
1187.7329
 11
1844.6365000000001
 21
1182.4295999999999
  0
LINE
  8
_0-1_LAYER002
  6
CONTINUOUS
 62
    7
 10
1839.3332
 20
1187.7329
 11
1964.4576999999999
 21
971.01099999999997
  0
LINE
  8
_0-1_LAYER002
  6
CONTINUOUS
 62
    7
 10
1853.5749999999998
 20
1251.6952000000001
 11
1899.8352
 21
1297.9554000000003
  0
LINE
  8
_0-1_LAYER002
  6
CONTINUOUS
 62
    7
 10
1899.8352
 20
1302.1980000000003
 11
1853.5749999999998
 21
1255.9378999999999
  0
LINE
  8
_0-1_LAYER002
  6
CONTINUOUS
 62
    7
 10
1847.1750000000002
 20
1303.604
 11
1848.4173999999998
 21
1308.2403999999999
  0
LINE
  8
_0-1_LAYER002
  6
CONTINUOUS
 62
    7
 10
1849.5749999999998
 20
1334.0038999999999
 11
1847.4369999999999
 21
1322.1959999999999
  0
LINE
  8
_0-1_LAYER002
  6
CONTINUOUS
 62
    7
 10
1864.3002999999999
 20
1350.6744000000001
 11
1860.5502999999999
 21
1344.1792
  0
LINE
  8
_0-1_LAYER002
  6
CONTINUOUS
 62
    7
 10
1860.5502999999999
 20
1344.1792
 11
1867.0455000000002
 21
1347.9292
  0
LINE
  8
_0-1_LAYER002
  6
CONTINUOUS
 62
    7
 10
1860.5502999999999
 20
1344.1792
 11
1968.1064000000001
 21
1451.7353000000001
  0
LINE
  8
_0-1_LAYER002
  6
CONTINUOUS
 62
    7
 10
1899.8352
 20
1514.3299999999999
 11
1853.5749999999998
 21
1468.0699
  0
LINE
  8
_0-1_LAYER002
  6
CONTINUOUS
 62
    7
 10
1853.5749999999998
 20
1463.8272999999999
 11
1899.8352
 21
1510.0873999999999
  0
LINE
  8
_0-1_LAYER002
  6
CONTINUOUS
 62
    7
 10
1870.3209999999999
 20
1447.0866000000001
 11
1872.2620999999999
 21
1439.8421000000003
  0
LINE
  8
_0-1_LAYER002
  6
CONTINUOUS
 62
    7
 10
1872.2620999999999
 20
1439.8421000000003
 11
1866.9587999999999
 21
1445.1454000000001
  0
LINE
  8
_0-1_LAYER002
  6
CONTINUOUS
 62
    7
 10
1872.2620999999999
 20
1439.8421000000003
 11
1812.9041999999999
 21
1542.653
  0
LINE
  8
_0-1_LAYER002
  6
CONTINUOUS
 62
    7
 10
1683.6586000000002
 20
1440.4926
 11
1806.4034999999999
 21
1227.8922
  0
LINE
  8
_0-1_LAYER002
  6
CONTINUOUS
 62
    7
 10
1806.4034999999999
 20
1227.8922
 11
1804.4623999999999
 21
1235.1366
  0
LINE
  8
_0-1_LAYER002
  6
CONTINUOUS
 62
    7
 10
1806.4034999999999
 20
1227.8922
 11
1801.1001999999999
 21
1233.1955
  0
LINE
  8
_0-1_LAYER002
  6
CONTINUOUS
 62
    7
 10
1777.0569999999998
 20
1218.7145
 11
1778.9980999999998
 21
1211.4701
  0
LINE
  8
_0-1_LAYER002
  6
CONTINUOUS
 62
    7
 10
1778.9980999999998
 20
1211.4701
 11
1773.6948000000002
 21
1216.7734
  0
LINE
  8
_0-1_LAYER002
  6
CONTINUOUS
 62
    7
 10
1778.9980999999998
 20
1211.4701
 11
1689.0727000000002
 21
1367.2255
  0
LINE
  8
_0-1_LAYER002
  6
CONTINUOUS
 62
    7
 10
1784.0506
 20
1289.7284
 11
1774.9117999999999
 21
1315.6655000000001
  0
LINE
  8
_0-1_LAYER002
  6
CONTINUOUS
 62
    7
 10
1774.9117999999999
 20
1315.6655000000001
 11
1482.0239000000001
 21
1212.4677999999999
  0
LINE
  8
_0-1_LAYER002
  6
CONTINUOUS
 62
    7
 10
1481.1931
 20
1214.8257000000001
 11
1500.3015
 21
1160.5936999999999
  0
LINE
  8
_0-1_LAYER002
  6
CONTINUOUS
 62
    7
 10
1491.9934971505993
 20
1184.172798996028
 11
1246.7701999999999
 21
1097.7696000000001
  0
LINE
  8
_0-1_LAYER002
  6
CONTINUOUS
 62
    7
 10
1246.2052506081959
 20
1099.3729814844573
 11
1255.0781999999999
 21
1074.1904
  0
LINE
  8
_0-1_LAYER002
  6
CONTINUOUS
 62
    7
 10
1256.1748531959593
 20
1071.0779823962498
 11
1265.0479
 21
1045.8954000000001
  0
LINE
  8
_0-1_LAYER002
  6
CONTINUOUS
 62
    7
 10
1255.1364166454496
 20
1068.909655915731
 11
1011.5165
 21
983.07140000000004
  0
LINE
  8
_0-1_LAYER002
  6
CONTINUOUS
 62
    7
 10
1010.951550608196
 20
984.6747814844573
 11
1019.8244999999999
 21
959.49219999999991
  0
LINE
  8
_0-1_LAYER002
  6
CONTINUOUS
 62
    7
 10
1255.1364166454496
 20
1068.909655915731
 11
1256.7398000000001
 21
1069.4746
  0
LINE
  8
_0-1_LAYER002
  6
CONTINUOUS
 62
    7
 10
1358.1522
 20
898.89760000000001
 11
1330.7863
 21
886.58300000000008
  0
LINE
  8
_0-1_LAYER002
  6
CONTINUOUS
 62
    7
 10
1330.7863
 20
886.58300000000008
 11
1337.2779
 21
873.05539999999996
  0
LINE
  8
_0-1_LAYER002
  6
CONTINUOUS
 62
    7
 10
1337.2779
 20
873.05539999999996
 11
1364.6438000000001
 21
885.37010000000009
  0
LINE
  8
_0-1_LAYER002
  6
CONTINUOUS
 62
    7
 10
1364.6438000000001
 20
885.37010000000009
 11
1358.1522
 21
898.89760000000001
  0
LINE
  8
_0-1_LAYER002
  6
CONTINUOUS
 62
    7
 10
1358.1522
 20
898.89760000000001
 11
1337.2779
 21
873.05539999999996
  0
LINE
  8
_0-1_LAYER002
  6
CONTINUOUS
 62
    7
 10
1350.0027
 20
884.3447000000001
 11
1351.9439
 21
877.10020000000009
  0
LINE
  8
_0-1_LAYER002
  6
CONTINUOUS
 62
    7
 10
1350.0027
 20
884.3447000000001
 11
1353.8393294942616
 21
880.50807050573837
  0
LINE
  8
_0-1_LAYER002
  6
CONTINUOUS
 62
    7
 10
1350.0027
 20
884.3447000000001
 11
1534.9407000000001
 21
564.02273000000002
  0
LINE
  8
_0-1_LAYER002
  6
CONTINUOUS
 62
    7
 10
1310.5065
 20
858.71540000000005
 11
1376.6208000000001
 21
833.63740000000007
  0
LINE
  8
_0-1_LAYER002
  6
CONTINUOUS
 62
    7
 10
1372.752
 20
831.89640000000009
 11
1306.6376
 21
856.97430000000008
  0
LINE
  8
_0-1_LAYER002
  6
CONTINUOUS
 62
    7
 10
1500.0855691452932
 20
944.02567377240996
 11
1566.1997999999999
 21
918.94779999999992
  0
LINE
  8
_0-1_LAYER002
  6
CONTINUOUS
 62
    7
 10
1570.0686999999998
 20
920.6887999999999
 11
1503.9544225993338
 21
945.76665349675955
  0
LINE
  8
_0-1_LAYER002
  6
CONTINUOUS
 62
    7
 10
1575.0146
 20
980.03710000000001
 11
1568.5228999999999
 21
993.5646999999999
  0
LINE
  8
_0-1_LAYER002
  6
CONTINUOUS
 62
    7
 10
1568.5228999999999
 20
993.5646999999999
 11
1595.8888000000002
 21
1005.8794
  0
LINE
  8
_0-1_LAYER002
  6
CONTINUOUS
 62
    7
 10
1595.8888000000002
 20
1005.8794
 11
1602.2267000000002
 21
992.67219999999998
  0
LINE
  8
_0-1_LAYER002
  6
CONTINUOUS
 62
    7
 10
1602.2267000000002
 20
992.67219999999998
 11
1575.0146
 21
980.03710000000001
  0
LINE
  8
_0-1_LAYER002
  6
CONTINUOUS
 62
    7
 10
1575.0146
 20
980.03710000000001
 11
1595.8888000000002
 21
1005.8794
  0
LINE
  8
_0-1_LAYER002
  6
CONTINUOUS
 62
    7
 10
1099.5413000000001
 20
766.07359999999994
 11
1093.0497
 21
779.60120000000006
  0
LINE
  8
_0-1_LAYER002
  6
CONTINUOUS
 62
    7
 10
1093.0497
 20
779.60120000000006
 11
1120.4156
 21
791.91589999999997
  0
LINE
  8
_0-1_LAYER002
  6
CONTINUOUS
 62
    7
 10
1120.4156
 20
791.91589999999997
 11
1126.9072000000001
 21
778.38830000000007
  0
LINE
  8
_0-1_LAYER002
  6
CONTINUOUS
 62
    7
 10
1126.9072000000001
 20
778.38830000000007
 11
1099.5413000000001
 21
766.07359999999994
  0
LINE
  8
_0-1_LAYER002
  6
CONTINUOUS
 62
    7
 10
1099.5413000000001
 20
766.07359999999994
 11
1120.4156
 21
791.91589999999997
  0
LINE
  8
_0-1_LAYER002
  6
CONTINUOUS
 62
    7
 10
1117.0587
 20
771.66399999999999
 11
1183.1729881180277
 21
746.58600450698395
  0
LINE
  8
_0-1_LAYER002
  6
CONTINUOUS
 62
    7
 10
1179.3040899032535
 20
744.8450038298098
 11
1113.1898000000001
 21
769.92290000000003
  0
LINE
  8
_0-1_LAYER002
  6
CONTINUOUS
 62
    7
 10
1697.4022761803935
 20
1032.8179711040045
 11
1763.5166434172706
 21
1007.7401214624028
  0
LINE
  8
_0-1_LAYER002
  6
CONTINUOUS
 62
    7
 10
1759.6475999999998
 20
1005.9991
 11
1693.5333769881636
 21
1031.076970797521
  0
LINE
  8
_0-1_LAYER002
  6
CONTINUOUS
 62
    7
 10
1829.5749000000001
 20
1202.2104999999999
 11
1823.5749999999998
 21
1205.2106000000001
  0
LINE
  8
_0-1_LAYER002
  6
CONTINUOUS
 62
    7
 10
1829.5749000000001
 20
1196.2106000000001
 11
1823.5749999999998
 21
1193.2104999999999
  0
LINE
  8
_0-1_LAYER002
  6
CONTINUOUS
 62
    7
 10
1896.5749999999998
 20
1202.2104999999999
 11
1901.5749999999998
 21
1199.2104999999999
  0
LINE
  8
_0-1_LAYER002
  6
CONTINUOUS
 62
    7
 10
1901.5749999999998
 20
1199.2104999999999
 11
1896.5749999999998
 21
1196.2106000000001
  0
LINE
  8
_0-1_LAYER002
  6
CONTINUOUS
 62
    7
 10
1832.7532000000001
 20
1230.7705000000001
 11
1835.5891000000001
 21
1229.6518000000001
  0
LINE
  8
_0-1_LAYER002
  6
CONTINUOUS
 62
    7
 10
1840.6331373589026
 20
1202.2104999999999
 11
1843.1394919929603
 21
1196.2106000000001
  0
LINE
  8
_0-1_LAYER002
  6
CONTINUOUS
 62
    7
 10
1843.1394919929603
 20
1196.2106000000001
 11
1843.7206000000001
 21
1194.8195000000001
  0
LINE
  8
_0-1_LAYER002
  6
CONTINUOUS
 62
    7
 10
1843.7206000000001
 20
1194.8195000000001
 11
1843.9288999999999
 21
1203.7022999999999
  0
LINE
  8
_0-1_LAYER002
  6
CONTINUOUS
 62
    7
 10
1843.9288999999999
 20
1203.7022999999999
 11
1839.2390999999998
 21
1230.2941000000001
  0
LINE
  8
_0-1_LAYER002
  6
CONTINUOUS
 62
    7
 10
1839.2390999999998
 20
1230.2941000000001
 11
1841.5225999999998
 21
1232.3167000000001
  0
LINE
  8
_0-1_LAYER002
  6
CONTINUOUS
 62
    7
 10
1835.5891000000001
 20
1229.6518000000001
 11
1840.2788999999998
 21
1203.0585000000001
  0
LINE
  8
_0-1_LAYER002
  6
CONTINUOUS
 62
    7
 10
1840.2788999999998
 20
1203.0585000000001
 11
1840.6331373589026
 21
1202.2104999999999
  0
LINE
  8
_0-1_LAYER002
  6
CONTINUOUS
 62
    7
 10
1827.0790000000002
 20
1214.5386000000001
 11
1853.5749999999998
 21
1179.2104999999999
  0
ARC
  8
_0-1_LAYER002
  6
CONTINUOUS
 62
    7
 10
1635.6341091089578
 20
1185.4203573775967
 40
148.35521889013603
 50
343.1585100381248
 51
8.1800010141172912
  0
ARC
  8
_0-1_LAYER002
  6
CONTINUOUS
 62
    7
 10
1838.5751659237599
 20
1342.0039587080837
 40
16.99987302855796
 50
337.88438304253731
 51
28.072872895958405
  0
TEXT
  8
_0-0_LAYER001
 62
    7
 10
1668.6109000000001
 20
1233.2481000000005
 40
20
 41
1
 50
0
  1
葺　土
  0
TEXT
  8
_0-0_LAYER001
 62
    7
 10
1972.7477981141544
 20
1460.1858227287621
 40
20
 41
1
 50
0
  1
シーリング
  0
TEXT
  8
_0-0_LAYER001
 62
    7
 10
1120.3281644663302
 20
1039.743408534435
 40
20
 41
1
 50
19.409661
  1
260
  0
TEXT
  8
_0-0_LAYER001
 62
    7
 10
1356.0125189832074
 20
1152.9339209010939
 40
20
 41
1
 50
19.40966100000001
  1
260
  0
TEXT
  8
_0-0_LAYER001
 62
    7
 10
1613.4046429950606
 20
1278.5288729791671
 40
20
 41
1
 50
19.409699999999997
  1
310
  0
TEXT
  8
_0-0_LAYER001
 62
    7
 10
1788.6173539187919
 20
1391.7193853458252
 40
20
 41
1
 50
0
  1
100
  0
TEXT
  8
_0-0_LAYER001
 62
    7
 10
1963.8300648425234
 20
1272.3266531234592
 40
20
 41
1
 50
90
  1
100
  0
TEXT
  8
_0-0_LAYER001
 62
    7
 10
2042.9083680027916
 20
1191.6977949992645
 40
20
 41
1
 50
90
  1
200
  0
TEXT
  8
_0-0_LAYER001
 62
    7
 10
1368.3481970644505
 20
1452.1692698695251
 40
20
 41
1
 50
0
  1
雨押水切カラー鋼板0.35ｍｍ以上
  0
TEXT
  8
_0-0_LAYER001
 62
    7
 10
1569.0727000000004
 20
1368.7255000000002
 40
20
 41
1
 50
0
  1
笠木：15x90
  0
TEXT
  8
_0-0_LAYER001
 62
    7
 10
1590.9042000000002
 20
1545.1530000000002
 40
20
 41
1
 50
0
  1
外壁：ALCパネル　t＝50
  0
TEXT
  8
_0-0_LAYER001
 62
    7
 10
1482.4794682600825
 20
663.95017817469056
 40
20
 41
1
 50
0
  1
瓦桟：１５ｘ３０以上　
  0
TEXT
  8
_0-0_LAYER001
 62
    7
 10
1498.5291782719682
 20
624.71755370119195
 40
20
 41
1
 50
0
  1
下葺材：ルーフィング
  0
TEXT
  8
_0-0_LAYER001
 62
    7
 10
1518.1594000000005
 20
595.58880000000022
 40
20
 41
1
 50
0
  1
　野地板：ALCパネル　t＝50
  0
TEXT
  8
_0-0_LAYER001
 62
    7
 10
1534.9407000000006
 20
566.52270000000021
 40
20
 41
1
 50
0
  1
　鋼製：C100x50x⑳x2.3
  0
LINE
  8
_0-0_LAYER001
  6
CONTINUOUS
 62
    2
 10
1534.9407000000001
 20
564.02273000000002
 11
1766.024345136731
 21
564.02273000000002
  0
LINE
  8
_0-1_LAYER002
  6
CONTINUOUS
 62
    7
 10
1534.9407000000001
 20
564.02273000000002
 11
1778.5074529237534
 21
564.02273000000002
  0
LINE
  8
_0-0_LAYER001
  6
CONTINUOUS
 62
    2
 10
1964.4576999999999
 20
971.01099999999997
 11
2131.6010731852402
 21
971.01099999999997
  0
LINE
  8
_0-1_LAYER002
  6
CONTINUOUS
 62
    7
 10
1964.4576999999999
 20
971.01099999999997
 11
2088.8018464868783
 21
971.01099999999997
  0
TEXT
  8
_0-0_LAYER001
 62
    7
 10
1964.4577000000004
 20
972.51100000000008
 40
20
 41
1
 50
0
  1
下地：30x40
  0
TEXT
  8
_0-0_LAYER001
 62
    7
 10
2008.5532964274494
 20
1188.2407052296255
 40
20
 41
1
 50
90
  1
水切り鉄板立上がり寸法
  0
TEXT
  8
_0-0_LAYER001
 62
    7
 10
2103.0682553863326
 20
1113.3420585074921
 40
20
 41
1
 50
90
  1
下葺き材立上がり寸法
  0
ENDSEC
  0
EOF
