  0
SECTION
  2
HEADER
  9
$ACADVER
  1
AC1009
  9
$INSBASE
 10
0
 20
0
 30
0
  9
$EXTMIN
 10
0
 20
0
  9
$EXTMAX
 10
2970
 20
2100
  9
$LIMMIN
 10
0
 20
0
  9
$LIMMAX
 10
2970
 20
2100
  9
$LTSCALE
 40
10
  0
ENDSEC
  0
SECTION
  2
TABLES
  0
TABLE
  2
LTYPE
 70
     9
  0
LTYPE
  2
CONTINUOUS
 70
    64
  3
実線
 72
    65
 73
     0
 40
0.0
  0
LTYPE
  2
DASHED1
 70
    64
  3
--  --  --  --  --  --  --  --  
 72
    65
 73
     2
 40
2.5
 49
1.25
 49
-1.25
  0
LTYPE
  2
DASHED2
 70
    64
  3
----    ----    ----    ----    
 72
    65
 73
     2
 40
5.0
 49
2.5
 49
-2.5
  0
LTYPE
  2
DASHED3
 70
    64
  3
------  ------  ------  ------  
 72
    65
 73
     2
 40
5.0
 49
3.75
 49
-1.25
  0
LTYPE
  2
CENTER1
 70
    64
  3
----- - ----- - ----- - ----- - 
 72
    65
 73
     4
 40
10.0
 49
6.25
 49
-1.25
 49
1.25
 49
-1.25
  0
LTYPE
  2
CENTER2
 70
    64
  3
----------  --  ----------  --  
 72
    65
 73
     4
 40
20.0
 49
12.5
 49
-2.5
 49
2.5
 49
-2.5
  0
LTYPE
  2
PHANTOM1
 70
    64
  3
--- - - --- - - --- - - --- - - 
 72
    65
 73
     6
 40
10.0
 49
3.25
 49
-1.25
 49
1.25
 49
-1.25
 49
1.25
 49
-1.25
  0
LTYPE
  2
PHANTOM2
 70
    64
  3
--------  -  -  --------  -  -  
 72
    65
 73
     6
 40
20.0
 49
10.0
 49
-2.5
 49
1.25
 49
-2.5
 49
1.25
 49
-2.5
  0
LTYPE
  2
DOT
 70
    64
  3
-   -   -   -   -   -   -   -   
 72
    65
 73
     2
 40
2.5
 49
0.625
 49
-1.875
  0
LTYPE
  2
DUMMY
 70
    64
  3
ダミー
 72
    65
 73
     0
 40
0.0
  0
LTYPE
  2
RAND1
 70
    64
  3
ランダム線1
 72
    65
 73
     4
 40
10.0
 49
1.0
 49
-2.0
 49
3.0
 49
-4.0
  0
LTYPE
  2
RAND2
 70
    64
  3
ランダム線2
 72
    65
 73
     4
 40
14.0
 49
2.0
 49
-3.0
 49
4.0
 49
-5.0
  0
LTYPE
  2
RAND3
 70
    64
  3
ランダム線3
 72
    65
 73
     4
 40
18.0
 49
3.0
 49
-4.0
 49
5.0
 49
-6.0
  0
LTYPE
  2
RAND4
 70
    64
  3
ランダム線4
 72
    65
 73
     4
 40
22.0
 49
4.0
 49
-5.0
 49
6.0
 49
-7.0
  0
LTYPE
  2
RAND5
 70
    64
  3
ランダム線5
 72
    65
 73
     4
 40
26.0
 49
5.0
 49
-6.0
 49
7.0
 49
-8.0
  0
LTYPE
  2
LONG1
 70
    64
  3
----------  --  ----------  --  
 72
    65
 73
     4
 40
40.0
 49
32.5
 49
-2.5
 49
2.5
 49
-2.5
  0
LTYPE
  2
LONG2
 70
    64
  3
--------  -  -  --------  -  -  
 72
    65
 73
     6
 40
40.0
 49
30.0
 49
-2.5
 49
1.25
 49
-2.5
 49
1.25
 49
-2.5
  0
LTYPE
  2
LONG3
 70
    64
  3
+++++++++++++++..+++++++++++++++
 72
    65
 73
     2
 40
40.0
 49
37.5
 49
-2.5
  0
LTYPE
  2
LONG4
 70
    64
  3
+++++++++++++++..+++++++++++++++
 72
    65
 73
     2
 40
80.0
 49
75.0
 49
-5.0
  0
LTYPE
  2
LONG5
 70
    64
  3
----------  --  ----------  --  
 72
    65
 73
     4
 40
60.0
 49
37.5
 49
-7.5
 49
7.5
 49
-7.5
  0
LTYPE
  2
dashed
 70
   64
  3
-------   -------------   ------
 72
   65
 73
    2
 40
7.5
 49
6
 49
-1.5
  0
LTYPE
  2
dashed_spaced
 70
   64
  3
----        --------        ----
 72
   65
 73
    2
 40
12
 49
6
 49
-6
  0
LTYPE
  2
long_dashed_dotted
 70
   64
  3
------------- --- --------------
 72
   65
 73
    4
 40
15.25
 49
12
 49
-1.5
 49
0.25
 49
-1.5
  0
LTYPE
  2
long_dashed_double-dotted
 70
   64
  3
----------- --- --- ------------
 72
   65
 73
    6
 40
17
 49
12
 49
-1.5
 49
0.25
 49
-1.5
 49
0.25
 49
-1.5
  0
LTYPE
  2
long_dashed_triplicate-dotted
 70
   64
  3
--------- --- --- --- ----------
 72
   65
 73
    8
 40
18.75
 49
12
 49
-1.5
 49
0.25
 49
-1.5
 49
0.25
 49
-1.5
 49
0.25
 49
-1.5
  0
LTYPE
  2
dotted
 70
   64
  3
   -       -       -       -    
 72
   65
 73
    2
 40
1.75
 49
0.25
 49
-1.5
  0
LTYPE
  2
chain
 70
   64
  3
-------------- -- --------------
 72
   65
 73
    4
 40
18.5
 49
12
 49
-1.5
 49
3.5
 49
-1.5
  0
LTYPE
  2
chain_double_dash
 70
   64
  3
------------ -- -- -------------
 72
   65
 73
    6
 40
23.5
 49
12
 49
-1.5
 49
3.5
 49
-1.5
 49
3.5
 49
-1.5
  0
LTYPE
  2
dashed_dotted
 70
   64
  3
-----------     -     ----------
 72
   65
 73
    4
 40
9.25
 49
6
 49
-1.5
 49
0.25
 49
-1.5
  0
LTYPE
  2
double-dashed_dotted
 70
   64
  3
------   -----------   -   -----
 72
   65
 73
    6
 40
16.75
 49
6
 49
-1.5
 49
6
 49
-1.5
 49
0.25
 49
-1.5
  0
LTYPE
  2
dashed_double-dotted
 70
   64
  3
---------    -    -    ---------
 72
   65
 73
    6
 40
11
 49
6
 49
-1.5
 49
0.25
 49
-1.5
 49
0.25
 49
-1.5
  0
LTYPE
  2
double-dashed_double-dotted
 70
   64
  3
-----   ---------   -   -   ----
 72
   65
 73
    8
 40
18.5
 49
6
 49
-1.5
 49
6
 49
-1.5
 49
0.25
 49
-1.5
 49
0.25
 49
-1.5
  0
LTYPE
  2
dashed_triplicate-dotted
 70
   64
  3
-------    -    -    -    ------
 72
   65
 73
    8
 40
12.75
 49
6
 49
-1.5
 49
0.25
 49
-1.5
 49
0.25
 49
-1.5
 49
0.25
 49
-1.5
  0
LTYPE
  2
double-dashed_triplicate-dotted
 70
   64
  3
-----  ---------  -  -  -  -----
 72
   65
 73
   10
 40
20.25
 49
6
 49
-1.5
 49
6
 49
-1.5
 49
0.25
 49
-1.5
 49
0.25
 49
-1.5
 49
0.25
 49
-1.5
  0
LTYPE
  2
undefined
 70
   64
  3
--------------------------------
 72
   65
 73
    0
 40
0
  0
ENDTAB
  0
TABLE
  2
STYLE
  5
3
100
AcDbSymbolTable
 70
     1
  0
STYLE
  5
10
100
AcDbSymbolTableRecord
100
AcDbTextStyleTableRecord
  2
STANDARD
 70
     0
 40
0.0
 41
1.0
 50
0.0
 71
     0
 42
0.2
  3
txt
  4
bigfont.shx
  0
STYLE
  5
26
100
AcDbSymbolTableRecord
100
AcDbTextStyleTableRecord
  2
TATEGAKI
 70
    68
 40
0.0
 41
1.0
 50
0.0
 71
     0
 42
1.0
  3
txt
  4
bigfont.shx
  0
ENDTAB
  0
TABLE
  2
LAYER
 70
    5
  0
LAYER
  2
_0-0_LAYER001
 70
   64
 62
    7
  6
CONTINUOUS
  0
LAYER
  2
_0-1_LAYER003
 70
   64
 62
    7
  6
CONTINUOUS
  0
LAYER
  2
_0-2_LAYER007
 70
   64
 62
    7
  6
CONTINUOUS
  0
LAYER
  2
_0-3_LAYER009
 70
   64
 62
    7
  6
CONTINUOUS
  0
LAYER
  2
ADD_LINE
 70
   64
 62
    7
  6
CONTINUOUS
  0
ENDTAB
  0
ENDSEC
  0
SECTION
  2
BLOCKS
  0
ENDSEC
  0
SECTION
  2
ENTITIES
  0
LINE
  8
_0-0_LAYER001
  6
CONTINUOUS
 62
    2
 10
1937.1498000000001
 20
994.96710000000007
 11
824.27379999999994
 21
994.96710000000007
  0
LINE
  8
_0-0_LAYER001
  6
CONTINUOUS
 62
    2
 10
1983.4863999999998
 20
994.96710000000007
 11
1955.9863999999998
 21
994.96710000000007
  0
CIRCLE
  8
_0-0_LAYER001
  6
CONTINUOUS
 62
    2
 10
1980.9863999999998
 20
994.96710000000007
 40
1.6999999999999997
  0
LINE
  8
_0-0_LAYER001
  6
CONTINUOUS
 62
    2
 10
1980.9863999999998
 20
994.96710000000007
 11
1980.9863999999998
 21
1061.0942
  0
CIRCLE
  8
_0-0_LAYER001
  6
CONTINUOUS
 62
    2
 10
1980.9863999999998
 20
1061.0942
 40
1.6999999999999997
  0
LINE
  8
_0-0_LAYER001
  6
CONTINUOUS
 62
    2
 10
1983.4863999999998
 20
1061.0942
 11
1955.9863999999998
 21
1061.0942
  0
LINE
  8
_0-0_LAYER001
  6
CONTINUOUS
 62
    2
 10
2104.1655000000001
 20
1244.9671000000001
 11
2051.6655000000001
 21
1244.9671000000001
  0
CIRCLE
  8
_0-0_LAYER001
  6
CONTINUOUS
 62
    2
 10
2101.6655000000001
 20
1244.9671000000001
 40
1.6999999999999997
  0
LINE
  8
_0-0_LAYER001
  6
CONTINUOUS
 62
    2
 10
2101.6655000000001
 20
1244.9671000000001
 11
2101.6655000000001
 21
994.96710000000007
  0
CIRCLE
  8
_0-0_LAYER001
  6
CONTINUOUS
 62
    2
 10
2101.6655000000001
 20
994.96710000000007
 40
1.6999999999999997
  0
LINE
  8
_0-0_LAYER001
  6
CONTINUOUS
 62
    2
 10
2104.1655000000001
 20
994.96710000000007
 11
2051.6655000000001
 21
994.96710000000007
  0
LINE
  8
_0-0_LAYER001
  6
CONTINUOUS
 62
    2
 10
1338.5057999999999
 20
1045.846
 11
1340.4468999999999
 21
1038.6015
  0
LINE
  8
_0-0_LAYER001
  6
CONTINUOUS
 62
    2
 10
1340.4468999999999
 20
1038.6015
 11
1335.1436000000001
 21
1043.9048
  0
LINE
  8
_0-0_LAYER001
  6
CONTINUOUS
 62
    2
 10
1340.4468999999999
 20
1038.6015
 11
1281.9985999999999
 21
1139.837
  0
LINE
  8
_0-0_LAYER001
  6
CONTINUOUS
 62
    2
 10
1281.9985999999999
 20
1139.837
 11
1241.4985999999999
 21
1139.837
  0
LINE
  8
_0-0_LAYER001
  6
CONTINUOUS
 62
    2
 10
1884.2130999999999
 20
994.00510000000008
 11
1889.5164
 21
999.30839999999989
  0
LINE
  8
_0-0_LAYER001
  6
CONTINUOUS
 62
    2
 10
1889.5164
 20
999.30839999999989
 11
1887.5753
 21
992.06400000000008
  0
LINE
  8
_0-0_LAYER001
  6
CONTINUOUS
 62
    2
 10
1889.5164
 20
999.30839999999989
 11
1747.8272000000002
 21
753.89540000000011
  0
LINE
  8
_0-0_LAYER001
  6
CONTINUOUS
 62
    1
 10
1937.1498000000001
 20
972.46710000000007
 11
824.27379999999994
 21
972.46710000000007
  0
LINE
  8
_0-0_LAYER001
  6
CONTINUOUS
 62
    1
 10
1937.1498000000001
 20
974.96710000000007
 11
824.27379999999994
 21
974.96710000000007
  0
LINE
  8
_0-0_LAYER001
  6
CONTINUOUS
 62
    1
 10
1937.1498000000001
 20
977.46710000000007
 11
824.27379999999994
 21
977.46710000000007
  0
LINE
  8
_0-0_LAYER001
  6
CONTINUOUS
 62
    1
 10
1937.1498000000001
 20
979.96710000000007
 11
824.27379999999994
 21
979.96710000000007
  0
LINE
  8
_0-0_LAYER001
  6
CONTINUOUS
 62
    1
 10
1937.1498000000001
 20
982.46710000000007
 11
824.27379999999994
 21
982.46710000000007
  0
LINE
  8
_0-0_LAYER001
  6
CONTINUOUS
 62
    1
 10
1937.1498000000001
 20
984.96710000000007
 11
824.27379999999994
 21
984.96710000000007
  0
LINE
  8
_0-0_LAYER001
  6
CONTINUOUS
 62
    1
 10
1937.1498000000001
 20
987.46710000000007
 11
824.27379999999994
 21
987.46710000000007
  0
LINE
  8
_0-0_LAYER001
  6
CONTINUOUS
 62
    1
 10
1937.1498000000001
 20
989.96710000000007
 11
824.27379999999994
 21
989.96710000000007
  0
LINE
  8
_0-0_LAYER001
  6
CONTINUOUS
 62
    1
 10
1937.1498000000001
 20
992.46710000000007
 11
824.27379999999994
 21
992.46710000000007
  0
LINE
  8
_0-0_LAYER001
  6
DASHED1
 62
    1
 10
1790.2637
 20
1041.8933999999999
 11
1806.2637
 21
1041.8933999999999
  0
LINE
  8
_0-0_LAYER001
  6
DASHED1
 62
    1
 10
1806.2637
 20
1041.8933999999999
 11
1806.2637
 21
1038.8933999999999
  0
LINE
  8
_0-0_LAYER001
  6
DASHED1
 62
    1
 10
1790.2637
 20
1041.8933999999999
 11
1790.2637
 21
1038.8933999999999
  0
LINE
  8
_0-0_LAYER001
  6
DASHED1
 62
    1
 10
1790.2637
 20
1038.8933999999999
 11
1806.2637
 21
1038.8933999999999
  0
LINE
  8
_0-0_LAYER001
  6
DASHED1
 62
    1
 10
1801.2637
 20
983.99739999999997
 11
1798.2136
 21
969.48839999999996
  0
LINE
  8
_0-0_LAYER001
  6
DASHED1
 62
    1
 10
1801.2637
 20
1038.8933999999999
 11
1801.2637
 21
983.99739999999997
  0
LINE
  8
_0-0_LAYER001
  6
DASHED1
 62
    1
 10
1798.2136
 20
969.48839999999996
 11
1795.2637
 21
983.74600000000009
  0
LINE
  8
_0-0_LAYER001
  6
DASHED1
 62
    1
 10
1795.2637
 20
1038.8933999999999
 11
1795.2637
 21
983.74600000000009
  0
LINE
  8
_0-0_LAYER001
  6
DASHED1
 62
    1
 10
1036.1188999999999
 20
1037.6574000000001
 11
1052.1188999999999
 21
1037.6574000000001
  0
LINE
  8
_0-0_LAYER001
  6
DASHED1
 62
    1
 10
1052.1188999999999
 20
1037.6574000000001
 11
1052.1188999999999
 21
1034.6574000000001
  0
LINE
  8
_0-0_LAYER001
  6
DASHED1
 62
    1
 10
1036.1188999999999
 20
1037.6574000000001
 11
1036.1188999999999
 21
1034.6574000000001
  0
LINE
  8
_0-0_LAYER001
  6
DASHED1
 62
    1
 10
1036.1188999999999
 20
1034.6574000000001
 11
1052.1188999999999
 21
1034.6574000000001
  0
LINE
  8
_0-0_LAYER001
  6
DASHED1
 62
    1
 10
1047.1188999999999
 20
979.76129999999989
 11
1044.0687
 21
965.25240000000008
  0
LINE
  8
_0-0_LAYER001
  6
DASHED1
 62
    1
 10
1047.1188999999999
 20
1034.6574000000001
 11
1047.1188999999999
 21
979.76129999999989
  0
LINE
  8
_0-0_LAYER001
  6
DASHED1
 62
    1
 10
1044.0687
 20
965.25240000000008
 11
1041.1188999999999
 21
979.50990000000002
  0
LINE
  8
_0-0_LAYER001
  6
DASHED1
 62
    1
 10
1041.1188999999999
 20
1034.6574000000001
 11
1041.1188999999999
 21
979.50990000000002
  0
LINE
  8
_0-0_LAYER001
  6
DASHED1
 62
    1
 10
1292.1197999999999
 20
1037.6574000000001
 11
1308.1197999999999
 21
1037.6574000000001
  0
LINE
  8
_0-0_LAYER001
  6
DASHED1
 62
    1
 10
1308.1197999999999
 20
1037.6574000000001
 11
1308.1197999999999
 21
1034.6574000000001
  0
LINE
  8
_0-0_LAYER001
  6
DASHED1
 62
    1
 10
1292.1197999999999
 20
1037.6574000000001
 11
1292.1197999999999
 21
1034.6574000000001
  0
LINE
  8
_0-0_LAYER001
  6
DASHED1
 62
    1
 10
1292.1197999999999
 20
1034.6574000000001
 11
1308.1197999999999
 21
1034.6574000000001
  0
LINE
  8
_0-0_LAYER001
  6
DASHED1
 62
    1
 10
1303.1197999999999
 20
979.76129999999989
 11
1300.0695999999998
 21
965.25240000000008
  0
LINE
  8
_0-0_LAYER001
  6
DASHED1
 62
    1
 10
1303.1197999999999
 20
1034.6574000000001
 11
1303.1197999999999
 21
979.76129999999989
  0
LINE
  8
_0-0_LAYER001
  6
DASHED1
 62
    1
 10
1300.0695999999998
 20
965.25240000000008
 11
1297.1197999999999
 21
979.50990000000002
  0
LINE
  8
_0-0_LAYER001
  6
DASHED1
 62
    1
 10
1297.1197999999999
 20
1034.6574000000001
 11
1297.1197999999999
 21
979.50990000000002
  0
LINE
  8
_0-0_LAYER001
  6
DASHED1
 62
    1
 10
1558.4991
 20
1037.6574000000001
 11
1574.4991
 21
1037.6574000000001
  0
LINE
  8
_0-0_LAYER001
  6
DASHED1
 62
    1
 10
1574.4991
 20
1037.6574000000001
 11
1574.4991
 21
1034.6574000000001
  0
LINE
  8
_0-0_LAYER001
  6
DASHED1
 62
    1
 10
1558.4991
 20
1037.6574000000001
 11
1558.4991
 21
1034.6574000000001
  0
LINE
  8
_0-0_LAYER001
  6
DASHED1
 62
    1
 10
1558.4991
 20
1034.6574000000001
 11
1574.4991
 21
1034.6574000000001
  0
LINE
  8
_0-0_LAYER001
  6
DASHED1
 62
    1
 10
1569.4991
 20
979.76129999999989
 11
1566.4490000000001
 21
965.25240000000008
  0
LINE
  8
_0-0_LAYER001
  6
DASHED1
 62
    1
 10
1569.4991
 20
1034.6574000000001
 11
1569.4991
 21
979.76129999999989
  0
LINE
  8
_0-0_LAYER001
  6
DASHED1
 62
    1
 10
1566.4490000000001
 20
965.25240000000008
 11
1563.4991
 21
979.50990000000002
  0
LINE
  8
_0-0_LAYER001
  6
DASHED1
 62
    1
 10
1563.4991
 20
1034.6574000000001
 11
1563.4991
 21
979.50990000000002
  0
LINE
  8
_0-0_LAYER001
  6
CONTINUOUS
 62
    4
 10
1572.0455999999999
 20
1006.7003
 11
1566.3824
 21
1016.1388999999999
  0
LINE
  8
_0-0_LAYER001
  6
CONTINUOUS
 62
    4
 10
1310.9366
 20
1006.3887999999999
 11
1305.2734
 21
1015.8275000000001
  0
LINE
  8
_0-0_LAYER001
  6
CONTINUOUS
 62
    4
 10
1052.0217
 20
1008.0592999999999
 11
1046.3585
 21
1017.4979000000001
  0
LINE
  8
_0-0_LAYER001
  6
CONTINUOUS
 62
    4
 10
1886.4400999999998
 20
1074.1965
 11
1886.4400999999998
 21
1070.4209000000001
  0
ARC
  8
_0-0_LAYER001
  6
CONTINUOUS
 62
    4
 10
1794.9636
 20
1192.0379
 40
149.17964000000001
 50
307.82101999999998
 51
312.33985999999993
  0
ARC
  8
_0-0_LAYER001
  6
CONTINUOUS
 62
    4
 10
1794.9636
 20
1192.0379
 40
172.17964000000001
 50
309.26612
 51
313.25087999999994
  0
LINE
  8
_0-0_LAYER001
  6
CONTINUOUS
 62
    4
 10
1895.4400999999998
 20
1081.7699
 11
1895.4400999999998
 21
1054.7257
  0
LINE
  8
_0-0_LAYER001
  6
CONTINUOUS
 62
    4
 10
1903.9400999999998
 20
1058.7339999999999
 11
1903.9400999999998
 21
1056.4429
  0
LINE
  8
_0-0_LAYER001
  6
CONTINUOUS
 62
    4
 10
1912.9400999999998
 20
1066.6291000000001
 11
1912.9400999999998
 21
1040.8019999999999
  0
ARC
  8
_0-0_LAYER001
  6
CONTINUOUS
 62
    4
 10
1793.7485000000001
 20
1285.3108999999999
 40
234.01331999999999
 50
247.56478999999996
 51
293.24524000000002
  0
ARC
  8
_0-0_LAYER001
  6
CONTINUOUS
 62
    4
 10
1793.7485000000001
 20
1285.3108999999999
 40
254.01331999999999
 50
245.13487000000003
 51
295.70910000000003
  0
ARC
  8
_0-0_LAYER001
  6
CONTINUOUS
 62
    4
 10
1793.7485000000001
 20
1285.3108999999999
 40
252.01332000000002
 50
247.03975000000003
 51
293.79819000000003
  0
ARC
  8
_0-0_LAYER001
  6
CONTINUOUS
 62
    4
 10
1793.7485000000001
 20
1285.3108999999999
 40
272.01332000000002
 50
244.80213000000003
 51
295.98797999999999
  0
LINE
  8
_0-0_LAYER001
  6
CONTINUOUS
 62
    4
 10
1825.3719999999998
 20
999.90000000000009
 11
1832.8534
 21
1014.2392
  0
LINE
  8
_0-0_LAYER001
  6
CONTINUOUS
 62
    4
 10
1818.2305999999999
 20
999.99659999999994
 11
1812.8364000000001
 21
1011.0546999999999
  0
LINE
  8
_0-0_LAYER001
  6
CONTINUOUS
 62
    4
 10
1772.1356999999998
 20
1000.0183999999999
 11
1778.2617
 21
1010.5998
  0
LINE
  8
_0-0_LAYER001
  6
CONTINUOUS
 62
    4
 10
1765.0351999999998
 20
1000.3614
 11
1758.6997000000001
 21
1014.2392
  0
ARC
  8
_0-0_LAYER001
  6
CONTINUOUS
 62
    4
 10
1768.674
 20
1002.0226
 40
4
 50
204.53772000000001
 51
329.93141000000003
  0
ARC
  8
_0-0_LAYER001
  6
CONTINUOUS
 62
    4
 10
1821.8256999999999
 20
1001.7502999999999
 40
4
 50
206.00334000000004
 51
332.44718
  0
LINE
  8
_0-0_LAYER001
  6
CONTINUOUS
 62
    4
 10
1677.9400999999998
 20
1065.7393999999999
 11
1677.9400999999998
 21
1039.1815999999999
  0
ARC
  8
_0-0_LAYER001
  6
CONTINUOUS
 62
    4
 10
1794.9636
 20
1192.0379
 40
172.17964000000001
 50
227.18297000000004
 51
231.14230000000003
  0
LINE
  8
_0-0_LAYER001
  6
CONTINUOUS
 62
    4
 10
1686.9400999999998
 20
1057.9604999999999
 11
1686.9400999999998
 21
1054.8445999999999
  0
LINE
  8
_0-0_LAYER001
  6
CONTINUOUS
 62
    4
 10
1695.4400999999998
 20
1080.9090000000001
 11
1695.4400999999998
 21
1053.2632000000001
  0
LINE
  8
_0-0_LAYER001
  6
CONTINUOUS
 62
    4
 10
1704.4400999999998
 20
1073.4628
 11
1704.4400999999998
 21
1069.0097000000001
  0
ARC
  8
_0-0_LAYER001
  6
CONTINUOUS
 62
    4
 10
1794.9636
 20
1192.0379
 40
149.17964000000001
 50
228.1534
 51
232.64089999999999
  0
ARC
  8
_0-0_LAYER001
  6
CONTINUOUS
 62
    4
 10
1402.7451000000001
 20
1044.5011
 40
69.214101999999997
 50
13.791351000000001
 51
163.33506000000003
  0
ARC
  8
_0-0_LAYER001
  6
CONTINUOUS
 62
    4
 10
1402.3499999999999
 20
1045.9845
 40
50.327697999999998
 50
23.01118
 51
173.62688000000003
  0
ARC
  8
_0-0_LAYER001
  6
CONTINUOUS
 62
    4
 10
1264.2769000000001
 20
1244.9933000000001
 40
212.52318
 50
244.57801000000001
 51
294.47764000000006
  0
ARC
  8
_0-0_LAYER001
  6
CONTINUOUS
 62
    4
 10
1264.2769000000001
 20
1244.9933000000001
 40
214.52317999999997
 50
244.57801000000001
 51
294.78532999999999
  0
ARC
  8
_0-0_LAYER001
  6
CONTINUOUS
 62
    4
 10
1402.3499999999999
 20
1045.9845
 40
48.327697999999998
 50
88.109851000000006
 51
174.95909000000003
  0
LINE
  8
_0-0_LAYER001
  6
CONTINUOUS
 62
    4
 10
1403.9440999999999
 20
1094.2859000000001
 11
1403.9440999999999
 21
1082.1569
  0
LINE
  8
_0-0_LAYER001
  6
CONTINUOUS
 62
    4
 10
1469.9638
 20
1061.0008
 11
1448.6731
 21
1065.6582000000001
  0
LINE
  8
_0-0_LAYER001
  6
CONTINUOUS
 62
    4
 10
1231.932
 20
1003.6786
 11
1225.365
 21
1015.8275000000001
  0
LINE
  8
_0-0_LAYER001
  6
CONTINUOUS
 62
    4
 10
1244.0581999999999
 20
1003.3493000000001
 11
1249.4883
 21
1012.2090000000001
  0
ARC
  8
_0-0_LAYER001
  6
CONTINUOUS
 62
    4
 10
1238.0899999999999
 20
1007.0072
 40
7
 50
208.39301
 51
328.49572999999998
  0
LINE
  8
_0-0_LAYER001
  6
CONTINUOUS
 62
    4
 10
1323.4487999999999
 20
1007.4167
 11
1329.3967
 21
1022.4613999999999
  0
ARC
  8
_0-0_LAYER001
  6
CONTINUOUS
 62
    4
 10
1316.9390000000001
 20
1009.9902999999999
 40
7
 50
210.96375
 51
338.42869000000002
  0
LINE
  8
_0-0_LAYER001
  6
CONTINUOUS
 62
    4
 10
1351.0898999999999
 20
1014.3580999999999
 11
1344.1722
 21
1026.0799
  0
ARC
  8
_0-0_LAYER001
  6
CONTINUOUS
 62
    4
 10
1354.5347999999999
 20
1016.3911000000001
 40
4
 50
210.54757000000001
 51
342.13990000000001
  0
ARC
  8
_0-0_LAYER001
  6
CONTINUOUS
 62
    4
 10
1264.2769000000001
 20
1244.9933000000001
 40
194.52317999999997
 50
244.57801000000001
 51
291.77512000000002
  0
ARC
  8
_0-0_LAYER001
  6
CONTINUOUS
 62
    4
 10
1213.3331000000001
 20
1114.7203999999999
 40
73.645919000000006
 50
225.20483999999999
 51
236.85617999999999
  0
ARC
  8
_0-0_LAYER001
  6
CONTINUOUS
 62
    4
 10
1202.2405000000001
 20
1106.8151
 40
81.008393999999996
 50
226.46691000000004
 51
242.05489
  0
ARC
  8
_0-0_LAYER001
  6
CONTINUOUS
 62
    4
 10
1255.7629999999999
 20
1181.4199000000001
 40
154.70135999999999
 50
229.79871999999997
 51
237.31520999999998
  0
LINE
  8
_0-0_LAYER001
  6
CONTINUOUS
 62
    4
 10
1146.4440999999999
 20
1065.915
 11
1146.4440999999999
 21
1048.0859
  0
ARC
  8
_0-0_LAYER001
  6
CONTINUOUS
 62
    4
 10
1150.4440999999999
 20
1065.915
 40
4
 50
90
 51
180
  0
LINE
  8
_0-0_LAYER001
  6
CONTINUOUS
 62
    4
 10
1151.9072000000001
 20
1069.915
 11
1150.4440999999999
 21
1069.915
  0
LINE
  8
_0-0_LAYER001
  6
CONTINUOUS
 62
    4
 10
1155.9072000000001
 20
1065.915
 11
1155.9072000000001
 21
1063.2618
  0
ARC
  8
_0-0_LAYER001
  6
CONTINUOUS
 62
    4
 10
1151.9072000000001
 20
1065.915
 40
4
 50
0
 51
90
  0
LINE
  8
_0-0_LAYER001
  6
CONTINUOUS
 62
    4
 10
1161.4440999999999
 20
1065.3056999999999
 11
1161.4440999999999
 21
1062.4590000000001
  0
LINE
  8
_0-0_LAYER001
  6
CONTINUOUS
 62
    4
 10
1165.4440999999999
 20
1069.3056999999999
 11
1180.7717
 21
1069.3056999999999
  0
ARC
  8
_0-0_LAYER001
  6
CONTINUOUS
 62
    4
 10
1165.4440999999999
 20
1065.3056999999999
 40
4
 50
90
 51
180
  0
ARC
  8
_0-0_LAYER001
  6
CONTINUOUS
 62
    4
 10
1264.2769000000001
 20
1244.9933000000001
 40
232.52318
 50
244.57801000000001
 51
295.00637
  0
ARC
  8
_0-0_LAYER001
  6
CONTINUOUS
 62
    4
 10
1404.9431
 20
1041.9204
 40
40.248902000000001
 50
91.422393999999997
 51
185.22383000000002
  0
ARC
  8
_0-0_LAYER001
  6
CONTINUOUS
 62
    4
 10
1360.8779999999999
 20
1037.8916999999999
 40
4
 50
295.00637
 51
5.2238350000000304
  0
LINE
  8
_0-0_LAYER001
  6
CONTINUOUS
 62
    4
 10
1362.4295999999999
 20
1033.7222999999999
 11
1358.5307
 21
1015.6899000000001
  0
ARC
  8
_0-0_LAYER001
  6
CONTINUOUS
 62
    4
 10
1143.8303000000001
 20
1046.1714999999999
 40
69.214101999999997
 50
13.791351000000001
 51
163.33506000000003
  0
ARC
  8
_0-0_LAYER001
  6
CONTINUOUS
 62
    4
 10
1143.4351999999999
 20
1047.655
 40
50.327697999999998
 50
23.01118
 51
173.62688000000003
  0
ARC
  8
_0-0_LAYER001
  6
CONTINUOUS
 62
    4
 10
1005.3621000000001
 20
1246.6637000000001
 40
212.52318
 50
244.57801000000001
 51
294.47764000000006
  0
ARC
  8
_0-0_LAYER001
  6
CONTINUOUS
 62
    4
 10
1005.3621000000001
 20
1246.6637000000001
 40
214.52317999999997
 50
244.57801000000001
 51
294.78532999999999
  0
ARC
  8
_0-0_LAYER001
  6
CONTINUOUS
 62
    4
 10
1143.4351999999999
 20
1047.655
 40
48.327697999999998
 50
88.109851000000006
 51
174.95909000000003
  0
LINE
  8
_0-0_LAYER001
  6
CONTINUOUS
 62
    4
 10
1145.0291999999999
 20
1095.9564
 11
1145.0291999999999
 21
1083.8272999999999
  0
LINE
  8
_0-0_LAYER001
  6
CONTINUOUS
 62
    4
 10
1211.049
 20
1062.6712
 11
1189.7582
 21
1067.3286000000001
  0
LINE
  8
_0-0_LAYER001
  6
CONTINUOUS
 62
    4
 10
973.01710000000003
 20
1005.3489999999999
 11
966.4502
 21
1017.4979000000001
  0
LINE
  8
_0-0_LAYER001
  6
CONTINUOUS
 62
    4
 10
985.14329999999995
 20
1005.0197000000001
 11
990.57349999999997
 21
1013.8794
  0
ARC
  8
_0-0_LAYER001
  6
CONTINUOUS
 62
    4
 10
979.17509999999993
 20
1008.6776
 40
7
 50
208.39301
 51
328.49572999999998
  0
LINE
  8
_0-0_LAYER001
  6
CONTINUOUS
 62
    4
 10
1064.5338999999999
 20
1009.0871
 11
1070.4818
 21
1024.1318000000001
  0
ARC
  8
_0-0_LAYER001
  6
CONTINUOUS
 62
    4
 10
1058.0242000000001
 20
1011.6606999999999
 40
7
 50
210.96375
 51
338.42869000000002
  0
LINE
  8
_0-0_LAYER001
  6
CONTINUOUS
 62
    4
 10
1092.1750999999999
 20
1016.0284999999999
 11
1085.2573
 21
1027.7502999999999
  0
ARC
  8
_0-0_LAYER001
  6
CONTINUOUS
 62
    4
 10
1095.6198999999999
 20
1018.0616
 40
4
 50
210.54757000000001
 51
342.13990000000001
  0
ARC
  8
_0-0_LAYER001
  6
CONTINUOUS
 62
    4
 10
1005.3621000000001
 20
1246.6637000000001
 40
194.52317999999997
 50
244.57801000000001
 51
291.77512000000002
  0
ARC
  8
_0-0_LAYER001
  6
CONTINUOUS
 62
    4
 10
954.41820000000007
 20
1116.3907999999999
 40
73.645919000000006
 50
225.20483999999999
 51
236.85617999999999
  0
ARC
  8
_0-0_LAYER001
  6
CONTINUOUS
 62
    4
 10
943.32559999999989
 20
1108.4855
 40
81.008393999999996
 50
226.46691000000004
 51
242.05489
  0
ARC
  8
_0-0_LAYER001
  6
CONTINUOUS
 62
    4
 10
996.84809999999993
 20
1183.0903000000001
 40
154.70135999999999
 50
229.79871999999997
 51
237.31520999999998
  0
LINE
  8
_0-0_LAYER001
  6
CONTINUOUS
 62
    4
 10
887.52919999999995
 20
1067.5853999999999
 11
887.52919999999995
 21
1049.7563
  0
ARC
  8
_0-0_LAYER001
  6
CONTINUOUS
 62
    4
 10
891.52919999999995
 20
1067.5853999999999
 40
4
 50
90
 51
180
  0
LINE
  8
_0-0_LAYER001
  6
CONTINUOUS
 62
    4
 10
892.99229999999989
 20
1071.5853999999999
 11
891.52919999999995
 21
1071.5853999999999
  0
LINE
  8
_0-0_LAYER001
  6
CONTINUOUS
 62
    4
 10
896.99229999999989
 20
1067.5853999999999
 11
896.99229999999989
 21
1064.9322999999999
  0
ARC
  8
_0-0_LAYER001
  6
CONTINUOUS
 62
    4
 10
892.99229999999989
 20
1067.5853999999999
 40
4
 50
0
 51
90
  0
LINE
  8
_0-0_LAYER001
  6
CONTINUOUS
 62
    4
 10
902.52919999999995
 20
1066.9761000000001
 11
902.52919999999995
 21
1064.1294
  0
LINE
  8
_0-0_LAYER001
  6
CONTINUOUS
 62
    4
 10
906.52919999999995
 20
1070.9761000000001
 11
921.85680000000002
 21
1070.9761000000001
  0
ARC
  8
_0-0_LAYER001
  6
CONTINUOUS
 62
    4
 10
906.52919999999995
 20
1066.9761000000001
 40
4
 50
90
 51
180
  0
ARC
  8
_0-0_LAYER001
  6
CONTINUOUS
 62
    4
 10
1005.3621000000001
 20
1246.6637000000001
 40
232.52318
 50
244.57801000000001
 51
295.00637
  0
ARC
  8
_0-0_LAYER001
  6
CONTINUOUS
 62
    4
 10
1146.0282999999999
 20
1043.5907999999999
 40
40.248902000000001
 50
91.422393999999997
 51
185.22383000000002
  0
ARC
  8
_0-0_LAYER001
  6
CONTINUOUS
 62
    4
 10
1101.9631999999999
 20
1039.5621000000001
 40
4
 50
295.00637
 51
5.2238350000000304
  0
LINE
  8
_0-0_LAYER001
  6
CONTINUOUS
 62
    4
 10
1103.5146999999999
 20
1035.3927000000001
 11
1099.6158
 21
1017.3603000000001
  0
ARC
  8
_0-0_LAYER001
  6
CONTINUOUS
 62
    4
 10
883.40069999999992
 20
1046.146
 40
69.214101999999997
 50
13.791351000000001
 51
126.31484999999999
  0
ARC
  8
_0-0_LAYER001
  6
CONTINUOUS
 62
    4
 10
883.00559999999996
 20
1047.6295
 40
50.327697999999998
 50
23.01118
 51
143.76640000000003
  0
ARC
  8
_0-0_LAYER001
  6
CONTINUOUS
 62
    4
 10
883.00559999999996
 20
1047.6295
 40
48.327697999999998
 50
88.109851000000006
 51
147.13958
  0
LINE
  8
_0-0_LAYER001
  6
CONTINUOUS
 62
    4
 10
884.59960000000001
 20
1095.9309000000001
 11
884.59960000000001
 21
1083.8018999999999
  0
LINE
  8
_0-0_LAYER001
  6
CONTINUOUS
 62
    4
 10
950.61940000000004
 20
1062.6458
 11
929.32870000000003
 21
1067.3031000000001
  0
ARC
  8
_0-0_LAYER001
  6
CONTINUOUS
 62
    4
 10
744.93249999999989
 20
1246.6382000000001
 40
232.52318
 50
294.78527000000003
 51
295.00637
  0
ARC
  8
_0-0_LAYER001
  6
CONTINUOUS
 62
    4
 10
885.59870000000001
 20
1043.5654
 40
40.248902000000001
 50
91.422393999999997
 51
185.22383000000002
  0
ARC
  8
_0-0_LAYER001
  6
CONTINUOUS
 62
    4
 10
841.53359999999998
 20
1039.5365999999999
 40
4
 50
295.00637
 51
5.2238350000000304
  0
LINE
  8
_0-0_LAYER001
  6
CONTINUOUS
 62
    4
 10
843.08519999999999
 20
1035.3671999999999
 11
842.41049999999996
 21
1032.2471
  0
ARC
  8
_0-0_LAYER001
  6
CONTINUOUS
 62
    4
 10
1663.8542000000002
 20
1044.8125
 40
69.214101999999997
 50
13.791351000000001
 51
163.33506000000003
  0
ARC
  8
_0-0_LAYER001
  6
CONTINUOUS
 62
    4
 10
1663.4591
 20
1046.296
 40
50.327697999999998
 50
23.01118
 51
173.62688000000003
  0
ARC
  8
_0-0_LAYER001
  6
CONTINUOUS
 62
    4
 10
1525.386
 20
1245.3046999999999
 40
212.52318
 50
244.57801000000001
 51
294.47764000000006
  0
ARC
  8
_0-0_LAYER001
  6
CONTINUOUS
 62
    4
 10
1525.386
 20
1245.3046999999999
 40
214.52317999999997
 50
244.57801000000001
 51
294.78532999999999
  0
ARC
  8
_0-0_LAYER001
  6
CONTINUOUS
 62
    4
 10
1663.4591
 20
1046.296
 40
48.327697999999998
 50
88.109851000000006
 51
174.95909000000003
  0
LINE
  8
_0-0_LAYER001
  6
CONTINUOUS
 62
    4
 10
1665.0531000000001
 20
1094.5974000000001
 11
1665.0531000000001
 21
1082.4683
  0
LINE
  8
_0-0_LAYER001
  6
CONTINUOUS
 62
    4
 10
1731.0729000000001
 20
1061.3123000000001
 11
1709.7820999999999
 21
1065.9695999999999
  0
LINE
  8
_0-0_LAYER001
  6
CONTINUOUS
 62
    4
 10
1493.0410999999999
 20
1003.99
 11
1486.4740999999999
 21
1016.1388999999999
  0
LINE
  8
_0-0_LAYER001
  6
CONTINUOUS
 62
    4
 10
1505.1671999999999
 20
1003.6606999999999
 11
1510.5974000000001
 21
1012.5204000000001
  0
ARC
  8
_0-0_LAYER001
  6
CONTINUOUS
 62
    4
 10
1499.1990000000001
 20
1007.3187
 40
7
 50
208.39301
 51
328.49572999999998
  0
LINE
  8
_0-0_LAYER001
  6
CONTINUOUS
 62
    4
 10
1584.5578
 20
1007.7281
 11
1590.5057000000002
 21
1022.7728
  0
ARC
  8
_0-0_LAYER001
  6
CONTINUOUS
 62
    4
 10
1578.0481
 20
1010.3017
 40
7
 50
210.96375
 51
338.42869000000002
  0
LINE
  8
_0-0_LAYER001
  6
CONTINUOUS
 62
    4
 10
1612.1990000000001
 20
1014.6695999999999
 11
1605.2811999999999
 21
1026.3913
  0
ARC
  8
_0-0_LAYER001
  6
CONTINUOUS
 62
    4
 10
1615.6437999999998
 20
1016.7026000000001
 40
4
 50
210.54757000000001
 51
342.13990000000001
  0
ARC
  8
_0-0_LAYER001
  6
CONTINUOUS
 62
    4
 10
1525.386
 20
1245.3046999999999
 40
194.52317999999997
 50
244.57801000000001
 51
291.77512000000002
  0
ARC
  8
_0-0_LAYER001
  6
CONTINUOUS
 62
    4
 10
1474.4421000000002
 20
1115.0318
 40
73.645919000000006
 50
225.20483999999999
 51
236.85617999999999
  0
ARC
  8
_0-0_LAYER001
  6
CONTINUOUS
 62
    4
 10
1463.3494999999998
 20
1107.1265000000001
 40
81.008393999999996
 50
226.46691000000004
 51
242.05489
  0
ARC
  8
_0-0_LAYER001
  6
CONTINUOUS
 62
    4
 10
1516.8719999999998
 20
1181.7312999999999
 40
154.70135999999999
 50
229.79871999999997
 51
237.31520999999998
  0
LINE
  8
_0-0_LAYER001
  6
CONTINUOUS
 62
    4
 10
1407.5531000000001
 20
1066.2265
 11
1407.5531000000001
 21
1048.3973000000001
  0
ARC
  8
_0-0_LAYER001
  6
CONTINUOUS
 62
    4
 10
1411.5531000000001
 20
1066.2265
 40
4
 50
90
 51
180
  0
LINE
  8
_0-0_LAYER001
  6
CONTINUOUS
 62
    4
 10
1413.0162
 20
1070.2265
 11
1411.5531000000001
 21
1070.2265
  0
LINE
  8
_0-0_LAYER001
  6
CONTINUOUS
 62
    4
 10
1417.0162
 20
1066.2265
 11
1417.0162
 21
1063.5733
  0
ARC
  8
_0-0_LAYER001
  6
CONTINUOUS
 62
    4
 10
1413.0162
 20
1066.2265
 40
4
 50
0
 51
90
  0
LINE
  8
_0-0_LAYER001
  6
CONTINUOUS
 62
    4
 10
1422.5531000000001
 20
1065.6170999999999
 11
1422.5531000000001
 21
1062.7704000000001
  0
LINE
  8
_0-0_LAYER001
  6
CONTINUOUS
 62
    4
 10
1426.5531000000001
 20
1069.6170999999999
 11
1441.8807000000002
 21
1069.6170999999999
  0
ARC
  8
_0-0_LAYER001
  6
CONTINUOUS
 62
    4
 10
1426.5531000000001
 20
1065.6170999999999
 40
4
 50
90
 51
180
  0
ARC
  8
_0-0_LAYER001
  6
CONTINUOUS
 62
    4
 10
1525.386
 20
1245.3046999999999
 40
232.52318
 50
244.57801000000001
 51
295.00637
  0
ARC
  8
_0-0_LAYER001
  6
CONTINUOUS
 62
    4
 10
1666.0522000000001
 20
1042.2318
 40
40.248902000000001
 50
91.422393999999997
 51
185.22383000000002
  0
ARC
  8
_0-0_LAYER001
  6
CONTINUOUS
 62
    4
 10
1621.9870999999998
 20
1038.2030999999999
 40
4
 50
295.00637
 51
5.2238350000000304
  0
LINE
  8
_0-0_LAYER001
  6
CONTINUOUS
 62
    4
 10
1623.5385999999999
 20
1034.0337
 11
1619.6397000000002
 21
1016.0012999999999
  0
LINE
  8
_0-0_LAYER001
  6
CONTINUOUS
 62
    2
 10
884.27759999999989
 20
1012.9671000000001
 11
884.92450000000008
 21
1012.9671000000001
  0
LINE
  8
_0-0_LAYER001
  6
CONTINUOUS
 62
    2
 10
1144.2775999999999
 20
1012.9671000000001
 11
1144.9245000000001
 21
1012.9671000000001
  0
LINE
  8
_0-0_LAYER001
  6
CONTINUOUS
 62
    2
 10
1404.2775999999999
 20
1012.9671000000001
 11
1404.9245000000001
 21
1012.9671000000001
  0
LINE
  8
_0-0_LAYER001
  6
CONTINUOUS
 62
    2
 10
1664.2775999999999
 20
1012.9671000000001
 11
1664.9245000000001
 21
1012.9671000000001
  0
LINE
  8
_0-0_LAYER001
  6
CONTINUOUS
 62
    2
 10
1934.3177000000001
 20
1127.1220000000001
 11
1934.3177000000001
 21
1277.1220000000001
  0
LINE
  8
_0-0_LAYER001
  6
CONTINUOUS
 62
    2
 10
1832.2222000000002
 20
1085.5782999999999
 11
1838.1037999999999
 21
1091.7049999999999
  0
LINE
  8
_0-0_LAYER001
  6
CONTINUOUS
 62
    2
 10
1836.9254000000001
 20
1109.9491
 11
1832.2222000000002
 21
1085.5782999999999
  0
LINE
  8
_0-0_LAYER001
  6
CONTINUOUS
 62
    2
 10
1848.6849999999999
 20
1094.7605000000001
 11
1937.3177000000001
 21
1110.3888999999999
  0
LINE
  8
_0-0_LAYER001
  6
CONTINUOUS
 62
    2
 10
1846.0803999999998
 20
1109.5326
 11
1934.7130000000002
 21
1125.1610000000001
  0
LINE
  8
_0-0_LAYER001
  6
CONTINUOUS
 62
    2
 10
1846.0803999999998
 20
1109.5326
 11
1848.6849999999999
 21
1094.7605000000001
  0
LINE
  8
_0-0_LAYER001
  6
CONTINUOUS
 62
    2
 10
1934.7130000000002
 20
1125.1610000000001
 11
1937.3177000000001
 21
1110.3888999999999
  0
LINE
  8
_0-0_LAYER001
  6
CONTINUOUS
 62
    2
 10
1937.3177000000001
 20
1110.3888999999999
 11
1846.0803999999998
 21
1109.5326
  0
LINE
  8
_0-0_LAYER001
  6
DASHED1
 62
    2
 10
1985.3177000000001
 20
1090.3888999999999
 11
1980.3177000000001
 21
1093.3887999999999
  0
LINE
  8
_0-0_LAYER001
  6
DASHED1
 62
    2
 10
1980.3177000000001
 20
1087.3888999999999
 11
1985.3177000000001
 21
1090.3888999999999
  0
LINE
  8
_0-0_LAYER001
  6
CONTINUOUS
 62
    2
 10
1913.3175999999999
 20
1087.3888999999999
 11
1913.3175999999999
 21
1093.3887999999999
  0
LINE
  8
_0-0_LAYER001
  6
CONTINUOUS
 62
    2
 10
1907.3177000000001
 20
1084.3887999999999
 11
1907.3177000000001
 21
1096.3889999999999
  0
LINE
  8
_0-0_LAYER001
  6
CONTINUOUS
 62
    2
 10
1916.2046999999998
 20
1087.3888999999999
 11
1919.6677
 21
1093.3887999999999
  0
LINE
  8
_0-0_LAYER001
  6
CONTINUOUS
 62
    2
 10
1907.3177000000001
 20
1084.3887999999999
 11
1913.3175999999999
 21
1087.3888999999999
  0
LINE
  8
_0-0_LAYER001
  6
CONTINUOUS
 62
    2
 10
1913.3175999999999
 20
1093.3887999999999
 11
1907.3177000000001
 21
1096.3889999999999
  0
LINE
  8
_0-0_LAYER001
  6
DASHED1
 62
    2
 10
1980.3177000000001
 20
1093.3887999999999
 11
1937.3177000000001
 21
1093.3887999999999
  0
LINE
  8
_0-0_LAYER001
  6
DASHED1
 62
    2
 10
1980.3177000000001
 20
1087.3888999999999
 11
1937.3177000000001
 21
1087.3888999999999
  0
LINE
  8
_0-0_LAYER001
  6
CONTINUOUS
 62
    2
 10
1937.3177000000001
 20
1086.1388999999999
 11
1937.3177000000001
 21
1094.6388999999999
  0
LINE
  8
_0-0_LAYER001
  6
CONTINUOUS
 62
    2
 10
1907.3177000000001
 20
1070.3888999999999
 11
1937.3177000000001
 21
1070.3888999999999
  0
LINE
  8
_0-0_LAYER001
  6
CONTINUOUS
 62
    2
 10
1937.3177000000001
 20
1093.3887999999999
 11
1913.3175999999999
 21
1093.3887999999999
  0
LINE
  8
_0-0_LAYER001
  6
CONTINUOUS
 62
    2
 10
1937.3177000000001
 20
1087.3888999999999
 11
1913.3175999999999
 21
1087.3888999999999
  0
LINE
  8
_0-0_LAYER001
  6
CONTINUOUS
 62
    2
 10
1921.9277999999999
 20
1087.3888999999999
 11
1925.3908999999999
 21
1093.3887999999999
  0
LINE
  8
_0-0_LAYER001
  6
CONTINUOUS
 62
    2
 10
1927.6509000000001
 20
1087.3888999999999
 11
1931.114
 21
1093.3887999999999
  0
LINE
  8
_0-0_LAYER001
  6
CONTINUOUS
 62
    2
 10
1933.3741
 20
1087.3888999999999
 11
1936.8371000000002
 21
1093.3887999999999
  0
LINE
  8
_0-0_LAYER001
  6
CONTINUOUS
 62
    2
 10
1907.3177000000001
 20
1070.3888999999999
 11
1907.3177000000001
 21
1105.0989999999999
  0
LINE
  8
_0-0_LAYER001
  6
CONTINUOUS
 62
    2
 10
1937.3177000000001
 20
1070.3888999999999
 11
1910.8217
 21
1105.7168999999999
  0
LINE
  8
_0-0_LAYER001
  6
CONTINUOUS
 62
    2
 10
1836.9254000000001
 20
1109.9491
 11
1934.3177000000001
 21
1127.1220000000001
  0
LINE
  8
_0-0_LAYER001
  6
CONTINUOUS
 62
    2
 10
1916.4958999999999
 20
1121.9487999999999
 11
1925.2653
 21
1123.4951000000001
  0
LINE
  8
_0-0_LAYER001
  6
CONTINUOUS
 62
    2
 10
1924.0216
 20
1094.2369000000001
 11
1927.4632999999999
 21
1085.9979000000001
  0
LINE
  8
_0-0_LAYER001
  6
CONTINUOUS
 62
    2
 10
1922.9818
 20
1121.4725000000001
 11
1927.6716000000001
 21
1094.8806
  0
LINE
  8
_0-0_LAYER001
  6
CONTINUOUS
 62
    2
 10
1927.4632999999999
 20
1085.9979000000001
 11
1927.6716000000001
 21
1094.8806
  0
LINE
  8
_0-0_LAYER001
  6
CONTINUOUS
 62
    2
 10
1919.3317999999999
 20
1120.8302000000001
 11
1916.4958999999999
 21
1121.9487999999999
  0
LINE
  8
_0-0_LAYER001
  6
CONTINUOUS
 62
    2
 10
1922.9818
 20
1121.4725000000001
 11
1925.2653
 21
1123.4951000000001
  0
LINE
  8
_0-0_LAYER001
  6
CONTINUOUS
 62
    2
 10
1919.3317999999999
 20
1120.8302000000001
 11
1924.0216
 21
1094.2369000000001
  0
LINE
  8
_0-0_LAYER001
  6
CONTINUOUS
 62
    2
 10
1912.1498000000001
 20
1162.6591000000001
 11
1930.1498000000001
 21
1162.6591000000001
  0
LINE
  8
_0-0_LAYER001
  6
CONTINUOUS
 62
    2
 10
1930.1498000000001
 20
1162.6591000000001
 11
1930.1498000000001
 21
1198.6591000000001
  0
LINE
  8
_0-0_LAYER001
  6
CONTINUOUS
 62
    2
 10
1930.1498000000001
 20
1198.6591000000001
 11
1912.1498000000001
 21
1198.6591000000001
  0
LINE
  8
_0-0_LAYER001
  6
CONTINUOUS
 62
    2
 10
1912.1498000000001
 20
1198.6591000000001
 11
1912.1498000000001
 21
1162.6591000000001
  0
LINE
  8
_0-0_LAYER001
  6
CONTINUOUS
 62
    2
 10
1930.1498000000001
 20
1198.6591000000001
 11
1912.1498000000001
 21
1162.6591000000001
  0
LINE
  8
_0-0_LAYER001
  6
CONTINUOUS
 62
    2
 10
1900.1498000000001
 20
1418.0864999999999
 11
1900.1498000000001
 21
1129.4317000000001
  0
LINE
  8
_0-0_LAYER001
  6
CONTINUOUS
 62
    2
 10
1912.1498000000001
 20
1418.0864999999999
 11
1912.1498000000001
 21
1129.4317000000001
  0
LINE
  8
_0-0_LAYER001
  6
CONTINUOUS
 62
    2
 10
1900.1498000000001
 20
1129.4317000000001
 11
1912.1498000000001
 21
1129.4317000000001
  0
LINE
  8
_0-0_LAYER001
  6
CONTINUOUS
 62
    2
 10
1833.1498000000001
 20
1193.8089
 11
1833.1498000000001
 21
1166.3089
  0
CIRCLE
  8
_0-0_LAYER001
  6
CONTINUOUS
 62
    2
 10
1833.1498000000001
 20
1191.3089
 40
1.6999999999999997
  0
LINE
  8
_0-0_LAYER001
  6
CONTINUOUS
 62
    2
 10
1833.1498000000001
 20
1191.3089
 11
1900.1498000000001
 21
1191.3089
  0
CIRCLE
  8
_0-0_LAYER001
  6
CONTINUOUS
 62
    2
 10
1900.1498000000001
 20
1191.3089
 40
1.6999999999999997
  0
LINE
  8
_0-0_LAYER001
  6
CONTINUOUS
 62
    2
 10
1900.1498000000001
 20
1193.8089
 11
1900.1498000000001
 21
1166.3089
  0
LINE
  8
_0-0_LAYER001
  6
CONTINUOUS
 62
    2
 10
2021.7215999999999
 20
1121.6190999999999
 11
1994.2215999999999
 21
1121.6190999999999
  0
CIRCLE
  8
_0-0_LAYER001
  6
CONTINUOUS
 62
    2
 10
2019.2215999999999
 20
1121.6190999999999
 40
1.6999999999999997
  0
LINE
  8
_0-0_LAYER001
  6
CONTINUOUS
 62
    2
 10
2019.2215999999999
 20
1121.6190999999999
 11
2019.2215999999999
 21
1271.6190999999999
  0
CIRCLE
  8
_0-0_LAYER001
  6
CONTINUOUS
 62
    2
 10
2019.2215999999999
 20
1271.6190999999999
 40
1.6999999999999997
  0
LINE
  8
_0-0_LAYER001
  6
CONTINUOUS
 62
    2
 10
2021.7215999999999
 20
1271.6190999999999
 11
1994.2215999999999
 21
1271.6190999999999
  0
LINE
  8
_0-0_LAYER001
  6
CONTINUOUS
 62
    2
 10
1881.1134000000002
 20
1124.8737000000001
 11
1883.0545999999999
 21
1117.6292000000001
  0
LINE
  8
_0-0_LAYER001
  6
CONTINUOUS
 62
    2
 10
1883.0545999999999
 20
1117.6292000000001
 11
1877.7512999999999
 21
1122.9324999999999
  0
LINE
  8
_0-0_LAYER001
  6
CONTINUOUS
 62
    2
 10
1883.0545999999999
 20
1117.6292000000001
 11
1797.7150000000001
 21
1265.4416000000001
  0
LINE
  8
_0-0_LAYER001
  6
CONTINUOUS
 62
    2
 10
1797.7150000000001
 20
1265.4416000000001
 11
1580.2150000000001
 21
1265.4416000000001
  0
LINE
  8
_0-0_LAYER001
  6
CONTINUOUS
 62
    2
 10
1847.1498000000001
 20
1011.4059
 11
1854.4272999999998
 21
1011.4059
  0
LINE
  8
_0-0_LAYER001
  6
CONTINUOUS
 62
    2
 10
1847.1498000000001
 20
1011.4059
 11
1847.1498000000001
 21
998.40570000000002
  0
LINE
  8
_0-3_LAYER009
  6
CONTINUOUS
 62
    2
 10
1937.1498000000001
 20
1019.9671000000001
 11
1937.1498000000001
 21
969.96710000000007
  0
LINE
  8
_0-0_LAYER001
  6
CONTINUOUS
 62
    2
 10
1927.1498000000001
 20
969.96710000000007
 11
1927.1498000000001
 21
869.96710000000007
  0
LINE
  8
_0-0_LAYER001
  6
CONTINUOUS
 62
    2
 10
1927.1498000000001
 20
869.96710000000007
 11
824.27379999999994
 21
869.96710000000007
  0
LINE
  8
_0-0_LAYER001
  6
CONTINUOUS
 62
    2
 10
1927.1498000000001
 20
873.16709999999989
 11
824.27379999999994
 21
873.16709999999989
  0
LINE
  8
_0-0_LAYER001
  6
DASHED1
 62
    2
 10
1927.1498000000001
 20
889.96710000000007
 11
824.27379999999994
 21
889.96710000000007
  0
LINE
  8
_0-0_LAYER001
  6
DASHED1
 62
    2
 10
1927.1498000000001
 20
949.96710000000007
 11
824.27379999999994
 21
949.96710000000007
  0
LINE
  8
_0-0_LAYER001
  6
CONTINUOUS
 62
    2
 10
1927.1498000000001
 20
966.76710000000003
 11
824.27379999999994
 21
966.76710000000003
  0
LINE
  8
_0-3_LAYER009
  6
CONTINUOUS
 62
    2
 10
1937.1498000000001
 20
969.96710000000007
 11
824.27379999999994
 21
969.96710000000007
  0
LINE
  8
_0-2_LAYER007
  6
CONTINUOUS
 62
    2
 10
1933.1498000000001
 20
1061.0942
 11
1931.0365999999999
 21
1055.4786999999999
  0
LINE
  8
_0-3_LAYER009
  6
CONTINUOUS
 62
    2
 10
1937.1498000000001
 20
1363.8391999999999
 11
1937.1498000000001
 21
1019.9671000000001
  0
LINE
  8
_0-0_LAYER001
  6
CONTINUOUS
 62
    2
 10
1843.8434999999999
 20
997.96710000000007
 11
824.27379999999994
 21
997.96710000000007
  0
LINE
  8
_0-0_LAYER001
  6
CONTINUOUS
 62
    2
 10
1937.1498000000001
 20
900.22970000000009
 11
1937.1498000000001
 21
927.72970000000009
  0
CIRCLE
  8
_0-0_LAYER001
  6
CONTINUOUS
 62
    2
 10
1937.1498000000001
 20
902.72970000000009
 40
1.6999999999999997
  0
LINE
  8
_0-0_LAYER001
  6
CONTINUOUS
 62
    2
 10
1937.1498000000001
 20
902.72970000000009
 11
1847.1498000000001
 21
902.72970000000009
  0
CIRCLE
  8
_0-0_LAYER001
  6
CONTINUOUS
 62
    2
 10
1847.1498000000001
 20
902.72970000000009
 40
1.6999999999999997
  0
LINE
  8
_0-0_LAYER001
  6
CONTINUOUS
 62
    2
 10
1847.1498000000001
 20
900.22970000000009
 11
1847.1498000000001
 21
927.72970000000009
  0
LINE
  8
_0-0_LAYER001
  6
CONTINUOUS
 62
    2
 10
1664.2775999999999
 20
1350.0246999999999
 11
1664.2775999999999
 21
1297.5246999999999
  0
CIRCLE
  8
_0-0_LAYER001
  6
CONTINUOUS
 62
    2
 10
1664.2775999999999
 20
1347.5246999999999
 40
1.6999999999999997
  0
LINE
  8
_0-0_LAYER001
  6
CONTINUOUS
 62
    2
 10
1664.2775999999999
 20
1347.5246999999999
 11
1404.2775999999999
 21
1347.5246999999999
  0
CIRCLE
  8
_0-0_LAYER001
  6
CONTINUOUS
 62
    2
 10
1404.2775999999999
 20
1347.5246999999999
 40
1.6999999999999997
  0
LINE
  8
_0-0_LAYER001
  6
CONTINUOUS
 62
    2
 10
1404.2775999999999
 20
1350.0246999999999
 11
1404.2775999999999
 21
1297.5246999999999
  0
CIRCLE
  8
_0-0_LAYER001
  6
CONTINUOUS
 62
    2
 10
1404.2775999999999
 20
1347.5246999999999
 40
1.6999999999999997
  0
LINE
  8
_0-0_LAYER001
  6
CONTINUOUS
 62
    2
 10
1404.2775999999999
 20
1347.5246999999999
 11
1144.2775999999999
 21
1347.5246999999999
  0
CIRCLE
  8
_0-0_LAYER001
  6
CONTINUOUS
 62
    2
 10
1144.2775999999999
 20
1347.5246999999999
 40
1.6999999999999997
  0
LINE
  8
_0-0_LAYER001
  6
CONTINUOUS
 62
    2
 10
1144.2775999999999
 20
1350.0246999999999
 11
1144.2775999999999
 21
1297.5246999999999
  0
CIRCLE
  8
_0-0_LAYER001
  6
CONTINUOUS
 62
    2
 10
1144.2775999999999
 20
1347.5246999999999
 40
1.6999999999999997
  0
LINE
  8
_0-0_LAYER001
  6
CONTINUOUS
 62
    2
 10
1144.2775999999999
 20
1347.5246999999999
 11
884.27759999999989
 21
1347.5246999999999
  0
CIRCLE
  8
_0-0_LAYER001
  6
CONTINUOUS
 62
    2
 10
884.27759999999989
 20
1347.5246999999999
 40
1.6999999999999997
  0
LINE
  8
_0-0_LAYER001
  6
CONTINUOUS
 62
    2
 10
884.27759999999989
 20
1350.0246999999999
 11
884.27759999999989
 21
1297.5246999999999
  0
LINE
  8
_0-0_LAYER001
  6
CONTINUOUS
 62
    2
 10
1925.0169999999998
 20
1082.1335999999999
 11
1923.0758999999998
 21
1089.3779999999999
  0
LINE
  8
_0-0_LAYER001
  6
CONTINUOUS
 62
    2
 10
1923.0758999999998
 20
1089.3779999999999
 11
1928.3791999999999
 21
1084.0746999999999
  0
LINE
  8
_0-0_LAYER001
  6
CONTINUOUS
 62
    2
 10
1923.0758999999998
 20
1089.3779999999999
 11
2015.2260999999999
 21
929.76909999999998
  0
LINE
  8
_0-0_LAYER001
  6
CONTINUOUS
 62
    2
 10
2015.2260999999999
 20
929.76909999999998
 11
2145.7260999999999
 21
929.76909999999998
  0
LINE
  8
_0-0_LAYER001
  6
CONTINUOUS
 62
    2
 10
1492.1754000000001
 20
996.93209999999999
 11
1497.4787000000001
 21
1002.2354
  0
LINE
  8
_0-0_LAYER001
  6
CONTINUOUS
 62
    2
 10
1497.4787000000001
 20
1002.2354
 11
1495.5376000000001
 21
994.99099999999999
  0
LINE
  8
_0-0_LAYER001
  6
CONTINUOUS
 62
    2
 10
1497.4787000000001
 20
1002.2354
 11
1312.5407
 21
681.91339999999991
  0
LINE
  8
_0-0_LAYER001
  6
CONTINUOUS
 62
    2
 10
1346.9738000000002
 20
741.87529999999992
 11
1110.8486
 21
741.87529999999992
  0
LINE
  8
_0-0_LAYER001
  6
CONTINUOUS
 62
    2
 10
1364.6504
 20
771.85629999999992
 11
1172.2577000000001
 21
771.85629999999992
  0
LINE
  8
_0-1_LAYER003
  6
CONTINUOUS
 62
    7
 10
1110.8486
 20
741.87529999999992
 11
1346.9738000000002
 21
741.87529999999992
  0
LINE
  8
_0-1_LAYER003
  6
CONTINUOUS
 62
    7
 10
1364.6504
 20
771.85629999999992
 11
1172.2577000000001
 21
771.85629999999992
  0
LINE
  8
_0-1_LAYER003
  6
CONTINUOUS
 62
    7
 10
824.27379999999994
 20
859.96710000000007
 11
2047.1496999999999
 21
859.96710000000007
  0
LINE
  8
_0-1_LAYER003
  6
CONTINUOUS
 62
    7
 10
1927.1498000000001
 20
869.96710000000007
 11
1927.1498000000001
 21
969.96710000000007
  0
LINE
  8
_0-1_LAYER003
  6
CONTINUOUS
 62
    7
 10
1927.1498000000001
 20
966.76710000000003
 11
824.27379999999994
 21
966.76710000000003
  0
LINE
  8
_0-1_LAYER003
  6
CONTINUOUS
 62
    7
 10
824.27379999999994
 20
969.96710000000007
 11
1937.1498000000001
 21
969.96710000000007
  0
LINE
  8
_0-1_LAYER003
  6
CONTINUOUS
 62
    7
 10
1937.1498000000001
 20
969.96710000000007
 11
1937.1498000000001
 21
1363.8391999999999
  0
LINE
  8
_0-1_LAYER003
  6
CONTINUOUS
 62
    7
 10
1912.1498000000001
 20
1418.0864999999999
 11
1912.1498000000001
 21
1129.4317000000001
  0
LINE
  8
_0-1_LAYER003
  6
CONTINUOUS
 62
    7
 10
1912.1498000000001
 20
1129.4317000000001
 11
1900.1498000000001
 21
1129.4317000000001
  0
LINE
  8
_0-1_LAYER003
  6
CONTINUOUS
 62
    7
 10
1900.1498000000001
 20
1129.4317000000001
 11
1900.1498000000001
 21
1418.0864999999999
  0
LINE
  8
_0-1_LAYER003
  6
CONTINUOUS
 62
    7
 10
1934.3177000000001
 20
1277.1220000000001
 11
1934.3177000000001
 21
1127.1220000000001
  0
LINE
  8
_0-1_LAYER003
  6
CONTINUOUS
 62
    7
 10
1937.1498000000001
 20
994.96710000000007
 11
824.27379999999994
 21
994.96710000000007
  0
LINE
  8
_0-1_LAYER003
  6
CONTINUOUS
 62
    7
 10
1847.1498000000001
 20
998.40570000000002
 11
1847.1498000000001
 21
1011.4059
  0
LINE
  8
_0-1_LAYER003
  6
CONTINUOUS
 62
    7
 10
1847.1498000000001
 20
1011.4059
 11
1854.4272999999998
 21
1011.4059
  0
LINE
  8
_0-1_LAYER003
  6
CONTINUOUS
 62
    7
 10
1854.4272999999998
 20
1011.4059
 11
1847.1498000000001
 21
1011.4059
  0
LINE
  8
_0-1_LAYER003
  6
CONTINUOUS
 62
    7
 10
1843.8434999999999
 20
997.96710000000007
 11
824.27379999999994
 21
997.96710000000007
  0
LINE
  8
_0-0_LAYER001
  6
CONTINUOUS
 62
    2
 10
1843.8434999999999
 20
1012.9671000000001
 11
1843.8434999999999
 21
997.96710000000007
  0
LINE
  8
_0-0_LAYER001
  6
CONTINUOUS
 62
    2
 10
1843.8434999999999
 20
1012.9671000000001
 11
824.27379999999994
 21
1012.9671000000001
  0
LINE
  8
_0-1_LAYER003
  6
CONTINUOUS
 62
    7
 10
824.27379999999994
 20
1012.9671000000001
 11
1843.8434999999999
 21
1012.9671000000001
  0
LINE
  8
_0-1_LAYER003
  6
CONTINUOUS
 62
    7
 10
1843.8434999999999
 20
1012.9671000000001
 11
1843.8434999999999
 21
997.96710000000007
  0
LINE
  8
_0-0_LAYER001
  6
DASHED3
 62
    2
 10
1935.1498000000001
 20
996.46710000000007
 11
824.27379999999994
 21
996.46710000000007
  0
LINE
  8
_0-1_LAYER003
  6
DASHED3
 62
    2
 10
1935.1498000000001
 20
1244.9671000000001
 11
1935.1498000000001
 21
996.46710000000007
  0
LINE
  8
_0-1_LAYER003
  6
CONTINUOUS
 62
    7
 10
1935.1498000000001
 20
1244.9671000000001
 11
1935.1498000000001
 21
996.46710000000007
  0
LINE
  8
_0-1_LAYER003
  6
CONTINUOUS
 62
    7
 10
824.27379999999994
 20
996.46710000000007
 11
1935.1498000000001
 21
996.46710000000007
  0
LINE
  8
_0-2_LAYER007
  6
CONTINUOUS
 62
    2
 10
1847.1498000000001
 20
998.40570000000002
 11
1933.1498000000001
 21
998.40570000000002
  0
LINE
  8
_0-1_LAYER003
  6
CONTINUOUS
 62
    7
 10
1933.1498000000001
 20
998.40570000000002
 11
1847.1498000000001
 21
998.40570000000002
  0
LINE
  8
_0-2_LAYER007
  6
CONTINUOUS
 62
    2
 10
1933.1498000000001
 20
1061.0942
 11
1933.1498000000001
 21
998.40570000000002
  0
LINE
  8
_0-1_LAYER003
  6
CONTINUOUS
 62
    7
 10
1933.1498000000001
 20
998.40570000000002
 11
1933.1498000000001
 21
1061.0942
  0
LINE
  8
_0-1_LAYER003
  6
CONTINUOUS
 62
    7
 10
1907.3177000000001
 20
1070.3888999999999
 11
1937.1498000000001
 21
1070.3888999999999
  0
LINE
  8
_0-1_LAYER003
  6
CONTINUOUS
 62
    7
 10
1907.3177000000001
 20
1070.3888999999999
 11
1907.3177000000001
 21
1105.0989999999999
  0
LINE
  8
_0-1_LAYER003
  6
CONTINUOUS
 62
    7
 10
1907.3177000000001
 20
1105.0989999999999
 11
1907.3177000000001
 21
1093.3887999999999
  0
LINE
  8
_0-1_LAYER003
  6
CONTINUOUS
 62
    7
 10
1913.3175999999999
 20
1093.3887999999999
 11
1913.3175999999999
 21
1087.3888999999999
  0
LINE
  8
_0-1_LAYER003
  6
CONTINUOUS
 62
    7
 10
1913.3175999999999
 20
1087.3888999999999
 11
1980.3177000000001
 21
1087.3888999999999
  0
LINE
  8
_0-1_LAYER003
  6
CONTINUOUS
 62
    7
 10
1913.3175999999999
 20
1093.3887999999999
 11
1980.3177000000001
 21
1093.3887999999999
  0
LINE
  8
_0-1_LAYER003
  6
CONTINUOUS
 62
    7
 10
1955.9863999999998
 20
1061.0942
 11
1982.6863999999998
 21
1061.0942
  0
LINE
  8
_0-1_LAYER003
  6
CONTINUOUS
 62
    7
 10
1980.9863999999998
 20
1061.0942
 11
1980.9863999999998
 21
994.96710000000007
  0
LINE
  8
_0-1_LAYER003
  6
CONTINUOUS
 62
    7
 10
1955.9863999999998
 20
994.96710000000007
 11
1982.6863999999998
 21
994.96710000000007
  0
LINE
  8
_0-1_LAYER003
  6
CONTINUOUS
 62
    7
 10
2051.6655000000001
 20
994.96710000000007
 11
2104.1655000000001
 21
994.96710000000007
  0
LINE
  8
_0-1_LAYER003
  6
CONTINUOUS
 62
    7
 10
2101.6655000000001
 20
994.96710000000007
 11
2101.6655000000001
 21
1243.2671
  0
LINE
  8
_0-1_LAYER003
  6
CONTINUOUS
 62
    7
 10
2051.6655000000001
 20
1244.9671000000001
 11
2104.1655000000001
 21
1244.9671000000001
  0
LINE
  8
_0-1_LAYER003
  6
CONTINUOUS
 62
    7
 10
2101.6655000000001
 20
1244.9671000000001
 11
2051.6655000000001
 21
1244.9671000000001
  0
LINE
  8
_0-1_LAYER003
  6
CONTINUOUS
 62
    7
 10
1994.2215999999999
 20
1271.6190999999999
 11
2021.7215999999999
 21
1271.6190999999999
  0
LINE
  8
_0-1_LAYER003
  6
CONTINUOUS
 62
    7
 10
2019.2215999999999
 20
1269.9190999999998
 11
2019.2215999999999
 21
1121.6190999999999
  0
LINE
  8
_0-1_LAYER003
  6
CONTINUOUS
 62
    7
 10
2020.9215999999997
 20
1121.6190999999999
 11
1994.2215999999999
 21
1121.6190999999999
  0
LINE
  8
_0-1_LAYER003
  6
CONTINUOUS
 62
    7
 10
2019.2215999999999
 20
1269.9190999999998
 11
2019.2215999999999
 21
1271.6190999999999
  0
LINE
  8
_0-1_LAYER003
  6
CONTINUOUS
 62
    7
 10
2101.6655000000001
 20
1243.2671
 11
2101.6655000000001
 21
1244.9671000000001
  0
LINE
  8
_0-1_LAYER003
  6
CONTINUOUS
 62
    7
 10
2015.2260999999999
 20
929.76909999999998
 11
2145.7260999999999
 21
929.76909999999998
  0
LINE
  8
_0-1_LAYER003
  6
CONTINUOUS
 62
    7
 10
1937.1498000000001
 20
927.72970000000009
 11
1937.1498000000001
 21
902.72970000000009
  0
LINE
  8
_0-1_LAYER003
  6
CONTINUOUS
 62
    7
 10
1937.1498000000001
 20
902.72970000000009
 11
1937.1498000000001
 21
901.02970000000016
  0
LINE
  8
_0-1_LAYER003
  6
CONTINUOUS
 62
    7
 10
1937.1498000000001
 20
902.72970000000009
 11
1847.1498000000001
 21
902.72970000000009
  0
LINE
  8
_0-1_LAYER003
  6
CONTINUOUS
 62
    7
 10
1847.1498000000001
 20
902.72970000000009
 11
1847.1498000000001
 21
901.02970000000016
  0
LINE
  8
_0-1_LAYER003
  6
CONTINUOUS
 62
    7
 10
1847.1498000000001
 20
902.72970000000009
 11
1847.1498000000001
 21
927.72970000000009
  0
LINE
  8
_0-1_LAYER003
  6
CONTINUOUS
 62
    7
 10
1927.1498000000001
 20
869.96710000000007
 11
824.27379999999994
 21
869.96710000000007
  0
LINE
  8
_0-1_LAYER003
  6
CONTINUOUS
 62
    7
 10
824.27379999999994
 20
889.96710000000007
 11
1927.1498000000001
 21
889.96710000000007
  0
LINE
  8
_0-1_LAYER003
  6
CONTINUOUS
 62
    7
 10
1927.1498000000001
 20
873.16709999999989
 11
824.27379999999994
 21
873.16709999999989
  0
LINE
  8
_0-1_LAYER003
  6
CONTINUOUS
 62
    7
 10
824.27379999999994
 20
949.96710000000007
 11
1927.1498000000001
 21
949.96710000000007
  0
LINE
  8
_0-1_LAYER003
  6
CONTINUOUS
 62
    7
 10
1241.4985999999999
 20
1139.837
 11
1281.9985999999999
 21
1139.837
  0
LINE
  8
_0-1_LAYER003
  6
CONTINUOUS
 62
    7
 10
1580.2150000000001
 20
1265.4416000000001
 11
1797.7150000000001
 21
1265.4416000000001
  0
LINE
  8
_0-1_LAYER003
  6
CONTINUOUS
 62
    7
 10
1664.2775999999999
 20
1297.5246999999999
 11
1664.2775999999999
 21
1350.0246999999999
  0
LINE
  8
_0-1_LAYER003
  6
CONTINUOUS
 62
    7
 10
1664.2775999999999
 20
1347.5246999999999
 11
884.27759999999989
 21
1347.5246999999999
  0
LINE
  8
_0-1_LAYER003
  6
CONTINUOUS
 62
    7
 10
884.27759999999989
 20
1350.0246999999999
 11
884.27759999999989
 21
1297.5246999999999
  0
LINE
  8
_0-1_LAYER003
  6
CONTINUOUS
 62
    7
 10
1144.2775999999999
 20
1350.0246999999999
 11
1144.2775999999999
 21
1297.5246999999999
  0
LINE
  8
_0-1_LAYER003
  6
CONTINUOUS
 62
    7
 10
1404.2775999999999
 20
1349.2247
 11
1404.2775999999999
 21
1297.5246999999999
  0
LINE
  8
_0-1_LAYER003
  6
CONTINUOUS
 62
    7
 10
1833.1498000000001
 20
1193.0089
 11
1833.1498000000001
 21
1166.3089
  0
LINE
  8
_0-1_LAYER003
  6
CONTINUOUS
 62
    7
 10
1833.1498000000001
 20
1191.3089
 11
1900.1498000000001
 21
1191.3089
  0
LINE
  8
_0-1_LAYER003
  6
CONTINUOUS
 62
    7
 10
1912.1498000000001
 20
1198.6591000000001
 11
1930.1498000000001
 21
1198.6591000000001
  0
LINE
  8
_0-1_LAYER003
  6
CONTINUOUS
 62
    7
 10
1930.1498000000001
 20
1180.6591000000001
 11
1930.1498000000001
 21
1198.6591000000001
  0
LINE
  8
_0-1_LAYER003
  6
CONTINUOUS
 62
    7
 10
1930.1498000000001
 20
1198.6591000000001
 11
1930.1498000000001
 21
1162.6591000000001
  0
LINE
  8
_0-1_LAYER003
  6
CONTINUOUS
 62
    7
 10
1930.1498000000001
 20
1162.6591000000001
 11
1912.1498000000001
 21
1162.6591000000001
  0
LINE
  8
_0-1_LAYER003
  6
CONTINUOUS
 62
    7
 10
1930.1498000000001
 20
1198.6591000000001
 11
1912.1498000000001
 21
1162.6591000000001
  0
LINE
  8
_0-1_LAYER003
  6
CONTINUOUS
 62
    7
 10
1934.3177000000001
 20
1127.1220000000001
 11
1836.9254000000001
 21
1109.9491
  0
LINE
  8
_0-1_LAYER003
  6
CONTINUOUS
 62
    7
 10
1836.9254000000001
 20
1109.9491
 11
1832.2222000000002
 21
1085.5782999999999
  0
LINE
  8
_0-1_LAYER003
  6
CONTINUOUS
 62
    7
 10
1832.2222000000002
 20
1085.5782999999999
 11
1838.1037999999999
 21
1091.7049999999999
  0
LINE
  8
_0-1_LAYER003
  6
CONTINUOUS
 62
    7
 10
1846.0803999999998
 20
1109.5326
 11
1848.6849999999999
 21
1094.7605000000001
  0
LINE
  8
_0-1_LAYER003
  6
CONTINUOUS
 62
    7
 10
1848.6849999999999
 20
1094.7605000000001
 11
1937.1498000000001
 21
1110.3592945794271
  0
LINE
  8
_0-1_LAYER003
  6
CONTINUOUS
 62
    7
 10
1937.1498000000001
 20
1110.3592945794271
 11
1934.3177000000001
 21
1127.1220000000001
  0
LINE
  8
_0-1_LAYER003
  6
CONTINUOUS
 62
    7
 10
1934.6508667503906
 20
1125.1500441747371
 11
1846.0803999999998
 21
1109.5326
  0
LINE
  8
_0-1_LAYER003
  6
CONTINUOUS
 62
    7
 10
1846.0803999999998
 20
1109.5326
 11
1937.3177000000001
 21
1110.3888999999999
  0
LINE
  8
_0-1_LAYER003
  6
CONTINUOUS
 62
    7
 10
1913.3175999999999
 20
1093.3887999999999
 11
1907.3177000000001
 21
1096.3889999999999
  0
LINE
  8
_0-1_LAYER003
  6
CONTINUOUS
 62
    7
 10
1913.3175999999999
 20
1087.3888999999999
 11
1907.3177000000001
 21
1084.3887999999999
  0
LINE
  8
_0-1_LAYER003
  6
CONTINUOUS
 62
    7
 10
1980.3177000000001
 20
1093.3887999999999
 11
1985.3177000000001
 21
1090.3888999999999
  0
LINE
  8
_0-1_LAYER003
  6
CONTINUOUS
 62
    7
 10
1985.3177000000001
 20
1090.3888999999999
 11
1980.3177000000001
 21
1087.3888999999999
  0
LINE
  8
_0-1_LAYER003
  6
CONTINUOUS
 62
    7
 10
1916.4958999999999
 20
1121.9487999999999
 11
1919.3317999999999
 21
1120.8302000000001
  0
LINE
  8
_0-1_LAYER003
  6
CONTINUOUS
 62
    7
 10
1919.3317999999999
 20
1120.8302000000001
 11
1924.0216
 21
1094.2369000000001
  0
LINE
  8
_0-1_LAYER003
  6
CONTINUOUS
 62
    7
 10
1924.0216
 20
1094.2369000000001
 11
1927.4632999999999
 21
1085.9979000000001
  0
LINE
  8
_0-1_LAYER003
  6
CONTINUOUS
 62
    7
 10
1927.4632999999999
 20
1085.9979000000001
 11
1927.6716000000001
 21
1094.8806
  0
LINE
  8
_0-1_LAYER003
  6
CONTINUOUS
 62
    7
 10
1927.6716000000001
 20
1094.8806
 11
1922.9818
 21
1121.4725000000001
  0
LINE
  8
_0-1_LAYER003
  6
CONTINUOUS
 62
    7
 10
1922.9818
 20
1121.4725000000001
 11
1925.2653
 21
1123.4951000000001
  0
LINE
  8
_0-1_LAYER003
  6
CONTINUOUS
 62
    7
 10
1910.8217
 20
1105.7168999999999
 11
1937.1498000000001
 21
1070.6127666666664
  0
LINE
  8
_0-1_LAYER003
  6
CONTINUOUS
 62
    7
 10
1923.0758999999998
 20
1089.3779999999999
 11
1925.0169999999998
 21
1082.1335999999999
  0
LINE
  8
_0-1_LAYER003
  6
CONTINUOUS
 62
    7
 10
1923.0758999999998
 20
1089.3779999999999
 11
1928.3791999999999
 21
1084.0746999999999
  0
LINE
  8
_0-1_LAYER003
  6
CONTINUOUS
 62
    7
 10
1923.0759138959679
 20
1089.3779481387094
 11
2015.2260999999999
 21
929.76909999999998
  0
LINE
  8
_0-1_LAYER003
  6
CONTINUOUS
 62
    7
 10
1889.5164
 20
999.30839999999989
 11
1884.2130999999999
 21
994.00510000000008
  0
LINE
  8
_0-1_LAYER003
  6
CONTINUOUS
 62
    7
 10
1889.5164
 20
999.30839999999989
 11
1887.5753
 21
992.06400000000008
  0
LINE
  8
_0-1_LAYER003
  6
CONTINUOUS
 62
    7
 10
1889.5164
 20
999.30839999999989
 11
1747.8272000000002
 21
753.89540000000011
  0
LINE
  8
_0-1_LAYER003
  6
CONTINUOUS
 62
    7
 10
1497.4787000000001
 20
1002.2354
 11
1492.1754000000001
 21
996.93209999999999
  0
LINE
  8
_0-1_LAYER003
  6
CONTINUOUS
 62
    7
 10
1497.4787000000001
 20
1002.2354
 11
1495.9331134600518
 21
996.46710000000007
  0
LINE
  8
_0-1_LAYER003
  6
CONTINUOUS
 62
    7
 10
1497.4787000000001
 20
1002.2354
 11
1312.5407
 21
681.91339999999991
  0
LINE
  8
_0-1_LAYER003
  6
CONTINUOUS
 62
    7
 10
1340.4468999999999
 20
1038.6015
 11
1338.5057999999999
 21
1045.846
  0
LINE
  8
_0-1_LAYER003
  6
CONTINUOUS
 62
    7
 10
1340.4468999999999
 20
1038.6015
 11
1335.1436000000001
 21
1043.9048
  0
LINE
  8
_0-1_LAYER003
  6
CONTINUOUS
 62
    7
 10
1340.4468999999999
 20
1038.6015
 11
1281.9985999999999
 21
1139.837
  0
LINE
  8
_0-1_LAYER003
  6
CONTINUOUS
 62
    7
 10
1883.0545999999999
 20
1117.6292000000001
 11
1877.7512999999999
 21
1122.9324999999999
  0
LINE
  8
_0-1_LAYER003
  6
CONTINUOUS
 62
    7
 10
1882.6688848312576
 20
1118.0149151687424
 11
1881.1134000000002
 21
1124.8737000000001
  0
LINE
  8
_0-1_LAYER003
  6
CONTINUOUS
 62
    7
 10
1882.9385066736666
 20
1118.0624568012688
 11
1797.7150000000001
 21
1265.4416000000001
  0
TEXT
  8
_0-0_LAYER001
 62
    7
 10
2125.2835000000005
 20
1046.3088
 40
20
 41
1
 50
90
  1
下葺き材立上がり寸法
  0
TEXT
  8
_0-0_LAYER001
 62
    7
 10
2042.6423000000004
 20
1057.8771000000002
 40
20
 41
1
 50
90
  1
水切り鉄板立上がり寸法
  0
TEXT
  8
_0-0_LAYER001
 62
    7
 10
1001.3032909654175
 20
1365.9563096447687
 40
20
 41
1
 50
0
  1
260
  0
TEXT
  8
_0-0_LAYER001
 62
    7
 10
1260.9802298443246
 20
1360.7103108795377
 40
20
 41
1
 50
0
  1
260
  0
TEXT
  8
_0-0_LAYER001
 62
    7
 10
1520.6571687232315
 20
1359.3988111882309
 40
20
 41
1
 50
0
  1
260
  0
TEXT
  8
_0-0_LAYER001
 62
    7
 10
1856.4010896979794
 20
1204.6418476139327
 40
20
 41
1
 50
0
  1
65
  0
TEXT
  8
_0-0_LAYER001
 62
    7
 10
2005.9120545070477
 20
1182.3463528617031
 40
20
 41
1
 50
90
  1
150
  0
TEXT
  8
_0-0_LAYER001
 62
    7
 10
2085.9135356768115
 20
1107.5908704571693
 40
20
 41
1
 50
90
  1
250
  0
TEXT
  8
_0-0_LAYER001
 62
    7
 10
2005.9120545070477
 20
1021.031890830867
 40
20
 41
1
 50
90
  1
65
  0
TEXT
  8
_0-0_LAYER001
 62
    7
 10
1885.1667920840569
 20
907.67131773237907
 40
20
 41
1
 50
0
  1
90
  0
TEXT
  8
_0-0_LAYER001
 62
    7
 10
2015.2261000000008
 20
931.26909999999964
 40
20
 41
1
 50
0
  1
下地：30x40
  0
TEXT
  8
_0-0_LAYER001
 62
    7
 10
1020.4052286193166
 20
684.0015228988301
 40
20
 41
1
 50
0
  1
　鋼製：C100x50x⑳x2.3@606　
  0
TEXT
  8
_0-0_LAYER001
 62
    7
 10
942.0495680088377
 20
716.76843551775755
 40
20
 41
1
 50
0
  1
　野地板：硬質木片セメントパネルt＝25
  0
TEXT
  8
_0-0_LAYER001
 62
    7
 10
1121.5552632255713
 20
745.26140301247722
 40
20
 41
1
 50
0
  1
下葺材：ルーフィング　
  0
TEXT
  8
_0-0_LAYER001
 62
    7
 10
1134.3770985981951
 20
773.75437050719688
 40
20
 41
1
 50
0
  1
　瓦桟：１５ｘ３０以上　
  0
TEXT
  8
_0-0_LAYER001
 62
    7
 10
1467.7448182864146
 20
756.65859001036506
 40
20
 41
1
 50
0
  1
捨谷カラー鋼板0.35ｍｍ以上
  0
TEXT
  8
_0-0_LAYER001
 62
    7
 10
1235.5271332044499
 20
1148.4368930627597
 40
20
 41
1
 50
0
  1
桟　瓦
  0
LINE
  8
_0-0_LAYER001
  6
CONTINUOUS
 62
    2
 10
1747.8272000000002
 20
753.89540000000011
 11
1469.1694666611506
 21
753.89540000000011
  0
LINE
  8
_0-1_LAYER003
  6
CONTINUOUS
 62
    7
 10
1747.8272000000002
 20
753.89540000000011
 11
1463.4708731622068
 21
753.89540000000011
  0
LINE
  8
_0-0_LAYER001
  6
CONTINUOUS
 62
    2
 10
1312.5407
 20
681.91339999999991
 11
1040.3503058656204
 21
681.91339999999991
  0
LINE
  8
_0-1_LAYER003
  6
CONTINUOUS
 62
    7
 10
1041.7749542403565
 20
681.91339999999991
 11
1312.5407
 21
681.91339999999991
  0
LINE
  8
_0-0_LAYER001
  6
CONTINUOUS
 62
    2
 10
1329.3220999999999
 20
710.97959999999989
 11
950.59745825725361
 21
710.97959999999989
  0
LINE
  8
_0-1_LAYER003
  6
CONTINUOUS
 62
    7
 10
1329.3220790360947
 20
710.97959999999989
 11
961.99464525514145
 21
710.97959999999989
  0
TEXT
  8
_0-0_LAYER001
 62
    7
 10
1577.442743141085
 20
1270.9566532900542
 40
20
 41
1
 50
0
  1
登水切カラー鋼板0.35ｍｍ以上
  0
ENDSEC
  0
EOF
