  0
SECTION
  2
HEADER
  9
$ACADVER
  1
AC1009
  9
$INSBASE
 10
0
 20
0
 30
0
  9
$EXTMIN
 10
0
 20
0
  9
$EXTMAX
 10
2970
 20
2100
  9
$LIMMIN
 10
0
 20
0
  9
$LIMMAX
 10
2970
 20
2100
  9
$LTSCALE
 40
10
  0
ENDSEC
  0
SECTION
  2
TABLES
  0
TABLE
  2
LTYPE
 70
     9
  0
LTYPE
  2
CONTINUOUS
 70
    64
  3
実線
 72
    65
 73
     0
 40
0.0
  0
LTYPE
  2
DASHED1
 70
    64
  3
--  --  --  --  --  --  --  --  
 72
    65
 73
     2
 40
2.5
 49
1.25
 49
-1.25
  0
LTYPE
  2
DASHED2
 70
    64
  3
----    ----    ----    ----    
 72
    65
 73
     2
 40
5.0
 49
2.5
 49
-2.5
  0
LTYPE
  2
DASHED3
 70
    64
  3
------  ------  ------  ------  
 72
    65
 73
     2
 40
5.0
 49
3.75
 49
-1.25
  0
LTYPE
  2
CENTER1
 70
    64
  3
----- - ----- - ----- - ----- - 
 72
    65
 73
     4
 40
10.0
 49
6.25
 49
-1.25
 49
1.25
 49
-1.25
  0
LTYPE
  2
CENTER2
 70
    64
  3
----------  --  ----------  --  
 72
    65
 73
     4
 40
20.0
 49
12.5
 49
-2.5
 49
2.5
 49
-2.5
  0
LTYPE
  2
PHANTOM1
 70
    64
  3
--- - - --- - - --- - - --- - - 
 72
    65
 73
     6
 40
10.0
 49
3.25
 49
-1.25
 49
1.25
 49
-1.25
 49
1.25
 49
-1.25
  0
LTYPE
  2
PHANTOM2
 70
    64
  3
--------  -  -  --------  -  -  
 72
    65
 73
     6
 40
20.0
 49
10.0
 49
-2.5
 49
1.25
 49
-2.5
 49
1.25
 49
-2.5
  0
LTYPE
  2
DOT
 70
    64
  3
-   -   -   -   -   -   -   -   
 72
    65
 73
     2
 40
2.5
 49
0.625
 49
-1.875
  0
LTYPE
  2
DUMMY
 70
    64
  3
ダミー
 72
    65
 73
     0
 40
0.0
  0
LTYPE
  2
RAND1
 70
    64
  3
ランダム線1
 72
    65
 73
     4
 40
10.0
 49
1.0
 49
-2.0
 49
3.0
 49
-4.0
  0
LTYPE
  2
RAND2
 70
    64
  3
ランダム線2
 72
    65
 73
     4
 40
14.0
 49
2.0
 49
-3.0
 49
4.0
 49
-5.0
  0
LTYPE
  2
RAND3
 70
    64
  3
ランダム線3
 72
    65
 73
     4
 40
18.0
 49
3.0
 49
-4.0
 49
5.0
 49
-6.0
  0
LTYPE
  2
RAND4
 70
    64
  3
ランダム線4
 72
    65
 73
     4
 40
22.0
 49
4.0
 49
-5.0
 49
6.0
 49
-7.0
  0
LTYPE
  2
RAND5
 70
    64
  3
ランダム線5
 72
    65
 73
     4
 40
26.0
 49
5.0
 49
-6.0
 49
7.0
 49
-8.0
  0
LTYPE
  2
LONG1
 70
    64
  3
----------  --  ----------  --  
 72
    65
 73
     4
 40
40.0
 49
32.5
 49
-2.5
 49
2.5
 49
-2.5
  0
LTYPE
  2
LONG2
 70
    64
  3
--------  -  -  --------  -  -  
 72
    65
 73
     6
 40
40.0
 49
30.0
 49
-2.5
 49
1.25
 49
-2.5
 49
1.25
 49
-2.5
  0
LTYPE
  2
LONG3
 70
    64
  3
+++++++++++++++..+++++++++++++++
 72
    65
 73
     2
 40
40.0
 49
37.5
 49
-2.5
  0
LTYPE
  2
LONG4
 70
    64
  3
+++++++++++++++..+++++++++++++++
 72
    65
 73
     2
 40
80.0
 49
75.0
 49
-5.0
  0
LTYPE
  2
LONG5
 70
    64
  3
----------  --  ----------  --  
 72
    65
 73
     4
 40
60.0
 49
37.5
 49
-7.5
 49
7.5
 49
-7.5
  0
LTYPE
  2
dashed
 70
   64
  3
-------   -------------   ------
 72
   65
 73
    2
 40
7.5
 49
6
 49
-1.5
  0
LTYPE
  2
dashed_spaced
 70
   64
  3
----        --------        ----
 72
   65
 73
    2
 40
12
 49
6
 49
-6
  0
LTYPE
  2
long_dashed_dotted
 70
   64
  3
------------- --- --------------
 72
   65
 73
    4
 40
15.25
 49
12
 49
-1.5
 49
0.25
 49
-1.5
  0
LTYPE
  2
long_dashed_double-dotted
 70
   64
  3
----------- --- --- ------------
 72
   65
 73
    6
 40
17
 49
12
 49
-1.5
 49
0.25
 49
-1.5
 49
0.25
 49
-1.5
  0
LTYPE
  2
long_dashed_triplicate-dotted
 70
   64
  3
--------- --- --- --- ----------
 72
   65
 73
    8
 40
18.75
 49
12
 49
-1.5
 49
0.25
 49
-1.5
 49
0.25
 49
-1.5
 49
0.25
 49
-1.5
  0
LTYPE
  2
dotted
 70
   64
  3
   -       -       -       -    
 72
   65
 73
    2
 40
1.75
 49
0.25
 49
-1.5
  0
LTYPE
  2
chain
 70
   64
  3
-------------- -- --------------
 72
   65
 73
    4
 40
18.5
 49
12
 49
-1.5
 49
3.5
 49
-1.5
  0
LTYPE
  2
chain_double_dash
 70
   64
  3
------------ -- -- -------------
 72
   65
 73
    6
 40
23.5
 49
12
 49
-1.5
 49
3.5
 49
-1.5
 49
3.5
 49
-1.5
  0
LTYPE
  2
dashed_dotted
 70
   64
  3
-----------     -     ----------
 72
   65
 73
    4
 40
9.25
 49
6
 49
-1.5
 49
0.25
 49
-1.5
  0
LTYPE
  2
double-dashed_dotted
 70
   64
  3
------   -----------   -   -----
 72
   65
 73
    6
 40
16.75
 49
6
 49
-1.5
 49
6
 49
-1.5
 49
0.25
 49
-1.5
  0
LTYPE
  2
dashed_double-dotted
 70
   64
  3
---------    -    -    ---------
 72
   65
 73
    6
 40
11
 49
6
 49
-1.5
 49
0.25
 49
-1.5
 49
0.25
 49
-1.5
  0
LTYPE
  2
double-dashed_double-dotted
 70
   64
  3
-----   ---------   -   -   ----
 72
   65
 73
    8
 40
18.5
 49
6
 49
-1.5
 49
6
 49
-1.5
 49
0.25
 49
-1.5
 49
0.25
 49
-1.5
  0
LTYPE
  2
dashed_triplicate-dotted
 70
   64
  3
-------    -    -    -    ------
 72
   65
 73
    8
 40
12.75
 49
6
 49
-1.5
 49
0.25
 49
-1.5
 49
0.25
 49
-1.5
 49
0.25
 49
-1.5
  0
LTYPE
  2
double-dashed_triplicate-dotted
 70
   64
  3
-----  ---------  -  -  -  -----
 72
   65
 73
   10
 40
20.25
 49
6
 49
-1.5
 49
6
 49
-1.5
 49
0.25
 49
-1.5
 49
0.25
 49
-1.5
 49
0.25
 49
-1.5
  0
LTYPE
  2
undefined
 70
   64
  3
--------------------------------
 72
   65
 73
    0
 40
0
  0
ENDTAB
  0
TABLE
  2
STYLE
  5
3
100
AcDbSymbolTable
 70
     1
  0
STYLE
  5
10
100
AcDbSymbolTableRecord
100
AcDbTextStyleTableRecord
  2
STANDARD
 70
     0
 40
0.0
 41
1.0
 50
0.0
 71
     0
 42
0.2
  3
txt
  4
bigfont.shx
  0
STYLE
  5
26
100
AcDbSymbolTableRecord
100
AcDbTextStyleTableRecord
  2
TATEGAKI
 70
    68
 40
0.0
 41
1.0
 50
0.0
 71
     0
 42
1.0
  3
txt
  4
bigfont.shx
  0
ENDTAB
  0
TABLE
  2
LAYER
 70
    3
  0
LAYER
  2
_0-0_LAYER001
 70
   64
 62
    7
  6
CONTINUOUS
  0
LAYER
  2
_0-1_ADD_LINE
 70
   64
 62
    7
  6
CONTINUOUS
  0
LAYER
  2
ADD_LINE
 70
   64
 62
    7
  6
CONTINUOUS
  0
ENDTAB
  0
ENDSEC
  0
SECTION
  2
BLOCKS
  0
ENDSEC
  0
SECTION
  2
ENTITIES
  0
LINE
  8
_0-0_LAYER001
  6
CONTINUOUS
 62
    2
 10
1493.2849000000001
 20
726.10300000000007
 11
1675.6693
 21
808.17579999999998
  0
LINE
  8
_0-0_LAYER001
  6
CONTINUOUS
 62
    2
 10
1410.268
 20
940.74129999999991
 11
1400.0089
 21
917.94329999999991
  0
LINE
  8
_0-0_LAYER001
  6
CONTINUOUS
 62
    2
 10
1410.268
 20
940.74129999999991
 11
1420.5270999999998
 21
917.94329999999991
  0
LINE
  8
_0-0_LAYER001
  6
CONTINUOUS
 62
    2
 10
1515.7338
 20
988.42200000000003
 11
1506.6134000000002
 21
984.31790000000001
  0
LINE
  8
_0-0_LAYER001
  6
CONTINUOUS
 62
    2
 10
1516.9636999999998
 20
985.68550000000005
 11
1507.8452000000002
 21
981.58279999999991
  0
LINE
  8
_0-0_LAYER001
  6
CONTINUOUS
 62
    2
 10
1506.6134000000002
 20
984.31790000000001
 11
1507.8452000000002
 21
981.58279999999991
  0
LINE
  8
_0-0_LAYER001
  6
CONTINUOUS
 62
    2
 10
1515.7338
 20
988.42200000000003
 11
1516.9636999999998
 21
985.68550000000005
  0
LINE
  8
_0-0_LAYER001
  6
CONTINUOUS
 62
    2
 10
1511.1736999999998
 20
986.36999999999989
 11
1512.4045000000001
 21
983.63349999999991
  0
LINE
  8
_0-0_LAYER001
  6
CONTINUOUS
 62
    2
 10
1531.692
 20
940.77440000000001
 11
1527.5697
 21
945.06060000000002
  0
LINE
  8
_0-0_LAYER001
  6
CONTINUOUS
 62
    2
 10
1531.692
 20
940.77440000000001
 11
1531.2175000000002
 21
946.70139999999992
  0
LINE
  8
_0-0_LAYER001
  6
CONTINUOUS
 62
    2
 10
1516.0596999999998
 20
967.62210000000005
 11
1521.6875
 21
971.31359999999995
  0
LINE
  8
_0-0_LAYER001
  6
CONTINUOUS
 62
    2
 10
1518.1116999999999
 20
963.06279999999992
 11
1523.7406000000001
 21
966.75340000000006
  0
LINE
  8
_0-0_LAYER001
  6
CONTINUOUS
 62
    2
 10
1520.1646000000001
 20
958.50250000000005
 11
1525.7921999999999
 21
962.19419999999991
  0
LINE
  8
_0-0_LAYER001
  6
CONTINUOUS
 62
    2
 10
1516.0601999999999
 20
967.62149999999997
 11
1521.6878999999999
 21
971.31410000000005
  0
LINE
  8
_0-0_LAYER001
  6
CONTINUOUS
 62
    2
 10
1518.1120999999998
 20
963.06330000000003
 11
1523.7397999999998
 21
966.75479999999993
  0
LINE
  8
_0-0_LAYER001
  6
CONTINUOUS
 62
    2
 10
1520.1639
 20
958.50299999999993
 11
1525.7928000000002
 21
962.19479999999999
  0
LINE
  8
_0-0_LAYER001
  6
CONTINUOUS
 62
    2
 10
1522.2168000000001
 20
953.94389999999999
 11
1527.8436999999999
 21
957.63439999999991
  0
LINE
  8
_0-0_LAYER001
  6
CONTINUOUS
 62
    2
 10
1524.2678000000001
 20
949.38359999999989
 11
1529.8955999999998
 21
953.07539999999995
  0
LINE
  8
_0-0_LAYER001
  6
CONTINUOUS
 62
    2
 10
1525.8038000000001
 20
945.97160000000008
 11
1531.4312
 21
949.66319999999996
  0
LINE
  8
_0-0_LAYER001
  6
CONTINUOUS
 62
    2
 10
1515.4594000000002
 20
981.72119999999995
 11
1531.2175000000002
 21
946.70139999999992
  0
LINE
  8
_0-0_LAYER001
  6
CONTINUOUS
 62
    2
 10
1516.9636999999998
 20
985.68550000000005
 11
1515.4594000000002
 21
981.72119999999995
  0
LINE
  8
_0-0_LAYER001
  6
CONTINUOUS
 62
    2
 10
1511.8128000000002
 20
980.07729999999992
 11
1527.5697
 21
945.06060000000002
  0
LINE
  8
_0-0_LAYER001
  6
CONTINUOUS
 62
    2
 10
1507.8452000000002
 20
981.58279999999991
 11
1511.8126999999999
 21
980.07729999999992
  0
LINE
  8
_0-0_LAYER001
  6
CONTINUOUS
 62
    2
 10
1429.3357000000001
 20
921.9070999999999
 11
2031.7505999999998
 21
1192.9933000000001
  0
LINE
  8
_0-0_LAYER001
  6
CONTINUOUS
 62
    2
 10
1410.268
 20
789.96090000000004
 11
2077.9166
 21
1090.4021
  0
LINE
  8
_0-0_LAYER001
  6
CONTINUOUS
 62
    2
 10
1575.0837999999999
 20
897.02559999999994
 11
1577.1808999999998
 21
897.96929999999998
  0
LINE
  8
_0-0_LAYER001
  6
CONTINUOUS
 62
    2
 10
1550.46
 20
951.74029999999993
 11
1552.5578999999998
 21
952.68389999999999
  0
LINE
  8
_0-0_LAYER001
  6
CONTINUOUS
 62
    2
 10
1544.3045999999999
 20
965.4197999999999
 11
1550.46
 21
951.74029999999993
  0
LINE
  8
_0-0_LAYER001
  6
CONTINUOUS
 62
    2
 10
1504.2581
 20
950.3596
 11
1540.7338
 21
966.77369999999996
  0
LINE
  8
_0-0_LAYER001
  6
CONTINUOUS
 62
    2
 10
1539.7912000000001
 20
968.87069999999994
 11
1503.3136
 21
952.4556
  0
LINE
  8
_0-0_LAYER001
  6
CONTINUOUS
 62
    2
 10
1546.4023000000002
 20
966.36339999999996
 11
1552.5578999999998
 21
952.68389999999999
  0
LINE
  8
_0-0_LAYER001
  6
CONTINUOUS
 62
    2
 10
1537.7393999999999
 20
863.77060000000006
 11
1500.8062
 21
945.84439999999995
  0
LINE
  8
_0-0_LAYER001
  6
CONTINUOUS
 62
    2
 10
1580.8292000000001
 20
877.67859999999996
 11
1544.3505
 21
861.2632000000001
  0
LINE
  8
_0-0_LAYER001
  6
CONTINUOUS
 62
    2
 10
1583.3364999999999
 20
884.28960000000006
 11
1577.1808999999998
 21
897.96929999999998
  0
LINE
  8
_0-0_LAYER001
  6
CONTINUOUS
 62
    2
 10
1581.2397000000001
 20
883.34609999999998
 11
1575.0837999999999
 21
897.02559999999994
  0
LINE
  8
_0-0_LAYER001
  6
CONTINUOUS
 62
    2
 10
1543.4079999999999
 20
863.36020000000008
 11
1579.8856000000001
 21
879.77549999999997
  0
LINE
  8
_0-0_LAYER001
  6
CONTINUOUS
 62
    2
 10
1539.8373999999999
 20
864.71430000000009
 11
1502.9043000000001
 21
946.78909999999996
  0
LINE
  8
_0-0_LAYER001
  6
CONTINUOUS
 62
    2
 10
1543.8957
 20
850.09359999999992
 11
1506.9616999999998
 21
932.16640000000007
  0
LINE
  8
_0-0_LAYER001
  6
CONTINUOUS
 62
    2
 10
1502.6304
 20
924.7342000000001
 11
1530.5358999999999
 21
862.72420000000011
  0
LINE
  8
_0-0_LAYER001
  6
CONTINUOUS
 62
    2
 10
1505.1377000000002
 20
931.3463999999999
 11
1506.9616999999998
 21
932.16640000000007
  0
LINE
  8
_0-0_LAYER001
  6
CONTINUOUS
 62
    2
 10
1463.5092
 20
821.5954999999999
 11
1525.5203000000001
 21
849.50109999999995
  0
LINE
  8
_0-0_LAYER001
  6
CONTINUOUS
 62
    2
 10
1521.3699999999999
 20
905.7527
 11
1524.1062999999999
 21
906.9837
  0
LINE
  8
_0-0_LAYER001
  6
CONTINUOUS
 62
    2
 10
1514.8040999999998
 20
920.3429000000001
 11
1517.5403000000001
 21
921.57379999999989
  0
LINE
  8
_0-0_LAYER001
  6
CONTINUOUS
 62
    2
 10
1530.6718000000001
 20
892.39470000000006
 11
1517.5403000000001
 21
921.57379999999989
  0
LINE
  8
_0-0_LAYER001
  6
CONTINUOUS
 62
    2
 10
1527.9355
 20
891.16270000000009
 11
1530.6718000000001
 21
892.39470000000006
  0
LINE
  8
_0-0_LAYER001
  6
CONTINUOUS
 62
    2
 10
1529.9430000000002
 20
918.38220000000001
 11
1540.6120999999998
 21
923.18419999999992
  0
LINE
  8
_0-0_LAYER001
  6
CONTINUOUS
 62
    2
 10
1536.5084000000002
 20
903.79299999999989
 11
1547.1777000000002
 21
908.59390000000008
  0
LINE
  8
_0-0_LAYER001
  6
CONTINUOUS
 62
    2
 10
1535.0904
 20
904.33150000000001
 11
1526.9490000000001
 21
900.66840000000002
  0
LINE
  8
_0-0_LAYER001
  6
CONTINUOUS
 62
    2
 10
1529.4043999999999
 20
916.96599999999989
 11
1521.2640999999999
 21
913.30220000000008
  0
LINE
  8
_0-0_LAYER001
  6
CONTINUOUS
 62
    2
 10
1526.5623999999998
 20
923.28440000000001
 11
1518.4200000000001
 21
919.62030000000004
  0
LINE
  8
_0-0_LAYER001
  6
CONTINUOUS
 62
    2
 10
1528.2997
 20
922.03279999999995
 11
1526.5623999999998
 21
923.28440000000001
  0
LINE
  8
_0-0_LAYER001
  6
CONTINUOUS
 62
    2
 10
1538.1493
 20
900.14630000000011
 11
1528.2997
 21
922.03279999999995
  0
LINE
  8
_0-0_LAYER001
  6
CONTINUOUS
 62
    2
 10
1537.9335000000001
 20
898.01309999999989
 11
1529.7921999999999
 21
894.34920000000011
  0
LINE
  8
_0-0_LAYER001
  6
CONTINUOUS
 62
    2
 10
1538.1493
 20
900.14630000000011
 11
1537.9335000000001
 21
898.01309999999989
  0
LINE
  8
_0-0_LAYER001
  6
CONTINUOUS
 62
    2
 10
1548.1815999999999
 20
911.23890000000006
 11
1547.1777000000002
 21
908.59390000000008
  0
LINE
  8
_0-0_LAYER001
  6
CONTINUOUS
 62
    2
 10
1543.2568000000001
 20
922.18110000000001
 11
1548.1815999999999
 21
911.23890000000006
  0
LINE
  8
_0-0_LAYER001
  6
CONTINUOUS
 62
    2
 10
1540.6120999999998
 20
923.18419999999992
 11
1543.2568000000001
 21
922.18110000000001
  0
LINE
  8
_0-0_LAYER001
  6
CONTINUOUS
 62
    2
 10
1540.6120999999998
 20
923.18419999999992
 11
1547.1777000000002
 21
908.59390000000008
  0
LINE
  8
_0-0_LAYER001
  6
CONTINUOUS
 62
    2
 10
1540.6120999999998
 20
923.18419999999992
 11
1544.6044000000002
 21
907.43599999999992
  0
LINE
  8
_0-0_LAYER001
  6
CONTINUOUS
 62
    2
 10
1535.0558999999998
 20
920.68360000000007
 11
1539.0493999999999
 21
904.93550000000005
  0
LINE
  8
_0-0_LAYER001
  6
CONTINUOUS
 62
    2
 10
1501.9047999999998
 20
904.58960000000002
 11
1510.0459000000001
 21
908.25260000000003
  0
LINE
  8
_0-0_LAYER001
  6
CONTINUOUS
 62
    2
 10
1507.5906
 20
891.95489999999995
 11
1515.732
 21
895.61899999999991
  0
LINE
  8
_0-0_LAYER001
  6
CONTINUOUS
 62
    2
 10
1510.4328999999998
 20
885.63670000000002
 11
1518.5749999999998
 21
889.30060000000003
  0
LINE
  8
_0-0_LAYER001
  6
CONTINUOUS
 62
    2
 10
1508.6952999999999
 20
886.8882000000001
 11
1510.4328999999998
 21
885.63670000000002
  0
LINE
  8
_0-0_LAYER001
  6
CONTINUOUS
 62
    2
 10
1498.8458000000001
 20
908.77479999999991
 11
1508.6952999999999
 21
886.8882000000001
  0
LINE
  8
_0-0_LAYER001
  6
CONTINUOUS
 62
    2
 10
1499.0614999999998
 20
910.90769999999998
 11
1507.2026999999998
 21
914.57179999999994
  0
LINE
  8
_0-0_LAYER001
  6
CONTINUOUS
 62
    2
 10
1498.8458000000001
 20
908.77479999999991
 11
1499.0614999999998
 21
910.90769999999998
  0
LINE
  8
_0-0_LAYER001
  6
CONTINUOUS
 62
    2
 10
1461.0019000000002
 20
814.98430000000008
 11
1461.8227999999999
 21
813.16049999999996
  0
LINE
  8
_0-0_LAYER001
  6
CONTINUOUS
 62
    2
 10
1461.8227999999999
 20
813.16049999999996
 11
1543.8959
 21
850.09320000000002
  0
LINE
  8
_0-0_LAYER001
  6
CONTINUOUS
 62
    2
 10
1544.3507
 20
970.92239999999993
 11
1543.3247999999999
 21
973.20209999999997
  0
LINE
  8
_0-0_LAYER001
  6
CONTINUOUS
 62
    2
 10
1544.3507
 20
970.92239999999993
 11
1410.268
 21
910.58529999999996
  0
LINE
  8
_0-0_LAYER001
  6
CONTINUOUS
 62
    2
 10
1429.3357000000001
 20
921.9070999999999
 11
1410.268
 21
913.32670000000007
  0
ARC
  8
_0-0_LAYER001
  6
CONTINUOUS
 62
    2
 10
1541.8422
 20
964.31140000000005
 40
2.7000000000000002
 50
24.240387000000002
 51
114.23249
  0
ARC
  8
_0-0_LAYER001
  6
CONTINUOUS
 62
    2
 10
1505.3663999999999
 20
947.89740000000006
 40
2.7000000000000002
 50
114.23249
 51
204.21280999999999
  0
ARC
  8
_0-0_LAYER001
  6
CONTINUOUS
 62
    2
 10
1505.3643999999999
 20
947.89640000000009
 40
4.9989999999999997
 50
114.2201
 51
204.23075000000003
  0
ARC
  8
_0-0_LAYER001
  6
CONTINUOUS
 62
    2
 10
1541.8431999999998
 20
964.31259999999997
 40
4.9989999999999997
 50
24.224366
 51
114.24137000000002
  0
ARC
  8
_0-0_LAYER001
  6
CONTINUOUS
 62
    2
 10
1542.2984999999999
 20
865.82140000000004
 40
4.9989999999999997
 50
204.20947000000001
 51
294.23500999999999
  0
ARC
  8
_0-0_LAYER001
  6
CONTINUOUS
 62
    2
 10
1578.7782000000002
 20
882.2376999999999
 40
4.9989999999999997
 50
294.21372000000002
 51
24.245652
  0
ARC
  8
_0-0_LAYER001
  6
CONTINUOUS
 62
    2
 10
1578.7770999999998
 20
882.2376999999999
 40
2.7000000000000002
 50
294.22068000000002
 51
24.240386999999998
  0
ARC
  8
_0-0_LAYER001
  6
CONTINUOUS
 62
    2
 10
1542.2993999999999
 20
865.82240000000002
 40
2.7000000000000002
 50
204.21281000000002
 51
294.22068000000002
  0
ARC
  8
_0-0_LAYER001
  6
CONTINUOUS
 62
    2
 10
1521.4144999999999
 20
858.62139999999999
 40
10.001999
 50
294.23667
 51
24.223908000000026
  0
ARC
  8
_0-0_LAYER001
  6
CONTINUOUS
 62
    2
 10
1507.1886
 20
926.78620000000001
 40
4.9989999999999997
 50
114.2201
 51
204.23075000000003
  0
ARC
  8
_0-0_LAYER001
  6
CONTINUOUS
 62
    2
 10
1465.5599000000002
 20
817.03610000000003
 40
4.9989999999999997
 50
114.2201
 51
204.23075000000003
  0
ARC
  8
_0-0_LAYER001
  6
CONTINUOUS
 62
    2
 10
1523.3510000000001
 20
918.04950000000008
 40
6.1470010000000013
 50
349.86246999999997
 51
23.869750999999997
  0
ARC
  8
_0-0_LAYER001
  6
CONTINUOUS
 62
    2
 10
1531.8771000000002
 20
899.07670000000007
 40
6.1580000000000004
 50
24.600936999999995
 51
58.555587999999993
  0
ARC
  8
_0-0_LAYER001
  6
CONTINUOUS
 62
    2
 10
1512.3427999999999
 20
901.69280000000003
 40
22.898997999999999
 50
6.6165019999999997
 51
41.83201600000001
  0
ARC
  8
_0-0_LAYER001
  6
CONTINUOUS
 62
    2
 10
1513.645
 20
890.87429999999995
 40
6.1479999999999997
 50
169.87801999999999
 51
203.89276000000001
  0
ARC
  8
_0-0_LAYER001
  6
CONTINUOUS
 62
    2
 10
1505.1113999999998
 20
909.83590000000004
 40
6.1479999999999997
 50
204.55376999999996
 51
238.55602999999996
  0
ARC
  8
_0-0_LAYER001
  6
CONTINUOUS
 62
    2
 10
1524.6876999999999
 20
907.24559999999997
 40
22.936000999999997
 50
186.64733000000001
 51
221.80410000000003
  0
LINE
  8
_0-0_LAYER001
  6
CONTINUOUS
 62
    2
 10
1410.268
 20
940.74129999999991
 11
2021.4915000000001
 21
1215.7914000000001
  0
LINE
  8
_0-0_LAYER001
  6
DASHED3
 62
    2
 10
1410.268
 20
943.4828
 11
2020.4656
 21
1218.0712000000001
  0
LINE
  8
_0-0_LAYER001
  6
CONTINUOUS
 62
    2
 10
1410.268
 20
940.74129999999991
 11
795.26050000000009
 21
1217.4942000000001
  0
LINE
  8
_0-0_LAYER001
  6
DASHED3
 62
    2
 10
1410.268
 20
943.4828
 11
796.28639999999996
 21
1219.7739999999999
  0
LINE
  8
_0-0_LAYER001
  6
CONTINUOUS
 62
    2
 10
1391.2003999999999
 20
921.9070999999999
 11
785.0014000000001
 21
1194.6962000000001
  0
LINE
  8
_0-0_LAYER001
  6
CONTINUOUS
 62
    2
 10
1410.268
 20
789.96090000000004
 11
738.83539999999994
 21
1092.1049
  0
LINE
  8
_0-0_LAYER001
  6
CONTINUOUS
 62
    2
 10
1245.4522999999999
 20
897.02559999999994
 11
1243.3552
 21
897.96929999999998
  0
LINE
  8
_0-0_LAYER001
  6
CONTINUOUS
 62
    2
 10
1270.076
 20
951.74029999999993
 11
1267.9782
 21
952.68389999999999
  0
LINE
  8
_0-0_LAYER001
  6
CONTINUOUS
 62
    2
 10
1276.2315000000001
 20
965.4197999999999
 11
1270.076
 21
951.74029999999993
  0
LINE
  8
_0-0_LAYER001
  6
CONTINUOUS
 62
    2
 10
1316.2779
 20
950.3596
 11
1279.8022000000001
 21
966.77369999999996
  0
LINE
  8
_0-0_LAYER001
  6
CONTINUOUS
 62
    2
 10
1280.7447999999999
 20
968.87069999999994
 11
1317.2224000000001
 21
952.4556
  0
LINE
  8
_0-0_LAYER001
  6
CONTINUOUS
 62
    2
 10
1274.1338000000001
 20
966.36339999999996
 11
1267.9782
 21
952.68389999999999
  0
LINE
  8
_0-0_LAYER001
  6
CONTINUOUS
 62
    2
 10
1282.7965999999997
 20
863.77060000000006
 11
1319.7298000000001
 21
945.84439999999995
  0
LINE
  8
_0-0_LAYER001
  6
CONTINUOUS
 62
    2
 10
1239.7068999999999
 20
877.67859999999996
 11
1276.1856
 21
861.2632000000001
  0
LINE
  8
_0-0_LAYER001
  6
CONTINUOUS
 62
    2
 10
1237.1995999999999
 20
884.28960000000006
 11
1243.3552
 21
897.96929999999998
  0
LINE
  8
_0-0_LAYER001
  6
CONTINUOUS
 62
    2
 10
1239.2963999999999
 20
883.34609999999998
 11
1245.4522999999999
 21
897.02559999999994
  0
LINE
  8
_0-0_LAYER001
  6
CONTINUOUS
 62
    2
 10
1277.1279999999999
 20
863.36020000000008
 11
1240.6505
 21
879.77549999999997
  0
LINE
  8
_0-0_LAYER001
  6
CONTINUOUS
 62
    2
 10
1280.6986000000002
 20
864.71430000000009
 11
1317.6318000000001
 21
946.78909999999996
  0
LINE
  8
_0-0_LAYER001
  6
CONTINUOUS
 62
    2
 10
1276.6404
 20
850.09359999999992
 11
1313.5744
 21
932.16640000000007
  0
LINE
  8
_0-0_LAYER001
  6
CONTINUOUS
 62
    2
 10
1317.9057
 20
924.7342000000001
 11
1290.0001
 21
862.72420000000011
  0
LINE
  8
_0-0_LAYER001
  6
CONTINUOUS
 62
    2
 10
1315.3982999999998
 20
931.3463999999999
 11
1313.5744
 21
932.16640000000007
  0
LINE
  8
_0-0_LAYER001
  6
CONTINUOUS
 62
    2
 10
1357.0269000000003
 20
821.5954999999999
 11
1295.0156999999999
 21
849.50109999999995
  0
LINE
  8
_0-0_LAYER001
  6
CONTINUOUS
 62
    2
 10
1299.1660999999999
 20
905.7527
 11
1296.4297999999999
 21
906.9837
  0
LINE
  8
_0-0_LAYER001
  6
CONTINUOUS
 62
    2
 10
1305.7319000000002
 20
920.3429000000001
 11
1302.9956999999999
 21
921.57379999999989
  0
LINE
  8
_0-0_LAYER001
  6
CONTINUOUS
 62
    2
 10
1289.8642999999997
 20
892.39470000000006
 11
1302.9956999999999
 21
921.57379999999989
  0
LINE
  8
_0-0_LAYER001
  6
CONTINUOUS
 62
    2
 10
1292.6006000000002
 20
891.16270000000009
 11
1289.8642999999997
 21
892.39470000000006
  0
LINE
  8
_0-0_LAYER001
  6
CONTINUOUS
 62
    2
 10
1290.5931
 20
918.38220000000001
 11
1279.924
 21
923.18419999999992
  0
LINE
  8
_0-0_LAYER001
  6
CONTINUOUS
 62
    2
 10
1284.0277000000001
 20
903.79299999999989
 11
1273.3584000000001
 21
908.59390000000008
  0
LINE
  8
_0-0_LAYER001
  6
CONTINUOUS
 62
    2
 10
1285.4457
 20
904.33150000000001
 11
1293.587
 21
900.66840000000002
  0
LINE
  8
_0-0_LAYER001
  6
CONTINUOUS
 62
    2
 10
1291.1316999999999
 20
916.96599999999989
 11
1299.2719
 21
913.30220000000008
  0
LINE
  8
_0-0_LAYER001
  6
CONTINUOUS
 62
    2
 10
1293.9737
 20
923.28440000000001
 11
1302.1161000000002
 21
919.62030000000004
  0
LINE
  8
_0-0_LAYER001
  6
CONTINUOUS
 62
    2
 10
1292.2363999999998
 20
922.03279999999995
 11
1293.9737
 21
923.28440000000001
  0
LINE
  8
_0-0_LAYER001
  6
CONTINUOUS
 62
    2
 10
1282.3867999999998
 20
900.14630000000011
 11
1292.2363999999998
 21
922.03279999999995
  0
LINE
  8
_0-0_LAYER001
  6
CONTINUOUS
 62
    2
 10
1282.6025999999999
 20
898.01309999999989
 11
1290.7438
 21
894.34920000000011
  0
LINE
  8
_0-0_LAYER001
  6
CONTINUOUS
 62
    2
 10
1282.3867999999998
 20
900.14630000000011
 11
1282.6025999999999
 21
898.01309999999989
  0
LINE
  8
_0-0_LAYER001
  6
CONTINUOUS
 62
    2
 10
1272.3544999999999
 20
911.23890000000006
 11
1273.3584000000001
 21
908.59390000000008
  0
LINE
  8
_0-0_LAYER001
  6
CONTINUOUS
 62
    2
 10
1277.2791999999999
 20
922.18110000000001
 11
1272.3544999999999
 21
911.23890000000006
  0
LINE
  8
_0-0_LAYER001
  6
CONTINUOUS
 62
    2
 10
1279.924
 20
923.18419999999992
 11
1277.2791999999999
 21
922.18110000000001
  0
LINE
  8
_0-0_LAYER001
  6
CONTINUOUS
 62
    2
 10
1279.924
 20
923.18419999999992
 11
1273.3584000000001
 21
908.59390000000008
  0
LINE
  8
_0-0_LAYER001
  6
CONTINUOUS
 62
    2
 10
1279.924
 20
923.18419999999992
 11
1275.9317000000001
 21
907.43599999999992
  0
LINE
  8
_0-0_LAYER001
  6
CONTINUOUS
 62
    2
 10
1285.4802
 20
920.68360000000007
 11
1281.4866999999999
 21
904.93550000000005
  0
LINE
  8
_0-0_LAYER001
  6
CONTINUOUS
 62
    2
 10
1318.6313
 20
904.58960000000002
 11
1310.4901
 21
908.25260000000003
  0
LINE
  8
_0-0_LAYER001
  6
CONTINUOUS
 62
    2
 10
1312.9455000000003
 20
891.95489999999995
 11
1304.8041000000001
 21
895.61899999999991
  0
LINE
  8
_0-0_LAYER001
  6
CONTINUOUS
 62
    2
 10
1310.1031
 20
885.63670000000002
 11
1301.9611
 21
889.30060000000003
  0
LINE
  8
_0-0_LAYER001
  6
CONTINUOUS
 62
    2
 10
1311.8407999999999
 20
886.8882000000001
 11
1310.1031
 21
885.63670000000002
  0
LINE
  8
_0-0_LAYER001
  6
CONTINUOUS
 62
    2
 10
1321.6903
 20
908.77479999999991
 11
1311.8407999999999
 21
886.8882000000001
  0
LINE
  8
_0-0_LAYER001
  6
CONTINUOUS
 62
    2
 10
1321.4746
 20
910.90769999999998
 11
1313.3332999999998
 21
914.57179999999994
  0
LINE
  8
_0-0_LAYER001
  6
CONTINUOUS
 62
    2
 10
1321.6903
 20
908.77479999999991
 11
1321.4746
 21
910.90769999999998
  0
LINE
  8
_0-0_LAYER001
  6
CONTINUOUS
 62
    2
 10
1359.5342000000001
 20
814.98430000000008
 11
1358.7132999999999
 21
813.16049999999996
  0
LINE
  8
_0-0_LAYER001
  6
CONTINUOUS
 62
    2
 10
1358.7132999999999
 20
813.16049999999996
 11
1276.6402
 21
850.09320000000002
  0
LINE
  8
_0-0_LAYER001
  6
CONTINUOUS
 62
    2
 10
1304.8023000000001
 20
988.42200000000003
 11
1313.9227000000001
 21
984.31790000000001
  0
LINE
  8
_0-0_LAYER001
  6
CONTINUOUS
 62
    2
 10
1303.5723000000003
 20
985.68550000000005
 11
1312.6908000000001
 21
981.58279999999991
  0
LINE
  8
_0-0_LAYER001
  6
CONTINUOUS
 62
    2
 10
1313.9227000000001
 20
984.31790000000001
 11
1312.6908000000001
 21
981.58279999999991
  0
LINE
  8
_0-0_LAYER001
  6
CONTINUOUS
 62
    2
 10
1304.8023000000001
 20
988.42200000000003
 11
1303.5723000000003
 21
985.68550000000005
  0
LINE
  8
_0-0_LAYER001
  6
CONTINUOUS
 62
    2
 10
1309.3624
 20
986.36999999999989
 11
1308.1315999999997
 21
983.63349999999991
  0
LINE
  8
_0-0_LAYER001
  6
CONTINUOUS
 62
    2
 10
1288.8441
 20
940.77440000000001
 11
1292.9663
 21
945.06060000000002
  0
LINE
  8
_0-0_LAYER001
  6
CONTINUOUS
 62
    2
 10
1288.8441
 20
940.77440000000001
 11
1289.3186000000001
 21
946.70139999999992
  0
LINE
  8
_0-0_LAYER001
  6
CONTINUOUS
 62
    2
 10
1304.4763
 20
967.62210000000005
 11
1298.8486
 21
971.31359999999995
  0
LINE
  8
_0-0_LAYER001
  6
CONTINUOUS
 62
    2
 10
1302.4244000000001
 20
963.06279999999992
 11
1296.7955000000002
 21
966.75340000000006
  0
LINE
  8
_0-0_LAYER001
  6
CONTINUOUS
 62
    2
 10
1300.3714
 20
958.50250000000005
 11
1294.7438999999999
 21
962.19419999999991
  0
LINE
  8
_0-0_LAYER001
  6
CONTINUOUS
 62
    2
 10
1304.4757999999999
 20
967.62149999999997
 11
1298.8481999999999
 21
971.31410000000005
  0
LINE
  8
_0-0_LAYER001
  6
CONTINUOUS
 62
    2
 10
1302.4239
 20
963.06330000000003
 11
1296.7963
 21
966.75479999999993
  0
LINE
  8
_0-0_LAYER001
  6
CONTINUOUS
 62
    2
 10
1300.3721
 20
958.50299999999993
 11
1294.7433000000001
 21
962.19479999999999
  0
LINE
  8
_0-0_LAYER001
  6
CONTINUOUS
 62
    2
 10
1298.3193000000001
 20
953.94389999999999
 11
1292.6923999999999
 21
957.63439999999991
  0
LINE
  8
_0-0_LAYER001
  6
CONTINUOUS
 62
    2
 10
1296.2682999999997
 20
949.38359999999989
 11
1290.6405
 21
953.07539999999995
  0
LINE
  8
_0-0_LAYER001
  6
CONTINUOUS
 62
    2
 10
1294.7323000000001
 20
945.97160000000008
 11
1289.1049
 21
949.66319999999996
  0
LINE
  8
_0-0_LAYER001
  6
CONTINUOUS
 62
    2
 10
1305.0766000000001
 20
981.72119999999995
 11
1289.3186000000001
 21
946.70139999999992
  0
LINE
  8
_0-0_LAYER001
  6
CONTINUOUS
 62
    2
 10
1303.5723000000003
 20
985.68550000000005
 11
1305.0766000000001
 21
981.72119999999995
  0
LINE
  8
_0-0_LAYER001
  6
CONTINUOUS
 62
    2
 10
1308.7233000000001
 20
980.07729999999992
 11
1292.9663
 21
945.06060000000002
  0
LINE
  8
_0-0_LAYER001
  6
CONTINUOUS
 62
    2
 10
1312.6908000000001
 20
981.58279999999991
 11
1308.7234000000001
 21
980.07729999999992
  0
LINE
  8
_0-0_LAYER001
  6
CONTINUOUS
 62
    2
 10
1276.1854000000001
 20
970.92239999999993
 11
1277.2112
 21
973.20209999999997
  0
LINE
  8
_0-0_LAYER001
  6
CONTINUOUS
 62
    2
 10
1276.1854000000001
 20
970.92239999999993
 11
1410.268
 21
910.58529999999996
  0
LINE
  8
_0-0_LAYER001
  6
CONTINUOUS
 62
    2
 10
1391.2003999999999
 20
921.9070999999999
 11
1410.268
 21
913.32670000000007
  0
ARC
  8
_0-0_LAYER001
  6
CONTINUOUS
 62
    2
 10
1278.6939
 20
964.31140000000005
 40
2.7000000000000002
 50
65.767509000000004
 51
155.75961000000001
  0
ARC
  8
_0-0_LAYER001
  6
CONTINUOUS
 62
    2
 10
1315.1695999999997
 20
947.89740000000006
 40
2.7000000000000002
 50
335.78717999999998
 51
65.767509000000032
  0
ARC
  8
_0-0_LAYER001
  6
CONTINUOUS
 62
    2
 10
1315.1717000000003
 20
947.89640000000009
 40
4.9989999999999997
 50
335.76924000000002
 51
65.779899
  0
ARC
  8
_0-0_LAYER001
  6
CONTINUOUS
 62
    2
 10
1278.6929
 20
964.31259999999997
 40
4.9989999999999997
 50
65.758628999999999
 51
155.77563000000001
  0
ARC
  8
_0-0_LAYER001
  6
CONTINUOUS
 62
    2
 10
1278.2375999999999
 20
865.82140000000004
 40
4.9989999999999997
 50
245.76498000000004
 51
335.79052000000007
  0
ARC
  8
_0-0_LAYER001
  6
CONTINUOUS
 62
    2
 10
1241.7579000000001
 20
882.2376999999999
 40
4.9989999999999997
 50
155.75434000000001
 51
245.78626999999997
  0
ARC
  8
_0-0_LAYER001
  6
CONTINUOUS
 62
    2
 10
1241.759
 20
882.2376999999999
 40
2.7000000000000002
 50
155.75961000000001
 51
245.77931000000004
  0
ARC
  8
_0-0_LAYER001
  6
CONTINUOUS
 62
    2
 10
1278.2366999999999
 20
865.82240000000002
 40
2.7000000000000002
 50
245.77931000000001
 51
335.78717999999998
  0
ARC
  8
_0-0_LAYER001
  6
CONTINUOUS
 62
    2
 10
1299.1215
 20
858.62139999999999
 40
10.001999
 50
155.77609000000001
 51
245.76331999999996
  0
ARC
  8
_0-0_LAYER001
  6
CONTINUOUS
 62
    2
 10
1313.3475000000001
 20
926.78620000000001
 40
4.9989999999999997
 50
335.76924000000002
 51
65.779899
  0
ARC
  8
_0-0_LAYER001
  6
CONTINUOUS
 62
    2
 10
1354.9762000000001
 20
817.03610000000003
 40
4.9989999999999997
 50
335.76924000000002
 51
65.779899
  0
ARC
  8
_0-0_LAYER001
  6
CONTINUOUS
 62
    2
 10
1297.1850999999997
 20
918.04950000000008
 40
6.1470010000000013
 50
156.13023999999999
 51
190.13751999999999
  0
ARC
  8
_0-0_LAYER001
  6
CONTINUOUS
 62
    2
 10
1288.6590000000001
 20
899.07670000000007
 40
6.1580000000000004
 50
121.44441
 51
155.39905999999999
  0
ARC
  8
_0-0_LAYER001
  6
CONTINUOUS
 62
    2
 10
1308.1932000000002
 20
901.69280000000003
 40
22.898997999999999
 50
138.16798
 51
173.38349000000002
  0
ARC
  8
_0-0_LAYER001
  6
CONTINUOUS
 62
    2
 10
1306.8911000000001
 20
890.87429999999995
 40
6.1479999999999997
 50
336.10723000000002
 51
10.121978999999994
  0
ARC
  8
_0-0_LAYER001
  6
CONTINUOUS
 62
    2
 10
1315.4247
 20
909.83590000000004
 40
6.1479999999999997
 50
301.44396
 51
335.44621999999998
  0
ARC
  8
_0-0_LAYER001
  6
CONTINUOUS
 62
    2
 10
1295.8484000000001
 20
907.24559999999997
 40
22.936000999999997
 50
318.19589000000002
 51
353.35266000000001
  0
LINE
  8
_0-0_LAYER001
  6
CONTINUOUS
 62
    2
 10
1579.9213
 20
1020.9495999999999
 11
1616.3980999999999
 21
1037.3641
  0
LINE
  8
_0-0_LAYER001
  6
CONTINUOUS
 62
    2
 10
1616.3980999999999
 20
1037.3641
 11
1604.0871999999999
 21
1064.7218
  0
LINE
  8
_0-0_LAYER001
  6
CONTINUOUS
 62
    2
 10
1604.0871999999999
 20
1064.7218
 11
1567.6104
 21
1048.3072
  0
LINE
  8
_0-0_LAYER001
  6
CONTINUOUS
 62
    2
 10
1567.6104
 20
1048.3072
 11
1579.9213
 21
1020.9495999999999
  0
LINE
  8
_0-0_LAYER001
  6
CONTINUOUS
 62
    2
 10
1604.0871999999999
 20
1064.7218
 11
1579.9213
 21
1020.9495999999999
  0
LINE
  8
_0-0_LAYER001
  6
CONTINUOUS
 62
    2
 10
1616.3980999999999
 20
1037.3641
 11
1567.6104
 21
1048.3072
  0
LINE
  8
_0-0_LAYER001
  6
CONTINUOUS
 62
    2
 10
1240.6148000000001
 20
1020.9495999999999
 11
1204.1378999999999
 21
1037.3641
  0
LINE
  8
_0-0_LAYER001
  6
CONTINUOUS
 62
    2
 10
1204.1378999999999
 20
1037.3641
 11
1216.4487999999999
 21
1064.7218
  0
LINE
  8
_0-0_LAYER001
  6
CONTINUOUS
 62
    2
 10
1216.4487999999999
 20
1064.7218
 11
1252.9257
 21
1048.3072
  0
LINE
  8
_0-0_LAYER001
  6
CONTINUOUS
 62
    2
 10
1252.9257
 20
1048.3072
 11
1240.6148000000001
 21
1020.9495999999999
  0
LINE
  8
_0-0_LAYER001
  6
CONTINUOUS
 62
    2
 10
1216.4487999999999
 20
1064.7218
 11
1240.6148000000001
 21
1020.9495999999999
  0
LINE
  8
_0-0_LAYER001
  6
CONTINUOUS
 62
    2
 10
1204.1378999999999
 20
1037.3641
 11
1252.9257
 21
1048.3072
  0
LINE
  8
_0-0_LAYER001
  6
CONTINUOUS
 62
    2
 10
1593.1765999999998
 20
1060.7602999999999
 11
1585.6660000000002
 21
1060.6429000000001
  0
LINE
  8
_0-0_LAYER001
  6
CONTINUOUS
 62
    2
 10
1410.268
 20
944.53919999999994
 11
1253.3874000000001
 21
1015.1353999999999
  0
LINE
  8
_0-0_LAYER001
  6
CONTINUOUS
 62
    2
 10
1410.268
 20
944.53919999999994
 11
1567.1487000000002
 21
1015.1353999999999
  0
LINE
  8
_0-0_LAYER001
  6
CONTINUOUS
 62
    2
 10
1567.1487000000002
 20
1015.1353999999999
 11
1565.7386000000001
 21
1048.4132999999999
  0
LINE
  8
_0-0_LAYER001
  6
CONTINUOUS
 62
    2
 10
1565.7386000000001
 20
1048.4132999999999
 11
1593.1765999999998
 21
1060.7602999999999
  0
LINE
  8
_0-0_LAYER001
  6
CONTINUOUS
 62
    2
 10
1253.3874000000001
 20
1015.1353999999999
 11
1254.7974999999999
 21
1048.4132999999999
  0
LINE
  8
_0-0_LAYER001
  6
CONTINUOUS
 62
    2
 10
1254.7974999999999
 20
1048.4132999999999
 11
1227.3595
 21
1060.7602999999999
  0
LINE
  8
_0-0_LAYER001
  6
DASHED1
 62
    2
 10
1410.268
 20
942.38619999999992
 11
1671.9441000000002
 21
1060.1402
  0
LINE
  8
_0-0_LAYER001
  6
DASHED1
 62
    2
 10
1410.268
 20
942.38619999999992
 11
1148.5920000000001
 21
1060.1402
  0
LINE
  8
_0-0_LAYER001
  6
CONTINUOUS
 62
    2
 10
1037.7384999999999
 20
813.7983999999999
 11
1061.779
 21
813.64460000000008
  0
LINE
  8
_0-0_LAYER001
  6
CONTINUOUS
 62
    2
 10
1037.6233999999999
 20
813.54240000000004
 11
1053.6960999999999
 21
795.66399999999999
  0
LINE
  8
_0-0_LAYER001
  6
CONTINUOUS
 62
    2
 10
1782.7975999999999
 20
813.7983999999999
 11
1758.7570999999998
 21
813.64460000000008
  0
LINE
  8
_0-0_LAYER001
  6
CONTINUOUS
 62
    2
 10
1782.9126999999999
 20
813.54240000000004
 11
1766.8400000000001
 21
795.66399999999999
  0
LINE
  8
_0-0_LAYER001
  6
CONTINUOUS
 62
    2
 10
1081.8932
 20
911.92039999999997
 11
1037.7384999999999
 21
813.7983999999999
  0
LINE
  8
_0-0_LAYER001
  6
CONTINUOUS
 62
    2
 10
1740.9149000000002
 20
906.87130000000002
 11
1782.9128000000001
 21
813.54250000000002
  0
LINE
  8
_0-0_LAYER001
  6
CONTINUOUS
 62
    2
 10
1040.704
 20
1195.6726000000001
 11
1036.954
 21
1189.1774
  0
LINE
  8
_0-0_LAYER001
  6
CONTINUOUS
 62
    2
 10
1036.954
 20
1189.1774
 11
1036.954
 21
1196.6774
  0
LINE
  8
_0-0_LAYER001
  6
CONTINUOUS
 62
    2
 10
1036.954
 20
1189.1774
 11
1066.4024999999999
 21
1299.0807999999997
  0
LINE
  8
_0-0_LAYER001
  6
CONTINUOUS
 62
    1
 10
1402.0607999999997
 20
922.50289999999995
 11
787.05320000000006
 21
1199.2557999999999
  0
LINE
  8
_0-0_LAYER001
  6
CONTINUOUS
 62
    1
 10
1404.1125999999999
 20
927.0625
 11
789.10500000000002
 21
1203.8154
  0
LINE
  8
_0-0_LAYER001
  6
CONTINUOUS
 62
    1
 10
1406.1643999999999
 20
931.62210000000005
 11
791.15679999999998
 21
1208.375
  0
LINE
  8
_0-0_LAYER001
  6
CONTINUOUS
 62
    1
 10
1408.2161999999998
 20
936.18170000000009
 11
793.20869999999991
 21
1212.9346
  0
LINE
  8
_0-0_LAYER001
  6
CONTINUOUS
 62
    1
 10
1412.3199
 20
936.18170000000009
 11
2023.5434
 21
1211.2318
  0
LINE
  8
_0-0_LAYER001
  6
CONTINUOUS
 62
    1
 10
1414.3716999999997
 20
931.62210000000005
 11
2025.5952000000002
 21
1206.6722
  0
LINE
  8
_0-0_LAYER001
  6
CONTINUOUS
 62
    1
 10
1416.4235000000003
 20
927.0625
 11
2027.6469999999999
 21
1202.1125999999999
  0
LINE
  8
_0-0_LAYER001
  6
CONTINUOUS
 62
    1
 10
1418.4753000000001
 20
922.50289999999995
 11
2029.6988000000001
 21
1197.5530000000001
  0
LINE
  8
_0-0_LAYER001
  6
CONTINUOUS
 62
    2
 10
1782.7975999999999
 20
813.7983999999999
 11
1491.8243000000002
 21
682.86069999999995
  0
LINE
  8
_0-0_LAYER001
  6
CONTINUOUS
 62
    2
 10
1037.7384999999999
 20
813.7983999999999
 11
1324.3377
 21
684.82899999999995
  0
LINE
  8
_0-0_LAYER001
  6
CONTINUOUS
 62
    2
 10
1385.5702999999999
 20
964.91930000000002
 11
1381.8202999999999
 21
958.42409999999995
  0
LINE
  8
_0-0_LAYER001
  6
CONTINUOUS
 62
    2
 10
1381.8202999999999
 20
958.42409999999995
 11
1381.8202999999999
 21
965.92409999999995
  0
LINE
  8
_0-0_LAYER001
  6
CONTINUOUS
 62
    2
 10
1381.8202999999999
 20
958.42409999999995
 11
1467.8977
 21
1279.6694
  0
LINE
  8
_0-0_LAYER001
  6
CONTINUOUS
 62
    2
 10
1142.5289
 20
802.98049999999989
 11
1164.0730000000001
 21
850.85639999999989
  0
CIRCLE
  8
_0-0_LAYER001
  6
CONTINUOUS
 62
    2
 10
1143.5547999999999
 20
805.26029999999992
 40
1.6999999999999997
  0
LINE
  8
_0-0_LAYER001
  6
CONTINUOUS
 62
    2
 10
1143.5547999999999
 20
805.26029999999992
 11
1325.9392
 21
723.1875
  0
CIRCLE
  8
_0-0_LAYER001
  6
CONTINUOUS
 62
    2
 10
1325.9392
 20
723.1875
 40
1.6999999999999997
  0
LINE
  8
_0-0_LAYER001
  6
CONTINUOUS
 62
    2
 10
1324.9133000000002
 20
720.90769999999998
 11
1346.4573999999998
 21
768.78359999999998
  0
LINE
  8
_0-0_LAYER001
  6
CONTINUOUS
 62
    2
 10
1494.3108000000002
 20
723.82320000000004
 11
1472.7667000000001
 21
771.69910000000004
  0
CIRCLE
  8
_0-0_LAYER001
  6
CONTINUOUS
 62
    2
 10
1493.2849000000001
 20
726.10300000000007
 40
1.6999999999999997
  0
CIRCLE
  8
_0-0_LAYER001
  6
CONTINUOUS
 62
    2
 10
1675.6693
 20
808.17579999999998
 40
1.6999999999999997
  0
LINE
  8
_0-0_LAYER001
  6
CONTINUOUS
 62
    2
 10
1676.6952000000001
 20
805.89599999999996
 11
1655.1511
 21
853.77189999999996
  0
LINE
  8
_0-0_LAYER001
  6
CONTINUOUS
 62
    2
 10
1156.3438000000001
 20
833.68039999999996
 11
1167.6288
 21
858.75819999999999
  0
CIRCLE
  8
_0-0_LAYER001
  6
CONTINUOUS
 62
    2
 10
1157.3697
 20
835.96019999999999
 40
1.6999999999999997
  0
LINE
  8
_0-0_LAYER001
  6
CONTINUOUS
 62
    2
 10
1157.3697
 20
835.96019999999999
 11
1225.7638999999999
 21
805.18290000000002
  0
CIRCLE
  8
_0-0_LAYER001
  6
CONTINUOUS
 62
    2
 10
1225.7638999999999
 20
805.18290000000002
 40
1.6999999999999997
  0
LINE
  8
_0-0_LAYER001
  6
CONTINUOUS
 62
    2
 10
1224.7380000000001
 20
802.90309999999999
 11
1236.0229999999999
 21
827.98090000000002
  0
LINE
  8
_0-0_LAYER001
  6
CONTINUOUS
 62
    2
 10
1594.6700000000001
 20
805.4097999999999
 11
1583.3850000000002
 21
830.48759999999993
  0
CIRCLE
  8
_0-0_LAYER001
  6
CONTINUOUS
 62
    2
 10
1593.6441
 20
807.68959999999993
 40
1.6999999999999997
  0
LINE
  8
_0-0_LAYER001
  6
CONTINUOUS
 62
    2
 10
1593.6441
 20
807.68959999999993
 11
1662.0383000000002
 21
838.4668999999999
  0
CIRCLE
  8
_0-0_LAYER001
  6
CONTINUOUS
 62
    2
 10
1662.0383000000002
 20
838.4668999999999
 40
1.6999999999999997
  0
LINE
  8
_0-0_LAYER001
  6
CONTINUOUS
 62
    2
 10
1663.0641999999998
 20
836.1871000000001
 11
1651.7791999999999
 21
861.2648999999999
  0
LINE
  8
_0-0_LAYER001
  6
CONTINUOUS
 62
    2
 10
1947.5738000000001
 20
1189.1244999999999
 11
1974.9315000000001
 21
1201.4354000000001
  0
LINE
  8
_0-0_LAYER001
  6
CONTINUOUS
 62
    2
 10
1968.7759999999998
 20
1215.1142
 11
1941.4182999999998
 21
1202.8033
  0
LINE
  8
_0-0_LAYER001
  6
CONTINUOUS
 62
    2
 10
1974.9315000000001
 20
1201.4354000000001
 11
1968.7759999999998
 21
1215.1142
  0
LINE
  8
_0-0_LAYER001
  6
CONTINUOUS
 62
    2
 10
1941.4182999999998
 20
1202.8033
 11
1947.5738000000001
 21
1189.1244999999999
  0
LINE
  8
_0-0_LAYER001
  6
CONTINUOUS
 62
    2
 10
1968.7759999999998
 20
1215.1142
 11
1947.5738000000001
 21
1189.1244999999999
  0
LINE
  8
_0-0_LAYER001
  6
CONTINUOUS
 62
    2
 10
1741.8063000000002
 20
1096.529
 11
1769.1639
 21
1108.8398999999999
  0
LINE
  8
_0-0_LAYER001
  6
CONTINUOUS
 62
    2
 10
1763.0084000000002
 20
1122.5187000000001
 11
1735.6507999999999
 21
1110.2077999999999
  0
LINE
  8
_0-0_LAYER001
  6
CONTINUOUS
 62
    2
 10
1769.1639
 20
1108.8398999999999
 11
1763.0084000000002
 21
1122.5187000000001
  0
LINE
  8
_0-0_LAYER001
  6
CONTINUOUS
 62
    2
 10
1735.6507999999999
 20
1110.2077999999999
 11
1741.8063000000002
 21
1096.529
  0
LINE
  8
_0-0_LAYER001
  6
CONTINUOUS
 62
    2
 10
1763.0084000000002
 20
1122.5187000000001
 11
1741.8063000000002
 21
1096.529
  0
ARC
  8
_0-0_LAYER001
  6
CONTINUOUS
 62
    4
 10
1708.1617000000001
 20
1128.6376
 40
10
 50
109.94091000000002
 51
199.94091
  0
ARC
  8
_0-0_LAYER001
  6
CONTINUOUS
 62
    4
 10
1913.8739
 20
1221.3548000000001
 40
10
 50
109.94091000000002
 51
199.94091
  0
ARC
  8
_0-0_LAYER001
  6
CONTINUOUS
 62
    4
 10
1502.4495000000002
 20
1035.9204
 40
10
 50
109.94091000000002
 51
199.94091
  0
LINE
  8
_0-0_LAYER001
  6
CONTINUOUS
 62
    4
 10
1479.8058000000001
 20
1069.0124000000001
 11
1495.4364
 21
1025.9295
  0
ARC
  8
_0-0_LAYER001
  6
CONTINUOUS
 62
    4
 10
1498.6066999999998
 20
1075.8334
 40
20
 50
109.94091000000002
 51
199.94091
  0
LINE
  8
_0-0_LAYER001
  6
CONTINUOUS
 62
    4
 10
1916.2613000000001
 20
1214.7745
 11
2003.0322999999999
 21
1246.2553
  0
LINE
  8
_0-0_LAYER001
  6
CONTINUOUS
 62
    4
 10
1982.5544
 20
1207.9763
 11
1974.0940000000001
 21
1204.9068
  0
LINE
  8
_0-0_LAYER001
  6
CONTINUOUS
 62
    4
 10
1764.2892000000002
 20
1123.4701
 11
1768.3818000000001
 21
1112.1895999999999
  0
LINE
  8
_0-0_LAYER001
  6
CONTINUOUS
 62
    4
 10
1776.8422
 20
1115.259
 11
1768.3818000000001
 21
1112.1895999999999
  0
LINE
  8
_0-0_LAYER001
  6
CONTINUOUS
 62
    4
 10
1491.7856999999999
 20
1094.6342999999999
 11
1684.4949000000001
 21
1164.5498
  0
ARC
  8
_0-0_LAYER001
  6
CONTINUOUS
 62
    4
 10
1691.5079999999998
 20
1174.5406
 40
10
 50
109.94091000000002
 51
199.94091
  0
LINE
  8
_0-0_LAYER001
  6
CONTINUOUS
 62
    4
 10
1682.1075000000001
 20
1171.1301000000001
 11
1701.1486
 21
1118.6468
  0
LINE
  8
_0-0_LAYER001
  6
CONTINUOUS
 62
    4
 10
1691.3159000000001
 20
1145.7489
 11
1701.1486
 21
1118.6468
  0
LINE
  8
_0-0_LAYER001
  6
CONTINUOUS
 62
    4
 10
1766.9517999999998
 20
1142.5202999999999
 11
1776.8422
 21
1115.259
  0
LINE
  8
_0-0_LAYER001
  6
CONTINUOUS
 62
    4
 10
1499.0390000000002
 20
1045.3208
 11
1970.0014000000001
 21
1216.1873000000001
  0
LINE
  8
_0-0_LAYER001
  6
CONTINUOUS
 62
    4
 10
1970.0014000000001
 20
1216.1873000000001
 11
1974.0940000000001
 21
1204.9068
  0
LINE
  8
_0-0_LAYER001
  6
CONTINUOUS
 62
    4
 10
1688.0974999999999
 20
1183.9411
 11
1890.2071000000001
 21
1257.2670000000001
  0
ARC
  8
_0-0_LAYER001
  6
CONTINUOUS
 62
    4
 10
1897.2202000000002
 20
1267.2578000000001
 40
10
 50
109.94091000000002
 51
199.94091
  0
LINE
  8
_0-0_LAYER001
  6
CONTINUOUS
 62
    4
 10
1887.8197
 20
1263.8472999999999
 11
1906.8607999999999
 21
1211.364
  0
LINE
  8
_0-0_LAYER001
  6
CONTINUOUS
 62
    4
 10
1887.8197
 20
1263.8472999999999
 11
1906.8607999999999
 21
1211.364
  0
LINE
  8
_0-0_LAYER001
  6
CONTINUOUS
 62
    4
 10
1704.7512000000002
 20
1138.038
 11
1972.6640000000002
 21
1235.2375999999999
  0
LINE
  8
_0-0_LAYER001
  6
CONTINUOUS
 62
    4
 10
1972.6640000000002
 20
1235.2375999999999
 11
1982.5544
 21
1207.9763
  0
LINE
  8
_0-0_LAYER001
  6
CONTINUOUS
 62
    4
 10
1893.8096999999998
 20
1276.6583000000001
 11
1976.2020000000002
 21
1306.5505000000003
  0
LINE
  8
_0-0_LAYER001
  6
CONTINUOUS
 62
    4
 10
1910.4634000000001
 20
1230.7553
 11
1996.1037000000001
 21
1261.8258000000001
  0
LINE
  8
_0-0_LAYER001
  6
CONTINUOUS
 62
    4
 10
1764.2892000000002
 20
1123.4701
 11
1495.4364
 21
1025.9295
  0
CIRCLE
  8
_0-0_LAYER001
  6
CONTINUOUS
 62
    2
 10
1207.5284999999999
 20
1361.5914
 40
1.6999999999999997
  0
LINE
  8
_0-0_LAYER001
  6
CONTINUOUS
 62
    2
 10
1207.5284999999999
 20
1361.5914
 11
996.01839999999993
 21
1438.3278999999998
  0
CIRCLE
  8
_0-0_LAYER001
  6
CONTINUOUS
 62
    2
 10
996.01839999999993
 20
1438.3278999999998
 40
1.6999999999999997
  0
LINE
  8
_0-0_LAYER001
  6
CONTINUOUS
 62
    2
 10
1208.3811000000001
 20
1363.9414999999999
 11
1190.4758999999999
 21
1314.5891999999999
  0
LINE
  8
_0-0_LAYER001
  6
CONTINUOUS
 62
    2
 10
996.87100000000009
 20
1440.6780000000001
 11
978.96579999999994
 21
1391.3255999999999
  0
LINE
  8
_0-0_LAYER001
  6
CONTINUOUS
 62
    2
 10
1409.6596999999999
 20
1259.0037
 11
1391.7545
 21
1209.6514
  0
CIRCLE
  8
_0-0_LAYER001
  6
CONTINUOUS
 62
    2
 10
1408.8069999999998
 20
1256.6536000000001
 40
1.6999999999999997
  0
LINE
  8
_0-0_LAYER001
  6
CONTINUOUS
 62
    2
 10
1408.8069999999998
 20
1256.6536000000001
 11
1197.2969000000001
 21
1333.3901000000001
  0
CIRCLE
  8
_0-0_LAYER001
  6
CONTINUOUS
 62
    2
 10
1197.2969000000001
 20
1333.3901000000001
 40
1.6999999999999997
  0
LINE
  8
_0-0_LAYER001
  6
CONTINUOUS
 62
    2
 10
1198.1496
 20
1335.7402
 11
1180.2444
 21
1286.3878
  0
LINE
  8
_0-0_LAYER001
  6
CONTINUOUS
 62
    2
 10
1102.0419999999999
 20
1158.8005000000001
 11
1096.2440999999999
 21
1142.8198
  0
LINE
  8
_0-0_LAYER001
  6
CONTINUOUS
 62
    2
 10
896.32979999999998
 20
1251.5178000000001
 11
890.53189999999995
 21
1235.537
  0
LINE
  8
_0-0_LAYER001
  6
CONTINUOUS
 62
    2
 10
1335.9556
 20
1055.8517999999999
 11
1096.2440999999999
 21
1142.8198
  0
ARC
  8
_0-0_LAYER001
  6
CONTINUOUS
 62
    4
 10
1319.3643
 20
1061.7952
 40
17.623681999999999
 50
340.29127000000005
 51
57.209820000000029
  0
ARC
  8
_0-0_LAYER001
  6
CONTINUOUS
 62
    4
 10
1334.7402999999999
 20
1081.8234
 40
10
 50
340.05907999999999
 51
70.059082999999987
  0
LINE
  8
_0-0_LAYER001
  6
CONTINUOUS
 62
    4
 10
1325.0997000000002
 20
1025.9295
 11
1344.1407999999999
 21
1078.4129
  0
LINE
  8
_0-0_LAYER001
  6
CONTINUOUS
 62
    4
 10
1325.0997000000002
 20
1025.9295
 11
1056.2469000000001
 21
1123.4701
  0
LINE
  8
_0-0_LAYER001
  6
CONTINUOUS
 62
    4
 10
1329.3013999999998
 20
1076.3502000000001
 11
1064.4402
 21
1172.4426000000001
  0
LINE
  8
_0-0_LAYER001
  6
CONTINUOUS
 62
    4
 10
1338.1507999999999
 20
1091.2238
 11
1136.0411999999999
 21
1164.5498
  0
LINE
  8
_0-0_LAYER001
  6
CONTINUOUS
 62
    2
 10
1064.4402
 20
1172.4426000000001
 11
890.53189999999995
 21
1235.537
  0
ARC
  8
_0-0_LAYER001
  6
CONTINUOUS
 62
    4
 10
1113.6521
 20
1154.5124000000001
 40
17.623681999999999
 50
340.29127000000005
 51
57.209820000000029
  0
LINE
  8
_0-0_LAYER001
  6
CONTINUOUS
 62
    2
 10
872.96219999999994
 20
1189.1244999999999
 11
845.60459999999989
 21
1201.4354000000001
  0
LINE
  8
_0-0_LAYER001
  6
CONTINUOUS
 62
    2
 10
879.11770000000001
 20
1202.8033
 11
872.96219999999994
 21
1189.1244999999999
  0
LINE
  8
_0-0_LAYER001
  6
CONTINUOUS
 62
    2
 10
1078.7298000000001
 20
1096.529
 11
1051.3722
 21
1108.8398999999999
  0
LINE
  8
_0-0_LAYER001
  6
CONTINUOUS
 62
    2
 10
1057.5275999999999
 20
1122.5187000000001
 11
1084.8852999999999
 21
1110.2077999999999
  0
LINE
  8
_0-0_LAYER001
  6
CONTINUOUS
 62
    2
 10
1051.3722
 20
1108.8398999999999
 11
1057.5275999999999
 21
1122.5187000000001
  0
LINE
  8
_0-0_LAYER001
  6
CONTINUOUS
 62
    2
 10
1084.8852999999999
 20
1110.2077999999999
 11
1078.7298000000001
 21
1096.529
  0
LINE
  8
_0-0_LAYER001
  6
CONTINUOUS
 62
    2
 10
1057.5275999999999
 20
1122.5187000000001
 11
1078.7298000000001
 21
1096.529
  0
LINE
  8
_0-0_LAYER001
  6
CONTINUOUS
 62
    4
 10
837.98160000000007
 20
1207.9763
 11
846.44200000000001
 21
1204.9068
  0
LINE
  8
_0-0_LAYER001
  6
CONTINUOUS
 62
    4
 10
1056.2469000000001
 20
1123.4701
 11
1052.1541999999999
 21
1112.1895999999999
  0
LINE
  8
_0-0_LAYER001
  6
CONTINUOUS
 62
    4
 10
1043.6938
 20
1115.259
 11
1052.1541999999999
 21
1112.1895999999999
  0
ARC
  8
_0-0_LAYER001
  6
CONTINUOUS
 62
    4
 10
1129.0281
 20
1174.5406
 40
10
 50
340.05907999999999
 51
70.059082999999987
  0
LINE
  8
_0-0_LAYER001
  6
CONTINUOUS
 62
    4
 10
1130.2433000000001
 20
1148.569
 11
1138.4286
 21
1171.1301000000001
  0
LINE
  8
_0-0_LAYER001
  6
CONTINUOUS
 62
    4
 10
1064.4402
 20
1172.4426000000001
 11
1043.6938
 21
1115.259
  0
ARC
  8
_0-0_LAYER001
  6
CONTINUOUS
 62
    4
 10
907.93990000000008
 20
1247.2295999999999
 40
17.623681999999999
 50
340.29127000000005
 51
57.209820000000029
  0
LINE
  8
_0-0_LAYER001
  6
CONTINUOUS
 62
    4
 10
1053.5843
 20
1142.5202999999999
 11
850.53459999999995
 21
1216.1873000000001
  0
LINE
  8
_0-0_LAYER001
  6
CONTINUOUS
 62
    2
 10
851.76009999999997
 20
1215.1142
 11
879.11770000000001
 21
1202.8033
  0
LINE
  8
_0-0_LAYER001
  6
CONTINUOUS
 62
    2
 10
845.60459999999989
 20
1201.4354000000001
 11
851.76009999999997
 21
1215.1142
  0
LINE
  8
_0-0_LAYER001
  6
CONTINUOUS
 62
    2
 10
851.76009999999997
 20
1215.1142
 11
872.96219999999994
 21
1189.1244999999999
  0
LINE
  8
_0-0_LAYER001
  6
CONTINUOUS
 62
    4
 10
1123.5891999999999
 20
1169.0673999999999
 11
858.72800000000007
 21
1265.1597999999999
  0
LINE
  8
_0-0_LAYER001
  6
CONTINUOUS
 62
    4
 10
850.53459999999995
 20
1216.1873000000001
 11
846.44200000000001
 21
1204.9068
  0
LINE
  8
_0-0_LAYER001
  6
CONTINUOUS
 62
    4
 10
1132.4386
 20
1183.9411
 11
930.32899999999995
 21
1257.2670000000001
  0
ARC
  8
_0-0_LAYER001
  6
CONTINUOUS
 62
    4
 10
923.31590000000006
 20
1267.2578000000001
 40
10
 50
340.05907999999999
 51
70.059082999999987
  0
LINE
  8
_0-0_LAYER001
  6
CONTINUOUS
 62
    4
 10
924.53109999999992
 20
1241.2862
 11
932.71630000000005
 21
1263.8472999999999
  0
LINE
  8
_0-0_LAYER001
  6
CONTINUOUS
 62
    4
 10
858.72800000000007
 20
1265.1597999999999
 11
837.98160000000007
 21
1207.9763
  0
LINE
  8
_0-0_LAYER001
  6
CONTINUOUS
 62
    4
 10
847.87210000000005
 20
1235.2375999999999
 11
808.20720000000006
 21
1249.6280999999999
  0
LINE
  8
_0-0_LAYER001
  6
CONTINUOUS
 62
    4
 10
917.87689999999998
 20
1261.7846
 11
827.93180000000007
 21
1294.4169999999999
  0
LINE
  8
_0-0_LAYER001
  6
CONTINUOUS
 62
    4
 10
926.72640000000001
 20
1276.6583000000001
 11
834.79880000000003
 21
1310.0099
  0
LINE
  8
_0-0_LAYER001
  6
CONTINUOUS
 62
    2
 10
858.72800000000007
 20
1265.1597999999999
 11
821.0648000000001
 21
1278.8241
  0
LINE
  8
_0-0_LAYER001
  6
CONTINUOUS
 62
    2
 10
1225.5486000000001
 20
1049.9455
 11
1221.7986000000001
 21
1043.4503
  0
LINE
  8
_0-0_LAYER001
  6
CONTINUOUS
 62
    2
 10
1221.7986000000001
 20
1043.4503
 11
1221.7986000000001
 21
1050.9503
  0
LINE
  8
_0-0_LAYER001
  6
CONTINUOUS
 62
    2
 10
1221.7986000000001
 20
1043.4503
 11
1258.6587
 21
1181.0139999999999
  0
LINE
  8
_0-0_LAYER001
  6
CONTINUOUS
 62
    2
 10
1258.6587
 20
1181.0139999999999
 11
1389.1587
 21
1181.0139999999999
  0
LINE
  8
_0-0_LAYER001
  6
CONTINUOUS
 62
    2
 10
1761.2015000000001
 20
1101.7775999999999
 11
1761.2015000000001
 21
1109.2775999999999
  0
LINE
  8
_0-0_LAYER001
  6
CONTINUOUS
 62
    2
 10
1761.2015000000001
 20
1109.2775999999999
 11
1764.9515000000001
 21
1102.7824000000001
  0
LINE
  8
_0-0_LAYER001
  6
CONTINUOUS
 62
    2
 10
1761.2015000000001
 20
1109.2775999999999
 11
1838.8094000000001
 21
819.64120000000003
  0
LINE
  8
_0-1_ADD_LINE
  6
CONTINUOUS
 62
    7
 10
978.96579999999994
 20
1391.3255999999999
 11
996.59816617432239
 21
1439.9259835970349
  0
LINE
  8
_0-1_ADD_LINE
  6
CONTINUOUS
 62
    7
 10
996.01839999999993
 20
1438.3278999999998
 11
1207.5284778052571
 21
1361.5914080523194
  0
LINE
  8
_0-1_ADD_LINE
  6
CONTINUOUS
 62
    7
 10
1208.1082656857941
 20
1363.189483774267
 11
1180.2444
 21
1286.3878
  0
LINE
  8
_0-1_ADD_LINE
  6
CONTINUOUS
 62
    7
 10
1197.2969328815384
 20
1333.3900880704791
 11
1408.8069999999998
 21
1256.6536000000001
  0
LINE
  8
_0-1_ADD_LINE
  6
CONTINUOUS
 62
    7
 10
1409.6596999999999
 20
1259.0037
 11
1391.7545
 21
1209.6514
  0
LINE
  8
_0-1_ADD_LINE
  6
CONTINUOUS
 62
    7
 10
1066.4024999999999
 20
1299.0807999999997
 11
1036.954
 21
1189.1774
  0
LINE
  8
_0-1_ADD_LINE
  6
CONTINUOUS
 62
    7
 10
1036.954
 20
1189.1774
 11
1040.704
 21
1195.6726000000001
  0
LINE
  8
_0-1_ADD_LINE
  6
CONTINUOUS
 62
    7
 10
1036.954
 20
1189.1774
 11
1036.954
 21
1196.6774
  0
LINE
  8
_0-1_ADD_LINE
  6
CONTINUOUS
 62
    7
 10
796.28639999999996
 20
1219.7739999999999
 11
1410.268
 21
943.4828
  0
LINE
  8
_0-1_ADD_LINE
  6
CONTINUOUS
 62
    7
 10
1410.268
 20
940.74129999999991
 11
795.26050000000009
 21
1217.4942000000001
  0
LINE
  8
_0-1_ADD_LINE
  6
CONTINUOUS
 62
    7
 10
785.0014000000001
 20
1194.6962000000001
 11
1410.268
 21
913.32670000000007
  0
LINE
  8
_0-1_ADD_LINE
  6
CONTINUOUS
 62
    7
 10
1410.268
 20
910.58529999999996
 11
1276.1854000000001
 21
970.92239999999993
  0
LINE
  8
_0-1_ADD_LINE
  6
CONTINUOUS
 62
    7
 10
1410.268
 20
910.58529999999996
 11
1544.3507
 21
970.92239999999993
  0
LINE
  8
_0-1_ADD_LINE
  6
CONTINUOUS
 62
    7
 10
1410.268
 20
913.32670000000007
 11
2031.7505999999998
 21
1192.9933000000001
  0
LINE
  8
_0-1_ADD_LINE
  6
CONTINUOUS
 62
    7
 10
2021.4915000000001
 20
1215.7914000000001
 11
1410.268
 21
940.74129999999991
  0
LINE
  8
_0-1_ADD_LINE
  6
CONTINUOUS
 62
    7
 10
1420.5270999999998
 20
917.94329999999991
 11
1410.268
 21
940.74129999999991
  0
LINE
  8
_0-1_ADD_LINE
  6
CONTINUOUS
 62
    7
 10
1410.268
 20
940.74129999999991
 11
1400.0089
 21
917.94329999999991
  0
LINE
  8
_0-1_ADD_LINE
  6
CONTINUOUS
 62
    7
 10
1410.268
 20
942.38619999999992
 11
1148.5920000000001
 21
1060.1402
  0
LINE
  8
_0-1_ADD_LINE
  6
CONTINUOUS
 62
    7
 10
1410.268
 20
943.4828
 11
2020.4656
 21
1218.0712000000001
  0
LINE
  8
_0-1_ADD_LINE
  6
CONTINUOUS
 62
    7
 10
1671.9441000000002
 20
1060.1402
 11
1410.268
 21
942.38619999999992
  0
LINE
  8
_0-1_ADD_LINE
  6
CONTINUOUS
 62
    7
 10
1410.268
 20
944.53919999999994
 11
1567.1487000000002
 21
1015.1353999999999
  0
LINE
  8
_0-1_ADD_LINE
  6
CONTINUOUS
 62
    7
 10
1567.1487000000002
 20
1015.1353999999999
 11
1565.7386000000001
 21
1048.4132999999999
  0
LINE
  8
_0-1_ADD_LINE
  6
CONTINUOUS
 62
    7
 10
1565.7386000000001
 20
1048.4132999999999
 11
1593.1765999999998
 21
1060.7602999999999
  0
LINE
  8
_0-1_ADD_LINE
  6
CONTINUOUS
 62
    7
 10
1593.1765999999998
 20
1060.7602999999999
 11
1585.6660000000002
 21
1060.6429000000001
  0
LINE
  8
_0-1_ADD_LINE
  6
CONTINUOUS
 62
    7
 10
1567.6104
 20
1048.3072
 11
1579.9213
 21
1020.9495999999999
  0
LINE
  8
_0-1_ADD_LINE
  6
CONTINUOUS
 62
    7
 10
1579.9213
 20
1020.9495999999999
 11
1616.3980999999999
 21
1037.3641
  0
LINE
  8
_0-1_ADD_LINE
  6
CONTINUOUS
 62
    7
 10
1616.3980999999999
 20
1037.3641
 11
1604.0871999999999
 21
1064.7218
  0
LINE
  8
_0-1_ADD_LINE
  6
CONTINUOUS
 62
    7
 10
1604.0871999999999
 20
1064.7218
 11
1567.6104
 21
1048.3072
  0
LINE
  8
_0-1_ADD_LINE
  6
CONTINUOUS
 62
    7
 10
1567.6104
 20
1048.3072
 11
1616.3980999999999
 21
1037.3641
  0
LINE
  8
_0-1_ADD_LINE
  6
CONTINUOUS
 62
    7
 10
1604.0871999999999
 20
1064.7218
 11
1579.9213
 21
1020.9495999999999
  0
LINE
  8
_0-1_ADD_LINE
  6
CONTINUOUS
 62
    7
 10
1410.268
 20
944.53919999999994
 11
1253.3874000000001
 21
1015.1353999999999
  0
LINE
  8
_0-1_ADD_LINE
  6
CONTINUOUS
 62
    7
 10
1253.3874000000001
 20
1015.1353999999999
 11
1254.7974999999999
 21
1048.4132999999999
  0
LINE
  8
_0-1_ADD_LINE
  6
CONTINUOUS
 62
    7
 10
1254.7974999999999
 20
1048.4132999999999
 11
1227.3595
 21
1060.7602999999999
  0
LINE
  8
_0-1_ADD_LINE
  6
CONTINUOUS
 62
    7
 10
1227.3595
 20
1060.7602999999999
 11
1233.4623079531041
 21
1059.4547706972453
  0
LINE
  8
_0-1_ADD_LINE
  6
CONTINUOUS
 62
    7
 10
1216.4487999999999
 20
1064.7218
 11
1252.9257
 21
1048.3072
  0
LINE
  8
_0-1_ADD_LINE
  6
CONTINUOUS
 62
    7
 10
1252.9257
 20
1048.3072
 11
1240.6148000000001
 21
1020.9495999999999
  0
LINE
  8
_0-1_ADD_LINE
  6
CONTINUOUS
 62
    7
 10
1240.6148000000001
 20
1020.9495999999999
 11
1204.1378999999999
 21
1037.3641
  0
LINE
  8
_0-1_ADD_LINE
  6
CONTINUOUS
 62
    7
 10
1204.1378999999999
 20
1037.3641
 11
1216.4487999999999
 21
1064.7218
  0
LINE
  8
_0-1_ADD_LINE
  6
CONTINUOUS
 62
    7
 10
1216.4487999999999
 20
1064.7218
 11
1240.6148000000001
 21
1020.9495999999999
  0
LINE
  8
_0-1_ADD_LINE
  6
CONTINUOUS
 62
    7
 10
1252.9257
 20
1048.3072
 11
1204.1378999999999
 21
1037.3641
  0
LINE
  8
_0-1_ADD_LINE
  6
CONTINUOUS
 62
    7
 10
1221.7986000000001
 20
1050.9503
 11
1221.7986000000001
 21
1043.4503
  0
LINE
  8
_0-1_ADD_LINE
  6
CONTINUOUS
 62
    7
 10
1221.7986000000001
 20
1043.4503
 11
1225.5486000000001
 21
1049.9455
  0
LINE
  8
_0-1_ADD_LINE
  6
CONTINUOUS
 62
    7
 10
1221.7986000000001
 20
1043.4503
 11
1258.6587
 21
1181.0139999999999
  0
LINE
  8
_0-1_ADD_LINE
  6
CONTINUOUS
 62
    7
 10
1258.6587
 20
1181.0139999999999
 11
1389.1587
 21
1181.0139999999999
  0
LINE
  8
_0-1_ADD_LINE
  6
CONTINUOUS
 62
    7
 10
1381.8202999999999
 20
965.92409999999995
 11
1381.8202999999999
 21
958.42409999999995
  0
LINE
  8
_0-1_ADD_LINE
  6
CONTINUOUS
 62
    7
 10
1381.8202999999999
 20
958.42409999999995
 11
1385.5702999999999
 21
964.91930000000002
  0
LINE
  8
_0-1_ADD_LINE
  6
CONTINUOUS
 62
    7
 10
1381.8202999999999
 20
958.42409999999995
 11
1467.8977
 21
1279.6694
  0
LINE
  8
_0-1_ADD_LINE
  6
CONTINUOUS
 62
    7
 10
1735.6507999999999
 20
1110.2077999999999
 11
1741.8063000000002
 21
1096.529
  0
LINE
  8
_0-1_ADD_LINE
  6
CONTINUOUS
 62
    7
 10
1741.8063000000002
 20
1096.529
 11
1769.1639
 21
1108.8398999999999
  0
LINE
  8
_0-1_ADD_LINE
  6
CONTINUOUS
 62
    7
 10
1769.1639
 20
1108.8398999999999
 11
1763.0084000000002
 21
1122.5187000000001
  0
LINE
  8
_0-1_ADD_LINE
  6
CONTINUOUS
 62
    7
 10
1763.0084000000002
 20
1122.5187000000001
 11
1741.8063000000002
 21
1096.529
  0
LINE
  8
_0-1_ADD_LINE
  6
CONTINUOUS
 62
    7
 10
1735.6507999999999
 20
1110.2077999999999
 11
1763.0084000000002
 21
1122.5187000000001
  0
LINE
  8
_0-1_ADD_LINE
  6
CONTINUOUS
 62
    7
 10
1761.2015000000001
 20
1109.2775999999999
 11
1761.2015000000001
 21
1101.7775999999999
  0
LINE
  8
_0-1_ADD_LINE
  6
CONTINUOUS
 62
    7
 10
1761.2015000000001
 20
1109.2775999999999
 11
1764.8104984670758
 21
1103.0266221751067
  0
LINE
  8
_0-1_ADD_LINE
  6
CONTINUOUS
 62
    7
 10
1761.2015000000001
 20
1109.2775999999999
 11
1838.8094000000001
 21
819.64120000000003
  0
LINE
  8
_0-1_ADD_LINE
  6
CONTINUOUS
 62
    7
 10
2077.9166
 20
1090.4021
 11
1410.268
 21
789.96090000000004
  0
LINE
  8
_0-1_ADD_LINE
  6
CONTINUOUS
 62
    7
 10
1410.268
 20
789.96090000000004
 11
738.83539999999994
 21
1092.1049
  0
LINE
  8
_0-1_ADD_LINE
  6
CONTINUOUS
 62
    7
 10
851.76009999999997
 20
1215.1142
 11
845.60459999999989
 21
1201.4354000000001
  0
LINE
  8
_0-1_ADD_LINE
  6
CONTINUOUS
 62
    7
 10
845.60459999999989
 20
1201.4354000000001
 11
872.96219999999994
 21
1189.1244999999999
  0
LINE
  8
_0-1_ADD_LINE
  6
CONTINUOUS
 62
    7
 10
872.96219999999994
 20
1189.1244999999999
 11
851.76009999999997
 21
1215.1142
  0
LINE
  8
_0-1_ADD_LINE
  6
CONTINUOUS
 62
    7
 10
851.76009999999997
 20
1215.1142
 11
879.11770000000001
 21
1202.8033
  0
LINE
  8
_0-1_ADD_LINE
  6
CONTINUOUS
 62
    7
 10
879.11770000000001
 20
1202.8033
 11
872.96219999999994
 21
1189.1244999999999
  0
LINE
  8
_0-1_ADD_LINE
  6
CONTINUOUS
 62
    7
 10
1057.5275999999999
 20
1122.5187000000001
 11
1051.3722
 21
1108.8398999999999
  0
LINE
  8
_0-1_ADD_LINE
  6
CONTINUOUS
 62
    7
 10
1051.3722
 20
1108.8398999999999
 11
1078.7298000000001
 21
1096.529
  0
LINE
  8
_0-1_ADD_LINE
  6
CONTINUOUS
 62
    7
 10
1078.7298000000001
 20
1096.529
 11
1057.5275999999999
 21
1122.5187000000001
  0
LINE
  8
_0-1_ADD_LINE
  6
CONTINUOUS
 62
    7
 10
1057.5275999999999
 20
1122.5187000000001
 11
1084.8852999999999
 21
1110.2077999999999
  0
LINE
  8
_0-1_ADD_LINE
  6
CONTINUOUS
 62
    7
 10
1084.8852999999999
 20
1110.2077999999999
 11
1078.7298000000001
 21
1096.529
  0
LINE
  8
_0-1_ADD_LINE
  6
CONTINUOUS
 62
    7
 10
1081.8932
 20
911.92039999999997
 11
1037.7384999999999
 21
813.7983999999999
  0
LINE
  8
_0-1_ADD_LINE
  6
CONTINUOUS
 62
    7
 10
1037.7384999999999
 20
813.7983999999999
 11
1324.3377
 21
684.82899999999995
  0
LINE
  8
_0-1_ADD_LINE
  6
CONTINUOUS
 62
    7
 10
1324.3377
 20
684.82899999999995
 11
1037.7384999999999
 21
813.7983999999999
  0
LINE
  8
_0-1_ADD_LINE
  6
CONTINUOUS
 62
    7
 10
1037.7384999999999
 20
813.7983999999999
 11
1053.6960999999999
 21
795.66399999999999
  0
LINE
  8
_0-1_ADD_LINE
  6
CONTINUOUS
 62
    7
 10
1037.7384999999999
 20
813.7983999999999
 11
1061.779
 21
813.64460000000008
  0
LINE
  8
_0-1_ADD_LINE
  6
CONTINUOUS
 62
    7
 10
1167.6288
 20
858.75819999999999
 11
1142.8571876676042
 21
803.71003001264626
  0
LINE
  8
_0-1_ADD_LINE
  6
CONTINUOUS
 62
    7
 10
1157.369722547053
 20
835.9601898538557
 11
1225.7638999999999
 21
805.18290000000002
  0
LINE
  8
_0-1_ADD_LINE
  6
CONTINUOUS
 62
    7
 10
1224.7380000000001
 20
802.90309999999999
 11
1236.0229999999999
 21
827.98090000000002
  0
LINE
  8
_0-1_ADD_LINE
  6
CONTINUOUS
 62
    7
 10
1143.5548061380157
 20
805.26029723789884
 11
1325.9392
 21
723.1875
  0
LINE
  8
_0-1_ADD_LINE
  6
CONTINUOUS
 62
    7
 10
1325.2415876676041
 20
721.63723001264646
 11
1346.4573999999998
 21
768.78359999999998
  0
LINE
  8
_0-1_ADD_LINE
  6
CONTINUOUS
 62
    7
 10
1472.7667000000001
 20
771.69910000000004
 11
1493.9825123323958
 21
724.55273001264663
  0
LINE
  8
_0-1_ADD_LINE
  6
CONTINUOUS
 62
    7
 10
1676.3669123323959
 20
806.62553001264644
 11
1651.7791999999999
 21
861.2648999999999
  0
LINE
  8
_0-1_ADD_LINE
  6
CONTINUOUS
 62
    7
 10
1660.4880326777945
 20
837.76928174500563
 11
1593.6441
 21
807.68959999999993
  0
LINE
  8
_0-1_ADD_LINE
  6
CONTINUOUS
 62
    7
 10
1594.6700000000001
 20
805.4097999999999
 11
1583.3850000000002
 21
830.48759999999993
  0
LINE
  8
_0-1_ADD_LINE
  6
CONTINUOUS
 62
    7
 10
1493.2849000000001
 20
726.10300000000007
 11
1675.6692924791419
 21
808.17579661562127
  0
LINE
  8
_0-1_ADD_LINE
  6
CONTINUOUS
 62
    7
 10
1491.8243000000002
 20
682.86069999999995
 11
1782.7975999999999
 21
813.7983999999999
  0
LINE
  8
_0-1_ADD_LINE
  6
CONTINUOUS
 62
    7
 10
1782.7975999999999
 20
813.7983999999999
 11
1758.7570999999998
 21
813.64460000000008
  0
LINE
  8
_0-1_ADD_LINE
  6
CONTINUOUS
 62
    7
 10
1782.7975999999999
 20
813.7983999999999
 11
1766.8400000000001
 21
795.66399999999999
  0
LINE
  8
_0-1_ADD_LINE
  6
CONTINUOUS
 62
    7
 10
1782.7975999999999
 20
813.7983999999999
 11
1740.9149000000002
 21
906.87130000000002
  0
LINE
  8
_0-1_ADD_LINE
  6
CONTINUOUS
 62
    7
 10
1941.4182999999998
 20
1202.8033
 11
1968.7759999999998
 21
1215.1142
  0
LINE
  8
_0-1_ADD_LINE
  6
CONTINUOUS
 62
    7
 10
1968.7759999999998
 20
1215.1142
 11
1947.5738000000001
 21
1189.1244999999999
  0
LINE
  8
_0-1_ADD_LINE
  6
CONTINUOUS
 62
    7
 10
1947.5738000000001
 20
1189.1244999999999
 11
1974.9315000000001
 21
1201.4354000000001
  0
LINE
  8
_0-1_ADD_LINE
  6
CONTINUOUS
 62
    7
 10
1974.9315000000001
 20
1201.4354000000001
 11
1968.7759999999998
 21
1215.1142
  0
LINE
  8
_0-1_ADD_LINE
  6
CONTINUOUS
 62
    7
 10
1941.4182999999998
 20
1202.8033
 11
1947.5738000000001
 21
1189.1244999999999
  0
TEXT
  8
_0-0_LAYER001
 62
    7
 10
1100.9045438944736
 20
1421.6218245023879
 40
20
 41
1
 50
-19.94091700000002
  1
225
  0
TEXT
  8
_0-0_LAYER001
 62
    7
 10
1303.0578509079157
 20
1318.6733811159127
 40
20
 41
1
 50
-19.940916999999981
  1
225
  0
TEXT
  8
_0-0_LAYER001
 62
    7
 10
1258.6586999999995
 20
1183.5139999999999
 40
20
 41
1
 50
0
  1
桟木：40x30
  0
TEXT
  8
_0-0_LAYER001
 62
    7
 10
1467.8976999999998
 20
1282.1693999999998
 40
20
 41
1
 50
0
  1
谷樋カラー鋼板0.35ｍｍ以上
  0
TEXT
  8
_0-0_LAYER001
 62
    7
 10
1188.546945424986
 20
829.38539515422985
 40
20
 41
1
 50
-24.227700000000059
  1
75
  0
TEXT
  8
_0-0_LAYER001
 62
    7
 10
1231.9298354772607
 20
781.46968562648863
 40
20
 41
1
 50
-24.227700000000016
  1
200
  0
TEXT
  8
_0-0_LAYER001
 62
    7
 10
1557.1722217439092
 20
770.92499890981912
 40
20
 41
1
 50
24.227700000000027
  1
200
  0
TEXT
  8
_0-0_LAYER001
 62
    7
 10
1612.3848181969638
 20
831.00929504990802
 40
20
 41
1
 50
24.227686999999968
  1
75
  0
TEXT
  8
_0-0_LAYER001
 62
    7
 10
1828.3635043221479
 20
882.97409171160643
 40
20
 41
1
 50
0
  1
下葺材：ルーフィング
  0
TEXT
  8
_0-0_LAYER001
 62
    7
 10
1831.611304113504
 20
852.1199936937229
 40
20
 41
1
 50
0
  1
野地板：硬質木片セメントパネルｔ＝25
  0
TEXT
  8
_0-0_LAYER001
 62
    7
 10
1839.7308035918945
 20
822.88979557151742
 40
20
 41
1
 50
0
  1
鋼製：C－100x50x⑳x2.3　@606
  0
LINE
  8
_0-0_LAYER001
  6
CONTINUOUS
 62
    2
 10
1467.8977
 20
1279.6694
 11
1735.8012102684975
 21
1279.6694
  0
LINE
  8
_0-1_ADD_LINE
  6
CONTINUOUS
 62
    7
 10
1467.8977
 20
1279.6694
 11
1742.2968098512097
 21
1279.6694
  0
LINE
  8
_0-0_LAYER001
  6
CONTINUOUS
 62
    2
 10
1066.4024999999999
 20
1299.0807999999997
 11
1128.4626492848972
 21
1299.0807999999997
  0
LINE
  8
_0-1_ADD_LINE
  6
CONTINUOUS
 62
    7
 10
1066.4024999999999
 20
1299.0807999999997
 11
1131.7104490762536
 21
1299.0807999999997
  0
TEXT
  8
_0-0_LAYER001
 62
    7
 10
1073.2500528318426
 20
1311.6836641706184
 40
20
 41
1
 50
0
  1
桟　瓦
  0
TEXT
  8
_0-0_LAYER001
 62
    7
 10
1290.8526388527048
 20
649.13250673396351
 40
20
 41
1
 50
0
  1
この範囲ルーフィング２枚貼り
  0
LINE
  8
_0-0_LAYER001
  6
CONTINUOUS
 62
    2
 10
1838.8094000000001
 20
819.64120000000003
 11
2140.1522842923387
 21
819.64120000000003
  0
LINE
  8
_0-1_ADD_LINE
  6
CONTINUOUS
 62
    7
 10
1838.8094000000001
 20
819.64120000000003
 11
2140.1522842923387
 21
819.64120000000003
  0
LINE
  8
_0-0_LAYER001
  6
CONTINUOUS
 62
    2
 10
1831.6361999999999
 20
849.50780000000009
 11
2218.099479284886
 21
849.50780000000009
  0
LINE
  8
_0-1_ADD_LINE
  6
CONTINUOUS
 62
    7
 10
1831.6361999999999
 20
849.50780000000009
 11
2209.979979806496
 21
849.50780000000009
  0
LINE
  8
_0-0_LAYER001
  6
CONTINUOUS
 62
    2
 10
1822.0931
 20
879.60310000000004
 11
2047.5899902386882
 21
879.60310000000004
  0
LINE
  8
_0-1_ADD_LINE
  6
CONTINUOUS
 62
    7
 10
1822.7426447889493
 20
879.60310000000004
 11
2041.094390655976
 21
879.60310000000004
  0
LINE
  8
_0-0_LAYER001
  6
CONTINUOUS
 62
    2
 10
1813.4636999999998
 20
909.69849999999997
 11
2039.4704907602977
 21
909.69849999999997
  0
LINE
  8
_0-1_ADD_LINE
  6
CONTINUOUS
 62
    7
 10
1814.6786003744351
 20
909.69849999999997
 11
2050.8377900300443
 21
909.69849999999997
  0
TEXT
  8
_0-0_LAYER001
 62
    7
 10
1810.5006054696889
 20
915.45208962516779
 40
20
 41
1
 50
0
  1
　瓦桟：１５ｘ３０以上
  0
ENDSEC
  0
EOF
