  0
SECTION
  2
HEADER
  9
$ACADVER
  1
AC1009
  9
$INSBASE
 10
0
 20
0
 30
0
  9
$EXTMIN
 10
0
 20
0
  9
$EXTMAX
 10
2970
 20
2100
  9
$LIMMIN
 10
0
 20
0
  9
$LIMMAX
 10
2970
 20
2100
  9
$LTSCALE
 40
10
  0
ENDSEC
  0
SECTION
  2
TABLES
  0
TABLE
  2
LTYPE
 70
     9
  0
LTYPE
  2
CONTINUOUS
 70
    64
  3
実線
 72
    65
 73
     0
 40
0.0
  0
LTYPE
  2
DASHED1
 70
    64
  3
--  --  --  --  --  --  --  --  
 72
    65
 73
     2
 40
2.5
 49
1.25
 49
-1.25
  0
LTYPE
  2
DASHED2
 70
    64
  3
----    ----    ----    ----    
 72
    65
 73
     2
 40
5.0
 49
2.5
 49
-2.5
  0
LTYPE
  2
DASHED3
 70
    64
  3
------  ------  ------  ------  
 72
    65
 73
     2
 40
5.0
 49
3.75
 49
-1.25
  0
LTYPE
  2
CENTER1
 70
    64
  3
----- - ----- - ----- - ----- - 
 72
    65
 73
     4
 40
10.0
 49
6.25
 49
-1.25
 49
1.25
 49
-1.25
  0
LTYPE
  2
CENTER2
 70
    64
  3
----------  --  ----------  --  
 72
    65
 73
     4
 40
20.0
 49
12.5
 49
-2.5
 49
2.5
 49
-2.5
  0
LTYPE
  2
PHANTOM1
 70
    64
  3
--- - - --- - - --- - - --- - - 
 72
    65
 73
     6
 40
10.0
 49
3.25
 49
-1.25
 49
1.25
 49
-1.25
 49
1.25
 49
-1.25
  0
LTYPE
  2
PHANTOM2
 70
    64
  3
--------  -  -  --------  -  -  
 72
    65
 73
     6
 40
20.0
 49
10.0
 49
-2.5
 49
1.25
 49
-2.5
 49
1.25
 49
-2.5
  0
LTYPE
  2
DOT
 70
    64
  3
-   -   -   -   -   -   -   -   
 72
    65
 73
     2
 40
2.5
 49
0.625
 49
-1.875
  0
LTYPE
  2
DUMMY
 70
    64
  3
ダミー
 72
    65
 73
     0
 40
0.0
  0
LTYPE
  2
RAND1
 70
    64
  3
ランダム線1
 72
    65
 73
     4
 40
10.0
 49
1.0
 49
-2.0
 49
3.0
 49
-4.0
  0
LTYPE
  2
RAND2
 70
    64
  3
ランダム線2
 72
    65
 73
     4
 40
14.0
 49
2.0
 49
-3.0
 49
4.0
 49
-5.0
  0
LTYPE
  2
RAND3
 70
    64
  3
ランダム線3
 72
    65
 73
     4
 40
18.0
 49
3.0
 49
-4.0
 49
5.0
 49
-6.0
  0
LTYPE
  2
RAND4
 70
    64
  3
ランダム線4
 72
    65
 73
     4
 40
22.0
 49
4.0
 49
-5.0
 49
6.0
 49
-7.0
  0
LTYPE
  2
RAND5
 70
    64
  3
ランダム線5
 72
    65
 73
     4
 40
26.0
 49
5.0
 49
-6.0
 49
7.0
 49
-8.0
  0
LTYPE
  2
LONG1
 70
    64
  3
----------  --  ----------  --  
 72
    65
 73
     4
 40
40.0
 49
32.5
 49
-2.5
 49
2.5
 49
-2.5
  0
LTYPE
  2
LONG2
 70
    64
  3
--------  -  -  --------  -  -  
 72
    65
 73
     6
 40
40.0
 49
30.0
 49
-2.5
 49
1.25
 49
-2.5
 49
1.25
 49
-2.5
  0
LTYPE
  2
LONG3
 70
    64
  3
+++++++++++++++..+++++++++++++++
 72
    65
 73
     2
 40
40.0
 49
37.5
 49
-2.5
  0
LTYPE
  2
LONG4
 70
    64
  3
+++++++++++++++..+++++++++++++++
 72
    65
 73
     2
 40
80.0
 49
75.0
 49
-5.0
  0
LTYPE
  2
LONG5
 70
    64
  3
----------  --  ----------  --  
 72
    65
 73
     4
 40
60.0
 49
37.5
 49
-7.5
 49
7.5
 49
-7.5
  0
LTYPE
  2
dashed
 70
   64
  3
-------   -------------   ------
 72
   65
 73
    2
 40
7.5
 49
6
 49
-1.5
  0
LTYPE
  2
dashed_spaced
 70
   64
  3
----        --------        ----
 72
   65
 73
    2
 40
12
 49
6
 49
-6
  0
LTYPE
  2
long_dashed_dotted
 70
   64
  3
------------- --- --------------
 72
   65
 73
    4
 40
15.25
 49
12
 49
-1.5
 49
0.25
 49
-1.5
  0
LTYPE
  2
long_dashed_double-dotted
 70
   64
  3
----------- --- --- ------------
 72
   65
 73
    6
 40
17
 49
12
 49
-1.5
 49
0.25
 49
-1.5
 49
0.25
 49
-1.5
  0
LTYPE
  2
long_dashed_triplicate-dotted
 70
   64
  3
--------- --- --- --- ----------
 72
   65
 73
    8
 40
18.75
 49
12
 49
-1.5
 49
0.25
 49
-1.5
 49
0.25
 49
-1.5
 49
0.25
 49
-1.5
  0
LTYPE
  2
dotted
 70
   64
  3
   -       -       -       -    
 72
   65
 73
    2
 40
1.75
 49
0.25
 49
-1.5
  0
LTYPE
  2
chain
 70
   64
  3
-------------- -- --------------
 72
   65
 73
    4
 40
18.5
 49
12
 49
-1.5
 49
3.5
 49
-1.5
  0
LTYPE
  2
chain_double_dash
 70
   64
  3
------------ -- -- -------------
 72
   65
 73
    6
 40
23.5
 49
12
 49
-1.5
 49
3.5
 49
-1.5
 49
3.5
 49
-1.5
  0
LTYPE
  2
dashed_dotted
 70
   64
  3
-----------     -     ----------
 72
   65
 73
    4
 40
9.25
 49
6
 49
-1.5
 49
0.25
 49
-1.5
  0
LTYPE
  2
double-dashed_dotted
 70
   64
  3
------   -----------   -   -----
 72
   65
 73
    6
 40
16.75
 49
6
 49
-1.5
 49
6
 49
-1.5
 49
0.25
 49
-1.5
  0
LTYPE
  2
dashed_double-dotted
 70
   64
  3
---------    -    -    ---------
 72
   65
 73
    6
 40
11
 49
6
 49
-1.5
 49
0.25
 49
-1.5
 49
0.25
 49
-1.5
  0
LTYPE
  2
double-dashed_double-dotted
 70
   64
  3
-----   ---------   -   -   ----
 72
   65
 73
    8
 40
18.5
 49
6
 49
-1.5
 49
6
 49
-1.5
 49
0.25
 49
-1.5
 49
0.25
 49
-1.5
  0
LTYPE
  2
dashed_triplicate-dotted
 70
   64
  3
-------    -    -    -    ------
 72
   65
 73
    8
 40
12.75
 49
6
 49
-1.5
 49
0.25
 49
-1.5
 49
0.25
 49
-1.5
 49
0.25
 49
-1.5
  0
LTYPE
  2
double-dashed_triplicate-dotted
 70
   64
  3
-----  ---------  -  -  -  -----
 72
   65
 73
   10
 40
20.25
 49
6
 49
-1.5
 49
6
 49
-1.5
 49
0.25
 49
-1.5
 49
0.25
 49
-1.5
 49
0.25
 49
-1.5
  0
LTYPE
  2
undefined
 70
   64
  3
--------------------------------
 72
   65
 73
    0
 40
0
  0
ENDTAB
  0
TABLE
  2
STYLE
  5
3
100
AcDbSymbolTable
 70
     1
  0
STYLE
  5
10
100
AcDbSymbolTableRecord
100
AcDbTextStyleTableRecord
  2
STANDARD
 70
     0
 40
0.0
 41
1.0
 50
0.0
 71
     0
 42
0.2
  3
txt
  4
bigfont.shx
  0
STYLE
  5
26
100
AcDbSymbolTableRecord
100
AcDbTextStyleTableRecord
  2
TATEGAKI
 70
    68
 40
0.0
 41
1.0
 50
0.0
 71
     0
 42
1.0
  3
txt
  4
bigfont.shx
  0
ENDTAB
  0
TABLE
  2
LAYER
 70
    4
  0
LAYER
  2
_0-0_1
 70
   64
 62
    7
  6
CONTINUOUS
  0
LAYER
  2
_0-1_2
 70
   64
 62
    7
  6
CONTINUOUS
  0
LAYER
  2
_0-2_3
 70
   64
 62
    7
  6
CONTINUOUS
  0
LAYER
  2
ADD_LINE
 70
   64
 62
    7
  6
CONTINUOUS
  0
ENDTAB
  0
ENDSEC
  0
SECTION
  2
BLOCKS
  0
ENDSEC
  0
SECTION
  2
ENTITIES
  0
LINE
  8
_0-0_1
  6
CONTINUOUS
 62
    2
 10
1151.6587999999999
 20
915.91879999999992
 11
1147
 21
906.74679999999989
  0
LINE
  8
_0-0_1
  6
CONTINUOUS
 62
    2
 10
1154.585
 20
912.01710000000003
 11
1151.6587999999999
 21
915.91879999999992
  0
LINE
  8
_0-0_1
  6
CONTINUOUS
 62
    2
 10
1147
 20
906.74679999999989
 11
1144.6941999999999
 21
912.01710000000003
  0
LINE
  8
_0-0_1
  6
CONTINUOUS
 62
    2
 10
1184.9831999999999
 20
912.01710000000003
 11
1154.585
 21
912.01710000000003
  0
LINE
  8
_0-0_1
  6
CONTINUOUS
 62
    2
 10
1144.6941999999999
 20
912.01710000000003
 11
1114.0820000000001
 21
912.01710000000003
  0
LINE
  8
_0-1_2
  6
CONTINUOUS
 62
    2
 10
1163.4527
 20
1117.2737999999999
 11
2117.9007000000001
 21
1117.2737999999999
  0
LINE
  8
_0-1_2
  6
CONTINUOUS
 62
    2
 10
1652.4703
 20
1148.1931
 11
1648.7203
 21
1141.6978999999999
  0
LINE
  8
_0-1_2
  6
CONTINUOUS
 62
    2
 10
1648.7203
 20
1141.6978999999999
 11
1648.7203
 21
1149.1978999999999
  0
LINE
  8
_0-1_2
  6
CONTINUOUS
 62
    2
 10
1648.7203
 20
1141.6978999999999
 11
1675.5354000000002
 21
1241.7732000000001
  0
LINE
  8
_0-1_2
  6
CONTINUOUS
 62
    2
 10
1675.5354000000002
 20
1241.7732000000001
 11
1716.0354000000002
 21
1241.7732000000001
  0
LINE
  8
_0-1_2
  6
CONTINUOUS
 62
    2
 10
1253.4812999999999
 20
1142.6086
 11
1255.4224999999999
 21
1135.3642
  0
LINE
  8
_0-1_2
  6
CONTINUOUS
 62
    2
 10
1255.4224999999999
 20
1135.3642
 11
1250.1192000000001
 21
1140.6675
  0
LINE
  8
_0-1_2
  6
CONTINUOUS
 62
    2
 10
1255.4224999999999
 20
1135.3642
 11
1192.5073
 21
1244.3363999999999
  0
LINE
  8
_0-1_2
  6
CONTINUOUS
 62
    2
 10
1192.5073
 20
1244.3363999999999
 11
1144.5073
 21
1244.3363999999999
  0
LINE
  8
_0-1_2
  6
CONTINUOUS
 62
    2
 10
1081.3457000000001
 20
1336.3131000000001
 11
1081.3457000000001
 21
1283.8131000000001
  0
CIRCLE
  8
_0-1_2
  6
CONTINUOUS
 62
    2
 10
1081.3457000000001
 20
1333.8131000000001
 40
1.6999999999999997
  0
LINE
  8
_0-1_2
  6
CONTINUOUS
 62
    2
 10
1081.3457000000001
 20
1333.8131000000001
 11
1294.3457000000001
 21
1333.8131000000001
  0
CIRCLE
  8
_0-1_2
  6
CONTINUOUS
 62
    2
 10
1294.3457000000001
 20
1333.8131000000001
 40
1.6999999999999997
  0
LINE
  8
_0-1_2
  6
CONTINUOUS
 62
    2
 10
1294.3457000000001
 20
1336.3131000000001
 11
1294.3457000000001
 21
1283.8131000000001
  0
CIRCLE
  8
_0-1_2
  6
CONTINUOUS
 62
    2
 10
1294.3457000000001
 20
1333.8131000000001
 40
1.6999999999999997
  0
LINE
  8
_0-1_2
  6
CONTINUOUS
 62
    2
 10
1294.3457000000001
 20
1333.8131000000001
 11
1549.0626999999999
 21
1333.8131000000001
  0
CIRCLE
  8
_0-1_2
  6
CONTINUOUS
 62
    2
 10
1549.0626999999999
 20
1333.8131000000001
 40
1.6999999999999997
  0
LINE
  8
_0-1_2
  6
CONTINUOUS
 62
    2
 10
1549.0626999999999
 20
1336.3131000000001
 11
1549.0626999999999
 21
1283.8131000000001
  0
CIRCLE
  8
_0-1_2
  6
CONTINUOUS
 62
    2
 10
1549.0626999999999
 20
1333.8131000000001
 40
1.6999999999999997
  0
LINE
  8
_0-1_2
  6
CONTINUOUS
 62
    2
 10
1549.0626999999999
 20
1333.8131000000001
 11
1804.3456999999999
 21
1333.8131000000001
  0
CIRCLE
  8
_0-1_2
  6
CONTINUOUS
 62
    2
 10
1804.3456999999999
 20
1333.8131000000001
 40
1.6999999999999997
  0
LINE
  8
_0-1_2
  6
CONTINUOUS
 62
    2
 10
1804.3456999999999
 20
1336.3131000000001
 11
1804.3456999999999
 21
1283.8131000000001
  0
CIRCLE
  8
_0-1_2
  6
CONTINUOUS
 62
    2
 10
1804.3456999999999
 20
1333.8131000000001
 40
1.6999999999999997
  0
LINE
  8
_0-1_2
  6
CONTINUOUS
 62
    2
 10
1804.3456999999999
 20
1333.8131000000001
 11
2058.6415999999999
 21
1333.8131000000001
  0
CIRCLE
  8
_0-1_2
  6
CONTINUOUS
 62
    2
 10
2058.6415999999999
 20
1333.8131000000001
 40
1.6999999999999997
  0
LINE
  8
_0-1_2
  6
CONTINUOUS
 62
    2
 10
2058.6415999999999
 20
1336.3131000000001
 11
2058.6415999999999
 21
1283.8131000000001
  0
LINE
  8
_0-1_2
  6
CONTINUOUS
 62
    2
 10
1163.4527
 20
1102.2737999999999
 11
2117.9007000000001
 21
1102.2737999999999
  0
LINE
  8
_0-0_1
  6
CONTINUOUS
 62
    2
 10
1085.4527
 20
805.61190000000011
 11
1085.4527
 21
862.58130000000006
  0
CIRCLE
  8
_0-0_1
  6
CONTINUOUS
 62
    2
 10
1085.4527
 20
808.11190000000011
 40
1.6999999999999997
  0
LINE
  8
_0-0_1
  6
CONTINUOUS
 62
    2
 10
1085.4527
 20
808.11190000000011
 11
1113.4527
 21
808.11190000000011
  0
CIRCLE
  8
_0-0_1
  6
CONTINUOUS
 62
    2
 10
1113.4527
 20
808.11190000000011
 40
1.6999999999999997
  0
LINE
  8
_0-0_1
  6
CONTINUOUS
 62
    2
 10
1113.4527
 20
805.61190000000011
 11
1113.4527
 21
862.58130000000006
  0
CIRCLE
  8
_0-0_1
  6
CONTINUOUS
 62
    2
 10
1113.4527
 20
808.11190000000011
 40
1.6999999999999997
  0
LINE
  8
_0-0_1
  6
CONTINUOUS
 62
    2
 10
1113.4527
 20
808.11190000000011
 11
1125.4527
 21
808.11190000000011
  0
CIRCLE
  8
_0-0_1
  6
CONTINUOUS
 62
    2
 10
1125.4527
 20
808.11190000000011
 40
1.6999999999999997
  0
LINE
  8
_0-0_1
  6
CONTINUOUS
 62
    2
 10
1125.4527
 20
805.61190000000011
 11
1125.4527
 21
862.58130000000006
  0
LINE
  8
_0-2_3
  6
CONTINUOUS
 62
    2
 10
1126.0182
 20
972.40570000000002
 11
1131.3215
 21
977.70900000000006
  0
LINE
  8
_0-2_3
  6
CONTINUOUS
 62
    2
 10
1131.3215
 20
977.70900000000006
 11
1129.3803
 21
970.46460000000002
  0
LINE
  8
_0-2_3
  6
CONTINUOUS
 62
    2
 10
1131.3215
 20
977.70900000000006
 11
1060.8126999999999
 21
855.58420000000001
  0
LINE
  8
_0-2_3
  6
CONTINUOUS
 62
    2
 10
1060.8126999999999
 20
855.58420000000001
 11
852.09920000000011
 21
855.58420000000001
  0
LINE
  8
_0-0_1
  6
CONTINUOUS
 62
    2
 10
1935.2098999999998
 20
1047.2737999999999
 11
1885.2098000000001
 21
1097.2738999999999
  0
LINE
  8
_0-0_1
  6
CONTINUOUS
 62
    2
 10
1939.4524999999999
 20
1047.2737999999999
 11
1889.4524999999999
 21
1097.2738999999999
  0
LINE
  8
_0-0_1
  6
CONTINUOUS
 62
    2
 10
1303.0563999999999
 20
1047.2737999999999
 11
1253.0564999999999
 21
1097.2738999999999
  0
LINE
  8
_0-0_1
  6
CONTINUOUS
 62
    2
 10
1307.2991
 20
1047.2737999999999
 11
1257.2991
 21
1097.2738999999999
  0
LINE
  8
_0-0_1
  6
CONTINUOUS
 62
    2
 10
1515.1885000000002
 20
1047.2737999999999
 11
1465.1885000000002
 21
1097.2738999999999
  0
LINE
  8
_0-0_1
  6
CONTINUOUS
 62
    2
 10
1519.4312
 20
1047.2737999999999
 11
1469.4310999999998
 21
1097.2738999999999
  0
LINE
  8
_0-0_1
  6
CONTINUOUS
 62
    2
 10
1727.3204999999998
 20
1047.2737999999999
 11
1677.3204999999998
 21
1097.2738999999999
  0
LINE
  8
_0-0_1
  6
CONTINUOUS
 62
    2
 10
1731.5632000000001
 20
1047.2737999999999
 11
1681.5632000000001
 21
1097.2738999999999
  0
LINE
  8
_0-0_1
  6
CONTINUOUS
 62
    2
 10
1223.1534999999999
 20
967.27369999999996
 11
1225.453
 21
967.27359999999999
  0
LINE
  8
_0-0_1
  6
CONTINUOUS
 62
    2
 10
1223.1525999999999
 20
1027.2738999999999
 11
1225.4531999999999
 21
1027.2735
  0
LINE
  8
_0-0_1
  6
CONTINUOUS
 62
    2
 10
1223.1533999999999
 20
1042.2745
 11
1223.1525999999999
 21
1027.2738999999999
  0
LINE
  8
_0-0_1
  6
CONTINUOUS
 62
    2
 10
1180.454
 20
1044.9755
 11
1220.4529
 21
1044.9745
  0
LINE
  8
_0-0_1
  6
CONTINUOUS
 62
    2
 10
1220.4539
 20
1047.2737
 11
1180.453
 21
1047.2744
  0
LINE
  8
_0-0_1
  6
CONTINUOUS
 62
    2
 10
1225.4535000000001
 20
1042.2742000000001
 11
1225.4531999999999
 21
1027.2735
  0
LINE
  8
_0-0_1
  6
CONTINUOUS
 62
    2
 10
1175.4512
 20
952.27359999999999
 11
1175.4532999999999
 21
1042.2745
  0
LINE
  8
_0-0_1
  6
CONTINUOUS
 62
    2
 10
1220.4529
 20
947.27310000000011
 11
1180.4509
 21
947.27399999999989
  0
LINE
  8
_0-0_1
  6
CONTINUOUS
 62
    2
 10
1225.4526000000001
 20
952.27279999999996
 11
1225.453
 21
967.27359999999999
  0
LINE
  8
_0-0_1
  6
CONTINUOUS
 62
    2
 10
1223.1532999999999
 20
952.27289999999994
 11
1223.1534999999999
 21
967.27369999999996
  0
LINE
  8
_0-0_1
  6
CONTINUOUS
 62
    2
 10
1180.4521999999999
 20
949.57310000000007
 11
1220.453
 21
949.57249999999999
  0
LINE
  8
_0-0_1
  6
CONTINUOUS
 62
    2
 10
1177.7517
 20
952.27320000000009
 11
1177.7542000000001
 21
1042.2750000000001
  0
LINE
  8
_0-0_1
  6
CONTINUOUS
 62
    2
 10
1250.4543000000001
 20
988.27410000000009
 11
1242.6599000000001
 21
992.77389999999991
  0
LINE
  8
_0-0_1
  6
CONTINUOUS
 62
    2
 10
1242.6599000000001
 20
992.77389999999991
 11
1242.6596
 21
1001.7737999999999
  0
LINE
  8
_0-0_1
  6
CONTINUOUS
 62
    2
 10
1242.6596
 20
1001.7737999999999
 11
1250.4535000000001
 21
1006.2741000000001
  0
LINE
  8
_0-0_1
  6
CONTINUOUS
 62
    2
 10
1250.4535000000001
 20
1006.2741000000001
 11
1258.2479000000001
 21
1001.7743
  0
LINE
  8
_0-0_1
  6
CONTINUOUS
 62
    2
 10
1258.2479000000001
 20
1001.7743
 11
1258.2483
 21
992.77440000000001
  0
LINE
  8
_0-0_1
  6
CONTINUOUS
 62
    2
 10
1258.2483
 20
992.77440000000001
 11
1250.4543000000001
 21
988.27410000000009
  0
LINE
  8
_0-0_1
  6
CONTINUOUS
 62
    2
 10
1255.4534000000001
 20
987.27399999999989
 11
1255.454
 21
991.16069999999991
  0
LINE
  8
_0-0_1
  6
CONTINUOUS
 62
    2
 10
1245.4540999999999
 20
987.27379999999994
 11
1245.4538
 21
991.16090000000008
  0
LINE
  8
_0-0_1
  6
CONTINUOUS
 62
    2
 10
1245.4544000000001
 20
1007.2743
 11
1245.4539
 21
1003.3875
  0
LINE
  8
_0-0_1
  6
CONTINUOUS
 62
    2
 10
1255.4537
 20
1007.2745
 11
1255.4540999999999
 21
1003.3873000000001
  0
LINE
  8
_0-0_1
  6
CONTINUOUS
 62
    2
 10
2117.9007000000001
 20
947.27389999999991
 11
1230.4535000000001
 21
947.27389999999991
  0
LINE
  8
_0-0_1
  6
CONTINUOUS
 62
    2
 10
1225.4535000000001
 20
1037.2741000000001
 11
1225.4535000000001
 21
957.27410000000009
  0
LINE
  8
_0-0_1
  6
CONTINUOUS
 62
    2
 10
1230.4535000000001
 20
949.57279999999992
 11
2117.9007000000001
 21
949.57279999999992
  0
LINE
  8
_0-0_1
  6
CONTINUOUS
 62
    2
 10
1230.4535000000001
 20
1044.9743000000001
 11
2117.9007000000001
 21
1044.9743000000001
  0
LINE
  8
_0-0_1
  6
CONTINUOUS
 62
    2
 10
1275.4535000000001
 20
1037.2741000000001
 11
1275.4535000000001
 21
1027.2735
  0
LINE
  8
_0-0_1
  6
CONTINUOUS
 62
    2
 10
1228.6533999999999
 20
1037.2741000000001
 11
1228.6533999999999
 21
957.27410000000009
  0
LINE
  8
_0-0_1
  6
CONTINUOUS
 62
    2
 10
1225.4535000000001
 20
1037.2741000000001
 11
1230.4535000000001
 21
1037.2741000000001
  0
LINE
  8
_0-0_1
  6
CONTINUOUS
 62
    2
 10
1230.4535000000001
 20
1037.2741000000001
 11
1275.4535000000001
 21
1037.2741000000001
  0
LINE
  8
_0-0_1
  6
CONTINUOUS
 62
    2
 10
1275.4535000000001
 20
1027.2735
 11
1275.4535000000001
 21
967.27359999999999
  0
LINE
  8
_0-0_1
  6
CONTINUOUS
 62
    2
 10
1275.4535000000001
 20
967.27359999999999
 11
1275.4535000000001
 21
957.27410000000009
  0
LINE
  8
_0-0_1
  6
CONTINUOUS
 62
    2
 10
1225.4535000000001
 20
957.27410000000009
 11
1230.4535000000001
 21
957.27410000000009
  0
LINE
  8
_0-0_1
  6
CONTINUOUS
 62
    2
 10
1230.4535000000001
 20
957.27410000000009
 11
1275.4535000000001
 21
957.27410000000009
  0
LINE
  8
_0-0_1
  6
CONTINUOUS
 62
    2
 10
1230.4535000000001
 20
1047.2737999999999
 11
1230.4535000000001
 21
1027.2735
  0
LINE
  8
_0-0_1
  6
CONTINUOUS
 62
    2
 10
1230.4535000000001
 20
1027.2735
 11
1230.4535000000001
 21
957.27410000000009
  0
LINE
  8
_0-0_1
  6
CONTINUOUS
 62
    2
 10
1230.4535000000001
 20
957.27410000000009
 11
1230.4535000000001
 21
947.27389999999991
  0
LINE
  8
_0-0_1
  6
DASHED1
 62
    2
 10
1230.4535000000001
 20
1027.2735
 11
2117.9007000000001
 21
1027.2735
  0
LINE
  8
_0-0_1
  6
DASHED1
 62
    2
 10
1230.4535000000001
 20
967.27359999999999
 11
2117.9007000000001
 21
967.27359999999999
  0
LINE
  8
_0-0_1
  6
CONTINUOUS
 62
    2
 10
1175.4526000000001
 20
1047.2737999999999
 11
1175.4526000000001
 21
912.01710000000003
  0
LINE
  8
_0-0_1
  6
CONTINUOUS
 62
    2
 10
1125.4527
 20
1047.2737999999999
 11
1125.4527
 21
912.01710000000003
  0
LINE
  8
_0-0_1
  6
CONTINUOUS
 62
    2
 10
1175.4516000000001
 20
965.13439999999991
 11
1125.4527
 21
1015.1333999999999
  0
LINE
  8
_0-0_1
  6
CONTINUOUS
 62
    2
 10
1175.4513999999999
 20
960.8918000000001
 11
1125.4527
 21
1010.8906999999999
  0
LINE
  8
_0-0_1
  6
CONTINUOUS
 62
    2
 10
1125.4522999999999
 20
1002.2746999999999
 11
1125.453
 21
992.27369999999996
  0
LINE
  8
_0-0_1
  6
CONTINUOUS
 62
    2
 10
1128.4523999999999
 20
1002.2737999999999
 11
1128.4528
 21
992.27489999999989
  0
LINE
  8
_0-0_1
  6
CONTINUOUS
 62
    2
 10
1125.453
 20
992.27369999999996
 11
1128.4528
 21
992.27489999999989
  0
LINE
  8
_0-0_1
  6
CONTINUOUS
 62
    2
 10
1125.4522999999999
 20
1002.2746999999999
 11
1128.4523999999999
 21
1002.2737999999999
  0
LINE
  8
_0-0_1
  6
CONTINUOUS
 62
    2
 10
1125.4527
 20
997.27410000000009
 11
1128.4530999999999
 21
997.27410000000009
  0
LINE
  8
_0-0_1
  6
CONTINUOUS
 62
    2
 10
1190.4525000000001
 20
997.2802999999999
 11
1184.8524
 21
995.27960000000007
  0
LINE
  8
_0-0_1
  6
CONTINUOUS
 62
    2
 10
1190.4525000000001
 20
997.2802999999999
 11
1184.8525999999999
 21
999.27960000000007
  0
LINE
  8
_0-0_1
  6
CONTINUOUS
 62
    2
 10
1144.5546999999999
 20
994.03829999999994
 11
1143.4970000000001
 21
1000.6850999999999
  0
LINE
  8
_0-0_1
  6
CONTINUOUS
 62
    2
 10
1154.5553
 20
994.04019999999991
 11
1153.4975999999999
 21
1000.6871000000001
  0
LINE
  8
_0-0_1
  6
CONTINUOUS
 62
    2
 10
1164.5543
 20
994.04079999999999
 11
1163.4965999999999
 21
1000.6875
  0
LINE
  8
_0-0_1
  6
CONTINUOUS
 62
    2
 10
1174.5549000000001
 20
994.04259999999999
 11
1173.4978000000001
 21
1000.6882000000001
  0
LINE
  8
_0-0_1
  6
CONTINUOUS
 62
    2
 10
1183.2969000000001
 20
994.04279999999994
 11
1182.2393
 21
1000.6896999999999
  0
LINE
  8
_0-0_1
  6
CONTINUOUS
 62
    2
 10
1131.4504999999999
 20
999.27530000000002
 11
1184.8525999999999
 21
999.27960000000007
  0
LINE
  8
_0-0_1
  6
CONTINUOUS
 62
    2
 10
1128.4523999999999
 20
1002.2737999999999
 11
1131.4504999999999
 21
999.27530000000002
  0
LINE
  8
_0-0_1
  6
CONTINUOUS
 62
    2
 10
1131.4532999999999
 20
995.27520000000004
 11
1184.8524
 21
995.27960000000007
  0
LINE
  8
_0-0_1
  6
CONTINUOUS
 62
    2
 10
1128.4528
 20
992.27489999999989
 11
1131.4532999999999
 21
995.27520000000004
  0
LINE
  8
_0-0_1
  6
CONTINUOUS
 62
    2
 10
1205.4477999999999
 20
1097.2742000000001
 11
1195.4467999999999
 21
1097.2735
  0
LINE
  8
_0-0_1
  6
CONTINUOUS
 62
    2
 10
1205.4468999999999
 20
1094.2741000000001
 11
1195.4480000000001
 21
1094.2737
  0
LINE
  8
_0-0_1
  6
CONTINUOUS
 62
    2
 10
1195.4467999999999
 20
1097.2735
 11
1195.4480000000001
 21
1094.2737
  0
LINE
  8
_0-0_1
  6
CONTINUOUS
 62
    2
 10
1205.4477999999999
 20
1097.2742000000001
 11
1205.4468999999999
 21
1094.2741000000001
  0
LINE
  8
_0-0_1
  6
CONTINUOUS
 62
    2
 10
1200.4472000000001
 20
1097.2738999999999
 11
1200.4472000000001
 21
1094.2735
  0
LINE
  8
_0-0_1
  6
CONTINUOUS
 62
    2
 10
1200.4535000000001
 20
1032.2739999999999
 11
1198.4527
 21
1037.8742
  0
LINE
  8
_0-0_1
  6
CONTINUOUS
 62
    2
 10
1200.4535000000001
 20
1032.2739999999999
 11
1202.4528
 21
1037.874
  0
LINE
  8
_0-0_1
  6
CONTINUOUS
 62
    2
 10
1197.2113999999999
 20
1078.1718000000001
 11
1203.8581999999999
 21
1079.2293999999999
  0
LINE
  8
_0-0_1
  6
CONTINUOUS
 62
    2
 10
1197.2132999999999
 20
1068.1711
 11
1203.8602000000001
 21
1069.2289000000001
  0
LINE
  8
_0-0_1
  6
CONTINUOUS
 62
    2
 10
1197.2139
 20
1058.1722
 11
1203.8607
 21
1059.2299
  0
LINE
  8
_0-0_1
  6
CONTINUOUS
 62
    2
 10
1197.2157
 20
1048.1715999999999
 11
1203.8613
 21
1049.2286999999999
  0
LINE
  8
_0-0_1
  6
CONTINUOUS
 62
    2
 10
1197.2158999999999
 20
1039.4295999999999
 11
1203.8628000000001
 21
1040.4873
  0
LINE
  8
_0-0_1
  6
CONTINUOUS
 62
    2
 10
1202.4484
 20
1091.2760000000001
 11
1202.4528
 21
1037.874
  0
LINE
  8
_0-0_1
  6
CONTINUOUS
 62
    2
 10
1205.4468999999999
 20
1094.2741000000001
 11
1202.4484
 21
1091.2760000000001
  0
LINE
  8
_0-0_1
  6
CONTINUOUS
 62
    2
 10
1198.4483
 20
1091.2732000000001
 11
1198.4527
 21
1037.8742
  0
LINE
  8
_0-0_1
  6
CONTINUOUS
 62
    2
 10
1195.4480000000001
 20
1094.2737
 11
1198.4483
 21
1091.2732000000001
  0
LINE
  8
_0-0_1
  6
CONTINUOUS
 62
    2
 10
2117.9007000000001
 20
1097.2738999999999
 11
1115.4526000000001
 21
1097.2738999999999
  0
LINE
  8
_0-0_1
  6
CONTINUOUS
 62
    2
 10
1115.4526000000001
 20
1097.2738999999999
 11
1115.4526000000001
 21
1047.2737999999999
  0
LINE
  8
_0-0_1
  6
CONTINUOUS
 62
    2
 10
2117.9007000000001
 20
1047.2737999999999
 11
1115.4526000000001
 21
1047.2737999999999
  0
LINE
  8
_0-0_1
  6
DASHED3
 62
    2
 10
1115.4526000000001
 20
1099.2737999999999
 11
2117.9007000000001
 21
1099.2737999999999
  0
ARC
  8
_0-0_1
  6
CONTINUOUS
 62
    2
 10
1220.453
 20
1042.2743
 40
2.7000000000000002
 50
0.01099
 51
90.003097999999994
  0
ARC
  8
_0-0_1
  6
CONTINUOUS
 62
    2
 10
1180.4543000000001
 20
1042.2753
 40
2.7000000000000002
 50
90.003098000000008
 51
179.98340999999999
  0
ARC
  8
_0-0_1
  6
CONTINUOUS
 62
    2
 10
1180.4521
 20
1042.2752
 40
4.9989999999999997
 50
89.991318000000007
 51
180.00197
  0
ARC
  8
_0-0_1
  6
CONTINUOUS
 62
    2
 10
1220.4545000000001
 20
1042.2750000000001
 40
4.9989999999999997
 50
359.99557999999996
 51
90.012588999999963
  0
ARC
  8
_0-0_1
  6
CONTINUOUS
 62
    2
 10
1180.4504999999999
 20
952.27279999999996
 40
4.9989999999999997
 50
179.98068000000001
 51
270.00623000000007
  0
ARC
  8
_0-0_1
  6
CONTINUOUS
 62
    2
 10
1220.4537
 20
952.27230000000009
 40
4.9989999999999997
 50
269.98493999999999
 51
0.0168699999999887
  0
ARC
  8
_0-0_1
  6
CONTINUOUS
 62
    2
 10
1220.4527
 20
952.27279999999996
 40
2.7000000000000002
 50
269.99128999999999
 51
0.0109900000000208
  0
ARC
  8
_0-0_1
  6
CONTINUOUS
 62
    2
 10
1180.4516000000001
 20
952.27330000000006
 40
2.7000000000000002
 50
179.98340999999999
 51
269.99128999999999
  0
ARC
  8
_0-0_1
  6
CONTINUOUS
 62
    2
 10
1250.4538
 20
987.27379999999994
 40
5
 50
179.99697000000003
 51
0.0118600000000697
  0
ARC
  8
_0-0_1
  6
CONTINUOUS
 62
    2
 10
1250.454
 20
1007.2744
 40
5
 50
0.0118599999999999
 51
179.99697
  0
LINE
  8
_0-1_2
  6
CONTINUOUS
 62
    2
 10
1127.7818
 20
1126.9322999999999
 11
1129.723
 21
1119.6878999999999
  0
LINE
  8
_0-1_2
  6
CONTINUOUS
 62
    2
 10
1129.723
 20
1119.6878999999999
 11
1124.4196999999999
 21
1124.9911999999999
  0
LINE
  8
_0-1_2
  6
CONTINUOUS
 62
    2
 10
1129.723
 20
1119.6878999999999
 11
1069.8492000000001
 21
1223.3923
  0
LINE
  8
_0-1_2
  6
CONTINUOUS
 62
    2
 10
1069.8492000000001
 20
1223.3923
 11
1011.5904
 21
1223.3923
  0
LINE
  8
_0-0_1
  6
CONTINUOUS
 62
    2
 10
1650.2930000000001
 20
840.51520000000005
 11
1855.1158
 21
840.51520000000005
  0
LINE
  8
_0-0_1
  6
CONTINUOUS
 62
    2
 10
1580.1471000000001
 20
1093.1459
 11
1580.1471000000001
 21
1100.6459
  0
LINE
  8
_0-0_1
  6
CONTINUOUS
 62
    2
 10
1580.1471000000001
 20
1100.6459
 11
1583.8971000000001
 21
1094.1506999999999
  0
LINE
  8
_0-0_1
  6
CONTINUOUS
 62
    2
 10
1580.1471000000001
 20
1100.6459
 11
1673.9184
 21
750.68679999999995
  0
LINE
  8
_0-0_1
  6
CONTINUOUS
 62
    4
 10
1816.9495999999999
 20
1172.912
 11
1819.0003999999999
 21
1173.7175999999999
  0
LINE
  8
_0-0_1
  6
CONTINUOUS
 62
    4
 10
1819.0003999999999
 20
1173.7175999999999
 11
1822.5488999999998
 21
1175.1138000000001
  0
LINE
  8
_0-0_1
  6
CONTINUOUS
 62
    4
 10
1822.5488999999998
 20
1175.1138000000001
 11
1826.1214
 21
1176.5260000000001
  0
LINE
  8
_0-0_1
  6
CONTINUOUS
 62
    4
 10
1826.1214
 20
1176.5260000000001
 11
1829.7221
 21
1177.9603
  0
LINE
  8
_0-0_1
  6
CONTINUOUS
 62
    4
 10
1829.7221
 20
1177.9603
 11
1833.355
 21
1179.4223
  0
LINE
  8
_0-0_1
  6
CONTINUOUS
 62
    4
 10
1833.355
 20
1179.4223
 11
1837.0137
 21
1180.9139
  0
LINE
  8
_0-0_1
  6
CONTINUOUS
 62
    4
 10
1837.0137
 20
1180.9139
 11
1839.1568000000002
 21
1181.798
  0
LINE
  8
_0-0_1
  6
CONTINUOUS
 62
    4
 10
1839.1568000000002
 20
1181.798
 11
1841.1689000000001
 21
1182.6328000000001
  0
LINE
  8
_0-0_1
  6
CONTINUOUS
 62
    4
 10
1841.1689000000001
 20
1182.6328000000001
 11
1844.4227000000001
 21
1183.9498000000001
  0
LINE
  8
_0-0_1
  6
CONTINUOUS
 62
    4
 10
1844.4227000000001
 20
1183.9498000000001
 11
1847.3033
 21
1185.0123000000001
  0
LINE
  8
_0-0_1
  6
CONTINUOUS
 62
    4
 10
1847.3033
 20
1185.0123000000001
 11
1849.7611000000002
 21
1185.7664
  0
LINE
  8
_0-0_1
  6
CONTINUOUS
 62
    4
 10
1849.7611000000002
 20
1185.7664
 11
1851.7469999999998
 21
1186.2016000000001
  0
LINE
  8
_0-0_1
  6
CONTINUOUS
 62
    4
 10
1851.7469999999998
 20
1186.2016000000001
 11
1853.5237999999999
 21
1186.3909000000001
  0
LINE
  8
_0-0_1
  6
CONTINUOUS
 62
    4
 10
1853.5237999999999
 20
1186.3909000000001
 11
1854.2033999999999
 21
1186.3916999999999
  0
LINE
  8
_0-0_1
  6
CONTINUOUS
 62
    4
 10
1854.2033999999999
 20
1186.3916999999999
 11
1854.1271999999999
 21
1186.3960999999999
  0
LINE
  8
_0-0_1
  6
CONTINUOUS
 62
    4
 10
1854.1271999999999
 20
1186.3960999999999
 11
1854.7417999999998
 21
1186.3332
  0
LINE
  8
_0-0_1
  6
CONTINUOUS
 62
    4
 10
1854.7417999999998
 20
1186.3332
 11
1855.3335999999999
 21
1186.2417
  0
LINE
  8
_0-0_1
  6
CONTINUOUS
 62
    4
 10
1855.3335999999999
 20
1186.2417
 11
1856.0030000000002
 21
1186.106
  0
LINE
  8
_0-0_1
  6
CONTINUOUS
 62
    4
 10
1856.0030000000002
 20
1186.106
 11
1856.7390999999998
 21
1185.9237000000001
  0
LINE
  8
_0-0_1
  6
CONTINUOUS
 62
    4
 10
1856.7390999999998
 20
1185.9237000000001
 11
1857.5918000000001
 21
1185.6771000000001
  0
LINE
  8
_0-0_1
  6
CONTINUOUS
 62
    4
 10
1857.5918000000001
 20
1185.6771000000001
 11
1857.837
 21
1185.5987
  0
LINE
  8
_0-0_1
  6
CONTINUOUS
 62
    4
 10
1857.837
 20
1185.5987
 11
1859.4050000000002
 21
1185.0283999999999
  0
LINE
  8
_0-0_1
  6
CONTINUOUS
 62
    4
 10
1859.4050000000002
 20
1185.0283999999999
 11
1862.3715999999999
 21
1183.6993
  0
LINE
  8
_0-0_1
  6
CONTINUOUS
 62
    4
 10
1862.3715999999999
 20
1183.6993
 11
1865.3555000000001
 21
1182.0802000000001
  0
LINE
  8
_0-0_1
  6
CONTINUOUS
 62
    4
 10
1865.3555000000001
 20
1182.0802000000001
 11
1868.5511999999999
 21
1180.1032
  0
LINE
  8
_0-0_1
  6
CONTINUOUS
 62
    4
 10
1868.5511999999999
 20
1180.1032
 11
1871.9683
 21
1177.8058000000001
  0
LINE
  8
_0-0_1
  6
CONTINUOUS
 62
    4
 10
1871.9683
 20
1177.8058000000001
 11
1875.6100000000001
 21
1175.2538999999999
  0
LINE
  8
_0-0_1
  6
CONTINUOUS
 62
    4
 10
1875.6100000000001
 20
1175.2538999999999
 11
1877.8391000000001
 21
1173.6824999999999
  0
LINE
  8
_0-0_1
  6
CONTINUOUS
 62
    4
 10
1877.8391000000001
 20
1173.6824999999999
 11
1881.3636999999999
 21
1171.2311
  0
LINE
  8
_0-0_1
  6
CONTINUOUS
 62
    4
 10
1881.3636999999999
 20
1171.2311
 11
1887.5142000000001
 21
1167.0916999999999
  0
LINE
  8
_0-0_1
  6
CONTINUOUS
 62
    4
 10
1887.5142000000001
 20
1167.0916999999999
 11
1893.8751999999999
 21
1163.04
  0
LINE
  8
_0-0_1
  6
CONTINUOUS
 62
    4
 10
1893.8751999999999
 20
1163.04
 11
1900.4508999999998
 21
1159.1427000000001
  0
LINE
  8
_0-0_1
  6
CONTINUOUS
 62
    4
 10
1900.4508999999998
 20
1159.1427000000001
 11
1907.2691
 21
1155.4535000000001
  0
LINE
  8
_0-0_1
  6
CONTINUOUS
 62
    4
 10
1907.2691
 20
1155.4535000000001
 11
1914.2599
 21
1152.0762999999999
  0
LINE
  8
_0-0_1
  6
CONTINUOUS
 62
    4
 10
1914.2599
 20
1152.0762999999999
 11
1918.5598
 21
1150.2117000000001
  0
LINE
  8
_0-0_1
  6
CONTINUOUS
 62
    4
 10
1918.5598
 20
1150.2117000000001
 11
1922.1855
 21
1148.7643
  0
LINE
  8
_0-0_1
  6
CONTINUOUS
 62
    4
 10
1922.1855
 20
1148.7643
 11
1928.2725
 21
1146.5871
  0
LINE
  8
_0-0_1
  6
CONTINUOUS
 62
    4
 10
1928.2725
 20
1146.5871
 11
1934.5499
 21
1144.6636000000001
  0
LINE
  8
_0-0_1
  6
CONTINUOUS
 62
    4
 10
1934.5499
 20
1144.6636000000001
 11
1940.922
 21
1143.0309
  0
LINE
  8
_0-0_1
  6
CONTINUOUS
 62
    4
 10
1940.922
 20
1143.0309
 11
1947.3755000000001
 21
1141.6980000000001
  0
LINE
  8
_0-0_1
  6
CONTINUOUS
 62
    4
 10
1947.3755000000001
 20
1141.6980000000001
 11
1953.8038999999999
 21
1140.6889000000001
  0
LINE
  8
_0-0_1
  6
CONTINUOUS
 62
    4
 10
1953.8038999999999
 20
1140.6889000000001
 11
1957.6695
 21
1140.2340999999999
  0
LINE
  8
_0-0_1
  6
CONTINUOUS
 62
    4
 10
1957.6695
 20
1140.2340999999999
 11
1960.6682000000001
 21
1139.9576
  0
LINE
  8
_0-0_1
  6
CONTINUOUS
 62
    4
 10
1960.6682000000001
 20
1139.9576
 11
1965.5655000000002
 21
1139.6437000000001
  0
LINE
  8
_0-0_1
  6
CONTINUOUS
 62
    4
 10
1965.5655000000002
 20
1139.6437000000001
 11
1970.4757
 21
1139.4876999999999
  0
LINE
  8
_0-0_1
  6
CONTINUOUS
 62
    4
 10
1970.4757
 20
1139.4876999999999
 11
1975.3238000000001
 21
1139.4725000000001
  0
LINE
  8
_0-0_1
  6
CONTINUOUS
 62
    4
 10
1975.3238000000001
 20
1139.4725000000001
 11
1980.1066999999998
 21
1139.577
  0
LINE
  8
_0-0_1
  6
CONTINUOUS
 62
    4
 10
1980.1066999999998
 20
1139.577
 11
1984.7919999999999
 21
1139.7793999999999
  0
LINE
  8
_0-0_1
  6
CONTINUOUS
 62
    4
 10
1984.7919999999999
 20
1139.7793999999999
 11
1987.5672
 21
1139.9394
  0
LINE
  8
_0-0_1
  6
CONTINUOUS
 62
    4
 10
1987.5672
 20
1139.9394
 11
1992.5949999999998
 21
1140.2950000000001
  0
LINE
  8
_0-0_1
  6
CONTINUOUS
 62
    4
 10
1992.5949999999998
 20
1140.2950000000001
 11
2001.1111000000001
 21
1141.0751
  0
LINE
  8
_0-0_1
  6
CONTINUOUS
 62
    4
 10
2001.1111000000001
 20
1141.0751
 11
2009.5832999999998
 21
1142.0437999999999
  0
LINE
  8
_0-0_1
  6
CONTINUOUS
 62
    4
 10
2009.5832999999998
 20
1142.0437999999999
 11
2017.9598999999998
 21
1143.1559999999999
  0
LINE
  8
_0-0_1
  6
CONTINUOUS
 62
    4
 10
2017.9598999999998
 20
1143.1559999999999
 11
2026.2444
 21
1144.3724999999999
  0
LINE
  8
_0-0_1
  6
CONTINUOUS
 62
    4
 10
2026.2444
 20
1144.3724999999999
 11
2034.4351000000001
 21
1145.6541999999999
  0
LINE
  8
_0-0_1
  6
CONTINUOUS
 62
    4
 10
2034.4351000000001
 20
1145.6541999999999
 11
2039.1619999999998
 21
1146.4157
  0
LINE
  8
_0-0_1
  6
CONTINUOUS
 62
    4
 10
2039.1619999999998
 20
1146.4157
 11
2041.6120999999998
 21
1146.8139000000001
  0
LINE
  8
_0-0_1
  6
CONTINUOUS
 62
    4
 10
2041.6120999999998
 20
1146.8139000000001
 11
2045.817
 21
1147.5011999999999
  0
LINE
  8
_0-0_1
  6
CONTINUOUS
 62
    4
 10
2045.817
 20
1147.5011999999999
 11
2050.0192999999999
 21
1148.1923999999999
  0
LINE
  8
_0-0_1
  6
CONTINUOUS
 62
    4
 10
2050.0192999999999
 20
1148.1923999999999
 11
2054.2168000000001
 21
1148.8860999999999
  0
LINE
  8
_0-0_1
  6
CONTINUOUS
 62
    4
 10
2054.2168000000001
 20
1148.8860999999999
 11
2058.4097000000002
 21
1149.5816
  0
LINE
  8
_0-0_1
  6
CONTINUOUS
 62
    4
 10
2058.4097000000002
 20
1149.5816
 11
2062.5983000000001
 21
1150.2777000000001
  0
LINE
  8
_0-0_1
  6
CONTINUOUS
 62
    4
 10
2062.5983000000001
 20
1150.2777000000001
 11
2064.2123999999999
 21
1150.5462
  0
LINE
  8
_0-0_1
  6
CONTINUOUS
 62
    4
 10
1300.3432
 20
1190.7422999999999
 11
1301.4681999999998
 21
1191.1911
  0
LINE
  8
_0-0_1
  6
CONTINUOUS
 62
    2
 10
1114.5246
 20
1135.2089000000001
 11
1114.5246
 21
1101.2738999999999
  0
LINE
  8
_0-0_1
  6
CONTINUOUS
 62
    2
 10
1149.5246
 20
1121.8601000000001
 11
1149.5246
 21
1101.2738999999999
  0
LINE
  8
_0-0_1
  6
CONTINUOUS
 62
    2
 10
1114.5246
 20
1135.2089000000001
 11
1149.5246
 21
1121.8601000000001
  0
LINE
  8
_0-0_1
  6
CONTINUOUS
 62
    4
 10
1420.8839
 20
1110.7162000000001
 11
1412.3485000000001
 21
1125.2496000000001
  0
LINE
  8
_0-0_1
  6
CONTINUOUS
 62
    4
 10
1429.0518
 20
1110.0659000000001
 11
1437.3580000000002
 21
1120.1314
  0
ARC
  8
_0-0_1
  6
CONTINUOUS
 62
    4
 10
1425.1954000000001
 20
1113.2483
 40
5
 50
210.42578
 51
320.47001
  0
LINE
  8
_0-0_1
  6
CONTINUOUS
 62
    4
 10
1504.9974000000002
 20
1109.5961
 11
1497.672
 21
1120.9021
  0
LINE
  8
_0-0_1
  6
CONTINUOUS
 62
    4
 10
1513.5070000000001
 20
1109.7860000000001
 11
1522.4454000000001
 21
1125.0316
  0
ARC
  8
_0-0_1
  6
DASHED1
 62
    4
 10
1509.1936000000001
 20
1112.3148000000001
 40
5
 50
212.93986000000001
 51
329.61716000000001
  0
LINE
  8
_0-0_1
  6
CONTINUOUS
 62
    4
 10
1301.4677999999999
 20
1191.1903
 11
1302.2773999999999
 21
1191.5083
  0
LINE
  8
_0-0_1
  6
CONTINUOUS
 62
    4
 10
1302.2773999999999
 20
1191.5083
 11
1305.8076000000001
 21
1192.8973000000001
  0
LINE
  8
_0-0_1
  6
CONTINUOUS
 62
    4
 10
1305.8076000000001
 20
1192.8973000000001
 11
1309.3450000000003
 21
1194.2956999999999
  0
LINE
  8
_0-0_1
  6
CONTINUOUS
 62
    4
 10
1309.3450000000003
 20
1194.2956999999999
 11
1312.8942999999999
 21
1195.7094999999999
  0
LINE
  8
_0-0_1
  6
CONTINUOUS
 62
    4
 10
1312.8942999999999
 20
1195.7094999999999
 11
1316.46
 21
1197.1445000000001
  0
LINE
  8
_0-0_1
  6
CONTINUOUS
 62
    4
 10
1316.46
 20
1197.1445000000001
 11
1320.0466000000001
 21
1198.6067
  0
LINE
  8
_0-0_1
  6
CONTINUOUS
 62
    4
 10
1320.0466000000001
 20
1198.6067
 11
1322.1383000000001
 21
1199.4694999999999
  0
LINE
  8
_0-0_1
  6
CONTINUOUS
 62
    4
 10
1322.1383000000001
 20
1199.4694999999999
 11
1324.2058999999999
 21
1200.3273999999999
  0
LINE
  8
_0-0_1
  6
CONTINUOUS
 62
    4
 10
1324.2058999999999
 20
1200.3273999999999
 11
1327.7925
 21
1201.779
  0
LINE
  8
_0-0_1
  6
CONTINUOUS
 62
    4
 10
1327.7925
 20
1201.779
 11
1331.4069999999997
 21
1203.1123
  0
LINE
  8
_0-0_1
  6
CONTINUOUS
 62
    4
 10
1331.4069999999997
 20
1203.1123
 11
1335.0497
 21
1204.23
  0
LINE
  8
_0-0_1
  6
CONTINUOUS
 62
    4
 10
1335.0497
 20
1204.23
 11
1338.7209000000003
 21
1205.0345
  0
LINE
  8
_0-0_1
  6
CONTINUOUS
 62
    4
 10
1338.7209000000003
 20
1205.0345
 11
1342.4209999999998
 21
1205.4286999999999
  0
LINE
  8
_0-0_1
  6
CONTINUOUS
 62
    4
 10
1342.4209999999998
 20
1205.4286999999999
 11
1344.5805
 21
1205.431
  0
LINE
  8
_0-0_1
  6
CONTINUOUS
 62
    4
 10
1344.5805
 20
1205.431
 11
1345.4304
 21
1205.3815
  0
LINE
  8
_0-0_1
  6
CONTINUOUS
 62
    4
 10
1345.4304
 20
1205.3815
 11
1346.8969999999999
 21
1205.2313999999999
  0
LINE
  8
_0-0_1
  6
CONTINUOUS
 62
    4
 10
1346.8969999999999
 20
1205.2313999999999
 11
1348.3614
 21
1205.0051000000001
  0
LINE
  8
_0-0_1
  6
CONTINUOUS
 62
    4
 10
1348.3614
 20
1205.0051000000001
 11
1349.8194000000001
 21
1204.7094
  0
LINE
  8
_0-0_1
  6
CONTINUOUS
 62
    4
 10
1349.8194000000001
 20
1204.7094
 11
1351.2665999999999
 21
1204.3510000000001
  0
LINE
  8
_0-0_1
  6
CONTINUOUS
 62
    4
 10
1351.2665999999999
 20
1204.3510000000001
 11
1352.6990000000001
 21
1203.9368999999999
  0
LINE
  8
_0-0_1
  6
CONTINUOUS
 62
    4
 10
1352.6990000000001
 20
1203.9368999999999
 11
1353.5211999999999
 21
1203.6737000000001
  0
LINE
  8
_0-0_1
  6
CONTINUOUS
 62
    4
 10
1353.5211999999999
 20
1203.6737000000001
 11
1356.0325
 21
1202.7603999999999
  0
LINE
  8
_0-0_1
  6
CONTINUOUS
 62
    4
 10
1356.0325
 20
1202.7603999999999
 11
1360.2180000000001
 21
1200.8851999999999
  0
LINE
  8
_0-0_1
  6
CONTINUOUS
 62
    4
 10
1360.2180000000001
 20
1200.8851999999999
 11
1364.2527
 21
1198.6958999999999
  0
LINE
  8
_0-0_1
  6
CONTINUOUS
 62
    4
 10
1364.2527
 20
1198.6958999999999
 11
1368.1738999999998
 21
1196.2701
  0
LINE
  8
_0-0_1
  6
CONTINUOUS
 62
    4
 10
1368.1738999999998
 20
1196.2701
 11
1372.0183
 21
1193.6854000000001
  0
LINE
  8
_0-0_1
  6
CONTINUOUS
 62
    4
 10
1372.0183
 20
1193.6854000000001
 11
1375.8232
 21
1191.0192
  0
LINE
  8
_0-0_1
  6
CONTINUOUS
 62
    4
 10
1375.8232
 20
1191.0192
 11
1378.0264
 21
1189.4659999999999
  0
LINE
  8
_0-0_1
  6
CONTINUOUS
 62
    4
 10
1378.0264
 20
1189.4659999999999
 11
1381.3910000000001
 21
1187.1259
  0
LINE
  8
_0-0_1
  6
CONTINUOUS
 62
    4
 10
1381.3910000000001
 20
1187.1259
 11
1387.2387000000001
 21
1183.1902
  0
LINE
  8
_0-0_1
  6
CONTINUOUS
 62
    4
 10
1387.2387000000001
 20
1183.1902
 11
1393.1641999999999
 21
1179.4159999999999
  0
LINE
  8
_0-0_1
  6
CONTINUOUS
 62
    4
 10
1393.1641999999999
 20
1179.4159999999999
 11
1399.1887999999999
 21
1175.8453
  0
LINE
  8
_0-0_1
  6
CONTINUOUS
 62
    4
 10
1399.1887999999999
 20
1175.8453
 11
1405.3340000000001
 21
1172.5201999999999
  0
LINE
  8
_0-0_1
  6
CONTINUOUS
 62
    4
 10
1405.3340000000001
 20
1172.5201999999999
 11
1411.6212999999998
 21
1169.4829
  0
LINE
  8
_0-0_1
  6
CONTINUOUS
 62
    4
 10
1411.6212999999998
 20
1169.4829
 11
1415.3415
 21
1167.8697
  0
LINE
  8
_0-0_1
  6
CONTINUOUS
 62
    4
 10
1415.3415
 20
1167.8697
 11
1418.4182000000001
 21
1166.6414
  0
LINE
  8
_0-0_1
  6
CONTINUOUS
 62
    4
 10
1418.4182000000001
 20
1166.6414
 11
1423.8060999999998
 21
1164.7143000000001
  0
LINE
  8
_0-0_1
  6
CONTINUOUS
 62
    4
 10
1423.8060999999998
 20
1164.7143000000001
 11
1429.2858000000001
 21
1163.0352
  0
LINE
  8
_0-0_1
  6
CONTINUOUS
 62
    4
 10
1429.2858000000001
 20
1163.0352
 11
1434.8411999999998
 21
1161.6117999999999
  0
LINE
  8
_0-0_1
  6
CONTINUOUS
 62
    4
 10
1434.8411999999998
 20
1161.6117999999999
 11
1440.4562000000001
 21
1160.4521
  0
LINE
  8
_0-0_1
  6
CONTINUOUS
 62
    4
 10
1440.4562000000001
 20
1160.4521
 11
1446.1149
 21
1159.5637999999999
  0
LINE
  8
_0-0_1
  6
CONTINUOUS
 62
    4
 10
1446.1149
 20
1159.5637999999999
 11
1449.4106000000002
 21
1159.1760999999999
  0
LINE
  8
_0-0_1
  6
CONTINUOUS
 62
    4
 10
1449.4106000000002
 20
1159.1760999999999
 11
1451.9333999999999
 21
1158.9434000000001
  0
LINE
  8
_0-0_1
  6
CONTINUOUS
 62
    4
 10
1451.9333999999999
 20
1158.9434000000001
 11
1456.2898
 21
1158.6641999999999
  0
LINE
  8
_0-0_1
  6
CONTINUOUS
 62
    4
 10
1456.2898
 20
1158.6641999999999
 11
1460.6523999999999
 21
1158.5255999999999
  0
LINE
  8
_0-0_1
  6
CONTINUOUS
 62
    4
 10
1460.6523999999999
 20
1158.5255999999999
 11
1465.0182
 21
1158.5119
  0
LINE
  8
_0-0_1
  6
CONTINUOUS
 62
    4
 10
1465.0182
 20
1158.5119
 11
1469.3843999999999
 21
1158.6072999999999
  0
LINE
  8
_0-0_1
  6
CONTINUOUS
 62
    4
 10
1469.3843999999999
 20
1158.6072999999999
 11
1473.7480999999998
 21
1158.7958000000001
  0
LINE
  8
_0-0_1
  6
CONTINUOUS
 62
    4
 10
1473.7480999999998
 20
1158.7958000000001
 11
1476.2768000000001
 21
1158.9416000000001
  0
LINE
  8
_0-0_1
  6
CONTINUOUS
 62
    4
 10
1476.2768000000001
 20
1158.9416000000001
 11
1481.0016999999998
 21
1159.2757999999999
  0
LINE
  8
_0-0_1
  6
CONTINUOUS
 62
    4
 10
1481.0016999999998
 20
1159.2757999999999
 11
1489.1302000000001
 21
1160.0204000000001
  0
LINE
  8
_0-0_1
  6
CONTINUOUS
 62
    4
 10
1489.1302000000001
 20
1160.0204000000001
 11
1497.2388000000001
 21
1160.9475
  0
LINE
  8
_0-0_1
  6
CONTINUOUS
 62
    4
 10
1497.2388000000001
 20
1160.9475
 11
1505.3305
 21
1162.0219
  0
LINE
  8
_0-0_1
  6
CONTINUOUS
 62
    4
 10
1505.3305
 20
1162.0219
 11
1513.4081000000001
 21
1163.2080000000001
  0
LINE
  8
_0-0_1
  6
CONTINUOUS
 62
    4
 10
1513.4081000000001
 20
1163.2080000000001
 11
1521.4749000000002
 21
1164.4703
  0
LINE
  8
_0-0_1
  6
CONTINUOUS
 62
    4
 10
1521.4749000000002
 20
1164.4703
 11
1526.1496999999999
 21
1165.2234000000001
  0
LINE
  8
_0-0_1
  6
CONTINUOUS
 62
    4
 10
1526.1496999999999
 20
1165.2234000000001
 11
1528.5792999999999
 21
1165.6181999999999
  0
LINE
  8
_0-0_1
  6
CONTINUOUS
 62
    4
 10
1528.5792999999999
 20
1165.6181999999999
 11
1532.7671
 21
1166.3027999999999
  0
LINE
  8
_0-0_1
  6
CONTINUOUS
 62
    4
 10
1532.7671
 20
1166.3027999999999
 11
1536.9537
 21
1166.9914000000001
  0
LINE
  8
_0-0_1
  6
CONTINUOUS
 62
    4
 10
1536.9537
 20
1166.9914000000001
 11
1541.1392999999998
 21
1167.6831999999999
  0
LINE
  8
_0-0_1
  6
CONTINUOUS
 62
    4
 10
1541.1392999999998
 20
1167.6831999999999
 11
1545.3242
 21
1168.3773000000001
  0
LINE
  8
_0-0_1
  6
CONTINUOUS
 62
    4
 10
1545.3242
 20
1168.3773000000001
 11
1549.5086000000001
 21
1169.0726999999999
  0
LINE
  8
_0-0_1
  6
CONTINUOUS
 62
    4
 10
1549.5086000000001
 20
1169.0726999999999
 11
1551.9355
 21
1169.4764
  0
LINE
  8
_0-0_1
  6
CONTINUOUS
 62
    4
 10
1306.8123000000001
 20
1173.9508000000001
 11
1308.8632000000002
 21
1174.7564
  0
LINE
  8
_0-0_1
  6
CONTINUOUS
 62
    4
 10
1308.8632000000002
 20
1174.7564
 11
1312.4115999999999
 21
1176.1525999999999
  0
LINE
  8
_0-0_1
  6
CONTINUOUS
 62
    4
 10
1312.4115999999999
 20
1176.1525999999999
 11
1315.9841000000001
 21
1177.5648000000001
  0
LINE
  8
_0-0_1
  6
CONTINUOUS
 62
    4
 10
1315.9841000000001
 20
1177.5648000000001
 11
1319.5848000000001
 21
1178.9991
  0
LINE
  8
_0-0_1
  6
CONTINUOUS
 62
    4
 10
1319.5848000000001
 20
1178.9991
 11
1323.2176999999999
 21
1180.4611
  0
LINE
  8
_0-0_1
  6
CONTINUOUS
 62
    4
 10
1323.2176999999999
 20
1180.4611
 11
1326.8765000000003
 21
1181.9527
  0
LINE
  8
_0-0_1
  6
CONTINUOUS
 62
    4
 10
1326.8765000000003
 20
1181.9527
 11
1329.0194999999999
 21
1182.8368
  0
LINE
  8
_0-0_1
  6
CONTINUOUS
 62
    4
 10
1329.0194999999999
 20
1182.8368
 11
1331.0316
 21
1183.6715999999999
  0
LINE
  8
_0-0_1
  6
CONTINUOUS
 62
    4
 10
1331.0316
 20
1183.6715999999999
 11
1334.2854
 21
1184.9885999999999
  0
LINE
  8
_0-0_1
  6
CONTINUOUS
 62
    4
 10
1334.2854
 20
1184.9885999999999
 11
1337.1659999999999
 21
1186.0510999999999
  0
LINE
  8
_0-0_1
  6
CONTINUOUS
 62
    4
 10
1337.1659999999999
 20
1186.0510999999999
 11
1339.6237999999998
 21
1186.8052
  0
LINE
  8
_0-0_1
  6
CONTINUOUS
 62
    4
 10
1339.6237999999998
 20
1186.8052
 11
1341.6097
 21
1187.2403999999999
  0
LINE
  8
_0-0_1
  6
CONTINUOUS
 62
    4
 10
1341.6097
 20
1187.2403999999999
 11
1343.3865000000001
 21
1187.4296999999999
  0
LINE
  8
_0-0_1
  6
CONTINUOUS
 62
    4
 10
1343.3865000000001
 20
1187.4296999999999
 11
1344.0661
 21
1187.4304
  0
LINE
  8
_0-0_1
  6
CONTINUOUS
 62
    4
 10
1344.0661
 20
1187.4304
 11
1343.99
 21
1187.4349
  0
LINE
  8
_0-0_1
  6
CONTINUOUS
 62
    4
 10
1343.99
 20
1187.4349
 11
1344.6044999999999
 21
1187.3720000000001
  0
LINE
  8
_0-0_1
  6
CONTINUOUS
 62
    4
 10
1344.6044999999999
 20
1187.3720000000001
 11
1345.1963000000001
 21
1187.2805000000001
  0
LINE
  8
_0-0_1
  6
CONTINUOUS
 62
    4
 10
1345.1963000000001
 20
1187.2805000000001
 11
1345.8656999999998
 21
1187.1448
  0
LINE
  8
_0-0_1
  6
CONTINUOUS
 62
    4
 10
1345.8656999999998
 20
1187.1448
 11
1346.6017999999999
 21
1186.9625000000001
  0
LINE
  8
_0-0_1
  6
CONTINUOUS
 62
    4
 10
1346.6017999999999
 20
1186.9625000000001
 11
1347.4545000000001
 21
1186.7158999999999
  0
LINE
  8
_0-0_1
  6
CONTINUOUS
 62
    4
 10
1347.4545000000001
 20
1186.7158999999999
 11
1347.6997000000001
 21
1186.6374000000001
  0
LINE
  8
_0-0_1
  6
CONTINUOUS
 62
    4
 10
1347.6997000000001
 20
1186.6374000000001
 11
1349.2678000000001
 21
1186.0672
  0
LINE
  8
_0-0_1
  6
CONTINUOUS
 62
    4
 10
1349.2678000000001
 20
1186.0672
 11
1352.2343000000001
 21
1184.7381
  0
LINE
  8
_0-0_1
  6
CONTINUOUS
 62
    4
 10
1352.2343000000001
 20
1184.7381
 11
1355.2183
 21
1183.1189999999999
  0
LINE
  8
_0-0_1
  6
CONTINUOUS
 62
    4
 10
1355.2183
 20
1183.1189999999999
 11
1358.4139
 21
1181.1420000000001
  0
LINE
  8
_0-0_1
  6
CONTINUOUS
 62
    4
 10
1358.4139
 20
1181.1420000000001
 11
1361.8309999999999
 21
1178.8445999999999
  0
LINE
  8
_0-0_1
  6
CONTINUOUS
 62
    4
 10
1361.8309999999999
 20
1178.8445999999999
 11
1365.4727
 21
1176.2927
  0
LINE
  8
_0-0_1
  6
CONTINUOUS
 62
    4
 10
1365.4727
 20
1176.2927
 11
1367.7018
 21
1174.7212999999999
  0
LINE
  8
_0-0_1
  6
CONTINUOUS
 62
    4
 10
1367.7018
 20
1174.7212999999999
 11
1371.2264
 21
1172.2699
  0
LINE
  8
_0-0_1
  6
CONTINUOUS
 62
    4
 10
1371.2264
 20
1172.2699
 11
1377.377
 21
1168.1304
  0
LINE
  8
_0-0_1
  6
CONTINUOUS
 62
    4
 10
1377.377
 20
1168.1304
 11
1383.7379000000001
 21
1164.0788
  0
LINE
  8
_0-0_1
  6
CONTINUOUS
 62
    4
 10
1383.7379000000001
 20
1164.0788
 11
1390.3136999999997
 21
1160.1813999999999
  0
LINE
  8
_0-0_1
  6
CONTINUOUS
 62
    4
 10
1390.3136999999997
 20
1160.1813999999999
 11
1397.1318000000001
 21
1156.4922999999999
  0
LINE
  8
_0-0_1
  6
CONTINUOUS
 62
    4
 10
1397.1318000000001
 20
1156.4922999999999
 11
1404.1226999999999
 21
1153.1151
  0
LINE
  8
_0-0_1
  6
CONTINUOUS
 62
    4
 10
1404.1226999999999
 20
1153.1151
 11
1408.4224999999997
 21
1151.2505000000001
  0
LINE
  8
_0-0_1
  6
CONTINUOUS
 62
    4
 10
1408.4224999999997
 20
1151.2505000000001
 11
1412.0481999999997
 21
1149.8031000000001
  0
LINE
  8
_0-0_1
  6
CONTINUOUS
 62
    4
 10
1412.0481999999997
 20
1149.8031000000001
 11
1418.1352999999999
 21
1147.6259
  0
LINE
  8
_0-0_1
  6
CONTINUOUS
 62
    4
 10
1418.1352999999999
 20
1147.6259
 11
1424.4126000000001
 21
1145.7022999999999
  0
LINE
  8
_0-0_1
  6
CONTINUOUS
 62
    4
 10
1424.4126000000001
 20
1145.7022999999999
 11
1430.7847999999999
 21
1144.0697
  0
LINE
  8
_0-0_1
  6
CONTINUOUS
 62
    4
 10
1430.7847999999999
 20
1144.0697
 11
1437.2381999999998
 21
1142.7367999999999
  0
LINE
  8
_0-0_1
  6
CONTINUOUS
 62
    4
 10
1437.2381999999998
 20
1142.7367999999999
 11
1443.6666
 21
1141.7276999999999
  0
LINE
  8
_0-0_1
  6
CONTINUOUS
 62
    4
 10
1443.6666
 20
1141.7276999999999
 11
1447.5322000000001
 21
1141.2728999999999
  0
LINE
  8
_0-0_1
  6
CONTINUOUS
 62
    4
 10
1447.5322000000001
 20
1141.2728999999999
 11
1450.5309000000002
 21
1140.9964
  0
LINE
  8
_0-0_1
  6
CONTINUOUS
 62
    4
 10
1450.5309000000002
 20
1140.9964
 11
1455.4281999999998
 21
1140.6824999999999
  0
LINE
  8
_0-0_1
  6
CONTINUOUS
 62
    4
 10
1455.4281999999998
 20
1140.6824999999999
 11
1460.3384000000001
 21
1140.5264999999999
  0
LINE
  8
_0-0_1
  6
CONTINUOUS
 62
    4
 10
1460.3384000000001
 20
1140.5264999999999
 11
1465.1864999999998
 21
1140.5112999999999
  0
LINE
  8
_0-0_1
  6
CONTINUOUS
 62
    4
 10
1465.1864999999998
 20
1140.5112999999999
 11
1469.9694
 21
1140.6158
  0
LINE
  8
_0-0_1
  6
CONTINUOUS
 62
    4
 10
1469.9694
 20
1140.6158
 11
1474.6547
 21
1140.8181999999999
  0
LINE
  8
_0-0_1
  6
CONTINUOUS
 62
    4
 10
1474.6547
 20
1140.8181999999999
 11
1477.4299000000001
 21
1140.9782
  0
LINE
  8
_0-0_1
  6
CONTINUOUS
 62
    4
 10
1477.4299000000001
 20
1140.9782
 11
1482.4576999999999
 21
1141.3338000000001
  0
LINE
  8
_0-0_1
  6
CONTINUOUS
 62
    4
 10
1482.4576999999999
 20
1141.3338000000001
 11
1490.9738000000002
 21
1142.1139000000001
  0
LINE
  8
_0-0_1
  6
CONTINUOUS
 62
    4
 10
1490.9738000000002
 20
1142.1139000000001
 11
1499.4459999999999
 21
1143.0826
  0
LINE
  8
_0-0_1
  6
CONTINUOUS
 62
    4
 10
1499.4459999999999
 20
1143.0826
 11
1507.8226
 21
1144.1948
  0
LINE
  8
_0-0_1
  6
CONTINUOUS
 62
    4
 10
1507.8226
 20
1144.1948
 11
1516.1071000000002
 21
1145.4113
  0
LINE
  8
_0-0_1
  6
CONTINUOUS
 62
    4
 10
1516.1071000000002
 20
1145.4113
 11
1524.2977999999998
 21
1146.693
  0
LINE
  8
_0-0_1
  6
CONTINUOUS
 62
    4
 10
1524.2977999999998
 20
1146.693
 11
1529.0248000000001
 21
1147.4545000000001
  0
LINE
  8
_0-0_1
  6
CONTINUOUS
 62
    4
 10
1529.0248000000001
 20
1147.4545000000001
 11
1531.4748
 21
1147.8525999999999
  0
LINE
  8
_0-0_1
  6
CONTINUOUS
 62
    4
 10
1531.4748
 20
1147.8525999999999
 11
1535.6797000000001
 21
1148.54
  0
LINE
  8
_0-0_1
  6
CONTINUOUS
 62
    4
 10
1535.6797000000001
 20
1148.54
 11
1539.8820000000001
 21
1149.2311999999999
  0
LINE
  8
_0-0_1
  6
CONTINUOUS
 62
    4
 10
1539.8820000000001
 20
1149.2311999999999
 11
1544.0794999999998
 21
1149.9249
  0
LINE
  8
_0-0_1
  6
CONTINUOUS
 62
    4
 10
1544.0794999999998
 20
1149.9249
 11
1548.2723999999998
 21
1150.6203
  0
LINE
  8
_0-0_1
  6
CONTINUOUS
 62
    4
 10
1548.2723999999998
 20
1150.6203
 11
1552.4609999999998
 21
1151.3164999999999
  0
LINE
  8
_0-0_1
  6
CONTINUOUS
 62
    4
 10
1552.4609999999998
 20
1151.3164999999999
 11
1554.0751
 21
1151.585
  0
ARC
  8
_0-0_1
  6
CONTINUOUS
 62
    4
 10
1588.3107
 20
1177.3822
 40
3
 50
103.0288
 51
179.49999999999997
  0
LINE
  8
_0-0_1
  6
CONTINUOUS
 62
    4
 10
1300.3843000000002
 20
1171.4076
 11
1306.7766000000001
 21
1173.9295999999999
  0
ARC
  8
_0-0_1
  6
CONTINUOUS
 62
    4
 10
1300.0173
 20
1172.3378
 40
1
 50
179.5
 51
291.53165999999999
  0
LINE
  8
_0-0_1
  6
CONTINUOUS
 62
    4
 10
1592.8746999999998
 20
1181.5174999999999
 11
1587.6343999999999
 21
1180.3049000000001
  0
ARC
  8
_0-0_1
  6
CONTINUOUS
 62
    4
 10
1593.1001000000001
 20
1180.5433
 40
1
 50
359.50000000000006
 51
103.02880000000002
  0
LINE
  8
_0-0_1
  6
CONTINUOUS
 62
    4
 10
1555.2597000000001
 20
1149.8471
 11
1585.5735
 21
1156.9411
  0
ARC
  8
_0-0_1
  6
CONTINUOUS
 62
    4
 10
1592.9142999999999
 20
1159.2503999999999
 40
1
 50
359.50000000000006
 51
103.08296000000006
  0
LINE
  8
_0-0_1
  6
CONTINUOUS
 62
    4
 10
1586.3544000000002
 20
1158.7526
 11
1592.6878999999999
 21
1160.2245
  0
LINE
  8
_0-0_1
  6
CONTINUOUS
 62
    4
 10
1585.5808000000002
 20
1157.7873
 11
1585.5735
 21
1156.9411
  0
ARC
  8
_0-0_1
  6
CONTINUOUS
 62
    4
 10
1586.5808000000002
 20
1157.7784999999999
 40
1
 50
103.08296000000001
 51
179.50000000000003
  0
ARC
  8
_0-0_1
  6
CONTINUOUS
 62
    4
 10
1592.9342000000001
 20
1161.5336
 40
1
 50
283.04496999999998
 51
359.5
  0
LINE
  8
_0-0_1
  6
CONTINUOUS
 62
    4
 10
1552.7890000000002
 20
1149.3435999999999
 11
1555.2170999999998
 21
1149.7474999999999
  0
LINE
  8
_0-0_1
  6
CONTINUOUS
 62
    4
 10
1548.5999999999999
 20
1148.6474000000001
 11
1552.7890000000002
 21
1149.3435999999999
  0
LINE
  8
_0-0_1
  6
CONTINUOUS
 62
    4
 10
1544.4061999999999
 20
1147.9518
 11
1548.5999999999999
 21
1148.6474000000001
  0
LINE
  8
_0-0_1
  6
CONTINUOUS
 62
    4
 10
1540.2073999999998
 20
1147.2578000000001
 11
1544.4061999999999
 21
1147.9518
  0
LINE
  8
_0-0_1
  6
CONTINUOUS
 62
    4
 10
1536.0032999999999
 20
1146.5663
 11
1540.2073999999998
 21
1147.2578000000001
  0
LINE
  8
_0-0_1
  6
CONTINUOUS
 62
    4
 10
1531.7964999999999
 20
1145.8787
 11
1536.0032999999999
 21
1146.5663
  0
LINE
  8
_0-0_1
  6
CONTINUOUS
 62
    4
 10
1529.3442
 20
1145.4802
 11
1531.7964999999999
 21
1145.8787
  0
LINE
  8
_0-0_1
  6
CONTINUOUS
 62
    4
 10
1524.6113999999998
 20
1144.7176999999999
 11
1529.3442
 21
1145.4802
  0
LINE
  8
_0-0_1
  6
CONTINUOUS
 62
    4
 10
1516.4070000000002
 20
1143.4338
 11
1524.6113999999998
 21
1144.7176999999999
  0
LINE
  8
_0-0_1
  6
CONTINUOUS
 62
    4
 10
1508.0994999999998
 20
1142.2139999999999
 11
1516.4070000000002
 21
1143.4338
  0
LINE
  8
_0-0_1
  6
CONTINUOUS
 62
    4
 10
1499.6913
 20
1141.0976000000001
 11
1508.0994999999998
 21
1142.2139999999999
  0
LINE
  8
_0-0_1
  6
CONTINUOUS
 62
    4
 10
1491.1786999999999
 20
1140.1242999999999
 11
1499.6913
 21
1141.0976000000001
  0
LINE
  8
_0-0_1
  6
CONTINUOUS
 62
    4
 10
1482.6194999999998
 20
1139.3403000000001
 11
1491.1786999999999
 21
1140.1242999999999
  0
LINE
  8
_0-0_1
  6
CONTINUOUS
 62
    4
 10
1477.558
 20
1138.9822999999999
 11
1482.6194999999998
 21
1139.3403000000001
  0
LINE
  8
_0-0_1
  6
CONTINUOUS
 62
    4
 10
1474.7554
 20
1138.8207
 11
1477.558
 21
1138.9822999999999
  0
LINE
  8
_0-0_1
  6
CONTINUOUS
 62
    4
 10
1470.0344
 20
1138.6167
 11
1474.7554
 21
1138.8207
  0
LINE
  8
_0-0_1
  6
CONTINUOUS
 62
    4
 10
1465.2051999999999
 20
1138.5112999999999
 11
1470.0344
 21
1138.6167
  0
LINE
  8
_0-0_1
  6
CONTINUOUS
 62
    4
 10
1460.3035
 20
1138.5265999999999
 11
1465.2051999999999
 21
1138.5112999999999
  0
LINE
  8
_0-0_1
  6
CONTINUOUS
 62
    4
 10
1455.3325
 20
1138.6845000000001
 11
1460.3035
 21
1138.5265999999999
  0
LINE
  8
_0-0_1
  6
CONTINUOUS
 62
    4
 10
1450.3751000000002
 20
1139.0021999999999
 11
1455.3325
 21
1138.6845000000001
  0
LINE
  8
_0-0_1
  6
CONTINUOUS
 62
    4
 10
1447.3235
 20
1139.2837
 11
1450.3751000000002
 21
1139.0021999999999
  0
LINE
  8
_0-0_1
  6
CONTINUOUS
 62
    4
 10
1443.3946000000001
 20
1139.7458999999999
 11
1447.3235
 21
1139.2837
  0
LINE
  8
_0-0_1
  6
CONTINUOUS
 62
    4
 10
1436.8807000000002
 20
1140.7684999999999
 11
1443.3946000000001
 21
1139.7458999999999
  0
LINE
  8
_0-0_1
  6
CONTINUOUS
 62
    4
 10
1430.3340000000001
 20
1142.1206
 11
1436.8807000000002
 21
1140.7684999999999
  0
LINE
  8
_0-0_1
  6
CONTINUOUS
 62
    4
 10
1423.8711000000001
 20
1143.7764999999999
 11
1430.3340000000001
 21
1142.1206
  0
LINE
  8
_0-0_1
  6
CONTINUOUS
 62
    4
 10
1417.5052000000001
 20
1145.7272
 11
1423.8711000000001
 21
1143.7764999999999
  0
LINE
  8
_0-0_1
  6
CONTINUOUS
 62
    4
 10
1411.3404
 20
1147.9321
 11
1417.5052000000001
 21
1145.7272
  0
LINE
  8
_0-0_1
  6
CONTINUOUS
 62
    4
 10
1407.6538
 20
1149.4039
 11
1411.3404
 21
1147.9321
  0
LINE
  8
_0-0_1
  6
CONTINUOUS
 62
    4
 10
1403.2895000000003
 20
1151.2963999999999
 11
1407.6538
 21
1149.4039
  0
LINE
  8
_0-0_1
  6
CONTINUOUS
 62
    4
 10
1396.2203999999999
 20
1154.7113999999999
 11
1403.2895000000003
 21
1151.2963999999999
  0
LINE
  8
_0-0_1
  6
CONTINUOUS
 62
    4
 10
1389.3274999999999
 20
1158.441
 11
1396.2203999999999
 21
1154.7113999999999
  0
LINE
  8
_0-0_1
  6
CONTINUOUS
 62
    4
 10
1382.6904999999999
 20
1162.3747000000001
 11
1389.3274999999999
 21
1158.441
  0
LINE
  8
_0-0_1
  6
CONTINUOUS
 62
    4
 10
1376.2811999999999
 20
1166.4571000000001
 11
1382.6904999999999
 21
1162.3747000000001
  0
LINE
  8
_0-0_1
  6
CONTINUOUS
 62
    4
 10
1370.0970000000002
 20
1170.6193000000001
 11
1376.2811999999999
 21
1166.4571000000001
  0
LINE
  8
_0-0_1
  6
CONTINUOUS
 62
    4
 10
1366.5546999999997
 20
1173.0830000000001
 11
1370.0970000000002
 21
1170.6193000000001
  0
LINE
  8
_0-0_1
  6
CONTINUOUS
 62
    4
 10
1364.3226999999999
 20
1174.6564000000001
 11
1366.5546999999997
 21
1173.0830000000001
  0
LINE
  8
_0-0_1
  6
CONTINUOUS
 62
    4
 10
1360.6990999999998
 20
1177.1956
 11
1364.3226999999999
 21
1174.6564000000001
  0
LINE
  8
_0-0_1
  6
CONTINUOUS
 62
    4
 10
1357.3294000000001
 20
1179.4611
 11
1360.6990999999998
 21
1177.1956
  0
LINE
  8
_0-0_1
  6
CONTINUOUS
 62
    4
 10
1354.2144000000003
 20
1181.3882000000001
 11
1357.3294000000001
 21
1179.4611
  0
LINE
  8
_0-0_1
  6
CONTINUOUS
 62
    4
 10
1351.3471999999999
 20
1182.9439
 11
1354.2144000000003
 21
1181.3882000000001
  0
LINE
  8
_0-0_1
  6
CONTINUOUS
 62
    4
 10
1348.5160999999998
 20
1184.2123999999999
 11
1351.3471999999999
 21
1182.9439
  0
LINE
  8
_0-0_1
  6
CONTINUOUS
 62
    4
 10
1347.0528999999999
 20
1184.7445
 11
1348.5160999999998
 21
1184.2123999999999
  0
LINE
  8
_0-0_1
  6
CONTINUOUS
 62
    4
 10
1346.8717999999999
 20
1184.8025
 11
1347.0528999999999
 21
1184.7445
  0
LINE
  8
_0-0_1
  6
CONTINUOUS
 62
    4
 10
1346.0835
 20
1185.0304000000001
 11
1346.8717999999999
 21
1184.8025
  0
LINE
  8
_0-0_1
  6
CONTINUOUS
 62
    4
 10
1345.4264000000001
 20
1185.1931
 11
1346.0835
 21
1185.0304000000001
  0
LINE
  8
_0-0_1
  6
CONTINUOUS
 62
    4
 10
1344.8445999999999
 20
1185.3110999999999
 11
1345.4264000000001
 21
1185.1931
  0
LINE
  8
_0-0_1
  6
CONTINUOUS
 62
    4
 10
1344.8045
 20
1185.3172999999999
 11
1344.8445999999999
 21
1185.3110999999999
  0
LINE
  8
_0-0_1
  6
CONTINUOUS
 62
    4
 10
1548.7784000000001
 20
1130.1560999999999
 11
1550.3924999999999
 21
1130.4246000000001
  0
LINE
  8
_0-0_1
  6
CONTINUOUS
 62
    4
 10
1544.5898000000002
 20
1129.4599000000001
 11
1548.7784000000001
 21
1130.1560999999999
  0
LINE
  8
_0-0_1
  6
CONTINUOUS
 62
    4
 10
1540.3969000000002
 20
1128.7645
 11
1544.5898000000002
 21
1129.4599000000001
  0
LINE
  8
_0-0_1
  6
CONTINUOUS
 62
    4
 10
1536.1994
 20
1128.0708
 11
1540.3969000000002
 21
1128.7645
  0
LINE
  8
_0-0_1
  6
CONTINUOUS
 62
    4
 10
1531.9971
 20
1127.3796
 11
1536.1994
 21
1128.0708
  0
LINE
  8
_0-0_1
  6
CONTINUOUS
 62
    4
 10
1527.7921999999999
 20
1126.6922
 11
1531.9971
 21
1127.3796
  0
LINE
  8
_0-0_1
  6
CONTINUOUS
 62
    4
 10
1525.3422
 20
1126.2941000000001
 11
1527.7921999999999
 21
1126.6922
  0
LINE
  8
_0-0_1
  6
CONTINUOUS
 62
    4
 10
1520.6152000000002
 20
1125.5326
 11
1525.3422
 21
1126.2941000000001
  0
LINE
  8
_0-0_1
  6
CONTINUOUS
 62
    4
 10
1512.4245999999998
 20
1124.2509
 11
1520.6152000000002
 21
1125.5326
  0
LINE
  8
_0-0_1
  6
CONTINUOUS
 62
    4
 10
1504.1399999999999
 20
1123.0344
 11
1512.4245999999998
 21
1124.2509
  0
LINE
  8
_0-0_1
  6
CONTINUOUS
 62
    4
 10
1495.7633999999998
 20
1121.9222
 11
1504.1399999999999
 21
1123.0344
  0
LINE
  8
_0-0_1
  6
CONTINUOUS
 62
    4
 10
1487.2912999999999
 20
1120.9535000000001
 11
1495.7633999999998
 21
1121.9222
  0
LINE
  8
_0-0_1
  6
CONTINUOUS
 62
    4
 10
1478.7752
 20
1120.1733999999999
 11
1487.2912999999999
 21
1120.9535000000001
  0
LINE
  8
_0-0_1
  6
CONTINUOUS
 62
    4
 10
1473.7473
 20
1119.8178
 11
1478.7752
 21
1120.1733999999999
  0
LINE
  8
_0-0_1
  6
CONTINUOUS
 62
    4
 10
1470.9721
 20
1119.6578
 11
1473.7473
 21
1119.8178
  0
LINE
  8
_0-0_1
  6
CONTINUOUS
 62
    4
 10
1466.2867999999999
 20
1119.4554000000001
 11
1470.9721
 21
1119.6578
  0
LINE
  8
_0-0_1
  6
CONTINUOUS
 62
    4
 10
1461.5039000000002
 20
1119.3508999999999
 11
1466.2867999999999
 21
1119.4554000000001
  0
LINE
  8
_0-0_1
  6
CONTINUOUS
 62
    4
 10
1456.6558
 20
1119.3661
 11
1461.5039000000002
 21
1119.3508999999999
  0
LINE
  8
_0-0_1
  6
CONTINUOUS
 62
    4
 10
1451.7456999999999
 20
1119.5220999999999
 11
1456.6558
 21
1119.3661
  0
LINE
  8
_0-0_1
  6
CONTINUOUS
 62
    4
 10
1446.8483999999999
 20
1119.836
 11
1451.7456999999999
 21
1119.5220999999999
  0
LINE
  8
_0-0_1
  6
CONTINUOUS
 62
    4
 10
1443.8496
 20
1120.1125
 11
1446.8483999999999
 21
1119.836
  0
LINE
  8
_0-0_1
  6
CONTINUOUS
 62
    4
 10
1439.9841000000001
 20
1120.5672999999999
 11
1443.8496
 21
1120.1125
  0
LINE
  8
_0-0_1
  6
CONTINUOUS
 62
    4
 10
1433.5556000000001
 20
1121.5763999999999
 11
1439.9841000000001
 21
1120.5672999999999
  0
LINE
  8
_0-0_1
  6
CONTINUOUS
 62
    4
 10
1427.1021999999998
 20
1122.9093
 11
1433.5556000000001
 21
1121.5763999999999
  0
LINE
  8
_0-0_1
  6
CONTINUOUS
 62
    4
 10
1420.73
 20
1124.5418999999999
 11
1427.1021999999998
 21
1122.9093
  0
LINE
  8
_0-0_1
  6
CONTINUOUS
 62
    4
 10
1414.4526999999998
 20
1126.4655
 11
1420.73
 21
1124.5418999999999
  0
LINE
  8
_0-0_1
  6
CONTINUOUS
 62
    4
 10
1408.3656000000001
 20
1128.6427000000001
 11
1414.4526999999998
 21
1126.4655
  0
LINE
  8
_0-0_1
  6
CONTINUOUS
 62
    4
 10
1404.7399
 20
1130.0900999999999
 11
1408.3656000000001
 21
1128.6427000000001
  0
LINE
  8
_0-0_1
  6
CONTINUOUS
 62
    4
 10
1400.4401000000003
 20
1131.9547
 11
1404.7399
 21
1130.0900999999999
  0
LINE
  8
_0-0_1
  6
CONTINUOUS
 62
    4
 10
1393.4492
 20
1135.3318999999999
 11
1400.4401000000003
 21
1131.9547
  0
LINE
  8
_0-0_1
  6
CONTINUOUS
 62
    4
 10
1386.6311000000001
 20
1139.021
 11
1393.4492
 21
1135.3318999999999
  0
LINE
  8
_0-0_1
  6
CONTINUOUS
 62
    4
 10
1380.0553
 20
1142.9184
 11
1386.6311000000001
 21
1139.021
  0
LINE
  8
_0-0_1
  6
CONTINUOUS
 62
    4
 10
1373.6943999999999
 20
1146.97
 11
1380.0553
 21
1142.9184
  0
LINE
  8
_0-0_1
  6
CONTINUOUS
 62
    4
 10
1367.5437999999999
 20
1151.1095
 11
1373.6943999999999
 21
1146.97
  0
LINE
  8
_0-0_1
  6
CONTINUOUS
 62
    4
 10
1364.0192999999999
 20
1153.5608999999999
 11
1367.5437999999999
 21
1151.1095
  0
LINE
  8
_0-0_1
  6
CONTINUOUS
 62
    4
 10
1361.7901000000002
 20
1155.1323
 11
1364.0192999999999
 21
1153.5608999999999
  0
LINE
  8
_0-0_1
  6
CONTINUOUS
 62
    4
 10
1358.1484
 20
1157.6841999999999
 11
1361.7901000000002
 21
1155.1323
  0
LINE
  8
_0-0_1
  6
CONTINUOUS
 62
    4
 10
1354.7312999999999
 20
1159.9816000000001
 11
1358.1484
 21
1157.6841999999999
  0
LINE
  8
_0-0_1
  6
CONTINUOUS
 62
    4
 10
1351.5356999999999
 20
1161.9585999999999
 11
1354.7312999999999
 21
1159.9816000000001
  0
LINE
  8
_0-0_1
  6
CONTINUOUS
 62
    4
 10
1348.5517
 20
1163.5777
 11
1351.5356999999999
 21
1161.9585999999999
  0
LINE
  8
_0-0_1
  6
CONTINUOUS
 62
    4
 10
1345.5852
 20
1164.9068
 11
1348.5517
 21
1163.5777
  0
LINE
  8
_0-0_1
  6
CONTINUOUS
 62
    4
 10
1344.8352
 20
1165.1795999999999
 11
1345.5852
 21
1164.9068
  0
LINE
  8
_0-0_1
  6
CONTINUOUS
 62
    4
 10
1345.1683
 20
1185.2227
 11
1344.9921999999997
 21
1165.0491999999999
  0
LINE
  8
_0-0_1
  6
CONTINUOUS
 62
    4
 10
1592.9823000000001
 20
1140.2111
 11
1550.1621
 21
1130.2899
  0
ARC
  8
_0-0_1
  6
CONTINUOUS
 62
    4
 10
1592.7566000000002
 20
1141.1853000000001
 40
1
 50
283.04496999999998
 51
359.5
  0
LINE
  8
_0-0_1
  6
CONTINUOUS
 62
    4
 10
1545.6713
 20
1119.9763
 11
1543.4259000000002
 21
1128.5498
  0
ARC
  8
_0-0_1
  6
CONTINUOUS
 62
    4
 10
1548.5734000000002
 20
1120.7364
 40
3
 50
194.67639000000003
 51
270.00000000000006
  0
LINE
  8
_0-0_1
  6
CONTINUOUS
 62
    4
 10
1551.9911999999999
 20
1117.7364
 11
1548.5734000000002
 21
1117.7364
  0
LINE
  8
_0-0_1
  6
CONTINUOUS
 62
    4
 10
1554.9504000000002
 20
1120.2431999999999
 11
1556.8843999999999
 21
1131.8474000000001
  0
ARC
  8
_0-0_1
  6
CONTINUOUS
 62
    4
 10
1551.9911999999999
 20
1120.7364
 40
3
 50
270
 51
350.53766999999999
  0
LINE
  8
_0-0_1
  6
CONTINUOUS
 62
    4
 10
1299.0843
 20
1188.8846000000001
 11
1299.0843
 21
1172.3522
  0
ARC
  8
_0-0_1
  6
CONTINUOUS
 62
    4
 10
1301.0843
 20
1188.8846000000001
 40
2
 50
111.74902000000002
 51
180
  0
LINE
  8
_0-0_1
  6
CONTINUOUS
 62
    4
 10
1593.1599000000001
 20
1160.5594000000001
 11
1554.0843
 21
1151.5057999999999
  0
LINE
  8
_0-0_1
  6
CONTINUOUS
 62
    4
 10
1554.0843
 20
1169.9826
 11
1554.0843
 21
1151.5057999999999
  0
LINE
  8
_0-0_1
  6
CONTINUOUS
 62
    4
 10
1552.0599000000002
 20
1169.5135
 11
1585.3090999999999
 21
1177.2172
  0
LINE
  8
_0-0_1
  6
CONTINUOUS
 62
    4
 10
1594.0207
 20
1180.5913
 11
1594.0207
 21
1161.5111999999999
  0
LINE
  8
_0-0_1
  6
CONTINUOUS
 62
    4
 10
1594.1280999999999
 20
1159.5243
 11
1594.1280999999999
 21
1141.3532
  0
LINE
  8
_0-0_1
  6
CONTINUOUS
 62
    4
 10
1676.0468999999998
 20
1110.8028999999999
 11
1667.5113999999999
 21
1125.3362999999999
  0
LINE
  8
_0-0_1
  6
CONTINUOUS
 62
    4
 10
1684.2147
 20
1110.1525999999999
 11
1692.5209
 21
1120.2181
  0
ARC
  8
_0-0_1
  6
CONTINUOUS
 62
    4
 10
1680.3582999999999
 20
1113.335
 40
5
 50
210.42578
 51
320.47001
  0
LINE
  8
_0-0_1
  6
CONTINUOUS
 62
    4
 10
1760.1603
 20
1109.6828
 11
1752.835
 21
1120.9888000000001
  0
LINE
  8
_0-0_1
  6
CONTINUOUS
 62
    4
 10
1768.6698999999999
 20
1109.8726999999999
 11
1777.6082999999999
 21
1125.1184000000001
  0
ARC
  8
_0-0_1
  6
DASHED1
 62
    4
 10
1764.3566000000001
 20
1112.4015999999999
 40
5
 50
212.93986000000001
 51
329.61716000000001
  0
LINE
  8
_0-0_1
  6
CONTINUOUS
 62
    4
 10
1556.6307999999999
 20
1191.277
 11
1557.4403000000002
 21
1191.595
  0
LINE
  8
_0-0_1
  6
CONTINUOUS
 62
    4
 10
1557.4403000000002
 20
1191.595
 11
1560.9704999999999
 21
1192.9840999999999
  0
LINE
  8
_0-0_1
  6
CONTINUOUS
 62
    4
 10
1560.9704999999999
 20
1192.9840999999999
 11
1564.5079999999998
 21
1194.3824999999999
  0
LINE
  8
_0-0_1
  6
CONTINUOUS
 62
    4
 10
1564.5079999999998
 20
1194.3824999999999
 11
1568.0572000000002
 21
1195.7962
  0
LINE
  8
_0-0_1
  6
CONTINUOUS
 62
    4
 10
1568.0572000000002
 20
1195.7962
 11
1571.6228999999998
 21
1197.2311999999999
  0
LINE
  8
_0-0_1
  6
CONTINUOUS
 62
    4
 10
1571.6228999999998
 20
1197.2311999999999
 11
1575.2094999999999
 21
1198.6934000000001
  0
LINE
  8
_0-0_1
  6
CONTINUOUS
 62
    4
 10
1575.2094999999999
 20
1198.6934000000001
 11
1577.3011999999999
 21
1199.5563
  0
LINE
  8
_0-0_1
  6
CONTINUOUS
 62
    4
 10
1577.3011999999999
 20
1199.5563
 11
1579.3688000000002
 21
1200.4141
  0
LINE
  8
_0-0_1
  6
CONTINUOUS
 62
    4
 10
1579.3688000000002
 20
1200.4141
 11
1582.9553999999998
 21
1201.8658
  0
LINE
  8
_0-0_1
  6
CONTINUOUS
 62
    4
 10
1582.9553999999998
 20
1201.8658
 11
1586.5699
 21
1203.1991
  0
LINE
  8
_0-0_1
  6
CONTINUOUS
 62
    4
 10
1586.5699
 20
1203.1991
 11
1590.2125999999998
 21
1204.3167000000001
  0
LINE
  8
_0-0_1
  6
CONTINUOUS
 62
    4
 10
1590.2125999999998
 20
1204.3167000000001
 11
1593.8838000000001
 21
1205.1212
  0
LINE
  8
_0-0_1
  6
CONTINUOUS
 62
    4
 10
1593.8838000000001
 20
1205.1212
 11
1597.5839999999998
 21
1205.5155
  0
LINE
  8
_0-0_1
  6
CONTINUOUS
 62
    4
 10
1597.5839999999998
 20
1205.5155
 11
1599.7433999999998
 21
1205.5177000000001
  0
LINE
  8
_0-0_1
  6
CONTINUOUS
 62
    4
 10
1599.7433999999998
 20
1205.5177000000001
 11
1600.5934000000002
 21
1205.4682
  0
LINE
  8
_0-0_1
  6
CONTINUOUS
 62
    4
 10
1600.5934000000002
 20
1205.4682
 11
1602.0599000000002
 21
1205.3181
  0
LINE
  8
_0-0_1
  6
CONTINUOUS
 62
    4
 10
1602.0599000000002
 20
1205.3181
 11
1603.5243
 21
1205.0917999999999
  0
LINE
  8
_0-0_1
  6
CONTINUOUS
 62
    4
 10
1603.5243
 20
1205.0917999999999
 11
1604.9823000000001
 21
1204.7961
  0
LINE
  8
_0-0_1
  6
CONTINUOUS
 62
    4
 10
1604.9823000000001
 20
1204.7961
 11
1606.4295999999999
 21
1204.4377999999999
  0
LINE
  8
_0-0_1
  6
CONTINUOUS
 62
    4
 10
1606.4295999999999
 20
1204.4377999999999
 11
1607.8618999999999
 21
1204.0236
  0
LINE
  8
_0-0_1
  6
CONTINUOUS
 62
    4
 10
1607.8618999999999
 20
1204.0236
 11
1608.6840999999999
 21
1203.7603999999999
  0
LINE
  8
_0-0_1
  6
CONTINUOUS
 62
    4
 10
1608.6840999999999
 20
1203.7603999999999
 11
1611.1954000000001
 21
1202.8471999999999
  0
LINE
  8
_0-0_1
  6
CONTINUOUS
 62
    4
 10
1611.1954000000001
 20
1202.8471999999999
 11
1615.3809000000001
 21
1200.9719
  0
LINE
  8
_0-0_1
  6
CONTINUOUS
 62
    4
 10
1615.3809000000001
 20
1200.9719
 11
1619.4157
 21
1198.7826
  0
LINE
  8
_0-0_1
  6
CONTINUOUS
 62
    4
 10
1619.4157
 20
1198.7826
 11
1623.3368
 21
1196.3568
  0
LINE
  8
_0-0_1
  6
CONTINUOUS
 62
    4
 10
1623.3368
 20
1196.3568
 11
1627.1812
 21
1193.7720999999999
  0
LINE
  8
_0-0_1
  6
CONTINUOUS
 62
    4
 10
1627.1812
 20
1193.7720999999999
 11
1630.9861000000001
 21
1191.1059
  0
LINE
  8
_0-0_1
  6
CONTINUOUS
 62
    4
 10
1630.9861000000001
 20
1191.1059
 11
1633.1893
 21
1189.5527
  0
LINE
  8
_0-0_1
  6
CONTINUOUS
 62
    4
 10
1633.1893
 20
1189.5527
 11
1636.5538999999999
 21
1187.2126000000001
  0
LINE
  8
_0-0_1
  6
CONTINUOUS
 62
    4
 10
1636.5538999999999
 20
1187.2126000000001
 11
1642.4016000000001
 21
1183.2769000000001
  0
LINE
  8
_0-0_1
  6
CONTINUOUS
 62
    4
 10
1642.4016000000001
 20
1183.2769000000001
 11
1648.3271
 21
1179.5027
  0
LINE
  8
_0-0_1
  6
CONTINUOUS
 62
    4
 10
1648.3271
 20
1179.5027
 11
1654.3517000000002
 21
1175.932
  0
LINE
  8
_0-0_1
  6
CONTINUOUS
 62
    4
 10
1654.3517000000002
 20
1175.932
 11
1660.4969000000001
 21
1172.6069
  0
LINE
  8
_0-0_1
  6
CONTINUOUS
 62
    4
 10
1660.4969000000001
 20
1172.6069
 11
1666.7842000000001
 21
1169.5696
  0
LINE
  8
_0-0_1
  6
CONTINUOUS
 62
    4
 10
1666.7842000000001
 20
1169.5696
 11
1670.5043999999998
 21
1167.9564
  0
LINE
  8
_0-0_1
  6
CONTINUOUS
 62
    4
 10
1670.5043999999998
 20
1167.9564
 11
1673.5810999999999
 21
1166.7281
  0
LINE
  8
_0-0_1
  6
CONTINUOUS
 62
    4
 10
1673.5810999999999
 20
1166.7281
 11
1678.9690000000001
 21
1164.8009999999999
  0
LINE
  8
_0-0_1
  6
CONTINUOUS
 62
    4
 10
1678.9690000000001
 20
1164.8009999999999
 11
1684.4486999999999
 21
1163.1219000000001
  0
LINE
  8
_0-0_1
  6
CONTINUOUS
 62
    4
 10
1684.4486999999999
 20
1163.1219000000001
 11
1690.0041000000001
 21
1161.6985
  0
LINE
  8
_0-0_1
  6
CONTINUOUS
 62
    4
 10
1690.0041000000001
 20
1161.6985
 11
1695.6192000000001
 21
1160.5388
  0
LINE
  8
_0-0_1
  6
CONTINUOUS
 62
    4
 10
1695.6192000000001
 20
1160.5388
 11
1701.2777999999998
 21
1159.6505
  0
LINE
  8
_0-0_1
  6
CONTINUOUS
 62
    4
 10
1701.2777999999998
 20
1159.6505
 11
1704.5735
 21
1159.2628
  0
LINE
  8
_0-0_1
  6
CONTINUOUS
 62
    4
 10
1704.5735
 20
1159.2628
 11
1707.0963000000002
 21
1159.0300999999999
  0
LINE
  8
_0-0_1
  6
CONTINUOUS
 62
    4
 10
1707.0963000000002
 20
1159.0300999999999
 11
1711.4526999999998
 21
1158.7509
  0
LINE
  8
_0-0_1
  6
CONTINUOUS
 62
    4
 10
1711.4526999999998
 20
1158.7509
 11
1715.8153000000002
 21
1158.6123
  0
LINE
  8
_0-0_1
  6
CONTINUOUS
 62
    4
 10
1715.8153000000002
 20
1158.6123
 11
1720.1810999999998
 21
1158.5987
  0
LINE
  8
_0-0_1
  6
CONTINUOUS
 62
    4
 10
1720.1810999999998
 20
1158.5987
 11
1724.5473000000002
 21
1158.694
  0
LINE
  8
_0-0_1
  6
CONTINUOUS
 62
    4
 10
1724.5473000000002
 20
1158.694
 11
1728.9110000000001
 21
1158.8824999999999
  0
LINE
  8
_0-0_1
  6
CONTINUOUS
 62
    4
 10
1728.9110000000001
 20
1158.8824999999999
 11
1731.4396999999999
 21
1159.0282999999999
  0
LINE
  8
_0-0_1
  6
CONTINUOUS
 62
    4
 10
1731.4396999999999
 20
1159.0282999999999
 11
1736.1646000000001
 21
1159.3625
  0
LINE
  8
_0-0_1
  6
CONTINUOUS
 62
    4
 10
1736.1646000000001
 20
1159.3625
 11
1744.2930999999999
 21
1160.1070999999999
  0
LINE
  8
_0-0_1
  6
CONTINUOUS
 62
    4
 10
1744.2930999999999
 20
1160.1070999999999
 11
1752.4016999999999
 21
1161.0343
  0
LINE
  8
_0-0_1
  6
CONTINUOUS
 62
    4
 10
1752.4016999999999
 20
1161.0343
 11
1760.4933999999998
 21
1162.1086
  0
LINE
  8
_0-0_1
  6
CONTINUOUS
 62
    4
 10
1760.4933999999998
 20
1162.1086
 11
1768.5711000000001
 21
1163.2946999999999
  0
LINE
  8
_0-0_1
  6
CONTINUOUS
 62
    4
 10
1768.5711000000001
 20
1163.2946999999999
 11
1776.6378
 21
1164.557
  0
LINE
  8
_0-0_1
  6
CONTINUOUS
 62
    4
 10
1776.6378
 20
1164.557
 11
1781.3126000000002
 21
1165.3100999999999
  0
LINE
  8
_0-0_1
  6
CONTINUOUS
 62
    4
 10
1781.3126000000002
 20
1165.3100999999999
 11
1783.7422000000001
 21
1165.7049999999999
  0
LINE
  8
_0-0_1
  6
CONTINUOUS
 62
    4
 10
1783.7422000000001
 20
1165.7049999999999
 11
1787.9301
 21
1166.3895
  0
LINE
  8
_0-0_1
  6
CONTINUOUS
 62
    4
 10
1787.9301
 20
1166.3895
 11
1792.1165999999998
 21
1167.0780999999999
  0
LINE
  8
_0-0_1
  6
CONTINUOUS
 62
    4
 10
1792.1165999999998
 20
1167.0780999999999
 11
1796.3022000000001
 21
1167.7699
  0
LINE
  8
_0-0_1
  6
CONTINUOUS
 62
    4
 10
1796.3022000000001
 20
1167.7699
 11
1800.4870999999998
 21
1168.4639999999999
  0
LINE
  8
_0-0_1
  6
CONTINUOUS
 62
    4
 10
1800.4870999999998
 20
1168.4639999999999
 11
1804.6714999999999
 21
1169.1595
  0
LINE
  8
_0-0_1
  6
CONTINUOUS
 62
    4
 10
1804.6714999999999
 20
1169.1595
 11
1807.0983999999999
 21
1169.5631000000001
  0
LINE
  8
_0-0_1
  6
CONTINUOUS
 62
    4
 10
1561.9751999999999
 20
1174.0374999999999
 11
1564.0261
 21
1174.8431
  0
LINE
  8
_0-0_1
  6
CONTINUOUS
 62
    4
 10
1564.0261
 20
1174.8431
 11
1567.5745000000002
 21
1176.2393
  0
LINE
  8
_0-0_1
  6
CONTINUOUS
 62
    4
 10
1567.5745000000002
 20
1176.2393
 11
1571.1469999999999
 21
1177.6514999999999
  0
LINE
  8
_0-0_1
  6
CONTINUOUS
 62
    4
 10
1571.1469999999999
 20
1177.6514999999999
 11
1574.7476999999999
 21
1179.0858000000001
  0
LINE
  8
_0-0_1
  6
CONTINUOUS
 62
    4
 10
1574.7476999999999
 20
1179.0858000000001
 11
1578.3807000000002
 21
1180.5478000000001
  0
LINE
  8
_0-0_1
  6
CONTINUOUS
 62
    4
 10
1578.3807000000002
 20
1180.5478000000001
 11
1582.0394000000001
 21
1182.0393999999999
  0
LINE
  8
_0-0_1
  6
CONTINUOUS
 62
    4
 10
1582.0394000000001
 20
1182.0393999999999
 11
1584.1824000000001
 21
1182.9235000000001
  0
LINE
  8
_0-0_1
  6
CONTINUOUS
 62
    4
 10
1584.1824000000001
 20
1182.9235000000001
 11
1586.1945999999998
 21
1183.7583
  0
LINE
  8
_0-0_1
  6
CONTINUOUS
 62
    4
 10
1586.1945999999998
 20
1183.7583
 11
1589.4484000000002
 21
1185.0753
  0
LINE
  8
_0-0_1
  6
CONTINUOUS
 62
    4
 10
1589.4484000000002
 20
1185.0753
 11
1592.3289
 21
1186.1378999999999
  0
LINE
  8
_0-0_1
  6
CONTINUOUS
 62
    4
 10
1592.3289
 20
1186.1378999999999
 11
1594.7867999999999
 21
1186.8919000000001
  0
LINE
  8
_0-0_1
  6
CONTINUOUS
 62
    4
 10
1594.7867999999999
 20
1186.8919000000001
 11
1596.7725999999998
 21
1187.3271
  0
LINE
  8
_0-0_1
  6
CONTINUOUS
 62
    4
 10
1596.7725999999998
 20
1187.3271
 11
1598.5495000000001
 21
1187.5164
  0
LINE
  8
_0-0_1
  6
CONTINUOUS
 62
    4
 10
1598.5495000000001
 20
1187.5164
 11
1599.2291
 21
1187.5172
  0
LINE
  8
_0-0_1
  6
CONTINUOUS
 62
    4
 10
1599.2291
 20
1187.5172
 11
1599.1529
 21
1187.5216
  0
LINE
  8
_0-0_1
  6
CONTINUOUS
 62
    4
 10
1599.1529
 20
1187.5216
 11
1599.7674999999999
 21
1187.4586999999999
  0
LINE
  8
_0-0_1
  6
CONTINUOUS
 62
    4
 10
1599.7674999999999
 20
1187.4586999999999
 11
1600.3591999999999
 21
1187.3671999999999
  0
LINE
  8
_0-0_1
  6
CONTINUOUS
 62
    4
 10
1600.3591999999999
 20
1187.3671999999999
 11
1601.0286000000001
 21
1187.2315000000001
  0
LINE
  8
_0-0_1
  6
CONTINUOUS
 62
    4
 10
1601.0286000000001
 20
1187.2315000000001
 11
1601.7647999999999
 21
1187.0491999999999
  0
LINE
  8
_0-0_1
  6
CONTINUOUS
 62
    4
 10
1601.7647999999999
 20
1187.0491999999999
 11
1602.6174999999998
 21
1186.8026
  0
LINE
  8
_0-0_1
  6
CONTINUOUS
 62
    4
 10
1602.6174999999998
 20
1186.8026
 11
1602.8627000000001
 21
1186.7242000000001
  0
LINE
  8
_0-0_1
  6
CONTINUOUS
 62
    4
 10
1602.8627000000001
 20
1186.7242000000001
 11
1604.4306999999999
 21
1186.1539
  0
LINE
  8
_0-0_1
  6
CONTINUOUS
 62
    4
 10
1604.4306999999999
 20
1186.1539
 11
1607.3971999999999
 21
1184.8248000000001
  0
LINE
  8
_0-0_1
  6
CONTINUOUS
 62
    4
 10
1607.3971999999999
 20
1184.8248000000001
 11
1610.3811999999998
 21
1183.2057
  0
LINE
  8
_0-0_1
  6
CONTINUOUS
 62
    4
 10
1610.3811999999998
 20
1183.2057
 11
1613.5767999999998
 21
1181.2286999999999
  0
LINE
  8
_0-0_1
  6
CONTINUOUS
 62
    4
 10
1613.5767999999998
 20
1181.2286999999999
 11
1616.9938999999999
 21
1178.9313
  0
LINE
  8
_0-0_1
  6
CONTINUOUS
 62
    4
 10
1616.9938999999999
 20
1178.9313
 11
1620.6356000000001
 21
1176.3794
  0
LINE
  8
_0-0_1
  6
CONTINUOUS
 62
    4
 10
1620.6356000000001
 20
1176.3794
 11
1622.8647999999998
 21
1174.808
  0
LINE
  8
_0-0_1
  6
CONTINUOUS
 62
    4
 10
1622.8647999999998
 20
1174.808
 11
1626.3892999999998
 21
1172.3566000000001
  0
LINE
  8
_0-0_1
  6
CONTINUOUS
 62
    4
 10
1626.3892999999998
 20
1172.3566000000001
 11
1632.5399000000002
 21
1168.2172
  0
LINE
  8
_0-0_1
  6
CONTINUOUS
 62
    4
 10
1632.5399000000002
 20
1168.2172
 11
1638.9007999999999
 21
1164.1655000000001
  0
LINE
  8
_0-0_1
  6
CONTINUOUS
 62
    4
 10
1638.9007999999999
 20
1164.1655000000001
 11
1645.4766
 21
1160.2682
  0
LINE
  8
_0-0_1
  6
CONTINUOUS
 62
    4
 10
1645.4766
 20
1160.2682
 11
1652.2946999999999
 21
1156.579
  0
LINE
  8
_0-0_1
  6
CONTINUOUS
 62
    4
 10
1652.2946999999999
 20
1156.579
 11
1659.2856000000002
 21
1153.2018
  0
LINE
  8
_0-0_1
  6
CONTINUOUS
 62
    4
 10
1659.2856000000002
 20
1153.2018
 11
1663.5855000000001
 21
1151.3371999999999
  0
LINE
  8
_0-0_1
  6
CONTINUOUS
 62
    4
 10
1663.5855000000001
 20
1151.3371999999999
 11
1667.2111
 21
1149.8897999999999
  0
LINE
  8
_0-0_1
  6
CONTINUOUS
 62
    4
 10
1667.2111
 20
1149.8897999999999
 11
1673.2982000000002
 21
1147.7126000000001
  0
LINE
  8
_0-0_1
  6
CONTINUOUS
 62
    4
 10
1673.2982000000002
 20
1147.7126000000001
 11
1679.5754999999999
 21
1145.7891
  0
LINE
  8
_0-0_1
  6
CONTINUOUS
 62
    4
 10
1679.5754999999999
 20
1145.7891
 11
1685.9477000000002
 21
1144.1564000000001
  0
LINE
  8
_0-0_1
  6
CONTINUOUS
 62
    4
 10
1685.9477000000002
 20
1144.1564000000001
 11
1692.4011999999998
 21
1142.8235
  0
LINE
  8
_0-0_1
  6
CONTINUOUS
 62
    4
 10
1692.4011999999998
 20
1142.8235
 11
1698.8296
 21
1141.8144
  0
LINE
  8
_0-0_1
  6
CONTINUOUS
 62
    4
 10
1698.8296
 20
1141.8144
 11
1702.6950999999999
 21
1141.3596
  0
LINE
  8
_0-0_1
  6
CONTINUOUS
 62
    4
 10
1702.6950999999999
 20
1141.3596
 11
1705.6939000000002
 21
1141.0831000000001
  0
LINE
  8
_0-0_1
  6
CONTINUOUS
 62
    4
 10
1705.6939000000002
 20
1141.0831000000001
 11
1710.5911999999998
 21
1140.7692
  0
LINE
  8
_0-0_1
  6
CONTINUOUS
 62
    4
 10
1710.5911999999998
 20
1140.7692
 11
1715.5014000000001
 21
1140.6132
  0
LINE
  8
_0-0_1
  6
CONTINUOUS
 62
    4
 10
1715.5014000000001
 20
1140.6132
 11
1720.3494000000001
 21
1140.598
  0
LINE
  8
_0-0_1
  6
CONTINUOUS
 62
    4
 10
1720.3494000000001
 20
1140.598
 11
1725.1323000000002
 21
1140.7025000000001
  0
LINE
  8
_0-0_1
  6
CONTINUOUS
 62
    4
 10
1725.1323000000002
 20
1140.7025000000001
 11
1729.8175999999999
 21
1140.9049
  0
LINE
  8
_0-0_1
  6
CONTINUOUS
 62
    4
 10
1729.8175999999999
 20
1140.9049
 11
1732.5927999999999
 21
1141.0649000000001
  0
LINE
  8
_0-0_1
  6
CONTINUOUS
 62
    4
 10
1732.5927999999999
 20
1141.0649000000001
 11
1737.6206999999999
 21
1141.4204999999999
  0
LINE
  8
_0-0_1
  6
CONTINUOUS
 62
    4
 10
1737.6206999999999
 20
1141.4204999999999
 11
1746.1368000000002
 21
1142.2005999999999
  0
LINE
  8
_0-0_1
  6
CONTINUOUS
 62
    4
 10
1746.1368000000002
 20
1142.2005999999999
 11
1754.6089000000002
 21
1143.1693
  0
LINE
  8
_0-0_1
  6
CONTINUOUS
 62
    4
 10
1754.6089000000002
 20
1143.1693
 11
1762.9854999999998
 21
1144.2815000000001
  0
LINE
  8
_0-0_1
  6
CONTINUOUS
 62
    4
 10
1762.9854999999998
 20
1144.2815000000001
 11
1771.2701000000002
 21
1145.498
  0
LINE
  8
_0-0_1
  6
CONTINUOUS
 62
    4
 10
1771.2701000000002
 20
1145.498
 11
1779.4607000000001
 21
1146.7797
  0
LINE
  8
_0-0_1
  6
CONTINUOUS
 62
    4
 10
1779.4607000000001
 20
1146.7797
 11
1784.1876999999999
 21
1147.5411999999999
  0
LINE
  8
_0-0_1
  6
CONTINUOUS
 62
    4
 10
1784.1876999999999
 20
1147.5411999999999
 11
1786.6377000000002
 21
1147.9394
  0
LINE
  8
_0-0_1
  6
CONTINUOUS
 62
    4
 10
1786.6377000000002
 20
1147.9394
 11
1790.8425999999999
 21
1148.6267
  0
LINE
  8
_0-0_1
  6
CONTINUOUS
 62
    4
 10
1790.8425999999999
 20
1148.6267
 11
1795.0448999999999
 21
1149.3179
  0
LINE
  8
_0-0_1
  6
CONTINUOUS
 62
    4
 10
1795.0448999999999
 20
1149.3179
 11
1799.2424000000001
 21
1150.0116
  0
LINE
  8
_0-0_1
  6
CONTINUOUS
 62
    4
 10
1799.2424000000001
 20
1150.0116
 11
1803.4353000000001
 21
1150.7071000000001
  0
LINE
  8
_0-0_1
  6
CONTINUOUS
 62
    4
 10
1803.4353000000001
 20
1150.7071000000001
 11
1807.6239
 21
1151.4032
  0
LINE
  8
_0-0_1
  6
CONTINUOUS
 62
    4
 10
1807.6239
 20
1151.4032
 11
1809.2379999999998
 21
1151.6717000000001
  0
ARC
  8
_0-0_1
  6
CONTINUOUS
 62
    4
 10
1843.4735999999998
 20
1177.4689000000001
 40
3
 50
103.0288
 51
179.49999999999997
  0
LINE
  8
_0-0_1
  6
CONTINUOUS
 62
    4
 10
1555.5473000000002
 20
1171.4943000000001
 11
1561.9395
 21
1174.0163
  0
ARC
  8
_0-0_1
  6
CONTINUOUS
 62
    4
 10
1555.1803
 20
1172.4245000000001
 40
1
 50
179.5
 51
291.53165999999999
  0
LINE
  8
_0-0_1
  6
CONTINUOUS
 62
    4
 10
1848.0376000000001
 20
1181.6042
 11
1842.7973000000002
 21
1180.3916999999999
  0
ARC
  8
_0-0_1
  6
CONTINUOUS
 62
    4
 10
1848.2629999999999
 20
1180.6300000000001
 40
1
 50
359.50000000000006
 51
103.02880000000002
  0
LINE
  8
_0-0_1
  6
CONTINUOUS
 62
    4
 10
1810.4225999999999
 20
1149.9338
 11
1840.7363999999998
 21
1157.0278000000001
  0
ARC
  8
_0-0_1
  6
CONTINUOUS
 62
    4
 10
1848.0772000000002
 20
1159.3371
 40
1
 50
359.50000000000006
 51
103.08296000000006
  0
LINE
  8
_0-0_1
  6
CONTINUOUS
 62
    4
 10
1841.5174000000002
 20
1158.8393000000001
 11
1847.8508000000002
 21
1160.3112000000001
  0
LINE
  8
_0-0_1
  6
CONTINUOUS
 62
    4
 10
1840.7438000000002
 20
1157.874
 11
1840.7363999999998
 21
1157.0278000000001
  0
ARC
  8
_0-0_1
  6
CONTINUOUS
 62
    4
 10
1841.7437
 20
1157.8652999999999
 40
1
 50
103.08296000000001
 51
179.50000000000003
  0
ARC
  8
_0-0_1
  6
CONTINUOUS
 62
    4
 10
1848.0971
 20
1161.6203
 40
1
 50
283.04496999999998
 51
359.5
  0
LINE
  8
_0-0_1
  6
CONTINUOUS
 62
    4
 10
1807.9519
 20
1149.4303
 11
1810.3800000000001
 21
1149.8342
  0
LINE
  8
_0-0_1
  6
CONTINUOUS
 62
    4
 10
1803.7629000000002
 20
1148.7340999999999
 11
1807.9519
 21
1149.4303
  0
LINE
  8
_0-0_1
  6
CONTINUOUS
 62
    4
 10
1799.5691000000002
 20
1148.0385000000001
 11
1803.7629000000002
 21
1148.7340999999999
  0
LINE
  8
_0-0_1
  6
CONTINUOUS
 62
    4
 10
1795.3703
 20
1147.3444999999999
 11
1799.5691000000002
 21
1148.0385000000001
  0
LINE
  8
_0-0_1
  6
CONTINUOUS
 62
    4
 10
1791.1662000000001
 20
1146.653
 11
1795.3703
 21
1147.3444999999999
  0
LINE
  8
_0-0_1
  6
CONTINUOUS
 62
    4
 10
1786.9594000000002
 20
1145.9654
 11
1791.1662000000001
 21
1146.653
  0
LINE
  8
_0-0_1
  6
CONTINUOUS
 62
    4
 10
1784.5070999999998
 20
1145.5669
 11
1786.9594000000002
 21
1145.9654
  0
LINE
  8
_0-0_1
  6
CONTINUOUS
 62
    4
 10
1779.7743999999998
 20
1144.8044
 11
1784.5070999999998
 21
1145.5669
  0
LINE
  8
_0-0_1
  6
CONTINUOUS
 62
    4
 10
1771.5699
 20
1143.5206000000001
 11
1779.7743999999998
 21
1144.8044
  0
LINE
  8
_0-0_1
  6
CONTINUOUS
 62
    4
 10
1763.2624999999998
 20
1142.3007
 11
1771.5699
 21
1143.5206000000001
  0
LINE
  8
_0-0_1
  6
CONTINUOUS
 62
    4
 10
1754.8542000000002
 20
1141.1844000000001
 11
1763.2624999999998
 21
1142.3007
  0
LINE
  8
_0-0_1
  6
CONTINUOUS
 62
    4
 10
1746.3416000000002
 20
1140.211
 11
1754.8542000000002
 21
1141.1844000000001
  0
LINE
  8
_0-0_1
  6
CONTINUOUS
 62
    4
 10
1737.7824999999998
 20
1139.4269999999999
 11
1746.3416000000002
 21
1140.211
  0
LINE
  8
_0-0_1
  6
CONTINUOUS
 62
    4
 10
1732.7208999999998
 20
1139.069
 11
1737.7824999999998
 21
1139.4269999999999
  0
LINE
  8
_0-0_1
  6
CONTINUOUS
 62
    4
 10
1729.9184
 20
1138.9074000000001
 11
1732.7208999999998
 21
1139.069
  0
LINE
  8
_0-0_1
  6
CONTINUOUS
 62
    4
 10
1725.1972999999998
 20
1138.7034000000001
 11
1729.9184
 21
1138.9074000000001
  0
LINE
  8
_0-0_1
  6
CONTINUOUS
 62
    4
 10
1720.3681000000001
 20
1138.598
 11
1725.1972999999998
 21
1138.7034000000001
  0
LINE
  8
_0-0_1
  6
CONTINUOUS
 62
    4
 10
1715.4665
 20
1138.6133
 11
1720.3681000000001
 21
1138.598
  0
LINE
  8
_0-0_1
  6
CONTINUOUS
 62
    4
 10
1710.4953999999998
 20
1138.7711999999999
 11
1715.4665
 21
1138.6133
  0
LINE
  8
_0-0_1
  6
CONTINUOUS
 62
    4
 10
1705.538
 20
1139.0889999999999
 11
1710.4953999999998
 21
1138.7711999999999
  0
LINE
  8
_0-0_1
  6
CONTINUOUS
 62
    4
 10
1702.4863999999998
 20
1139.3704
 11
1705.538
 21
1139.0889999999999
  0
LINE
  8
_0-0_1
  6
CONTINUOUS
 62
    4
 10
1698.5574999999999
 20
1139.8326
 11
1702.4863999999998
 21
1139.3704
  0
LINE
  8
_0-0_1
  6
CONTINUOUS
 62
    4
 10
1692.0436
 20
1140.8552
 11
1698.5574999999999
 21
1139.8326
  0
LINE
  8
_0-0_1
  6
CONTINUOUS
 62
    4
 10
1685.4969999999998
 20
1142.2073
 11
1692.0436
 21
1140.8552
  0
LINE
  8
_0-0_1
  6
CONTINUOUS
 62
    4
 10
1679.0340000000001
 20
1143.8632
 11
1685.4969999999998
 21
1142.2073
  0
LINE
  8
_0-0_1
  6
CONTINUOUS
 62
    4
 10
1672.6680999999999
 20
1145.8139000000001
 11
1679.0340000000001
 21
1143.8632
  0
LINE
  8
_0-0_1
  6
CONTINUOUS
 62
    4
 10
1666.5032999999999
 20
1148.0188000000001
 11
1672.6680999999999
 21
1145.8139000000001
  0
LINE
  8
_0-0_1
  6
CONTINUOUS
 62
    4
 10
1662.8166999999999
 20
1149.4906000000001
 11
1666.5032999999999
 21
1148.0188000000001
  0
LINE
  8
_0-0_1
  6
CONTINUOUS
 62
    4
 10
1658.4524000000001
 20
1151.3831
 11
1662.8166999999999
 21
1149.4906000000001
  0
LINE
  8
_0-0_1
  6
CONTINUOUS
 62
    4
 10
1651.3834000000002
 20
1154.7981
 11
1658.4524000000001
 21
1151.3831
  0
LINE
  8
_0-0_1
  6
CONTINUOUS
 62
    4
 10
1644.4904999999999
 20
1158.5277000000001
 11
1651.3834000000002
 21
1154.7981
  0
LINE
  8
_0-0_1
  6
CONTINUOUS
 62
    4
 10
1637.8535000000002
 20
1162.4613999999999
 11
1644.4904999999999
 21
1158.5277000000001
  0
LINE
  8
_0-0_1
  6
CONTINUOUS
 62
    4
 10
1631.4441000000002
 20
1166.5438999999999
 11
1637.8535000000002
 21
1162.4613999999999
  0
LINE
  8
_0-0_1
  6
CONTINUOUS
 62
    4
 10
1625.2599
 20
1170.7059999999999
 11
1631.4441000000002
 21
1166.5438999999999
  0
LINE
  8
_0-0_1
  6
CONTINUOUS
 62
    4
 10
1621.7175999999999
 20
1173.1696999999999
 11
1625.2599
 21
1170.7059999999999
  0
LINE
  8
_0-0_1
  6
CONTINUOUS
 62
    4
 10
1619.4856
 20
1174.7431999999999
 11
1621.7175999999999
 21
1173.1696999999999
  0
LINE
  8
_0-0_1
  6
CONTINUOUS
 62
    4
 10
1615.8620000000001
 20
1177.2824000000001
 11
1619.4856
 21
1174.7431999999999
  0
LINE
  8
_0-0_1
  6
CONTINUOUS
 62
    4
 10
1612.4924000000001
 20
1179.5478000000001
 11
1615.8620000000001
 21
1177.2824000000001
  0
LINE
  8
_0-0_1
  6
CONTINUOUS
 62
    4
 10
1609.3773999999999
 20
1181.4748999999999
 11
1612.4924000000001
 21
1179.5478000000001
  0
LINE
  8
_0-0_1
  6
CONTINUOUS
 62
    4
 10
1606.5102000000002
 20
1183.0307
 11
1609.3773999999999
 21
1181.4748999999999
  0
LINE
  8
_0-0_1
  6
CONTINUOUS
 62
    4
 10
1603.6790000000001
 20
1184.2991
 11
1606.5102000000002
 21
1183.0307
  0
LINE
  8
_0-0_1
  6
CONTINUOUS
 62
    4
 10
1602.2157999999999
 20
1184.8312000000001
 11
1603.6790000000001
 21
1184.2991
  0
LINE
  8
_0-0_1
  6
CONTINUOUS
 62
    4
 10
1602.0347000000002
 20
1184.8892000000001
 11
1602.2157999999999
 21
1184.8312000000001
  0
LINE
  8
_0-0_1
  6
CONTINUOUS
 62
    4
 10
1601.2464
 20
1185.1170999999999
 11
1602.0347000000002
 21
1184.8892000000001
  0
LINE
  8
_0-0_1
  6
CONTINUOUS
 62
    4
 10
1600.5893000000001
 20
1185.2799
 11
1601.2464
 21
1185.1170999999999
  0
LINE
  8
_0-0_1
  6
CONTINUOUS
 62
    4
 10
1600.0075000000002
 20
1185.3978
 11
1600.5893000000001
 21
1185.2799
  0
LINE
  8
_0-0_1
  6
CONTINUOUS
 62
    4
 10
1599.9674
 20
1185.404
 11
1600.0075000000002
 21
1185.3978
  0
LINE
  8
_0-0_1
  6
CONTINUOUS
 62
    4
 10
1803.9413
 20
1130.2428
 11
1805.5554000000002
 21
1130.5112999999999
  0
LINE
  8
_0-0_1
  6
CONTINUOUS
 62
    4
 10
1799.7527
 20
1129.5467000000001
 11
1803.9413
 21
1130.2428
  0
LINE
  8
_0-0_1
  6
CONTINUOUS
 62
    4
 10
1795.5598
 20
1128.8512000000001
 11
1799.7527
 21
1129.5467000000001
  0
LINE
  8
_0-0_1
  6
CONTINUOUS
 62
    4
 10
1791.3622999999998
 20
1128.1575
 11
1795.5598
 21
1128.8512000000001
  0
LINE
  8
_0-0_1
  6
CONTINUOUS
 62
    4
 10
1787.1599999999999
 20
1127.4663
 11
1791.3622999999998
 21
1128.1575
  0
LINE
  8
_0-0_1
  6
CONTINUOUS
 62
    4
 10
1782.9551000000001
 20
1126.779
 11
1787.1599999999999
 21
1127.4663
  0
LINE
  8
_0-0_1
  6
CONTINUOUS
 62
    4
 10
1780.5050999999999
 20
1126.3807999999999
 11
1782.9551000000001
 21
1126.779
  0
LINE
  8
_0-0_1
  6
CONTINUOUS
 62
    4
 10
1775.7781
 20
1125.6193000000001
 11
1780.5050999999999
 21
1126.3807999999999
  0
LINE
  8
_0-0_1
  6
CONTINUOUS
 62
    4
 10
1767.5875000000001
 20
1124.3376000000001
 11
1775.7781
 21
1125.6193000000001
  0
LINE
  8
_0-0_1
  6
CONTINUOUS
 62
    4
 10
1759.3029999999999
 20
1123.1211000000001
 11
1767.5875000000001
 21
1124.3376000000001
  0
LINE
  8
_0-0_1
  6
CONTINUOUS
 62
    4
 10
1750.9263999999998
 20
1122.0089
 11
1759.3029999999999
 21
1123.1211000000001
  0
LINE
  8
_0-0_1
  6
CONTINUOUS
 62
    4
 10
1742.4542000000001
 20
1121.0401999999999
 11
1750.9263999999998
 21
1122.0089
  0
LINE
  8
_0-0_1
  6
CONTINUOUS
 62
    4
 10
1733.9380999999998
 20
1120.2601
 11
1742.4542000000001
 21
1121.0401999999999
  0
LINE
  8
_0-0_1
  6
CONTINUOUS
 62
    4
 10
1728.9101999999998
 20
1119.9045000000001
 11
1733.9380999999998
 21
1120.2601
  0
LINE
  8
_0-0_1
  6
CONTINUOUS
 62
    4
 10
1726.1350000000002
 20
1119.7445
 11
1728.9101999999998
 21
1119.9045000000001
  0
LINE
  8
_0-0_1
  6
CONTINUOUS
 62
    4
 10
1721.4497000000001
 20
1119.5420999999999
 11
1726.1350000000002
 21
1119.7445
  0
LINE
  8
_0-0_1
  6
CONTINUOUS
 62
    4
 10
1716.6668
 20
1119.4376
 11
1721.4497000000001
 21
1119.5420999999999
  0
LINE
  8
_0-0_1
  6
CONTINUOUS
 62
    4
 10
1711.8188
 20
1119.4528
 11
1716.6668
 21
1119.4376
  0
LINE
  8
_0-0_1
  6
CONTINUOUS
 62
    4
 10
1706.9086000000002
 20
1119.6088
 11
1711.8188
 21
1119.4528
  0
LINE
  8
_0-0_1
  6
CONTINUOUS
 62
    4
 10
1702.0113000000001
 20
1119.9227000000001
 11
1706.9086000000002
 21
1119.6088
  0
LINE
  8
_0-0_1
  6
CONTINUOUS
 62
    4
 10
1699.0124999999998
 20
1120.1992
 11
1702.0113000000001
 21
1119.9227000000001
  0
LINE
  8
_0-0_1
  6
CONTINUOUS
 62
    4
 10
1695.1469999999999
 20
1120.654
 11
1699.0124999999998
 21
1120.1992
  0
LINE
  8
_0-0_1
  6
CONTINUOUS
 62
    4
 10
1688.7186000000002
 20
1121.6631
 11
1695.1469999999999
 21
1120.654
  0
LINE
  8
_0-0_1
  6
CONTINUOUS
 62
    4
 10
1682.2651000000001
 20
1122.9960000000001
 11
1688.7186000000002
 21
1121.6631
  0
LINE
  8
_0-0_1
  6
CONTINUOUS
 62
    4
 10
1675.8928999999998
 20
1124.6287
 11
1682.2651000000001
 21
1122.9960000000001
  0
LINE
  8
_0-0_1
  6
CONTINUOUS
 62
    4
 10
1669.6156000000001
 20
1126.5522000000001
 11
1675.8928999999998
 21
1124.6287
  0
LINE
  8
_0-0_1
  6
CONTINUOUS
 62
    4
 10
1663.5284999999999
 20
1128.7293999999999
 11
1669.6156000000001
 21
1126.5522000000001
  0
LINE
  8
_0-0_1
  6
CONTINUOUS
 62
    4
 10
1659.9029
 20
1130.1768
 11
1663.5284999999999
 21
1128.7293999999999
  0
LINE
  8
_0-0_1
  6
CONTINUOUS
 62
    4
 10
1655.6030000000001
 20
1132.0414000000001
 11
1659.9029
 21
1130.1768
  0
LINE
  8
_0-0_1
  6
CONTINUOUS
 62
    4
 10
1648.6120999999998
 20
1135.4186
 11
1655.6030000000001
 21
1132.0414000000001
  0
LINE
  8
_0-0_1
  6
CONTINUOUS
 62
    4
 10
1641.7939999999999
 20
1139.1078
 11
1648.6120999999998
 21
1135.4186
  0
LINE
  8
_0-0_1
  6
CONTINUOUS
 62
    4
 10
1635.2181999999998
 20
1143.0051000000001
 11
1641.7939999999999
 21
1139.1078
  0
LINE
  8
_0-0_1
  6
CONTINUOUS
 62
    4
 10
1628.8573000000001
 20
1147.0568000000001
 11
1635.2181999999998
 21
1143.0051000000001
  0
LINE
  8
_0-0_1
  6
CONTINUOUS
 62
    4
 10
1622.7067000000002
 20
1151.1962000000001
 11
1628.8573000000001
 21
1147.0568000000001
  0
LINE
  8
_0-0_1
  6
CONTINUOUS
 62
    4
 10
1619.1822000000002
 20
1153.6476
 11
1622.7067000000002
 21
1151.1962000000001
  0
LINE
  8
_0-0_1
  6
CONTINUOUS
 62
    4
 10
1616.9531000000002
 20
1155.2190000000001
 11
1619.1822000000002
 21
1153.6476
  0
LINE
  8
_0-0_1
  6
CONTINUOUS
 62
    4
 10
1613.3114
 20
1157.7709
 11
1616.9531000000002
 21
1155.2190000000001
  0
LINE
  8
_0-0_1
  6
CONTINUOUS
 62
    4
 10
1609.8942000000002
 20
1160.0684000000001
 11
1613.3114
 21
1157.7709
  0
LINE
  8
_0-0_1
  6
CONTINUOUS
 62
    4
 10
1606.6986000000002
 20
1162.0453
 11
1609.8942000000002
 21
1160.0684000000001
  0
LINE
  8
_0-0_1
  6
CONTINUOUS
 62
    4
 10
1603.7145999999998
 20
1163.6643999999999
 11
1606.6986000000002
 21
1162.0453
  0
LINE
  8
_0-0_1
  6
CONTINUOUS
 62
    4
 10
1600.7480999999998
 20
1164.9935
 11
1603.7145999999998
 21
1163.6643999999999
  0
LINE
  8
_0-0_1
  6
CONTINUOUS
 62
    4
 10
1599.9980999999998
 20
1165.2663
 11
1600.7480999999998
 21
1164.9935
  0
LINE
  8
_0-0_1
  6
CONTINUOUS
 62
    4
 10
1600.3312000000001
 20
1185.3094000000001
 11
1600.1552000000001
 21
1165.136
  0
LINE
  8
_0-0_1
  6
CONTINUOUS
 62
    4
 10
1848.1453000000001
 20
1140.2978000000001
 11
1805.3251
 21
1130.3766000000001
  0
ARC
  8
_0-0_1
  6
CONTINUOUS
 62
    4
 10
1847.9195
 20
1141.2719999999999
 40
1
 50
283.04496999999998
 51
359.5
  0
LINE
  8
_0-0_1
  6
CONTINUOUS
 62
    4
 10
1800.8341999999998
 20
1120.0630000000001
 11
1798.5888
 21
1128.6365000000001
  0
ARC
  8
_0-0_1
  6
CONTINUOUS
 62
    4
 10
1803.7363
 20
1120.8231000000001
 40
3
 50
194.67639000000003
 51
270.00000000000006
  0
LINE
  8
_0-0_1
  6
CONTINUOUS
 62
    4
 10
1807.1541000000002
 20
1117.8231000000001
 11
1803.7363
 21
1117.8231000000001
  0
LINE
  8
_0-0_1
  6
CONTINUOUS
 62
    4
 10
1810.1133
 20
1120.3299
 11
1812.0473000000002
 21
1131.9340999999999
  0
ARC
  8
_0-0_1
  6
CONTINUOUS
 62
    4
 10
1807.1541000000002
 20
1120.8231000000001
 40
3
 50
270
 51
350.53766999999999
  0
LINE
  8
_0-0_1
  6
CONTINUOUS
 62
    4
 10
1554.2471999999998
 20
1188.9713999999999
 11
1554.2471999999998
 21
1172.4389000000001
  0
LINE
  8
_0-0_1
  6
CONTINUOUS
 62
    4
 10
1555.5061000000001
 20
1190.829
 11
1556.6311000000001
 21
1191.2778000000001
  0
ARC
  8
_0-0_1
  6
CONTINUOUS
 62
    4
 10
1556.2471999999998
 20
1188.9713999999999
 40
2
 50
111.74902000000002
 51
180
  0
LINE
  8
_0-0_1
  6
CONTINUOUS
 62
    4
 10
1848.3227999999999
 20
1160.6460999999999
 11
1809.2471999999998
 21
1151.5925
  0
LINE
  8
_0-0_1
  6
CONTINUOUS
 62
    4
 10
1809.2471999999998
 20
1170.0693000000001
 11
1809.2471999999998
 21
1151.5925
  0
LINE
  8
_0-0_1
  6
CONTINUOUS
 62
    4
 10
1807.2228
 20
1169.6003000000001
 11
1840.4720000000002
 21
1177.3039000000001
  0
LINE
  8
_0-0_1
  6
CONTINUOUS
 62
    4
 10
1849.1835999999998
 20
1180.6781000000001
 11
1849.1835999999998
 21
1161.5979
  0
LINE
  8
_0-0_1
  6
CONTINUOUS
 62
    4
 10
1849.2910000000002
 20
1159.6110000000001
 11
1849.2910000000002
 21
1141.4399000000001
  0
LINE
  8
_0-0_1
  6
CONTINUOUS
 62
    4
 10
1931.0212000000001
 20
1109.6774
 11
1922.4857999999999
 21
1124.2108000000001
  0
LINE
  8
_0-0_1
  6
CONTINUOUS
 62
    4
 10
1939.1891000000001
 20
1109.0271
 11
1947.4953
 21
1119.0925999999999
  0
ARC
  8
_0-0_1
  6
DASHED1
 62
    4
 10
1935.3326000000002
 20
1112.2094999999999
 40
5
 50
210.42578
 51
320.47001
  0
LINE
  8
_0-0_1
  6
CONTINUOUS
 62
    4
 10
2015.1347000000001
 20
1108.5572999999999
 11
2007.8092999999999
 21
1119.8633
  0
LINE
  8
_0-0_1
  6
CONTINUOUS
 62
    4
 10
2023.6442000000002
 20
1108.7472
 11
2032.5826999999999
 21
1123.9929
  0
ARC
  8
_0-0_1
  6
CONTINUOUS
 62
    4
 10
2019.3308999999999
 20
1111.2761
 40
5
 50
212.93986000000001
 51
329.61716000000001
  0
LINE
  8
_0-0_1
  6
CONTINUOUS
 62
    4
 10
1811.6051000000002
 20
1190.1514999999999
 11
1812.4146999999998
 21
1190.4694999999999
  0
LINE
  8
_0-0_1
  6
CONTINUOUS
 62
    4
 10
1812.4146999999998
 20
1190.4694999999999
 11
1815.9449
 21
1191.8586
  0
LINE
  8
_0-0_1
  6
CONTINUOUS
 62
    4
 10
1815.9449
 20
1191.8586
 11
1819.4823000000001
 21
1193.2570000000001
  0
LINE
  8
_0-0_1
  6
CONTINUOUS
 62
    4
 10
1819.4823000000001
 20
1193.2570000000001
 11
1823.0315999999998
 21
1194.6706999999999
  0
LINE
  8
_0-0_1
  6
CONTINUOUS
 62
    4
 10
1823.0315999999998
 20
1194.6706999999999
 11
1826.5972000000002
 21
1196.1057000000001
  0
LINE
  8
_0-0_1
  6
CONTINUOUS
 62
    4
 10
1826.5972000000002
 20
1196.1057000000001
 11
1830.1839
 21
1197.5679
  0
LINE
  8
_0-0_1
  6
CONTINUOUS
 62
    4
 10
1830.1839
 20
1197.5679
 11
1832.2755999999999
 21
1198.4308000000001
  0
LINE
  8
_0-0_1
  6
CONTINUOUS
 62
    4
 10
1832.2755999999999
 20
1198.4308000000001
 11
1834.3431999999998
 21
1199.2886000000001
  0
LINE
  8
_0-0_1
  6
CONTINUOUS
 62
    4
 10
1834.3431999999998
 20
1199.2886000000001
 11
1837.9297999999999
 21
1200.7402999999999
  0
LINE
  8
_0-0_1
  6
CONTINUOUS
 62
    4
 10
1837.9297999999999
 20
1200.7402999999999
 11
1841.5441999999998
 21
1202.0735999999999
  0
LINE
  8
_0-0_1
  6
CONTINUOUS
 62
    4
 10
1841.5441999999998
 20
1202.0735999999999
 11
1845.1869000000002
 21
1203.1912
  0
LINE
  8
_0-0_1
  6
CONTINUOUS
 62
    4
 10
1845.1869000000002
 20
1203.1912
 11
1848.8582000000001
 21
1203.9956999999999
  0
LINE
  8
_0-0_1
  6
CONTINUOUS
 62
    4
 10
1848.8582000000001
 20
1203.9956999999999
 11
1852.5583000000001
 21
1204.3898999999999
  0
LINE
  8
_0-0_1
  6
CONTINUOUS
 62
    4
 10
1852.5583000000001
 20
1204.3898999999999
 11
1854.7177999999999
 21
1204.3922
  0
LINE
  8
_0-0_1
  6
CONTINUOUS
 62
    4
 10
1854.7177999999999
 20
1204.3922
 11
1855.5677000000001
 21
1204.3426999999999
  0
LINE
  8
_0-0_1
  6
CONTINUOUS
 62
    4
 10
1855.5677000000001
 20
1204.3426999999999
 11
1857.0342999999998
 21
1204.1926000000001
  0
LINE
  8
_0-0_1
  6
CONTINUOUS
 62
    4
 10
1857.0342999999998
 20
1204.1926000000001
 11
1858.4987000000001
 21
1203.9663
  0
LINE
  8
_0-0_1
  6
CONTINUOUS
 62
    4
 10
1858.4987000000001
 20
1203.9663
 11
1859.9566
 21
1203.6705999999999
  0
LINE
  8
_0-0_1
  6
CONTINUOUS
 62
    4
 10
1859.9566
 20
1203.6705999999999
 11
1861.4038999999998
 21
1203.3123000000001
  0
LINE
  8
_0-0_1
  6
CONTINUOUS
 62
    4
 10
1861.4038999999998
 20
1203.3123000000001
 11
1862.8362999999999
 21
1202.8981000000001
  0
LINE
  8
_0-0_1
  6
CONTINUOUS
 62
    4
 10
1862.8362999999999
 20
1202.8981000000001
 11
1863.6585
 21
1202.6349
  0
LINE
  8
_0-0_1
  6
CONTINUOUS
 62
    4
 10
1863.6585
 20
1202.6349
 11
1866.1696999999999
 21
1201.7217000000001
  0
LINE
  8
_0-0_1
  6
CONTINUOUS
 62
    4
 10
1866.1696999999999
 20
1201.7217000000001
 11
1870.3552
 21
1199.8463999999999
  0
LINE
  8
_0-0_1
  6
CONTINUOUS
 62
    4
 10
1870.3552
 20
1199.8463999999999
 11
1874.3899999999999
 21
1197.6570999999999
  0
LINE
  8
_0-0_1
  6
CONTINUOUS
 62
    4
 10
1874.3899999999999
 20
1197.6570999999999
 11
1878.3110999999999
 21
1195.2312999999999
  0
LINE
  8
_0-0_1
  6
CONTINUOUS
 62
    4
 10
1878.3110999999999
 20
1195.2312999999999
 11
1882.1556
 21
1192.6466
  0
LINE
  8
_0-0_1
  6
CONTINUOUS
 62
    4
 10
1882.1556
 20
1192.6466
 11
1885.9603999999999
 21
1189.9803999999999
  0
LINE
  8
_0-0_1
  6
CONTINUOUS
 62
    4
 10
1885.9603999999999
 20
1189.9803999999999
 11
1888.1637000000001
 21
1188.4272000000001
  0
LINE
  8
_0-0_1
  6
CONTINUOUS
 62
    4
 10
1888.1637000000001
 20
1188.4272000000001
 11
1891.5282999999999
 21
1186.0871
  0
LINE
  8
_0-0_1
  6
CONTINUOUS
 62
    4
 10
1891.5282999999999
 20
1186.0871
 11
1897.3760000000002
 21
1182.1514
  0
LINE
  8
_0-0_1
  6
CONTINUOUS
 62
    4
 10
1897.3760000000002
 20
1182.1514
 11
1903.3013999999998
 21
1178.3771999999999
  0
LINE
  8
_0-0_1
  6
CONTINUOUS
 62
    4
 10
1903.3013999999998
 20
1178.3771999999999
 11
1909.3261000000002
 21
1174.8064999999999
  0
LINE
  8
_0-0_1
  6
CONTINUOUS
 62
    4
 10
1909.3261000000002
 20
1174.8064999999999
 11
1915.4713000000002
 21
1171.4813999999999
  0
LINE
  8
_0-0_1
  6
CONTINUOUS
 62
    4
 10
1915.4713000000002
 20
1171.4813999999999
 11
1921.7586000000001
 21
1168.4440999999999
  0
LINE
  8
_0-0_1
  6
CONTINUOUS
 62
    4
 10
1921.7586000000001
 20
1168.4440999999999
 11
1925.4787999999999
 21
1166.8308999999999
  0
LINE
  8
_0-0_1
  6
CONTINUOUS
 62
    4
 10
1925.4787999999999
 20
1166.8308999999999
 11
1928.5554000000002
 21
1165.6025999999999
  0
LINE
  8
_0-0_1
  6
CONTINUOUS
 62
    4
 10
1928.5554000000002
 20
1165.6025999999999
 11
1933.9434000000001
 21
1163.6755000000001
  0
LINE
  8
_0-0_1
  6
CONTINUOUS
 62
    4
 10
1933.9434000000001
 20
1163.6755000000001
 11
1939.4231
 21
1161.9964
  0
LINE
  8
_0-0_1
  6
CONTINUOUS
 62
    4
 10
1939.4231
 20
1161.9964
 11
1944.9785000000002
 21
1160.5730000000001
  0
LINE
  8
_0-0_1
  6
CONTINUOUS
 62
    4
 10
1944.9785000000002
 20
1160.5730000000001
 11
1950.5934999999999
 21
1159.4132999999999
  0
LINE
  8
_0-0_1
  6
CONTINUOUS
 62
    4
 10
1950.5934999999999
 20
1159.4132999999999
 11
1956.2521999999999
 21
1158.5250000000001
  0
LINE
  8
_0-0_1
  6
CONTINUOUS
 62
    4
 10
1956.2521999999999
 20
1158.5250000000001
 11
1959.5479
 21
1158.1373000000001
  0
LINE
  8
_0-0_1
  6
CONTINUOUS
 62
    4
 10
1959.5479
 20
1158.1373000000001
 11
1962.0707000000002
 21
1157.9046000000001
  0
LINE
  8
_0-0_1
  6
CONTINUOUS
 62
    4
 10
1962.0707000000002
 20
1157.9046000000001
 11
1966.4270999999999
 21
1157.6253999999999
  0
LINE
  8
_0-0_1
  6
CONTINUOUS
 62
    4
 10
1966.4270999999999
 20
1157.6253999999999
 11
1970.7896999999998
 21
1157.4867999999999
  0
LINE
  8
_0-0_1
  6
CONTINUOUS
 62
    4
 10
1970.7896999999998
 20
1157.4867999999999
 11
1975.1554999999998
 21
1157.4731999999999
  0
LINE
  8
_0-0_1
  6
CONTINUOUS
 62
    4
 10
1975.1554999999998
 20
1157.4731999999999
 11
1979.5216999999998
 21
1157.5685000000001
  0
LINE
  8
_0-0_1
  6
CONTINUOUS
 62
    4
 10
1979.5216999999998
 20
1157.5685000000001
 11
1983.8854000000001
 21
1157.7570000000001
  0
LINE
  8
_0-0_1
  6
CONTINUOUS
 62
    4
 10
1983.8854000000001
 20
1157.7570000000001
 11
1986.4140000000002
 21
1157.9028000000001
  0
LINE
  8
_0-0_1
  6
CONTINUOUS
 62
    4
 10
1986.4140000000002
 20
1157.9028000000001
 11
1991.1388999999999
 21
1158.2370000000001
  0
LINE
  8
_0-0_1
  6
CONTINUOUS
 62
    4
 10
1991.1388999999999
 20
1158.2370000000001
 11
1999.2674999999999
 21
1158.9816000000001
  0
LINE
  8
_0-0_1
  6
CONTINUOUS
 62
    4
 10
1999.2674999999999
 20
1158.9816000000001
 11
2007.3761
 21
1159.9087
  0
LINE
  8
_0-0_1
  6
CONTINUOUS
 62
    4
 10
2007.3761
 20
1159.9087
 11
2015.4677000000001
 21
1160.9830999999999
  0
LINE
  8
_0-0_1
  6
CONTINUOUS
 62
    4
 10
2015.4677000000001
 20
1160.9830999999999
 11
2023.5454
 21
1162.1692
  0
LINE
  8
_0-0_1
  6
CONTINUOUS
 62
    4
 10
2023.5454
 20
1162.1692
 11
2031.6120999999998
 21
1163.4314999999999
  0
LINE
  8
_0-0_1
  6
CONTINUOUS
 62
    4
 10
2031.6120999999998
 20
1163.4314999999999
 11
2036.2869999999998
 21
1164.1846
  0
LINE
  8
_0-0_1
  6
CONTINUOUS
 62
    4
 10
2036.2869999999998
 20
1164.1846
 11
2038.7166000000002
 21
1164.5794000000001
  0
LINE
  8
_0-0_1
  6
CONTINUOUS
 62
    4
 10
2038.7166000000002
 20
1164.5794000000001
 11
2042.9043999999999
 21
1165.2639999999999
  0
LINE
  8
_0-0_1
  6
CONTINUOUS
 62
    4
 10
2042.9043999999999
 20
1165.2639999999999
 11
2047.0909999999999
 21
1165.9526000000001
  0
LINE
  8
_0-0_1
  6
CONTINUOUS
 62
    4
 10
2047.0909999999999
 20
1165.9526000000001
 11
2051.2766000000001
 21
1166.6443999999999
  0
LINE
  8
_0-0_1
  6
CONTINUOUS
 62
    4
 10
2051.2766000000001
 20
1166.6443999999999
 11
2055.4614999999999
 21
1167.3385000000001
  0
LINE
  8
_0-0_1
  6
CONTINUOUS
 62
    4
 10
2055.4614999999999
 20
1167.3385000000001
 11
2059.6459
 21
1168.0340000000001
  0
LINE
  8
_0-0_1
  6
CONTINUOUS
 62
    4
 10
2059.6459
 20
1168.0340000000001
 11
2062.0727999999999
 21
1168.4376
  0
ARC
  8
_0-0_1
  6
CONTINUOUS
 62
    4
 10
2098.4479999999999
 20
1176.3434
 40
3
 50
103.0288
 51
179.49999999999997
  0
LINE
  8
_0-0_1
  6
CONTINUOUS
 62
    4
 10
1810.5216
 20
1170.3688
 11
1816.9139
 21
1172.8907999999999
  0
ARC
  8
_0-0_1
  6
CONTINUOUS
 62
    4
 10
1810.1545999999998
 20
1171.299
 40
1
 50
179.5
 51
291.53165999999999
  0
LINE
  8
_0-0_1
  6
CONTINUOUS
 62
    4
 10
2103.0119
 20
1180.4786999999999
 11
2097.7716
 21
1179.2662
  0
ARC
  8
_0-0_1
  6
CONTINUOUS
 62
    4
 10
2103.2374
 20
1179.5045
 40
1
 50
359.50000000000006
 51
103.02880000000002
  0
LINE
  8
_0-0_1
  6
CONTINUOUS
 62
    4
 10
2065.3969999999999
 20
1148.8082999999999
 11
2095.7107000000001
 21
1155.9023
  0
ARC
  8
_0-0_1
  6
CONTINUOUS
 62
    4
 10
2103.0515999999998
 20
1158.2116000000001
 40
1
 50
359.50000000000006
 51
103.08296000000006
  0
LINE
  8
_0-0_1
  6
CONTINUOUS
 62
    4
 10
2096.4917
 20
1157.7138
 11
2102.8252000000002
 21
1159.1857
  0
LINE
  8
_0-0_1
  6
CONTINUOUS
 62
    4
 10
2095.7181
 20
1156.7484999999999
 11
2095.7107000000001
 21
1155.9023
  0
ARC
  8
_0-0_1
  6
CONTINUOUS
 62
    4
 10
2096.7181
 20
1156.7398000000001
 40
1
 50
103.08296000000001
 51
179.50000000000003
  0
ARC
  8
_0-0_1
  6
CONTINUOUS
 62
    4
 10
2103.0715
 20
1160.4947999999999
 40
1
 50
283.04496999999998
 51
359.5
  0
LINE
  8
_0-0_1
  6
CONTINUOUS
 62
    4
 10
2062.9263000000001
 20
1148.3047999999999
 11
2065.3544000000002
 21
1148.7086999999999
  0
LINE
  8
_0-0_1
  6
CONTINUOUS
 62
    4
 10
2058.7372
 20
1147.6086
 11
2062.9263000000001
 21
1148.3047999999999
  0
LINE
  8
_0-0_1
  6
CONTINUOUS
 62
    4
 10
2054.5434
 20
1146.913
 11
2058.7372
 21
1147.6086
  0
LINE
  8
_0-0_1
  6
CONTINUOUS
 62
    4
 10
2050.3447000000001
 20
1146.2190000000001
 11
2054.5434
 21
1146.913
  0
LINE
  8
_0-0_1
  6
CONTINUOUS
 62
    4
 10
2046.1406000000002
 20
1145.5274999999999
 11
2050.3447000000001
 21
1146.2190000000001
  0
LINE
  8
_0-0_1
  6
CONTINUOUS
 62
    4
 10
2041.9337999999998
 20
1144.8398999999999
 11
2046.1406000000002
 21
1145.5274999999999
  0
LINE
  8
_0-0_1
  6
CONTINUOUS
 62
    4
 10
2039.4814999999999
 20
1144.4413999999999
 11
2041.9337999999998
 21
1144.8398999999999
  0
LINE
  8
_0-0_1
  6
CONTINUOUS
 62
    4
 10
2034.7487000000001
 20
1143.6789000000001
 11
2039.4814999999999
 21
1144.4413999999999
  0
LINE
  8
_0-0_1
  6
CONTINUOUS
 62
    4
 10
2026.5443
 20
1142.3951
 11
2034.7487000000001
 21
1143.6789000000001
  0
LINE
  8
_0-0_1
  6
CONTINUOUS
 62
    4
 10
2018.2368000000001
 20
1141.1751999999999
 11
2026.5443
 21
1142.3951
  0
LINE
  8
_0-0_1
  6
CONTINUOUS
 62
    4
 10
2009.8285000000001
 20
1140.0588
 11
2018.2368000000001
 21
1141.1751999999999
  0
LINE
  8
_0-0_1
  6
CONTINUOUS
 62
    4
 10
2001.3159999999998
 20
1139.0854999999999
 11
2009.8285000000001
 21
1140.0588
  0
LINE
  8
_0-0_1
  6
CONTINUOUS
 62
    4
 10
1992.7568000000001
 20
1138.3015
 11
2001.3159999999998
 21
1139.0854999999999
  0
LINE
  8
_0-0_1
  6
CONTINUOUS
 62
    4
 10
1987.6952999999999
 20
1137.9435000000001
 11
1992.7568000000001
 21
1138.3015
  0
LINE
  8
_0-0_1
  6
CONTINUOUS
 62
    4
 10
1984.8926999999999
 20
1137.7819
 11
1987.6952999999999
 21
1137.9435000000001
  0
LINE
  8
_0-0_1
  6
CONTINUOUS
 62
    4
 10
1980.1716999999999
 20
1137.5779
 11
1984.8926999999999
 21
1137.7819
  0
LINE
  8
_0-0_1
  6
CONTINUOUS
 62
    4
 10
1975.3425000000002
 20
1137.4725000000001
 11
1980.1716999999999
 21
1137.5779
  0
LINE
  8
_0-0_1
  6
CONTINUOUS
 62
    4
 10
1970.4407999999999
 20
1137.4878000000001
 11
1975.3425000000002
 21
1137.4725000000001
  0
LINE
  8
_0-0_1
  6
CONTINUOUS
 62
    4
 10
1965.4697999999999
 20
1137.6457
 11
1970.4407999999999
 21
1137.4878000000001
  0
LINE
  8
_0-0_1
  6
CONTINUOUS
 62
    4
 10
1960.5124000000001
 20
1137.9635000000001
 11
1965.4697999999999
 21
1137.6457
  0
LINE
  8
_0-0_1
  6
CONTINUOUS
 62
    4
 10
1957.4607999999998
 20
1138.2448999999999
 11
1960.5124000000001
 21
1137.9635000000001
  0
LINE
  8
_0-0_1
  6
CONTINUOUS
 62
    4
 10
1953.5319
 20
1138.7071000000001
 11
1957.4607999999998
 21
1138.2448999999999
  0
LINE
  8
_0-0_1
  6
CONTINUOUS
 62
    4
 10
1947.018
 20
1139.7297000000001
 11
1953.5319
 21
1138.7071000000001
  0
LINE
  8
_0-0_1
  6
CONTINUOUS
 62
    4
 10
1940.4713000000002
 20
1141.0817999999999
 11
1947.018
 21
1139.7297000000001
  0
LINE
  8
_0-0_1
  6
CONTINUOUS
 62
    4
 10
1934.0084000000002
 20
1142.7376999999999
 11
1940.4713000000002
 21
1141.0817999999999
  0
LINE
  8
_0-0_1
  6
CONTINUOUS
 62
    4
 10
1927.6424999999999
 20
1144.6884
 11
1934.0084000000002
 21
1142.7376999999999
  0
LINE
  8
_0-0_1
  6
CONTINUOUS
 62
    4
 10
1921.4776999999999
 20
1146.8933
 11
1927.6424999999999
 21
1144.6884
  0
LINE
  8
_0-0_1
  6
CONTINUOUS
 62
    4
 10
1917.7910000000002
 20
1148.3651
 11
1921.4776999999999
 21
1146.8933
  0
LINE
  8
_0-0_1
  6
CONTINUOUS
 62
    4
 10
1913.4268000000002
 20
1150.2575999999999
 11
1917.7910000000002
 21
1148.3651
  0
LINE
  8
_0-0_1
  6
CONTINUOUS
 62
    4
 10
1906.3577
 20
1153.6726000000001
 11
1913.4268000000002
 21
1150.2575999999999
  0
LINE
  8
_0-0_1
  6
CONTINUOUS
 62
    4
 10
1899.4648000000002
 20
1157.4022
 11
1906.3577
 21
1153.6726000000001
  0
LINE
  8
_0-0_1
  6
CONTINUOUS
 62
    4
 10
1892.8278
 20
1161.3359
 11
1899.4648000000002
 21
1157.4022
  0
LINE
  8
_0-0_1
  6
CONTINUOUS
 62
    4
 10
1886.4185000000002
 20
1165.4183
 11
1892.8278
 21
1161.3359
  0
LINE
  8
_0-0_1
  6
CONTINUOUS
 62
    4
 10
1880.2343000000001
 20
1169.5805
 11
1886.4185000000002
 21
1165.4183
  0
LINE
  8
_0-0_1
  6
CONTINUOUS
 62
    4
 10
1876.692
 20
1172.0442
 11
1880.2343000000001
 21
1169.5805
  0
LINE
  8
_0-0_1
  6
CONTINUOUS
 62
    4
 10
1874.4598999999998
 20
1173.6177
 11
1876.692
 21
1172.0442
  0
LINE
  8
_0-0_1
  6
CONTINUOUS
 62
    4
 10
1870.8364000000001
 20
1176.1568
 11
1874.4598999999998
 21
1173.6177
  0
LINE
  8
_0-0_1
  6
CONTINUOUS
 62
    4
 10
1867.4666999999999
 20
1178.4223
 11
1870.8364000000001
 21
1176.1568
  0
LINE
  8
_0-0_1
  6
CONTINUOUS
 62
    4
 10
1864.3517000000002
 20
1180.3494000000001
 11
1867.4666999999999
 21
1178.4223
  0
LINE
  8
_0-0_1
  6
CONTINUOUS
 62
    4
 10
1861.4845
 20
1181.9051999999999
 11
1864.3517000000002
 21
1180.3494000000001
  0
LINE
  8
_0-0_1
  6
CONTINUOUS
 62
    4
 10
1858.6534000000001
 20
1183.1736000000001
 11
1861.4845
 21
1181.9051999999999
  0
LINE
  8
_0-0_1
  6
CONTINUOUS
 62
    4
 10
1857.1902
 20
1183.7057
 11
1858.6534000000001
 21
1183.1736000000001
  0
LINE
  8
_0-0_1
  6
CONTINUOUS
 62
    4
 10
1857.0091000000002
 20
1183.7637
 11
1857.1902
 21
1183.7057
  0
LINE
  8
_0-0_1
  6
CONTINUOUS
 62
    4
 10
1856.2208000000001
 20
1183.9916000000001
 11
1857.0091000000002
 21
1183.7637
  0
LINE
  8
_0-0_1
  6
CONTINUOUS
 62
    4
 10
1855.5637000000002
 20
1184.1542999999999
 11
1856.2208000000001
 21
1183.9916000000001
  0
LINE
  8
_0-0_1
  6
CONTINUOUS
 62
    4
 10
1854.9819000000002
 20
1184.2723000000001
 11
1855.5637000000002
 21
1184.1542999999999
  0
LINE
  8
_0-0_1
  6
CONTINUOUS
 62
    4
 10
1854.9418000000001
 20
1184.2784999999999
 11
1854.9819000000002
 21
1184.2723000000001
  0
LINE
  8
_0-0_1
  6
CONTINUOUS
 62
    4
 10
2058.9157
 20
1129.1172999999999
 11
2060.5297999999998
 21
1129.3858
  0
LINE
  8
_0-0_1
  6
CONTINUOUS
 62
    4
 10
2054.7271000000001
 20
1128.4212
 11
2058.9157
 21
1129.1172999999999
  0
LINE
  8
_0-0_1
  6
CONTINUOUS
 62
    4
 10
2050.5342000000001
 20
1127.7257
 11
2054.7271000000001
 21
1128.4212
  0
LINE
  8
_0-0_1
  6
CONTINUOUS
 62
    4
 10
2046.3366999999998
 20
1127.0319999999999
 11
2050.5342000000001
 21
1127.7257
  0
LINE
  8
_0-0_1
  6
CONTINUOUS
 62
    4
 10
2042.1343999999999
 20
1126.3407999999999
 11
2046.3366999999998
 21
1127.0319999999999
  0
LINE
  8
_0-0_1
  6
CONTINUOUS
 62
    4
 10
2037.9295000000002
 20
1125.6534999999999
 11
2042.1343999999999
 21
1126.3407999999999
  0
LINE
  8
_0-0_1
  6
CONTINUOUS
 62
    4
 10
2035.4794999999999
 20
1125.2553
 11
2037.9295000000002
 21
1125.6534999999999
  0
LINE
  8
_0-0_1
  6
CONTINUOUS
 62
    4
 10
2030.7525000000001
 20
1124.4938
 11
2035.4794999999999
 21
1125.2553
  0
LINE
  8
_0-0_1
  6
CONTINUOUS
 62
    4
 10
2022.5617999999999
 20
1123.2121
 11
2030.7525000000001
 21
1124.4938
  0
LINE
  8
_0-0_1
  6
CONTINUOUS
 62
    4
 10
2014.2773000000002
 20
1121.9956
 11
2022.5617999999999
 21
1123.2121
  0
LINE
  8
_0-0_1
  6
CONTINUOUS
 62
    4
 10
2005.9007000000001
 20
1120.8833999999999
 11
2014.2773000000002
 21
1121.9956
  0
LINE
  8
_0-0_1
  6
CONTINUOUS
 62
    4
 10
1997.4285
 20
1119.9147
 11
2005.9007000000001
 21
1120.8833999999999
  0
LINE
  8
_0-0_1
  6
CONTINUOUS
 62
    4
 10
1988.9124000000002
 20
1119.1346000000001
 11
1997.4285
 21
1119.9147
  0
LINE
  8
_0-0_1
  6
CONTINUOUS
 62
    4
 10
1983.8845999999999
 20
1118.779
 11
1988.9124000000002
 21
1119.1346000000001
  0
LINE
  8
_0-0_1
  6
CONTINUOUS
 62
    4
 10
1981.1093999999998
 20
1118.6189999999999
 11
1983.8845999999999
 21
1118.779
  0
LINE
  8
_0-0_1
  6
CONTINUOUS
 62
    4
 10
1976.4241000000002
 20
1118.4166
 11
1981.1093999999998
 21
1118.6189999999999
  0
LINE
  8
_0-0_1
  6
CONTINUOUS
 62
    4
 10
1971.6412
 20
1118.3121000000001
 11
1976.4241000000002
 21
1118.4166
  0
LINE
  8
_0-0_1
  6
CONTINUOUS
 62
    4
 10
1966.7930999999999
 20
1118.3272999999999
 11
1971.6412
 21
1118.3121000000001
  0
LINE
  8
_0-0_1
  6
CONTINUOUS
 62
    4
 10
1961.8829000000001
 20
1118.4833000000001
 11
1966.7930999999999
 21
1118.3272999999999
  0
LINE
  8
_0-0_1
  6
CONTINUOUS
 62
    4
 10
1956.9856
 20
1118.7972
 11
1961.8829000000001
 21
1118.4833000000001
  0
LINE
  8
_0-0_1
  6
CONTINUOUS
 62
    4
 10
1953.9868999999999
 20
1119.0736999999999
 11
1956.9856
 21
1118.7972
  0
LINE
  8
_0-0_1
  6
CONTINUOUS
 62
    4
 10
1950.1212999999998
 20
1119.5284999999999
 11
1953.9868999999999
 21
1119.0736999999999
  0
LINE
  8
_0-0_1
  6
CONTINUOUS
 62
    4
 10
1943.6929
 20
1120.5376000000001
 11
1950.1212999999998
 21
1119.5284999999999
  0
LINE
  8
_0-0_1
  6
CONTINUOUS
 62
    4
 10
1937.2395000000001
 20
1121.8705
 11
1943.6929
 21
1120.5376000000001
  0
LINE
  8
_0-0_1
  6
CONTINUOUS
 62
    4
 10
1930.8672999999999
 20
1123.5032000000001
 11
1937.2395000000001
 21
1121.8705
  0
LINE
  8
_0-0_1
  6
CONTINUOUS
 62
    4
 10
1924.5900000000001
 20
1125.4267
 11
1930.8672999999999
 21
1123.5032000000001
  0
LINE
  8
_0-0_1
  6
CONTINUOUS
 62
    4
 10
1918.5029
 20
1127.6039000000001
 11
1924.5900000000001
 21
1125.4267
  0
LINE
  8
_0-0_1
  6
CONTINUOUS
 62
    4
 10
1914.8771999999999
 20
1129.0513000000001
 11
1918.5029
 21
1127.6039000000001
  0
LINE
  8
_0-0_1
  6
CONTINUOUS
 62
    4
 10
1910.5774000000001
 20
1130.9159
 11
1914.8771999999999
 21
1129.0513000000001
  0
LINE
  8
_0-0_1
  6
CONTINUOUS
 62
    4
 10
1903.5864999999999
 20
1134.2931000000001
 11
1910.5774000000001
 21
1130.9159
  0
LINE
  8
_0-0_1
  6
CONTINUOUS
 62
    4
 10
1896.7683999999999
 20
1137.9822999999999
 11
1903.5864999999999
 21
1134.2931000000001
  0
LINE
  8
_0-0_1
  6
CONTINUOUS
 62
    4
 10
1890.1925999999999
 20
1141.8796
 11
1896.7683999999999
 21
1137.9822999999999
  0
LINE
  8
_0-0_1
  6
CONTINUOUS
 62
    4
 10
1883.8317000000002
 20
1145.9313
 11
1890.1925999999999
 21
1141.8796
  0
LINE
  8
_0-0_1
  6
CONTINUOUS
 62
    4
 10
1877.6810999999998
 20
1150.0707
 11
1883.8317000000002
 21
1145.9313
  0
LINE
  8
_0-0_1
  6
CONTINUOUS
 62
    4
 10
1874.1565000000001
 20
1152.5220999999999
 11
1877.6810999999998
 21
1150.0707
  0
LINE
  8
_0-0_1
  6
CONTINUOUS
 62
    4
 10
1871.9274
 20
1154.0934999999999
 11
1874.1565000000001
 21
1152.5220999999999
  0
LINE
  8
_0-0_1
  6
CONTINUOUS
 62
    4
 10
1868.2856999999999
 20
1156.6454000000001
 11
1871.9274
 21
1154.0934999999999
  0
LINE
  8
_0-0_1
  6
CONTINUOUS
 62
    4
 10
1864.8685999999998
 20
1158.9429
 11
1868.2856999999999
 21
1156.6454000000001
  0
LINE
  8
_0-0_1
  6
CONTINUOUS
 62
    4
 10
1861.6729999999998
 20
1160.9197999999999
 11
1864.8685999999998
 21
1158.9429
  0
LINE
  8
_0-0_1
  6
CONTINUOUS
 62
    4
 10
1858.6889999999999
 20
1162.5389
 11
1861.6729999999998
 21
1160.9197999999999
  0
LINE
  8
_0-0_1
  6
CONTINUOUS
 62
    4
 10
1855.7224999999999
 20
1163.8679999999999
 11
1858.6889999999999
 21
1162.5389
  0
LINE
  8
_0-0_1
  6
CONTINUOUS
 62
    4
 10
1854.9724999999999
 20
1164.1407999999999
 11
1855.7224999999999
 21
1163.8679999999999
  0
LINE
  8
_0-0_1
  6
CONTINUOUS
 62
    4
 10
1855.3056000000001
 20
1184.1839
 11
1855.1295
 21
1164.0103999999999
  0
LINE
  8
_0-0_1
  6
CONTINUOUS
 62
    4
 10
2103.1196
 20
1139.1723
 11
2060.2993999999999
 21
1129.2511
  0
ARC
  8
_0-0_1
  6
CONTINUOUS
 62
    4
 10
2102.8939
 20
1140.1465000000001
 40
1
 50
283.04496999999998
 51
359.5
  0
LINE
  8
_0-0_1
  6
CONTINUOUS
 62
    4
 10
2055.8085999999998
 20
1118.9375
 11
2053.5630999999998
 21
1127.511
  0
ARC
  8
_0-0_1
  6
CONTINUOUS
 62
    4
 10
2058.7107000000001
 20
1119.6976
 40
3
 50
194.67639000000003
 51
270.00000000000006
  0
LINE
  8
_0-0_1
  6
CONTINUOUS
 62
    4
 10
2062.1284999999998
 20
1116.6976
 11
2058.7107000000001
 21
1116.6976
  0
LINE
  8
_0-0_1
  6
CONTINUOUS
 62
    4
 10
2065.0877
 20
1119.2044000000001
 11
2067.0216999999998
 21
1130.8086000000001
  0
ARC
  8
_0-0_1
  6
CONTINUOUS
 62
    4
 10
2062.1284999999998
 20
1119.6976
 40
3
 50
270
 51
350.53766999999999
  0
LINE
  8
_0-0_1
  6
CONTINUOUS
 62
    4
 10
1809.2215999999999
 20
1187.8459
 11
1809.2215999999999
 21
1171.3134
  0
LINE
  8
_0-0_1
  6
CONTINUOUS
 62
    4
 10
1810.4805000000001
 20
1189.7035000000001
 11
1811.6055000000001
 21
1190.1523
  0
ARC
  8
_0-0_1
  6
CONTINUOUS
 62
    4
 10
1811.2215999999999
 20
1187.8459
 40
2
 50
111.74902000000002
 51
180
  0
LINE
  8
_0-0_1
  6
CONTINUOUS
 62
    4
 10
2103.2972
 20
1159.5206000000001
 11
2064.2215999999999
 21
1150.4670000000001
  0
LINE
  8
_0-0_1
  6
CONTINUOUS
 62
    4
 10
2064.2215999999999
 20
1168.9438
 11
2064.2215999999999
 21
1150.4670000000001
  0
LINE
  8
_0-0_1
  6
CONTINUOUS
 62
    4
 10
2062.1972000000001
 20
1168.4748
 11
2095.4463999999998
 21
1176.1784
  0
LINE
  8
_0-0_1
  6
CONTINUOUS
 62
    4
 10
2104.1579999999999
 20
1179.5526
 11
2104.1579999999999
 21
1160.4724000000001
  0
LINE
  8
_0-0_1
  6
CONTINUOUS
 62
    4
 10
2104.2653
 20
1158.4855
 11
2104.2653
 21
1140.3144
  0
LINE
  8
_0-0_1
  6
CONTINUOUS
 62
    4
 10
1092.6590000000001
 20
1186.8471999999999
 11
1096.9684
 21
1184.9713999999999
  0
LINE
  8
_0-0_1
  6
CONTINUOUS
 62
    4
 10
1096.9684
 20
1184.9713999999999
 11
1104.3496
 21
1181.7879
  0
LINE
  8
_0-0_1
  6
CONTINUOUS
 62
    4
 10
1104.3496
 20
1181.7879
 11
1111.6550999999999
 21
1178.7174
  0
LINE
  8
_0-0_1
  6
CONTINUOUS
 62
    4
 10
1111.6550999999999
 20
1178.7174
 11
1118.8982000000001
 21
1175.8021000000001
  0
LINE
  8
_0-0_1
  6
CONTINUOUS
 62
    4
 10
1118.8982000000001
 20
1175.8021000000001
 11
1126.0911000000001
 21
1173.0827999999999
  0
LINE
  8
_0-0_1
  6
CONTINUOUS
 62
    4
 10
1126.0911000000001
 20
1173.0827999999999
 11
1133.3106
 21
1170.5753999999999
  0
LINE
  8
_0-0_1
  6
CONTINUOUS
 62
    4
 10
1133.3106
 20
1170.5753999999999
 11
1137.4239
 21
1169.2635
  0
LINE
  8
_0-0_1
  6
CONTINUOUS
 62
    4
 10
1137.4239
 20
1169.2635
 11
1140.3281999999999
 21
1168.3936000000001
  0
LINE
  8
_0-0_1
  6
CONTINUOUS
 62
    4
 10
1140.3281999999999
 20
1168.3936000000001
 11
1145.5618999999999
 21
1166.934
  0
LINE
  8
_0-0_1
  6
CONTINUOUS
 62
    4
 10
1145.5618999999999
 20
1166.934
 11
1150.8322000000001
 21
1165.5869
  0
LINE
  8
_0-0_1
  6
CONTINUOUS
 62
    4
 10
1150.8322000000001
 20
1165.5869
 11
1156.1813999999999
 21
1164.327
  0
LINE
  8
_0-0_1
  6
CONTINUOUS
 62
    4
 10
1156.1813999999999
 20
1164.327
 11
1161.6043
 21
1163.1416999999999
  0
LINE
  8
_0-0_1
  6
CONTINUOUS
 62
    4
 10
1161.6043
 20
1163.1416999999999
 11
1167.1122
 21
1162.0147999999999
  0
LINE
  8
_0-0_1
  6
CONTINUOUS
 62
    4
 10
1167.1122
 20
1162.0147999999999
 11
1170.3053
 21
1161.3904
  0
LINE
  8
_0-0_1
  6
CONTINUOUS
 62
    4
 10
1170.3053
 20
1161.3904
 11
1172.7679000000001
 21
1160.9217000000001
  0
LINE
  8
_0-0_1
  6
CONTINUOUS
 62
    4
 10
1172.7679000000001
 20
1160.9217000000001
 11
1177.0259000000001
 21
1160.1461999999999
  0
LINE
  8
_0-0_1
  6
CONTINUOUS
 62
    4
 10
1177.0259000000001
 20
1160.1461999999999
 11
1181.2025000000001
 21
1159.4445000000001
  0
LINE
  8
_0-0_1
  6
CONTINUOUS
 62
    4
 10
1181.2025000000001
 20
1159.4445000000001
 11
1185.3105
 21
1158.8297
  0
LINE
  8
_0-0_1
  6
CONTINUOUS
 62
    4
 10
1185.3105
 20
1158.8297
 11
1189.3496
 21
1158.3167000000001
  0
LINE
  8
_0-0_1
  6
CONTINUOUS
 62
    4
 10
1189.3496
 20
1158.3167000000001
 11
1193.3819000000001
 21
1157.9127000000001
  0
LINE
  8
_0-0_1
  6
CONTINUOUS
 62
    4
 10
1193.3819000000001
 20
1157.9127000000001
 11
1195.604
 21
1157.7435
  0
LINE
  8
_0-0_1
  6
CONTINUOUS
 62
    4
 10
1195.604
 20
1157.7435
 11
1197.8179
 21
1157.6167
  0
LINE
  8
_0-0_1
  6
CONTINUOUS
 62
    4
 10
1197.8179
 20
1157.6167
 11
1201.8504
 21
1157.4816000000001
  0
LINE
  8
_0-0_1
  6
CONTINUOUS
 62
    4
 10
1201.8504
 20
1157.4816000000001
 11
1205.9052999999999
 21
1157.4521999999999
  0
LINE
  8
_0-0_1
  6
CONTINUOUS
 62
    4
 10
1205.9052999999999
 20
1157.4521999999999
 11
1210.0427
 21
1157.5128999999999
  0
LINE
  8
_0-0_1
  6
CONTINUOUS
 62
    4
 10
1210.0427
 20
1157.5128999999999
 11
1214.26
 21
1157.6489999999999
  0
LINE
  8
_0-0_1
  6
CONTINUOUS
 62
    4
 10
1214.26
 20
1157.6489999999999
 11
1218.5671
 21
1157.8454999999999
  0
LINE
  8
_0-0_1
  6
CONTINUOUS
 62
    4
 10
1218.5671
 20
1157.8454999999999
 11
1221.0654999999999
 21
1157.9784999999999
  0
LINE
  8
_0-0_1
  6
CONTINUOUS
 62
    4
 10
1221.0654999999999
 20
1157.9784999999999
 11
1223.9259999999999
 21
1158.1433999999999
  0
LINE
  8
_0-0_1
  6
CONTINUOUS
 62
    4
 10
1223.9259999999999
 20
1158.1433999999999
 11
1228.8765000000001
 21
1158.4627
  0
LINE
  8
_0-0_1
  6
CONTINUOUS
 62
    4
 10
1228.8765000000001
 20
1158.4627
 11
1233.7778000000001
 21
1158.8277
  0
LINE
  8
_0-0_1
  6
CONTINUOUS
 62
    4
 10
1233.7778000000001
 20
1158.8277
 11
1238.6425999999999
 21
1159.2465
  0
LINE
  8
_0-0_1
  6
CONTINUOUS
 62
    4
 10
1238.6425999999999
 20
1159.2465
 11
1243.4693
 21
1159.7257999999999
  0
LINE
  8
_0-0_1
  6
CONTINUOUS
 62
    4
 10
1243.4693
 20
1159.7257999999999
 11
1248.2885000000001
 21
1160.2760000000001
  0
LINE
  8
_0-0_1
  6
CONTINUOUS
 62
    4
 10
1248.2885000000001
 20
1160.2760000000001
 11
1250.9414999999999
 21
1160.6130000000001
  0
LINE
  8
_0-0_1
  6
CONTINUOUS
 62
    4
 10
1250.9414999999999
 20
1160.6130000000001
 11
1258.691
 21
1161.7431999999999
  0
LINE
  8
_0-0_1
  6
CONTINUOUS
 62
    4
 10
1258.691
 20
1161.7431999999999
 11
1272.1594
 21
1164.1741999999999
  0
LINE
  8
_0-0_1
  6
CONTINUOUS
 62
    4
 10
1272.1594
 20
1164.1741999999999
 11
1285.5998999999999
 21
1167.1021000000001
  0
LINE
  8
_0-0_1
  6
CONTINUOUS
 62
    4
 10
1285.5998999999999
 20
1167.1021000000001
 11
1299.1174000000001
 21
1170.4457
  0
LINE
  8
_0-0_1
  6
CONTINUOUS
 62
    4
 10
1299.1174000000001
 20
1170.4457
 11
1312.7270000000001
 21
1174.1036999999999
  0
LINE
  8
_0-0_1
  6
CONTINUOUS
 62
    4
 10
1312.7270000000001
 20
1174.1036999999999
 11
1326.4449
 21
1177.9719
  0
LINE
  8
_0-0_1
  6
CONTINUOUS
 62
    4
 10
1326.4449
 20
1177.9719
 11
1332.2059999999999
 21
1179.6239
  0
LINE
  8
_0-0_1
  6
CONTINUOUS
 62
    4
 10
1332.2275999999999
 20
1182.1333999999999
 11
1332.1457
 21
1179.7896000000001
  0
ARC
  8
_0-0_1
  6
CONTINUOUS
 62
    4
 10
1333.2269999999999
 20
1182.0985000000001
 40
1
 50
106.29949000000002
 51
178.00000000000003
  0
LINE
  8
_0-0_1
  6
CONTINUOUS
 62
    4
 10
1338.9010000000003
 20
1184.7996000000001
 11
1332.9463000000001
 21
1183.0583999999999
  0
ARC
  8
_0-0_1
  6
CONTINUOUS
 62
    4
 10
1339.1817000000001
 20
1183.8398
 40
1
 50
358
 51
106.29949000000001
  0
LINE
  8
_0-0_1
  6
CONTINUOUS
 62
    4
 10
1092.6285
 20
1186.8791000000001
 11
1085.2805000000001
 21
1190.3037999999999
  0
LINE
  8
_0-0_1
  6
CONTINUOUS
 62
    4
 10
1331.4878000000001
 20
1159.8373999999999
 11
1331.4483
 21
1158.7061000000001
  0
ARC
  8
_0-0_1
  6
CONTINUOUS
 62
    4
 10
1332.4872
 20
1159.8025
 40
1
 50
106.35783000000001
 51
178.00000000000003
  0
LINE
  8
_0-0_1
  6
CONTINUOUS
 62
    4
 10
1331.4630999999999
 20
1158.607
 11
1318.0369000000001
 21
1154.8210999999999
  0
LINE
  8
_0-0_1
  6
CONTINUOUS
 62
    4
 10
1318.0369000000001
 20
1154.8210999999999
 11
1304.1148000000001
 21
1151.079
  0
LINE
  8
_0-0_1
  6
CONTINUOUS
 62
    4
 10
1304.1148000000001
 20
1151.079
 11
1290.1304
 21
1147.6199999999999
  0
LINE
  8
_0-0_1
  6
CONTINUOUS
 62
    4
 10
1290.1304
 20
1147.6199999999999
 11
1276.0654999999999
 21
1144.556
  0
LINE
  8
_0-0_1
  6
CONTINUOUS
 62
    4
 10
1276.0654999999999
 20
1144.556
 11
1261.9114
 21
1142.0012999999999
  0
LINE
  8
_0-0_1
  6
CONTINUOUS
 62
    4
 10
1261.9114
 20
1142.0012999999999
 11
1253.6449
 21
1140.7956999999999
  0
LINE
  8
_0-0_1
  6
CONTINUOUS
 62
    4
 10
1253.6449
 20
1140.7956999999999
 11
1250.6829
 21
1140.4194
  0
LINE
  8
_0-0_1
  6
CONTINUOUS
 62
    4
 10
1250.6829
 20
1140.4194
 11
1245.5917999999999
 21
1139.8381999999999
  0
LINE
  8
_0-0_1
  6
CONTINUOUS
 62
    4
 10
1245.5917999999999
 20
1139.8381999999999
 11
1240.4885999999999
 21
1139.3315
  0
LINE
  8
_0-0_1
  6
CONTINUOUS
 62
    4
 10
1240.4885999999999
 20
1139.3315
 11
1235.3784000000001
 21
1138.8915999999999
  0
LINE
  8
_0-0_1
  6
CONTINUOUS
 62
    4
 10
1235.3784000000001
 20
1138.8915999999999
 11
1230.2628999999999
 21
1138.5105000000001
  0
LINE
  8
_0-0_1
  6
CONTINUOUS
 62
    4
 10
1230.2628999999999
 20
1138.5105000000001
 11
1225.1451999999999
 21
1138.1804999999999
  0
LINE
  8
_0-0_1
  6
CONTINUOUS
 62
    4
 10
1225.1451999999999
 20
1138.1804999999999
 11
1222.1728000000001
 21
1138.0091
  0
LINE
  8
_0-0_1
  6
CONTINUOUS
 62
    4
 10
1222.1728000000001
 20
1138.0091
 11
1219.5544
 21
1137.8697
  0
LINE
  8
_0-0_1
  6
CONTINUOUS
 62
    4
 10
1219.5544
 20
1137.8697
 11
1215.0382
 21
1137.6637000000001
  0
LINE
  8
_0-0_1
  6
CONTINUOUS
 62
    4
 10
1215.0382
 20
1137.6637000000001
 11
1210.5119999999999
 21
1137.5175999999999
  0
LINE
  8
_0-0_1
  6
CONTINUOUS
 62
    4
 10
1210.5119999999999
 20
1137.5175999999999
 11
1205.9794999999999
 21
1137.4511
  0
LINE
  8
_0-0_1
  6
CONTINUOUS
 62
    4
 10
1205.9794999999999
 20
1137.4511
 11
1201.4428
 21
1137.4839999999999
  0
LINE
  8
_0-0_1
  6
CONTINUOUS
 62
    4
 10
1201.4428
 20
1137.4839999999999
 11
1196.9110000000001
 21
1137.6359
  0
LINE
  8
_0-0_1
  6
CONTINUOUS
 62
    4
 10
1196.9110000000001
 20
1137.6359
 11
1194.2729999999999
 21
1137.787
  0
LINE
  8
_0-0_1
  6
CONTINUOUS
 62
    4
 10
1194.2729999999999
 20
1137.787
 11
1191.6257000000001
 21
1137.9884999999999
  0
LINE
  8
_0-0_1
  6
CONTINUOUS
 62
    4
 10
1191.6257000000001
 20
1137.9884999999999
 11
1187.0923
 21
1138.4427000000001
  0
LINE
  8
_0-0_1
  6
CONTINUOUS
 62
    4
 10
1187.0923
 20
1138.4427000000001
 11
1182.5700999999999
 21
1139.0171
  0
LINE
  8
_0-0_1
  6
CONTINUOUS
 62
    4
 10
1182.5700999999999
 20
1139.0171
 11
1178.0652
 21
1139.6912
  0
LINE
  8
_0-0_1
  6
CONTINUOUS
 62
    4
 10
1178.0652
 20
1139.6912
 11
1173.5771
 21
1140.4453000000001
  0
LINE
  8
_0-0_1
  6
CONTINUOUS
 62
    4
 10
1173.5771
 20
1140.4453000000001
 11
1169.1065000000001
 21
1141.2594999999999
  0
LINE
  8
_0-0_1
  6
CONTINUOUS
 62
    4
 10
1169.1065000000001
 20
1141.2594999999999
 11
1166.5164
 21
1141.7525000000001
  0
LINE
  8
_0-0_1
  6
CONTINUOUS
 62
    4
 10
1166.5164
 20
1141.7525000000001
 11
1163.1885
 21
1142.4032999999999
  0
LINE
  8
_0-0_1
  6
CONTINUOUS
 62
    4
 10
1163.1885
 20
1142.4032999999999
 11
1157.4643000000001
 21
1143.5744
  0
LINE
  8
_0-0_1
  6
CONTINUOUS
 62
    4
 10
1157.4643000000001
 20
1143.5744
 11
1151.7532000000001
 21
1144.8226999999999
  0
LINE
  8
_0-0_1
  6
CONTINUOUS
 62
    4
 10
1151.7532000000001
 20
1144.8226999999999
 11
1146.0626999999999
 21
1146.163
  0
LINE
  8
_0-0_1
  6
CONTINUOUS
 62
    4
 10
1146.0626999999999
 20
1146.163
 11
1140.3987
 21
1147.6107999999999
  0
LINE
  8
_0-0_1
  6
CONTINUOUS
 62
    4
 10
1140.3987
 20
1147.6107999999999
 11
1134.7719999999999
 21
1149.1799000000001
  0
LINE
  8
_0-0_1
  6
CONTINUOUS
 62
    4
 10
1134.7719999999999
 20
1149.1799000000001
 11
1131.5155
 21
1150.1552999999999
  0
LINE
  8
_0-0_1
  6
CONTINUOUS
 62
    4
 10
1131.5155
 20
1150.1552999999999
 11
1126.9902
 21
1151.5986
  0
LINE
  8
_0-0_1
  6
CONTINUOUS
 62
    4
 10
1126.9902
 20
1151.5986
 11
1119.2727
 21
1154.2789
  0
LINE
  8
_0-0_1
  6
CONTINUOUS
 62
    4
 10
1119.2727
 20
1154.2789
 11
1111.6273000000001
 21
1157.1694
  0
LINE
  8
_0-0_1
  6
CONTINUOUS
 62
    4
 10
1111.6273000000001
 20
1157.1694
 11
1104.0462
 21
1160.2207000000001
  0
LINE
  8
_0-0_1
  6
CONTINUOUS
 62
    4
 10
1104.0462
 20
1160.2207000000001
 11
1103.6675
 21
1160.3797999999999
  0
LINE
  8
_0-0_1
  6
CONTINUOUS
 62
    4
 10
1337.4503
 20
1141.5962999999999
 11
1336.8386
 21
1141.4209000000001
  0
LINE
  8
_0-0_1
  6
CONTINUOUS
 62
    4
 10
1336.8386
 20
1141.4209000000001
 11
1322.8159000000001
 21
1137.4666999999999
  0
LINE
  8
_0-0_1
  6
CONTINUOUS
 62
    4
 10
1322.8159000000001
 20
1137.4666999999999
 11
1308.6124
 21
1133.6489999999999
  0
LINE
  8
_0-0_1
  6
CONTINUOUS
 62
    4
 10
1308.6124
 20
1133.6489999999999
 11
1294.2079000000001
 21
1130.0861
  0
LINE
  8
_0-0_1
  6
CONTINUOUS
 62
    4
 10
1294.2079000000001
 20
1130.0861
 11
1279.5808999999999
 21
1126.8996999999999
  0
LINE
  8
_0-0_1
  6
CONTINUOUS
 62
    4
 10
1279.5808999999999
 20
1126.8996999999999
 11
1264.8097
 21
1124.2335
  0
LINE
  8
_0-0_1
  6
CONTINUOUS
 62
    4
 10
1264.8097
 20
1124.2335
 11
1256.0780999999999
 21
1122.9601
  0
LINE
  8
_0-0_1
  6
CONTINUOUS
 62
    4
 10
1256.0780999999999
 20
1122.9601
 11
1252.8378
 21
1122.5485000000001
  0
LINE
  8
_0-0_1
  6
CONTINUOUS
 62
    4
 10
1252.8378
 20
1122.5485000000001
 11
1247.502
 21
1121.9394
  0
LINE
  8
_0-0_1
  6
CONTINUOUS
 62
    4
 10
1247.502
 20
1121.9394
 11
1242.1498999999999
 21
1121.4078999999999
  0
LINE
  8
_0-0_1
  6
CONTINUOUS
 62
    4
 10
1242.1498999999999
 20
1121.4078999999999
 11
1236.8189
 21
1120.9490000000001
  0
LINE
  8
_0-0_1
  6
CONTINUOUS
 62
    4
 10
1236.8189
 20
1120.9490000000001
 11
1231.5106000000001
 21
1120.5536
  0
LINE
  8
_0-0_1
  6
CONTINUOUS
 62
    4
 10
1231.5106000000001
 20
1120.5536
 11
1226.2424000000001
 21
1120.2139
  0
LINE
  8
_0-0_1
  6
CONTINUOUS
 62
    4
 10
1226.2424000000001
 20
1120.2139
 11
1223.1694
 21
1120.0367000000001
  0
LINE
  8
_0-0_1
  6
CONTINUOUS
 62
    4
 10
1223.1694
 20
1120.0367000000001
 11
1220.4429
 21
1119.8915
  0
LINE
  8
_0-0_1
  6
CONTINUOUS
 62
    4
 10
1220.4429
 20
1119.8915
 11
1215.7385999999999
 21
1119.6769999999999
  0
LINE
  8
_0-0_1
  6
CONTINUOUS
 62
    4
 10
1215.7385999999999
 20
1119.6769999999999
 11
1210.9345000000001
 21
1119.5219
  0
LINE
  8
_0-0_1
  6
CONTINUOUS
 62
    4
 10
1210.9345000000001
 20
1119.5219
 11
1206.0463999999999
 21
1119.4502
  0
LINE
  8
_0-0_1
  6
CONTINUOUS
 62
    4
 10
1206.0463999999999
 20
1119.4502
 11
1201.0761
 21
1119.4862000000001
  0
LINE
  8
_0-0_1
  6
CONTINUOUS
 62
    4
 10
1201.0761
 20
1119.4862000000001
 11
1196.0948000000001
 21
1119.6532
  0
LINE
  8
_0-0_1
  6
CONTINUOUS
 62
    4
 10
1196.0948000000001
 20
1119.6532
 11
1193.0751
 21
1119.8261
  0
LINE
  8
_0-0_1
  6
CONTINUOUS
 62
    4
 10
1193.0751
 20
1119.8261
 11
1190.0452
 21
1120.0568000000001
  0
LINE
  8
_0-0_1
  6
CONTINUOUS
 62
    4
 10
1190.0452
 20
1120.0568000000001
 11
1185.0608
 21
1120.5561
  0
LINE
  8
_0-0_1
  6
CONTINUOUS
 62
    4
 10
1185.0608
 20
1120.5561
 11
1180.1036999999999
 21
1121.1857
  0
LINE
  8
_0-0_1
  6
CONTINUOUS
 62
    4
 10
1180.1036999999999
 20
1121.1857
 11
1175.2417
 21
1121.9132999999999
  0
LINE
  8
_0-0_1
  6
CONTINUOUS
 62
    4
 10
1175.2417
 20
1121.9132999999999
 11
1170.4730999999999
 21
1122.7146
  0
LINE
  8
_0-0_1
  6
CONTINUOUS
 62
    4
 10
1170.4730999999999
 20
1122.7146
 11
1165.8112000000001
 21
1123.5636
  0
LINE
  8
_0-0_1
  6
CONTINUOUS
 62
    4
 10
1165.8112000000001
 20
1123.5636
 11
1163.1062999999999
 21
1124.0784000000001
  0
LINE
  8
_0-0_1
  6
CONTINUOUS
 62
    4
 10
1163.1062999999999
 20
1124.0784000000001
 11
1159.6570999999999
 21
1124.7529
  0
LINE
  8
_0-0_1
  6
CONTINUOUS
 62
    4
 10
1159.6570999999999
 20
1124.7529
 11
1153.7384
 21
1125.9639
  0
LINE
  8
_0-0_1
  6
CONTINUOUS
 62
    4
 10
1153.7384
 20
1125.9639
 11
1147.7679000000001
 21
1127.2688000000001
  0
LINE
  8
_0-0_1
  6
CONTINUOUS
 62
    4
 10
1147.7679000000001
 20
1127.2688000000001
 11
1141.7701999999999
 21
1128.6814999999999
  0
LINE
  8
_0-0_1
  6
CONTINUOUS
 62
    4
 10
1141.7701999999999
 20
1128.6814999999999
 11
1135.7517
 21
1130.2198000000001
  0
LINE
  8
_0-0_1
  6
CONTINUOUS
 62
    4
 10
1135.7517
 20
1130.2198000000001
 11
1129.7715000000001
 21
1131.8876
  0
LINE
  8
_0-0_1
  6
CONTINUOUS
 62
    4
 10
1129.7715000000001
 20
1131.8876
 11
1126.1980000000001
 21
1132.9580000000001
  0
LINE
  8
_0-0_1
  6
CONTINUOUS
 62
    4
 10
1126.1980000000001
 20
1132.9580000000001
 11
1121.3018999999999
 21
1134.5195000000001
  0
LINE
  8
_0-0_1
  6
CONTINUOUS
 62
    4
 10
1121.3018999999999
 20
1134.5195000000001
 11
1113.1360999999999
 21
1137.3554999999999
  0
LINE
  8
_0-0_1
  6
CONTINUOUS
 62
    4
 10
1113.1360999999999
 20
1137.3554999999999
 11
1105.0835
 21
1140.3998999999999
  0
LINE
  8
_0-0_1
  6
CONTINUOUS
 62
    4
 10
1105.0835
 20
1140.3998999999999
 11
1103.6629
 21
1140.9717000000001
  0
LINE
  8
_0-0_1
  6
CONTINUOUS
 62
    4
 10
1081.7009
 20
1169.8471999999999
 11
1085.3371
 21
1109.3544999999999
  0
LINE
  8
_0-0_1
  6
CONTINUOUS
 62
    4
 10
1085.4527
 20
1168.5707
 11
1081.4757
 21
1169.7917
  0
LINE
  8
_0-0_1
  6
CONTINUOUS
 62
    4
 10
1085.4527
 20
1190.4574
 11
1085.4527
 21
1108.4667999999999
  0
LINE
  8
_0-0_1
  6
CONTINUOUS
 62
    4
 10
1085.4527
 20
1108.4667999999999
 11
1103.4527
 21
1108.4667999999999
  0
LINE
  8
_0-0_1
  6
CONTINUOUS
 62
    4
 10
1103.4527
 20
1162.5873999999999
 11
1103.4527
 21
1108.4667999999999
  0
ARC
  8
_0-0_1
  6
CONTINUOUS
 62
    4
 10
1087.5103999999999
 20
1129.2546
 40
36.94905
 50
64.439241999999993
 51
92.897946000000005
  0
LINE
  8
_0-0_1
  6
CONTINUOUS
 62
    4
 10
1331.3681999999999
 20
1160.6583000000001
 11
1338.1243999999997
 21
1162.5956000000001
  0
LINE
  8
_0-0_1
  6
CONTINUOUS
 62
    4
 10
1317.5059000000001
 20
1156.7493999999999
 11
1331.3681999999999
 21
1160.6583000000001
  0
LINE
  8
_0-0_1
  6
CONTINUOUS
 62
    4
 10
1303.615
 20
1153.0156999999999
 11
1317.5059000000001
 21
1156.7493999999999
  0
LINE
  8
_0-0_1
  6
CONTINUOUS
 62
    4
 10
1289.6774
 20
1149.5681999999999
 11
1303.615
 21
1153.0156999999999
  0
LINE
  8
_0-0_1
  6
CONTINUOUS
 62
    4
 10
1275.6748
 20
1146.5178000000001
 11
1289.6774
 21
1149.5681999999999
  0
LINE
  8
_0-0_1
  6
CONTINUOUS
 62
    4
 10
1261.5893000000001
 20
1143.9755
 11
1275.6748
 21
1146.5178000000001
  0
LINE
  8
_0-0_1
  6
CONTINUOUS
 62
    4
 10
1253.3746000000001
 20
1142.7773999999999
 11
1261.5893000000001
 21
1143.9755
  0
LINE
  8
_0-0_1
  6
CONTINUOUS
 62
    4
 10
1250.4435000000001
 20
1142.4050999999999
 11
1253.3746000000001
 21
1142.7773999999999
  0
LINE
  8
_0-0_1
  6
CONTINUOUS
 62
    4
 10
1245.3795
 20
1141.827
 11
1250.4435000000001
 21
1142.4050999999999
  0
LINE
  8
_0-0_1
  6
CONTINUOUS
 62
    4
 10
1240.3040000000001
 20
1141.3230000000001
 11
1245.3795
 21
1141.827
  0
LINE
  8
_0-0_1
  6
CONTINUOUS
 62
    4
 10
1235.2183
 20
1140.8851999999999
 11
1240.3040000000001
 21
1141.3230000000001
  0
LINE
  8
_0-0_1
  6
CONTINUOUS
 62
    4
 10
1230.1242
 20
1140.5056999999999
 11
1235.2183
 21
1140.8851999999999
  0
LINE
  8
_0-0_1
  6
CONTINUOUS
 62
    4
 10
1225.0232000000001
 20
1140.1768
 11
1230.1242
 21
1140.5056999999999
  0
LINE
  8
_0-0_1
  6
CONTINUOUS
 62
    4
 10
1222.0621000000001
 20
1140.0060000000001
 11
1225.0232000000001
 21
1140.1768
  0
LINE
  8
_0-0_1
  6
CONTINUOUS
 62
    4
 10
1219.4557
 20
1139.8672999999999
 11
1222.0621000000001
 21
1140.0060000000001
  0
LINE
  8
_0-0_1
  6
CONTINUOUS
 62
    4
 10
1214.9603999999999
 20
1139.6623
 11
1219.4557
 21
1139.8672999999999
  0
LINE
  8
_0-0_1
  6
CONTINUOUS
 62
    4
 10
1210.4650999999999
 20
1139.5172
 11
1214.9603999999999
 21
1139.6623
  0
LINE
  8
_0-0_1
  6
CONTINUOUS
 62
    4
 10
1205.9721
 20
1139.4512
 11
1210.4650999999999
 21
1139.5172
  0
LINE
  8
_0-0_1
  6
CONTINUOUS
 62
    4
 10
1201.4836
 20
1139.4838
 11
1205.9721
 21
1139.4512
  0
LINE
  8
_0-0_1
  6
CONTINUOUS
 62
    4
 10
1197.0017
 20
1139.634
 11
1201.4836
 21
1139.4838
  0
LINE
  8
_0-0_1
  6
CONTINUOUS
 62
    4
 10
1194.4060999999999
 20
1139.7826
 11
1197.0017
 21
1139.634
  0
LINE
  8
_0-0_1
  6
CONTINUOUS
 62
    4
 10
1191.8013000000001
 20
1139.981
 11
1194.4060999999999
 21
1139.7826
  0
LINE
  8
_0-0_1
  6
CONTINUOUS
 62
    4
 10
1187.3181
 20
1140.4301
 11
1191.8013000000001
 21
1139.981
  0
LINE
  8
_0-0_1
  6
CONTINUOUS
 62
    4
 10
1182.8441
 20
1140.9983999999999
 11
1187.3181
 21
1140.4301
  0
LINE
  8
_0-0_1
  6
CONTINUOUS
 62
    4
 10
1178.3788999999999
 20
1141.6666
 11
1182.8441
 21
1140.9983999999999
  0
LINE
  8
_0-0_1
  6
CONTINUOUS
 62
    4
 10
1173.922
 20
1142.4154000000001
 11
1178.3788999999999
 21
1141.6666
  0
LINE
  8
_0-0_1
  6
CONTINUOUS
 62
    4
 10
1169.4726000000001
 20
1143.2257
 11
1173.922
 21
1142.4154000000001
  0
LINE
  8
_0-0_1
  6
CONTINUOUS
 62
    4
 10
1166.8952999999999
 20
1143.7163
 11
1169.4726000000001
 21
1143.2257
  0
LINE
  8
_0-0_1
  6
CONTINUOUS
 62
    4
 10
1163.5808
 20
1144.3643999999999
 11
1166.8952999999999
 21
1143.7163
  0
LINE
  8
_0-0_1
  6
CONTINUOUS
 62
    4
 10
1157.8783000000001
 20
1145.5311999999999
 11
1163.5808
 21
1144.3643999999999
  0
LINE
  8
_0-0_1
  6
CONTINUOUS
 62
    4
 10
1152.1960999999999
 20
1146.7731000000001
 11
1157.8783000000001
 21
1145.5311999999999
  0
LINE
  8
_0-0_1
  6
CONTINUOUS
 62
    4
 10
1146.5397
 20
1148.1053999999999
 11
1152.1960999999999
 21
1146.7731000000001
  0
LINE
  8
_0-0_1
  6
CONTINUOUS
 62
    4
 10
1140.915
 20
1149.5431000000001
 11
1146.5397
 21
1148.1053999999999
  0
LINE
  8
_0-0_1
  6
CONTINUOUS
 62
    4
 10
1135.3276000000001
 20
1151.1013
 11
1140.915
 21
1149.5431000000001
  0
LINE
  8
_0-0_1
  6
CONTINUOUS
 62
    4
 10
1132.1063999999999
 20
1152.0661
 11
1135.3276000000001
 21
1151.1013
  0
LINE
  8
_0-0_1
  6
CONTINUOUS
 62
    4
 10
1127.6223
 20
1153.4963
 11
1132.1063999999999
 21
1152.0661
  0
LINE
  8
_0-0_1
  6
CONTINUOUS
 62
    4
 10
1119.9545000000001
 20
1156.1593
 11
1127.6223
 21
1153.4963
  0
LINE
  8
_0-0_1
  6
CONTINUOUS
 62
    4
 10
1112.3543999999999
 20
1159.0327
 11
1119.9545000000001
 21
1156.1593
  0
LINE
  8
_0-0_1
  6
CONTINUOUS
 62
    4
 10
1104.8071
 20
1162.0703000000001
 11
1112.3543999999999
 21
1159.0327
  0
LINE
  8
_0-0_1
  6
CONTINUOUS
 62
    4
 10
1103.5714
 20
1162.5897
 11
1104.8071
 21
1162.0703000000001
  0
LINE
  8
_0-0_1
  6
CONTINUOUS
 62
    4
 10
1299.1523000000002
 20
1170.1289999999999
 11
1299.1523000000002
 21
1152.3715999999999
  0
LINE
  8
_0-0_1
  6
CONTINUOUS
 62
    4
 10
1338.7370000000001
 20
1162.6791000000001
 11
1332.2055
 21
1160.7619999999999
  0
ARC
  8
_0-0_1
  6
CONTINUOUS
 62
    4
 10
1339.0185999999999
 20
1161.7195999999999
 40
1
 50
0
 51
106.35783000000001
  0
LINE
  8
_0-0_1
  6
CONTINUOUS
 62
    4
 10
1339.3488
 20
1163.0442
 11
1338.1285
 21
1162.6174000000001
  0
LINE
  8
_0-0_1
  6
CONTINUOUS
 62
    4
 10
1340.0186000000003
 20
1163.9882
 11
1340.0186000000003
 21
1183.7511
  0
ARC
  8
_0-0_1
  6
CONTINUOUS
 62
    4
 10
1339.0185999999999
 20
1163.9882
 40
1
 50
289.27960000000002
 51
0.0000000000000127
  0
LINE
  8
_0-0_1
  6
CONTINUOUS
 62
    4
 10
1339.3218999999999
 20
1142.2061000000001
 11
1337.5077000000001
 21
1141.6287
  0
LINE
  8
_0-0_1
  6
CONTINUOUS
 62
    4
 10
1340.0186000000003
 20
1143.1590000000001
 11
1340.0186000000003
 21
1161.7195999999999
  0
ARC
  8
_0-0_1
  6
CONTINUOUS
 62
    4
 10
1339.0185999999999
 20
1143.1590000000001
 40
1
 50
287.65382
 51
0.0000000000000254
  0
LINE
  8
_0-0_1
  6
DASHED1
 62
    2
 10
1127.6365000000001
 20
1160.8927000000001
 11
1143.6365000000001
 21
1160.8927000000001
  0
LINE
  8
_0-0_1
  6
DASHED1
 62
    2
 10
1143.6365000000001
 20
1160.8927000000001
 11
1143.6365000000001
 21
1157.8927000000001
  0
LINE
  8
_0-0_1
  6
DASHED1
 62
    2
 10
1127.6365000000001
 20
1160.8927000000001
 11
1127.6365000000001
 21
1157.8927000000001
  0
LINE
  8
_0-0_1
  6
DASHED1
 62
    2
 10
1127.6365000000001
 20
1157.8927000000001
 11
1143.6365000000001
 21
1157.8927000000001
  0
LINE
  8
_0-0_1
  6
DASHED1
 62
    2
 10
1138.6365000000001
 20
1102.9965999999999
 11
1135.5863999999999
 21
1088.4876999999999
  0
LINE
  8
_0-0_1
  6
DASHED1
 62
    2
 10
1138.6365000000001
 20
1157.8927000000001
 11
1138.6365000000001
 21
1102.9965999999999
  0
LINE
  8
_0-0_1
  6
DASHED1
 62
    2
 10
1135.5863999999999
 20
1088.4876999999999
 11
1132.6365000000001
 21
1102.7452000000001
  0
LINE
  8
_0-0_1
  6
DASHED1
 62
    2
 10
1132.6365000000001
 20
1157.8927000000001
 11
1132.6365000000001
 21
1102.7452000000001
  0
LINE
  8
_0-0_1
  6
DASHED1
 62
    2
 10
1402.9277999999999
 20
1156.1733999999999
 11
1418.9277999999999
 21
1156.1733999999999
  0
LINE
  8
_0-0_1
  6
DASHED1
 62
    2
 10
1418.9277999999999
 20
1156.1733999999999
 11
1418.9277999999999
 21
1153.1733999999999
  0
LINE
  8
_0-0_1
  6
DASHED1
 62
    2
 10
1402.9277999999999
 20
1156.1733999999999
 11
1402.9277999999999
 21
1153.1733999999999
  0
LINE
  8
_0-0_1
  6
DASHED1
 62
    2
 10
1402.9277999999999
 20
1153.1733999999999
 11
1418.9277999999999
 21
1153.1733999999999
  0
LINE
  8
_0-0_1
  6
DASHED1
 62
    2
 10
1413.9277999999999
 20
1098.2773999999999
 11
1410.8777
 21
1083.7683999999999
  0
LINE
  8
_0-0_1
  6
DASHED1
 62
    2
 10
1413.9277999999999
 20
1153.1733999999999
 11
1413.9277999999999
 21
1098.2773999999999
  0
LINE
  8
_0-0_1
  6
DASHED1
 62
    2
 10
1410.8777
 20
1083.7683999999999
 11
1407.9277999999999
 21
1098.0259000000001
  0
LINE
  8
_0-0_1
  6
DASHED1
 62
    2
 10
1407.9277999999999
 20
1153.1733999999999
 11
1407.9277999999999
 21
1098.0259000000001
  0
LINE
  8
_0-0_1
  6
DASHED1
 62
    2
 10
1657.7689
 20
1151.4540999999999
 11
1673.7689
 21
1151.4540999999999
  0
LINE
  8
_0-0_1
  6
DASHED1
 62
    2
 10
1673.7689
 20
1151.4540999999999
 11
1673.7689
 21
1148.4540999999999
  0
LINE
  8
_0-0_1
  6
DASHED1
 62
    2
 10
1657.7689
 20
1151.4540999999999
 11
1657.7689
 21
1148.4540999999999
  0
LINE
  8
_0-0_1
  6
DASHED1
 62
    2
 10
1657.7689
 20
1148.4540999999999
 11
1673.7689
 21
1148.4540999999999
  0
LINE
  8
_0-0_1
  6
DASHED1
 62
    2
 10
1668.7689
 20
1093.5581
 11
1665.7188000000001
 21
1079.0491999999999
  0
LINE
  8
_0-0_1
  6
DASHED1
 62
    2
 10
1668.7689
 20
1148.4540999999999
 11
1668.7689
 21
1093.5581
  0
LINE
  8
_0-0_1
  6
DASHED1
 62
    2
 10
1665.7188000000001
 20
1079.0491999999999
 11
1662.7689
 21
1093.3067000000001
  0
LINE
  8
_0-0_1
  6
DASHED1
 62
    2
 10
1662.7689
 20
1148.4540999999999
 11
1662.7689
 21
1093.3067000000001
  0
LINE
  8
_0-0_1
  6
DASHED1
 62
    2
 10
1918.9023999999999
 20
1153.0272
 11
1934.9023999999999
 21
1153.0272
  0
LINE
  8
_0-0_1
  6
DASHED1
 62
    2
 10
1934.9023999999999
 20
1153.0272
 11
1934.9023999999999
 21
1150.0272
  0
LINE
  8
_0-0_1
  6
DASHED1
 62
    2
 10
1918.9023999999999
 20
1153.0272
 11
1918.9023999999999
 21
1150.0272
  0
LINE
  8
_0-0_1
  6
DASHED1
 62
    2
 10
1918.9023999999999
 20
1150.0272
 11
1934.9023999999999
 21
1150.0272
  0
LINE
  8
_0-0_1
  6
DASHED1
 62
    2
 10
1929.9023999999999
 20
1095.1312
 11
1926.8521999999998
 21
1080.6222
  0
LINE
  8
_0-0_1
  6
DASHED1
 62
    2
 10
1929.9023999999999
 20
1150.0272
 11
1929.9023999999999
 21
1095.1312
  0
LINE
  8
_0-0_1
  6
DASHED1
 62
    2
 10
1926.8521999999998
 20
1080.6222
 11
1923.9023999999999
 21
1094.8797999999999
  0
LINE
  8
_0-0_1
  6
DASHED1
 62
    2
 10
1923.9023999999999
 20
1150.0272
 11
1923.9023999999999
 21
1094.8797999999999
  0
LINE
  8
_0-0_1
  6
CONTINUOUS
 62
    2
 10
1114.5246
 20
1101.2738999999999
 11
1149.5246
 21
1121.8601000000001
  0
LINE
  8
_0-0_1
  6
CONTINUOUS
 62
    2
 10
1114.5246
 20
1135.2089000000001
 11
1149.5246
 21
1101.2738999999999
  0
LINE
  8
_0-1_2
  6
CONTINUOUS
 62
    7
 10
1081.3457000000001
 20
1336.3131000000001
 11
1081.3457000000001
 21
1283.8131000000001
  0
LINE
  8
_0-1_2
  6
CONTINUOUS
 62
    7
 10
1081.3457000000001
 20
1333.8131000000001
 11
2058.6415999999999
 21
1333.8131000000001
  0
LINE
  8
_0-1_2
  6
CONTINUOUS
 62
    7
 10
2058.6415999999999
 20
1283.8131000000001
 11
2058.6415999999999
 21
1336.3131000000001
  0
LINE
  8
_0-1_2
  6
CONTINUOUS
 62
    7
 10
1804.3456999999999
 20
1283.8131000000001
 11
1804.3456999999999
 21
1336.3131000000001
  0
LINE
  8
_0-1_2
  6
CONTINUOUS
 62
    7
 10
1549.0626999999999
 20
1283.8131000000001
 11
1549.0626999999999
 21
1336.3131000000001
  0
LINE
  8
_0-1_2
  6
CONTINUOUS
 62
    7
 10
1294.3457000000001
 20
1283.8131000000001
 11
1294.3457000000001
 21
1336.3131000000001
  0
LINE
  8
_0-1_2
  6
CONTINUOUS
 62
    7
 10
1294.3457000000001
 20
1336.3131000000001
 11
1294.3457000000001
 21
1335.5131000000001
  0
LINE
  8
_0-1_2
  6
CONTINUOUS
 62
    7
 10
1011.5904
 20
1223.3923
 11
1069.8492000000001
 21
1223.3923
  0
LINE
  8
_0-1_2
  6
CONTINUOUS
 62
    7
 10
1144.5073
 20
1244.3363999999999
 11
1192.5073
 21
1244.3363999999999
  0
LINE
  8
_0-1_2
  6
CONTINUOUS
 62
    7
 10
1115.4526000000001
 20
1097.2738999999999
 11
1115.4526000000001
 21
1047.2737999999999
  0
LINE
  8
_0-1_2
  6
CONTINUOUS
 62
    7
 10
1125.4527
 20
1047.2737999999999
 11
1202.4522149249067
 21
1047.2737999999999
  0
LINE
  8
_0-1_2
  6
CONTINUOUS
 62
    7
 10
1125.4527
 20
1047.2737999999999
 11
1115.4526000000001
 21
1047.2737999999999
  0
LINE
  8
_0-1_2
  6
CONTINUOUS
 62
    7
 10
852.09920000000011
 20
855.58420000000001
 11
1060.8126999999999
 21
855.58420000000001
  0
LINE
  8
_0-1_2
  6
CONTINUOUS
 62
    7
 10
1650.2930000000001
 20
840.51520000000005
 11
1855.1158
 21
840.51520000000005
  0
LINE
  8
_0-1_2
  6
CONTINUOUS
 62
    7
 10
2117.9007000000001
 20
947.27389999999991
 11
1230.4535000000001
 21
947.27389999999991
  0
LINE
  8
_0-1_2
  6
CONTINUOUS
 62
    7
 10
1230.4535000000001
 20
947.27389999999991
 11
1230.4535000000001
 21
1044.9743000000001
  0
LINE
  8
_0-1_2
  6
CONTINUOUS
 62
    7
 10
1230.4535000000001
 20
1044.9743000000001
 11
2117.9007000000001
 21
1044.9743000000001
  0
LINE
  8
_0-1_2
  6
CONTINUOUS
 62
    7
 10
2117.9007000000001
 20
1047.2737999999999
 11
1202.4520255136511
 21
1047.2737999999999
  0
LINE
  8
_0-1_2
  6
CONTINUOUS
 62
    7
 10
1175.4526000000001
 20
1047.2737999999999
 11
1175.4526000000001
 21
912.01710000000003
  0
LINE
  8
_0-1_2
  6
CONTINUOUS
 62
    7
 10
1154.585
 20
912.01710000000003
 11
1184.9831999999999
 21
912.01710000000003
  0
LINE
  8
_0-1_2
  6
CONTINUOUS
 62
    7
 10
1230.4535000000001
 20
949.57279999999992
 11
2117.9007000000001
 21
949.57279999999992
  0
LINE
  8
_0-1_2
  6
CONTINUOUS
 62
    7
 10
2117.9007000000001
 20
967.27359999999999
 11
1230.4535000000001
 21
967.27359999999999
  0
LINE
  8
_0-1_2
  6
CONTINUOUS
 62
    7
 10
1230.4535000000001
 20
1027.2735
 11
2117.9007000000001
 21
1027.2735
  0
LINE
  8
_0-1_2
  6
CONTINUOUS
 62
    7
 10
2117.9007000000001
 20
1097.2738999999999
 11
1115.4526000000001
 21
1097.2738999999999
  0
LINE
  8
_0-1_2
  6
CONTINUOUS
 62
    7
 10
1114.5246
 20
1101.2738999999999
 11
1149.5246
 21
1101.2738999999999
  0
LINE
  8
_0-1_2
  6
CONTINUOUS
 62
    7
 10
1149.5246
 20
1101.2738999999999
 11
1149.5246
 21
1121.8601000000001
  0
LINE
  8
_0-1_2
  6
CONTINUOUS
 62
    7
 10
1114.5246
 20
1101.2738999999999
 11
1114.5246
 21
1135.2089000000001
  0
LINE
  8
_0-1_2
  6
CONTINUOUS
 62
    7
 10
1115.4526000000001
 20
1099.2737999999999
 11
2117.9007000000001
 21
1099.2737999999999
  0
LINE
  8
_0-1_2
  6
CONTINUOUS
 62
    7
 10
2117.9007000000001
 20
1102.2737999999999
 11
1163.4527
 21
1102.2737999999999
  0
LINE
  8
_0-1_2
  6
CONTINUOUS
 62
    7
 10
1163.4527
 20
1117.2737999999999
 11
2117.9007000000001
 21
1117.2737999999999
  0
LINE
  8
_0-0_1
  6
CONTINUOUS
 62
    2
 10
1163.4527
 20
1102.2737999999999
 11
1163.4527
 21
1117.2737999999999
  0
LINE
  8
_0-1_2
  6
CONTINUOUS
 62
    7
 10
1163.4527
 20
1102.2737999999999
 11
1163.4527
 21
1117.2737999999999
  0
LINE
  8
_0-1_2
  6
CONTINUOUS
 62
    7
 10
1125.4527
 20
1047.2737999999999
 11
1125.4527
 21
912.01710000000003
  0
LINE
  8
_0-1_2
  6
CONTINUOUS
 62
    7
 10
1144.6941999999999
 20
912.01710000000003
 11
1114.0820000000001
 21
912.01710000000003
  0
LINE
  8
_0-1_2
  6
CONTINUOUS
 62
    7
 10
1085.4527
 20
862.58130000000006
 11
1085.4527
 21
806.41190000000006
  0
LINE
  8
_0-1_2
  6
CONTINUOUS
 62
    7
 10
1085.4527
 20
808.11190000000011
 11
1125.4527
 21
808.11190000000011
  0
LINE
  8
_0-1_2
  6
CONTINUOUS
 62
    7
 10
1125.4527
 20
806.41190000000006
 11
1125.4527
 21
862.58130000000006
  0
LINE
  8
_0-1_2
  6
CONTINUOUS
 62
    7
 10
1113.4527
 20
862.58130000000006
 11
1113.4527
 21
806.41190000000006
  0
LINE
  8
_0-1_2
  6
CONTINUOUS
 62
    7
 10
1225.4535000000001
 20
1037.2741000000001
 11
1275.4535000000001
 21
1037.2741000000001
  0
LINE
  8
_0-1_2
  6
CONTINUOUS
 62
    7
 10
1275.4535000000001
 20
1037.2741000000001
 11
1275.4535000000001
 21
957.27410000000009
  0
LINE
  8
_0-1_2
  6
CONTINUOUS
 62
    7
 10
1275.4535000000001
 20
957.27410000000009
 11
1225.4535000000001
 21
957.27410000000009
  0
LINE
  8
_0-1_2
  6
CONTINUOUS
 62
    7
 10
1225.4535000000001
 20
957.27410000000009
 11
1225.4535000000001
 21
1037.2741000000001
  0
LINE
  8
_0-1_2
  6
CONTINUOUS
 62
    7
 10
1228.6533999999999
 20
1037.2741000000001
 11
1228.6533999999999
 21
957.27410000000009
  0
LINE
  8
_0-1_2
  6
CONTINUOUS
 62
    7
 10
1223.1534999999999
 20
967.27369999999996
 11
1223.1534999999999
 21
952.27289999999994
  0
LINE
  8
_0-1_2
  6
CONTINUOUS
 62
    7
 10
1220.4529999666684
 20
949.57280001666288
 11
1180.4511895509215
 21
949.57280001666288
  0
LINE
  8
_0-1_2
  6
CONTINUOUS
 62
    7
 10
1177.7516001131833
 20
952.27408178532096
 11
1177.7516001131833
 21
1042.2750000000001
  0
LINE
  8
_0-1_2
  6
CONTINUOUS
 62
    7
 10
1180.454
 20
1044.9755
 11
1220.4528540101894
 21
1044.9755
  0
LINE
  8
_0-1_2
  6
CONTINUOUS
 62
    7
 10
1223.1533999999999
 20
1042.2745
 11
1223.1533999999999
 21
1027.2738999999999
  0
LINE
  8
_0-1_2
  6
CONTINUOUS
 62
    7
 10
1225.4535000000001
 20
1037.2741000000001
 11
1225.4535000000001
 21
1042.2746143593795
  0
LINE
  8
_0-1_2
  6
CONTINUOUS
 62
    7
 10
1180.4509
 20
947.27399999999989
 11
1220.4529
 21
947.27399999999989
  0
LINE
  8
_0-1_2
  6
CONTINUOUS
 62
    7
 10
1675.5354000000002
 20
1241.7732000000001
 11
1716.0354000000002
 21
1241.7732000000001
  0
LINE
  8
_0-1_2
  6
CONTINUOUS
 62
    7
 10
1192.5073
 20
1244.3363999999999
 11
1255.4224999999999
 21
1135.3642
  0
LINE
  8
_0-1_2
  6
CONTINUOUS
 62
    7
 10
1255.4224999999999
 20
1135.3642
 11
1253.4812999999999
 21
1142.6086
  0
LINE
  8
_0-1_2
  6
CONTINUOUS
 62
    7
 10
1250.3996372741217
 20
1140.3870627258784
 11
1255.4224999999999
 21
1135.3642
  0
LINE
  8
_0-1_2
  6
CONTINUOUS
 62
    7
 10
1127.7818
 20
1126.9322999999999
 11
1129.723
 21
1119.6878999999999
  0
LINE
  8
_0-1_2
  6
CONTINUOUS
 62
    7
 10
1129.723
 20
1119.6878999999999
 11
1124.4196999999999
 21
1124.9911999999999
  0
LINE
  8
_0-1_2
  6
CONTINUOUS
 62
    7
 10
1129.723
 20
1119.6878999999999
 11
1069.8492000000001
 21
1223.3923
  0
LINE
  8
_0-1_2
  6
CONTINUOUS
 62
    7
 10
1114.5246
 20
1135.2089000000001
 11
1149.5246
 21
1121.8601000000001
  0
LINE
  8
_0-1_2
  6
CONTINUOUS
 62
    7
 10
1149.5246
 20
1121.8601000000001
 11
1114.5246
 21
1101.2738999999999
  0
LINE
  8
_0-1_2
  6
CONTINUOUS
 62
    7
 10
1149.5246
 20
1101.2738999999999
 11
1114.5246
 21
1135.2089000000001
  0
LINE
  8
_0-1_2
  6
CONTINUOUS
 62
    7
 10
1175.4516000000001
 20
965.13439999999991
 11
1125.4527
 21
1015.1333999999999
  0
LINE
  8
_0-1_2
  6
CONTINUOUS
 62
    7
 10
1175.4513999999999
 20
960.8918000000001
 11
1125.4527
 21
1010.8906999999999
  0
LINE
  8
_0-1_2
  6
CONTINUOUS
 62
    7
 10
1131.3215
 20
977.70900000000006
 11
1126.0182
 21
972.40570000000002
  0
LINE
  8
_0-1_2
  6
CONTINUOUS
 62
    7
 10
1131.3215
 20
977.70900000000006
 11
1129.3803
 21
970.46460000000002
  0
LINE
  8
_0-1_2
  6
CONTINUOUS
 62
    7
 10
1131.3215
 20
977.70900000000006
 11
1060.8126999999999
 21
855.58420000000001
  0
LINE
  8
_0-1_2
  6
CONTINUOUS
 62
    7
 10
1253.0564999999999
 20
1097.2738999999999
 11
1303.0563999999999
 21
1047.2737999999999
  0
LINE
  8
_0-1_2
  6
CONTINUOUS
 62
    7
 10
1307.2991
 20
1047.2737999999999
 11
1257.2991
 21
1097.2738999999999
  0
LINE
  8
_0-1_2
  6
CONTINUOUS
 62
    7
 10
1154.585
 20
912.01710000000003
 11
1151.6587999999999
 21
915.91879999999992
  0
LINE
  8
_0-1_2
  6
CONTINUOUS
 62
    7
 10
1151.6587999999999
 20
915.91879999999992
 11
1147
 21
906.74679999999989
  0
LINE
  8
_0-1_2
  6
CONTINUOUS
 62
    7
 10
1147
 20
906.74679999999989
 11
1144.6941999999999
 21
912.01710000000003
  0
LINE
  8
_0-1_2
  6
CONTINUOUS
 62
    7
 10
1469.4310999999998
 20
1097.2738999999999
 11
1519.4312
 21
1047.2737999999999
  0
LINE
  8
_0-1_2
  6
CONTINUOUS
 62
    7
 10
1515.1885000000002
 20
1047.2737999999999
 11
1465.1885000000002
 21
1097.2738999999999
  0
LINE
  8
_0-1_2
  6
CONTINUOUS
 62
    7
 10
1580.1471000000001
 20
1100.6459
 11
1580.1471000000001
 21
1093.1459
  0
LINE
  8
_0-1_2
  6
CONTINUOUS
 62
    7
 10
1580.1471000000001
 20
1100.6459
 11
1583.8971000000001
 21
1094.1506999999999
  0
LINE
  8
_0-1_2
  6
CONTINUOUS
 62
    7
 10
1580.1471000000001
 20
1100.6459
 11
1673.9184
 21
750.68679999999995
  0
LINE
  8
_0-1_2
  6
CONTINUOUS
 62
    7
 10
1681.5632000000001
 20
1097.2738999999999
 11
1731.5632000000001
 21
1047.2737999999999
  0
LINE
  8
_0-1_2
  6
CONTINUOUS
 62
    7
 10
1727.3204999999998
 20
1047.2737999999999
 11
1677.3204999999998
 21
1097.2738999999999
  0
LINE
  8
_0-1_2
  6
CONTINUOUS
 62
    7
 10
1889.4524999999999
 20
1097.2738999999999
 11
1939.4524999999999
 21
1047.2737999999999
  0
LINE
  8
_0-1_2
  6
CONTINUOUS
 62
    7
 10
1935.2098999999998
 20
1047.2737999999999
 11
1885.2098000000001
 21
1097.2738999999999
  0
LINE
  8
_0-1_2
  6
CONTINUOUS
 62
    7
 10
1648.7203
 20
1149.1978999999999
 11
1648.7203
 21
1141.6978999999999
  0
LINE
  8
_0-1_2
  6
CONTINUOUS
 62
    7
 10
1648.7203
 20
1141.6978999999999
 11
1652.4703
 21
1148.1931
  0
LINE
  8
_0-1_2
  6
CONTINUOUS
 62
    7
 10
1648.7203
 20
1141.6978999999999
 11
1675.5354000000002
 21
1241.7732000000001
  0
ARC
  8
_0-1_2
  6
CONTINUOUS
 62
    7
 10
1180.4139788545435
 20
1042.3155159717548
 40
2.6600874231956473
 50
89.134632058473244
 51
180.87270964423325
  0
ARC
  8
_0-1_2
  6
CONTINUOUS
 62
    7
 10
1180.5131149184488
 20
1042.2145874821958
 40
5.0601696136342351
 50
90.680691044024655
 51
179.32160087883173
  0
ARC
  8
_0-1_2
  6
CONTINUOUS
 62
    7
 10
1220.4141148695019
 20
1042.236221342994
 40
2.7395525696270218
 50
0.8005967423122947
 51
89.189771619743937
  0
ARC
  8
_0-1_2
  6
CONTINUOUS
 62
    7
 10
1221.0327341647539
 20
1042.8479929786986
 40
4.4578480181005915
 50
352.60464272203097
 51
96.873666864839393
  0
ARC
  8
_0-1_2
  6
CONTINUOUS
 62
    7
 10
1220.6815485234556
 20
952.04402078665692
 40
2.4817668175836136
 50
264.71608383885928
 51
5.3012716515598806
  0
ARC
  8
_0-1_2
  6
CONTINUOUS
 62
    7
 10
1220.5257615648979
 20
952.19993843510224
 40
4.9273771697769293
 50
269.15273132832436
 51
0.8472686716735674
  0
ARC
  8
_0-1_2
  6
CONTINUOUS
 62
    7
 10
1181.0008644228637
 20
952.82232193863842
 40
3.2951913176434915
 50
189.57716790249449
 51
260.39753209750552
  0
ARC
  8
_0-1_2
  6
CONTINUOUS
 62
    7
 10
1180.4716003305439
 20
952.29409566885295
 40
5.0201383475081247
 50
180.22381337896999
 51
269.76374257965938
  0
LINE
  8
_0-1_2
  6
CONTINUOUS
 62
    7
 10
1225.4526960163944
 20
952.26598905127412
 11
1225.4535000000001
 21
957.27410000000009
  0
LINE
  8
_0-1_2
  6
CONTINUOUS
 62
    7
 10
1223.1534999999999
 20
967.27369999999996
 11
1225.453
 21
967.27359999999999
  0
LINE
  8
_0-1_2
  6
CONTINUOUS
 62
    7
 10
1230.4535000000001
 20
1044.9743000000001
 11
1230.4535000000001
 21
1047.2737999999999
  0
TEXT
  8
_0-1_2
 62
    7
 10
1144.5073000000004
 20
1246.8363999999999
 40
20
 41
1
 50
0
  1
左袖瓦
  0
TEXT
  8
_0-1_2
 62
    7
 10
1179.0105807997022
 20
1343.8006318340751
 40
20
 41
1
 50
0
  1
213
  0
TEXT
  8
_0-1_2
 62
    7
 10
1412.7442481559738
 20
1346.959194906457
 40
20
 41
1
 50
0
  1
255
  0
TEXT
  8
_0-1_2
 62
    7
 10
1668.5878570189195
 20
1348.5384764426481
 40
20
 41
1
 50
0
  1
255
  0
TEXT
  8
_0-1_2
 62
    7
 10
1925.4753747706427
 20
1345.7722785451283
 40
20
 41
1
 50
0
  1
255
  0
TEXT
  8
_0-0_1
 62
    7
 10
1111.5395534395486
 20
774.31559562451707
 40
20
 41
1
 50
0
  1
12
  0
TEXT
  8
_0-0_1
 62
    7
 10
1090.2694535789801
 20
816.85579534565454
 40
20
 41
1
 50
0
  1
28
  0
TEXT
  8
_0-2_3
 62
    7
 10
843.53629519638343
 20
862.23200838153411
 40
20
 41
1
 50
0
  1
破風板：薄型ALCパネル
  0
TEXT
  8
_0-0_1
 62
    7
 10
1651.8000898979926
 20
845.21592849307922
 40
20
 41
1
 50
0
  1
瓦桟：１５ｘ３０以上
  0
TEXT
  8
_0-0_1
 62
    7
 10
1663.1441431569626
 20
812.6017753735407
 40
20
 41
1
 50
0
  1
下葺材：ルーフィング
  0
TEXT
  8
_0-0_1
 62
    7
 10
1661.7261364995916
 20
784.2416422261158
 40
20
 41
1
 50
0
  1
　野地板：ＡＬＣｔ＝５０
  0
TEXT
  8
_0-0_1
 62
    7
 10
1690.0862696470163
 20
754.46350242131962
 40
20
 41
1
 50
0
  1
鋼製：C－100x50x⑳x2.3　
  0
TEXT
  8
_0-1_2
 62
    7
 10
1019.3691207104177
 20
1229.4957326406866
 40
20
 41
1
 50
0
  1
登淀　
  0
TEXT
  8
_0-1_2
 62
    7
 10
1671.6521831011901
 20
1247.9298191865128
 40
20
 41
1
 50
0
  1
桟　瓦
  0
LINE
  8
_0-0_1
  6
CONTINUOUS
 62
    2
 10
1657.2021
 20
810.64869999999996
 11
1882.9351750495057
 21
810.64869999999996
  0
LINE
  8
_0-1_2
  6
CONTINUOUS
 62
    7
 10
1657.2021
 20
810.64869999999996
 11
1880.0991617347629
 21
810.64869999999996
  0
LINE
  8
_0-0_1
  6
CONTINUOUS
 62
    2
 10
1673.9184
 20
750.68679999999995
 11
1929.7293947427565
 21
750.68679999999995
  0
LINE
  8
_0-1_2
  6
CONTINUOUS
 62
    7
 10
1673.9184
 20
750.68679999999995
 11
1926.893381428014
 21
750.68679999999995
  0
LINE
  8
_0-0_1
  6
CONTINUOUS
 62
    2
 10
1666.7451999999998
 20
780.55330000000004
 11
1912.7133148543016
 21
780.55330000000004
  0
LINE
  8
_0-1_2
  6
CONTINUOUS
 62
    7
 10
1666.7451999999998
 20
780.55330000000004
 11
1919.803348141158
 21
780.55330000000004
  0
ENDSEC
  0
EOF
