  0
SECTION
  2
HEADER
  9
$ACADVER
  1
AC1009
  9
$INSBASE
 10
0
 20
0
 30
0
  9
$EXTMIN
 10
0
 20
0
  9
$EXTMAX
 10
2970
 20
2100
  9
$LIMMIN
 10
0
 20
0
  9
$LIMMAX
 10
2970
 20
2100
  9
$LTSCALE
 40
10
  0
ENDSEC
  0
SECTION
  2
TABLES
  0
TABLE
  2
LTYPE
 70
     9
  0
LTYPE
  2
CONTINUOUS
 70
    64
  3
実線
 72
    65
 73
     0
 40
0.0
  0
LTYPE
  2
DASHED1
 70
    64
  3
--  --  --  --  --  --  --  --  
 72
    65
 73
     2
 40
2.5
 49
1.25
 49
-1.25
  0
LTYPE
  2
DASHED2
 70
    64
  3
----    ----    ----    ----    
 72
    65
 73
     2
 40
5.0
 49
2.5
 49
-2.5
  0
LTYPE
  2
DASHED3
 70
    64
  3
------  ------  ------  ------  
 72
    65
 73
     2
 40
5.0
 49
3.75
 49
-1.25
  0
LTYPE
  2
CENTER1
 70
    64
  3
----- - ----- - ----- - ----- - 
 72
    65
 73
     4
 40
10.0
 49
6.25
 49
-1.25
 49
1.25
 49
-1.25
  0
LTYPE
  2
CENTER2
 70
    64
  3
----------  --  ----------  --  
 72
    65
 73
     4
 40
20.0
 49
12.5
 49
-2.5
 49
2.5
 49
-2.5
  0
LTYPE
  2
PHANTOM1
 70
    64
  3
--- - - --- - - --- - - --- - - 
 72
    65
 73
     6
 40
10.0
 49
3.25
 49
-1.25
 49
1.25
 49
-1.25
 49
1.25
 49
-1.25
  0
LTYPE
  2
PHANTOM2
 70
    64
  3
--------  -  -  --------  -  -  
 72
    65
 73
     6
 40
20.0
 49
10.0
 49
-2.5
 49
1.25
 49
-2.5
 49
1.25
 49
-2.5
  0
LTYPE
  2
DOT
 70
    64
  3
-   -   -   -   -   -   -   -   
 72
    65
 73
     2
 40
2.5
 49
0.625
 49
-1.875
  0
LTYPE
  2
DUMMY
 70
    64
  3
ダミー
 72
    65
 73
     0
 40
0.0
  0
LTYPE
  2
RAND1
 70
    64
  3
ランダム線1
 72
    65
 73
     4
 40
10.0
 49
1.0
 49
-2.0
 49
3.0
 49
-4.0
  0
LTYPE
  2
RAND2
 70
    64
  3
ランダム線2
 72
    65
 73
     4
 40
14.0
 49
2.0
 49
-3.0
 49
4.0
 49
-5.0
  0
LTYPE
  2
RAND3
 70
    64
  3
ランダム線3
 72
    65
 73
     4
 40
18.0
 49
3.0
 49
-4.0
 49
5.0
 49
-6.0
  0
LTYPE
  2
RAND4
 70
    64
  3
ランダム線4
 72
    65
 73
     4
 40
22.0
 49
4.0
 49
-5.0
 49
6.0
 49
-7.0
  0
LTYPE
  2
RAND5
 70
    64
  3
ランダム線5
 72
    65
 73
     4
 40
26.0
 49
5.0
 49
-6.0
 49
7.0
 49
-8.0
  0
LTYPE
  2
LONG1
 70
    64
  3
----------  --  ----------  --  
 72
    65
 73
     4
 40
40.0
 49
32.5
 49
-2.5
 49
2.5
 49
-2.5
  0
LTYPE
  2
LONG2
 70
    64
  3
--------  -  -  --------  -  -  
 72
    65
 73
     6
 40
40.0
 49
30.0
 49
-2.5
 49
1.25
 49
-2.5
 49
1.25
 49
-2.5
  0
LTYPE
  2
LONG3
 70
    64
  3
+++++++++++++++..+++++++++++++++
 72
    65
 73
     2
 40
40.0
 49
37.5
 49
-2.5
  0
LTYPE
  2
LONG4
 70
    64
  3
+++++++++++++++..+++++++++++++++
 72
    65
 73
     2
 40
80.0
 49
75.0
 49
-5.0
  0
LTYPE
  2
LONG5
 70
    64
  3
----------  --  ----------  --  
 72
    65
 73
     4
 40
60.0
 49
37.5
 49
-7.5
 49
7.5
 49
-7.5
  0
LTYPE
  2
dashed
 70
   64
  3
-------   -------------   ------
 72
   65
 73
    2
 40
7.5
 49
6
 49
-1.5
  0
LTYPE
  2
dashed_spaced
 70
   64
  3
----        --------        ----
 72
   65
 73
    2
 40
12
 49
6
 49
-6
  0
LTYPE
  2
long_dashed_dotted
 70
   64
  3
------------- --- --------------
 72
   65
 73
    4
 40
15.25
 49
12
 49
-1.5
 49
0.25
 49
-1.5
  0
LTYPE
  2
long_dashed_double-dotted
 70
   64
  3
----------- --- --- ------------
 72
   65
 73
    6
 40
17
 49
12
 49
-1.5
 49
0.25
 49
-1.5
 49
0.25
 49
-1.5
  0
LTYPE
  2
long_dashed_triplicate-dotted
 70
   64
  3
--------- --- --- --- ----------
 72
   65
 73
    8
 40
18.75
 49
12
 49
-1.5
 49
0.25
 49
-1.5
 49
0.25
 49
-1.5
 49
0.25
 49
-1.5
  0
LTYPE
  2
dotted
 70
   64
  3
   -       -       -       -    
 72
   65
 73
    2
 40
1.75
 49
0.25
 49
-1.5
  0
LTYPE
  2
chain
 70
   64
  3
-------------- -- --------------
 72
   65
 73
    4
 40
18.5
 49
12
 49
-1.5
 49
3.5
 49
-1.5
  0
LTYPE
  2
chain_double_dash
 70
   64
  3
------------ -- -- -------------
 72
   65
 73
    6
 40
23.5
 49
12
 49
-1.5
 49
3.5
 49
-1.5
 49
3.5
 49
-1.5
  0
LTYPE
  2
dashed_dotted
 70
   64
  3
-----------     -     ----------
 72
   65
 73
    4
 40
9.25
 49
6
 49
-1.5
 49
0.25
 49
-1.5
  0
LTYPE
  2
double-dashed_dotted
 70
   64
  3
------   -----------   -   -----
 72
   65
 73
    6
 40
16.75
 49
6
 49
-1.5
 49
6
 49
-1.5
 49
0.25
 49
-1.5
  0
LTYPE
  2
dashed_double-dotted
 70
   64
  3
---------    -    -    ---------
 72
   65
 73
    6
 40
11
 49
6
 49
-1.5
 49
0.25
 49
-1.5
 49
0.25
 49
-1.5
  0
LTYPE
  2
double-dashed_double-dotted
 70
   64
  3
-----   ---------   -   -   ----
 72
   65
 73
    8
 40
18.5
 49
6
 49
-1.5
 49
6
 49
-1.5
 49
0.25
 49
-1.5
 49
0.25
 49
-1.5
  0
LTYPE
  2
dashed_triplicate-dotted
 70
   64
  3
-------    -    -    -    ------
 72
   65
 73
    8
 40
12.75
 49
6
 49
-1.5
 49
0.25
 49
-1.5
 49
0.25
 49
-1.5
 49
0.25
 49
-1.5
  0
LTYPE
  2
double-dashed_triplicate-dotted
 70
   64
  3
-----  ---------  -  -  -  -----
 72
   65
 73
   10
 40
20.25
 49
6
 49
-1.5
 49
6
 49
-1.5
 49
0.25
 49
-1.5
 49
0.25
 49
-1.5
 49
0.25
 49
-1.5
  0
LTYPE
  2
undefined
 70
   64
  3
--------------------------------
 72
   65
 73
    0
 40
0
  0
ENDTAB
  0
TABLE
  2
STYLE
  5
3
100
AcDbSymbolTable
 70
     1
  0
STYLE
  5
10
100
AcDbSymbolTableRecord
100
AcDbTextStyleTableRecord
  2
STANDARD
 70
     0
 40
0.0
 41
1.0
 50
0.0
 71
     0
 42
0.2
  3
txt
  4
bigfont.shx
  0
STYLE
  5
26
100
AcDbSymbolTableRecord
100
AcDbTextStyleTableRecord
  2
TATEGAKI
 70
    68
 40
0.0
 41
1.0
 50
0.0
 71
     0
 42
1.0
  3
txt
  4
bigfont.shx
  0
ENDTAB
  0
TABLE
  2
LAYER
 70
    5
  0
LAYER
  2
_0-0_LAYER001
 70
   64
 62
    7
  6
CONTINUOUS
  0
LAYER
  2
_0-1_LAYER003
 70
   64
 62
    7
  6
CONTINUOUS
  0
LAYER
  2
_0-2_LAYER004
 70
   64
 62
    7
  6
CONTINUOUS
  0
LAYER
  2
_0-3_LAYER009
 70
   64
 62
    7
  6
CONTINUOUS
  0
LAYER
  2
ADD_LINE
 70
   64
 62
    7
  6
CONTINUOUS
  0
ENDTAB
  0
ENDSEC
  0
SECTION
  2
BLOCKS
  0
ENDSEC
  0
SECTION
  2
ENTITIES
  0
LINE
  8
_0-0_LAYER001
  6
DASHED3
 62
    2
 10
1234.2553
 20
968.3931
 11
1941.5569999999998
 21
1286.6784000000002
  0
LINE
  8
_0-1_LAYER003
  6
CONTINUOUS
 62
    2
 10
1288.0636999999999
 20
841.5139999999999
 11
1309.7828
 21
793.24900000000002
  0
LINE
  8
_0-0_LAYER001
  6
CONTINUOUS
 62
    2
 10
1227.7456999999999
 20
805.85969999999998
 11
1236.7737
 21
803.53639999999996
  0
LINE
  8
_0-0_LAYER001
  6
CONTINUOUS
 62
    2
 10
1228.6333
 20
800.70959999999991
 11
1227.7456999999999
 21
805.85969999999998
  0
LINE
  8
_0-0_LAYER001
  6
CONTINUOUS
 62
    2
 10
1236.7737
 20
803.53639999999996
 11
1236.2177999999999
 21
808.40650000000005
  0
LINE
  8
_0-0_LAYER001
  6
CONTINUOUS
 62
    2
 10
1214.9514999999999
 20
786.8248000000001
 11
1228.6333
 21
800.70959999999991
  0
LINE
  8
_0-0_LAYER001
  6
CONTINUOUS
 62
    2
 10
1236.2177999999999
 20
808.40650000000005
 11
1252.7127
 21
825.14609999999993
  0
LINE
  8
_0-1_LAYER003
  6
CONTINUOUS
 62
    2
 10
1231.7516000000001
 20
969.69100000000003
 11
1243.8188
 21
942.22319999999991
  0
LINE
  8
_0-1_LAYER003
  6
CONTINUOUS
 62
    2
 10
1134.1690000000001
 20
925.78860000000009
 11
1231.7516000000001
 21
969.69100000000003
  0
LINE
  8
_0-1_LAYER003
  6
CONTINUOUS
 62
    2
 10
1134.1690000000001
 20
925.78860000000009
 11
1125.0486000000001
 21
921.6853000000001
  0
LINE
  8
_0-1_LAYER003
  6
CONTINUOUS
 62
    2
 10
1111.951
 20
951.49739999999997
 11
1125.0486000000001
 21
921.6853000000001
  0
LINE
  8
_0-1_LAYER003
  6
CONTINUOUS
 62
    2
 10
1149.6724999999999
 20
932.76330000000007
 11
1161.7391
 21
905.29680000000008
  0
LINE
  8
_0-1_LAYER003
  6
CONTINUOUS
 62
    2
 10
1111.951
 20
951.49739999999997
 11
1212.2656999999999
 21
984.21119999999996
  0
LINE
  8
_0-1_LAYER003
  6
CONTINUOUS
 62
    2
 10
1212.2656999999999
 20
984.21119999999996
 11
1220.8081
 21
964.7675999999999
  0
LINE
  8
_0-1_LAYER003
  6
CONTINUOUS
 62
    2
 10
1208.2956999999999
 20
959.1386
 11
1218.7075
 21
969.54870000000005
  0
LINE
  8
_0-1_LAYER003
  6
CONTINUOUS
 62
    2
 10
1187.7239
 20
949.88319999999999
 11
1215.2541000000001
 21
977.4079999999999
  0
LINE
  8
_0-1_LAYER003
  6
CONTINUOUS
 62
    2
 10
1167.1532
 20
940.62789999999995
 11
1210.0065999999999
 21
983.47440000000006
  0
LINE
  8
_0-1_LAYER003
  6
CONTINUOUS
 62
    2
 10
1146.5824
 20
931.3735999999999
 11
1193.2152000000001
 21
977.99880000000007
  0
LINE
  8
_0-1_LAYER003
  6
CONTINUOUS
 62
    2
 10
1126.0107
 20
922.11819999999989
 11
1176.4237000000001
 21
972.52220000000011
  0
LINE
  8
_0-1_LAYER003
  6
CONTINUOUS
 62
    2
 10
1121.7572
 20
929.17759999999998
 11
1159.6323
 21
967.04649999999992
  0
LINE
  8
_0-1_LAYER003
  6
CONTINUOUS
 62
    2
 10
1118.3039000000001
 20
937.03790000000004
 11
1142.8408999999999
 21
961.57089999999994
  0
LINE
  8
_0-1_LAYER003
  6
CONTINUOUS
 62
    2
 10
1114.8505
 20
944.89810000000011
 11
1126.0494000000001
 21
956.09519999999998
  0
LINE
  8
_0-1_LAYER003
  6
CONTINUOUS
 62
    2
 10
1160.6534999999999
 20
907.76939999999991
 11
1162.6953000000001
 21
905.72630000000004
  0
LINE
  8
_0-1_LAYER003
  6
CONTINUOUS
 62
    2
 10
1151.7861
 20
927.95209999999997
 11
1170.4985999999999
 21
909.23659999999995
  0
LINE
  8
_0-1_LAYER003
  6
CONTINUOUS
 62
    2
 10
1155.6157000000001
 20
935.43679999999995
 11
1178.3018999999999
 21
912.74700000000007
  0
LINE
  8
_0-1_LAYER003
  6
CONTINUOUS
 62
    2
 10
1163.4179999999999
 20
938.94820000000004
 11
1186.1042
 21
916.25839999999994
  0
LINE
  8
_0-1_LAYER003
  6
CONTINUOUS
 62
    2
 10
1171.2212999999999
 20
942.45859999999993
 11
1193.9075
 21
919.76870000000008
  0
LINE
  8
_0-1_LAYER003
  6
CONTINUOUS
 62
    2
 10
1179.0236
 20
945.96890000000008
 11
1201.7097000000001
 21
923.27909999999997
  0
LINE
  8
_0-1_LAYER003
  6
CONTINUOUS
 62
    2
 10
1186.8269
 20
949.47929999999997
 11
1209.5129999999999
 21
926.78950000000009
  0
LINE
  8
_0-1_LAYER003
  6
CONTINUOUS
 62
    2
 10
1194.6292000000001
 20
952.98970000000008
 11
1217.3153
 21
930.2998
  0
LINE
  8
_0-1_LAYER003
  6
CONTINUOUS
 62
    2
 10
1202.4323999999999
 20
956.5
 11
1225.1186
 21
933.8101999999999
  0
LINE
  8
_0-1_LAYER003
  6
CONTINUOUS
 62
    2
 10
1210.2347
 20
960.01039999999989
 11
1232.9209000000001
 21
937.32060000000001
  0
LINE
  8
_0-1_LAYER003
  6
CONTINUOUS
 62
    2
 10
1218.038
 20
963.52179999999998
 11
1240.7242000000001
 21
940.83189999999991
  0
LINE
  8
_0-1_LAYER003
  6
CONTINUOUS
 62
    2
 10
1225.8403000000001
 20
967.0320999999999
 11
1238.4683
 21
954.40210000000002
  0
LINE
  8
_0-1_LAYER003
  6
CONTINUOUS
 62
    2
 10
1227.3027999999999
 20
796.18730000000005
 11
1175.4408000000001
 21
911.46019999999999
  0
LINE
  8
_0-2_LAYER004
  6
CONTINUOUS
 62
    2
 10
1243.8188
 20
942.22319999999991
 11
1161.7391
 21
905.29680000000008
  0
LINE
  8
_0-2_LAYER004
  6
CONTINUOUS
 62
    2
 10
1236.3055999999999
 20
834.67129999999997
 11
1197.3276000000001
 21
921.30749999999989
  0
LINE
  8
_0-3_LAYER009
  6
CONTINUOUS
 62
    2
 10
1236.3055999999999
 20
834.67129999999997
 11
1245.0047
 21
815.33660000000009
  0
LINE
  8
_0-3_LAYER009
  6
CONTINUOUS
 62
    2
 10
1201.8878
 20
923.3590999999999
 11
1189.9983
 21
918.01009999999997
  0
LINE
  8
_0-2_LAYER004
  6
CONTINUOUS
 62
    2
 10
1223.4971
 20
804.64529999999991
 11
1241.6486
 21
822.7949000000001
  0
LINE
  8
_0-2_LAYER004
  6
CONTINUOUS
 62
    2
 10
1219.9867999999999
 20
812.44859999999994
 11
1238.1382000000001
 21
830.59709999999995
  0
LINE
  8
_0-2_LAYER004
  6
CONTINUOUS
 62
    2
 10
1216.4764
 20
820.2509
 11
1234.6279
 21
838.40039999999999
  0
LINE
  8
_0-2_LAYER004
  6
CONTINUOUS
 62
    2
 10
1212.9649999999999
 20
828.05420000000004
 11
1231.1175000000001
 21
846.20270000000005
  0
LINE
  8
_0-2_LAYER004
  6
CONTINUOUS
 62
    2
 10
1209.4547
 20
835.8565000000001
 11
1227.6070999999999
 21
854.00600000000009
  0
LINE
  8
_0-2_LAYER004
  6
CONTINUOUS
 62
    2
 10
1205.9443000000001
 20
843.6597999999999
 11
1224.0968
 21
861.80829999999992
  0
LINE
  8
_0-2_LAYER004
  6
CONTINUOUS
 62
    2
 10
1202.4339
 20
851.46199999999999
 11
1220.5853999999999
 21
869.61159999999995
  0
LINE
  8
_0-2_LAYER004
  6
CONTINUOUS
 62
    2
 10
1198.9236000000001
 20
859.26530000000002
 11
1217.075
 21
877.41390000000001
  0
LINE
  8
_0-2_LAYER004
  6
CONTINUOUS
 62
    2
 10
1195.4132
 20
867.06860000000006
 11
1213.5646999999999
 21
885.21710000000007
  0
LINE
  8
_0-2_LAYER004
  6
CONTINUOUS
 62
    2
 10
1188.3915
 20
882.67419999999993
 11
1206.5438999999999
 21
900.82269999999994
  0
LINE
  8
_0-2_LAYER004
  6
CONTINUOUS
 62
    2
 10
1184.8811000000001
 20
890.47649999999999
 11
1203.0336
 21
908.62599999999998
  0
LINE
  8
_0-2_LAYER004
  6
CONTINUOUS
 62
    2
 10
1181.3706999999999
 20
898.27980000000002
 11
1199.5232000000001
 21
916.42830000000004
  0
LINE
  8
_0-2_LAYER004
  6
CONTINUOUS
 62
    2
 10
1177.8604
 20
906.08200000000011
 11
1189.6193000000001
 21
917.83909999999992
  0
LINE
  8
_0-2_LAYER004
  6
CONTINUOUS
 62
    2
 10
1191.9028000000001
 20
874.8719000000001
 11
1210.0543
 21
893.02040000000011
  0
LINE
  8
_0-1_LAYER003
  6
CONTINUOUS
 62
    2
 10
1233.7610999999999
 20
965.11689999999999
 11
1942.3240000000001
 21
1283.9695000000002
  0
LINE
  8
_0-0_LAYER001
  6
CONTINUOUS
 62
    2
 10
1259.6772000000001
 20
976.77909999999997
 11
1250.5569
 21
972.67509999999993
  0
LINE
  8
_0-0_LAYER001
  6
CONTINUOUS
 62
    2
 10
1260.9072000000001
 20
974.04259999999999
 11
1251.7888
 21
969.93990000000008
  0
LINE
  8
_0-0_LAYER001
  6
CONTINUOUS
 62
    2
 10
1250.5569
 20
972.67509999999993
 11
1251.7888
 21
969.93990000000008
  0
LINE
  8
_0-0_LAYER001
  6
CONTINUOUS
 62
    2
 10
1259.6772000000001
 20
976.77909999999997
 11
1260.9072000000001
 21
974.04259999999999
  0
LINE
  8
_0-0_LAYER001
  6
CONTINUOUS
 62
    2
 10
1255.1171999999999
 20
974.72710000000006
 11
1256.348
 21
971.99070000000006
  0
LINE
  8
_0-0_LAYER001
  6
CONTINUOUS
 62
    2
 10
1273.519
 20
933.83490000000006
 11
1269.3968
 21
938.12110000000007
  0
LINE
  8
_0-0_LAYER001
  6
CONTINUOUS
 62
    2
 10
1273.519
 20
933.83490000000006
 11
1273.0445
 21
939.76189999999997
  0
LINE
  8
_0-0_LAYER001
  6
CONTINUOUS
 62
    2
 10
1259.9392
 20
956.12380000000007
 11
1265.5669
 21
959.81529999999998
  0
LINE
  8
_0-0_LAYER001
  6
CONTINUOUS
 62
    2
 10
1261.9911
 20
951.56349999999998
 11
1267.6198999999999
 21
955.25530000000003
  0
LINE
  8
_0-0_LAYER001
  6
CONTINUOUS
 62
    2
 10
1264.0438999999999
 20
947.00440000000003
 11
1269.6706999999999
 21
950.69499999999994
  0
LINE
  8
_0-0_LAYER001
  6
CONTINUOUS
 62
    2
 10
1266.0949000000001
 20
942.44409999999993
 11
1271.7226000000001
 21
946.13589999999999
  0
LINE
  8
_0-0_LAYER001
  6
CONTINUOUS
 62
    2
 10
1267.6307999999999
 20
939.0320999999999
 11
1273.2582
 21
942.72379999999998
  0
LINE
  8
_0-0_LAYER001
  6
CONTINUOUS
 62
    2
 10
1259.4029
 20
970.0782999999999
 11
1273.0445
 21
939.76189999999997
  0
LINE
  8
_0-0_LAYER001
  6
CONTINUOUS
 62
    2
 10
1260.9072000000001
 20
974.04259999999999
 11
1259.4029
 21
970.0782999999999
  0
LINE
  8
_0-0_LAYER001
  6
CONTINUOUS
 62
    2
 10
1255.7563
 20
968.4344000000001
 11
1269.3968
 21
938.12110000000007
  0
LINE
  8
_0-0_LAYER001
  6
CONTINUOUS
 62
    2
 10
1251.7888
 20
969.93990000000008
 11
1255.7563
 21
968.4344000000001
  0
LINE
  8
_0-1_LAYER003
  6
CONTINUOUS
 62
    2
 10
1209.0847000000001
 20
842.55359999999996
 11
1214.3879999999999
 21
847.8569
  0
LINE
  8
_0-1_LAYER003
  6
CONTINUOUS
 62
    2
 10
1214.3879999999999
 20
847.8569
 11
1212.4468999999999
 21
840.61239999999998
  0
LINE
  8
_0-1_LAYER003
  6
CONTINUOUS
 62
    2
 10
1214.3879999999999
 20
847.8569
 11
1135.5435
 21
711.29420000000005
  0
LINE
  8
_0-1_LAYER003
  6
CONTINUOUS
 62
    2
 10
1202.0382999999999
 20
1035.6578999999999
 11
1203.9794999999999
 21
1028.4133999999999
  0
LINE
  8
_0-1_LAYER003
  6
CONTINUOUS
 62
    2
 10
1203.9794999999999
 20
1028.4133999999999
 11
1198.6762000000001
 21
1033.7166999999999
  0
LINE
  8
_0-1_LAYER003
  6
CONTINUOUS
 62
    2
 10
1203.9794999999999
 20
1028.4133999999999
 11
1130.3961999999999
 21
1155.8634
  0
LINE
  8
_0-1_LAYER003
  6
CONTINUOUS
 62
    2
 10
1130.3961999999999
 20
1155.8634
 11
1065.8961999999999
 21
1155.8634
  0
LINE
  8
_0-0_LAYER001
  6
CONTINUOUS
 62
    2
 10
1249.0272
 20
922.6404
 11
1251.1247000000001
 21
923.58420000000001
  0
LINE
  8
_0-0_LAYER001
  6
CONTINUOUS
 62
    2
 10
1273.6488999999999
 20
867.92499999999995
 11
1275.7464
 21
868.86869999999999
  0
LINE
  8
_0-0_LAYER001
  6
CONTINUOUS
 62
    2
 10
1202.1863000000001
 20
920.97180000000003
 11
1239.9400000000001
 21
937.96070000000009
  0
LINE
  8
_0-0_LAYER001
  6
CONTINUOUS
 62
    2
 10
1249.0272
 20
922.6404
 11
1242.5845999999999
 21
936.95759999999996
  0
LINE
  8
_0-0_LAYER001
  6
CONTINUOUS
 62
    2
 10
1280.0915
 20
853.60789999999997
 11
1273.6488999999999
 21
867.92499999999995
  0
LINE
  8
_0-0_LAYER001
  6
CONTINUOUS
 62
    2
 10
1241.3348000000001
 20
833.97420000000011
 11
1279.0882999999999
 21
850.96309999999994
  0
LINE
  8
_0-0_LAYER001
  6
CONTINUOUS
 62
    2
 10
1251.1247000000001
 20
923.58420000000001
 11
1244.682
 21
937.90129999999999
  0
LINE
  8
_0-0_LAYER001
  6
CONTINUOUS
 62
    2
 10
1201.2424000000001
 20
923.06899999999996
 11
1238.9961000000001
 21
940.05799999999999
  0
LINE
  8
_0-0_LAYER001
  6
CONTINUOUS
 62
    2
 10
1282.1891000000001
 20
854.55160000000001
 11
1275.7464
 21
868.86869999999999
  0
LINE
  8
_0-0_LAYER001
  6
CONTINUOUS
 62
    2
 10
1242.2787000000001
 20
831.8768
 11
1280.0322000000001
 21
848.86580000000004
  0
LINE
  8
_0-0_LAYER001
  6
CONTINUOUS
 62
    2
 10
1238.6902
 20
834.97739999999999
 11
1201.1831999999999
 21
918.32729999999992
  0
LINE
  8
_0-0_LAYER001
  6
CONTINUOUS
 62
    2
 10
1199.086
 20
917.38319999999999
 11
1236.5930000000001
 21
834.0335
  0
ARC
  8
_0-0_LAYER001
  6
CONTINUOUS
 62
    2
 10
1240.7607
 20
936.13679999999999
 40
2.000003
 50
24.227606000000002
 51
114.22759000000003
  0
ARC
  8
_0-0_LAYER001
  6
CONTINUOUS
 62
    2
 10
1278.2675999999999
 20
852.78700000000003
 40
2.000003
 50
294.2276
 51
24.227605999999994
  0
ARC
  8
_0-0_LAYER001
  6
CONTINUOUS
 62
    2
 10
1278.2675999999999
 20
852.78700000000003
 40
4.2999999999999998
 50
294.2276
 51
24.227605999999994
  0
ARC
  8
_0-0_LAYER001
  6
CONTINUOUS
 62
    2
 10
1240.7607
 20
936.13679999999999
 40
4.2999999999999998
 50
24.227606000000002
 51
114.22759000000003
  0
ARC
  8
_0-0_LAYER001
  6
CONTINUOUS
 62
    2
 10
1203.0072
 20
919.14789999999994
 40
2.000003
 50
114.22759000000001
 51
204.2276
  0
ARC
  8
_0-0_LAYER001
  6
CONTINUOUS
 62
    2
 10
1240.5142000000001
 20
835.798
 40
2.000003
 50
204.22760000000002
 51
294.22760000000005
  0
ARC
  8
_0-0_LAYER001
  6
CONTINUOUS
 62
    2
 10
1240.5142000000001
 20
835.798
 40
4.2999999999999998
 50
204.22760000000002
 51
294.22760000000005
  0
ARC
  8
_0-0_LAYER001
  6
CONTINUOUS
 62
    2
 10
1203.0072
 20
919.14789999999994
 40
4.2999999999999998
 50
114.22759000000001
 51
204.2276
  0
LINE
  8
_0-0_LAYER001
  6
CONTINUOUS
 62
    1
 10
1235.7723000000001
 20
960.53899999999999
 11
1944.3757999999998
 21
1279.4099000000001
  0
LINE
  8
_0-0_LAYER001
  6
CONTINUOUS
 62
    1
 10
1237.7834
 20
955.96109999999999
 11
1946.4276
 21
1274.8503000000001
  0
LINE
  8
_0-0_LAYER001
  6
CONTINUOUS
 62
    1
 10
1239.7945999999999
 20
951.38319999999999
 11
1948.4794999999999
 21
1270.2907
  0
LINE
  8
_0-0_LAYER001
  6
CONTINUOUS
 62
    1
 10
1241.8058000000001
 20
946.80529999999999
 11
1950.5313000000001
 21
1265.7311
  0
LINE
  8
_0-0_LAYER001
  6
CONTINUOUS
 62
    2
 10
1719.2287000000001
 20
1188.9940999999999
 11
1746.5864000000001
 21
1201.3051
  0
LINE
  8
_0-0_LAYER001
  6
CONTINUOUS
 62
    2
 10
1740.4308999999998
 20
1214.9838999999999
 11
1713.0731999999998
 21
1202.6729
  0
LINE
  8
_0-0_LAYER001
  6
CONTINUOUS
 62
    2
 10
1746.5864000000001
 20
1201.3051
 11
1740.4308999999998
 21
1214.9838999999999
  0
LINE
  8
_0-0_LAYER001
  6
CONTINUOUS
 62
    2
 10
1713.0731999999998
 20
1202.6729
 11
1719.2287000000001
 21
1188.9940999999999
  0
LINE
  8
_0-0_LAYER001
  6
CONTINUOUS
 62
    2
 10
1740.4308999999998
 20
1214.9838999999999
 11
1719.2287000000001
 21
1188.9940999999999
  0
LINE
  8
_0-0_LAYER001
  6
CONTINUOUS
 62
    2
 10
1513.4612000000002
 20
1096.3986
 11
1540.8188
 21
1108.7095999999999
  0
LINE
  8
_0-0_LAYER001
  6
CONTINUOUS
 62
    2
 10
1534.6633000000002
 20
1122.3884
 11
1507.3056999999999
 21
1110.0775000000001
  0
LINE
  8
_0-0_LAYER001
  6
CONTINUOUS
 62
    2
 10
1540.8188
 20
1108.7095999999999
 11
1534.6633000000002
 21
1122.3884
  0
LINE
  8
_0-0_LAYER001
  6
CONTINUOUS
 62
    2
 10
1507.3056999999999
 20
1110.0775000000001
 11
1513.4612000000002
 21
1096.3986
  0
LINE
  8
_0-0_LAYER001
  6
CONTINUOUS
 62
    2
 10
1534.6633000000002
 20
1122.3884
 11
1513.4612000000002
 21
1096.3986
  0
LINE
  8
_0-0_LAYER001
  6
CONTINUOUS
 62
    2
 10
1307.6937
 20
1003.8031000000001
 11
1335.0506
 21
1016.1155000000001
  0
LINE
  8
_0-0_LAYER001
  6
CONTINUOUS
 62
    2
 10
1328.8943999999997
 20
1029.7940000000001
 11
1301.5373999999999
 21
1017.4816000000001
  0
LINE
  8
_0-0_LAYER001
  6
CONTINUOUS
 62
    2
 10
1335.0506
 20
1016.1155000000001
 11
1328.8943999999997
 21
1029.7940000000001
  0
LINE
  8
_0-0_LAYER001
  6
CONTINUOUS
 62
    2
 10
1301.5373999999999
 20
1017.4816000000001
 11
1307.6937
 21
1003.8031000000001
  0
LINE
  8
_0-0_LAYER001
  6
CONTINUOUS
 62
    2
 10
1328.8943999999997
 20
1029.7940000000001
 11
1307.6937
 21
1003.8031000000001
  0
LINE
  8
_0-0_LAYER001
  6
CONTINUOUS
 62
    4
 10
1093.9350999999999
 20
944.89339999999993
 11
1330.2319
 21
1030.6224999999999
  0
LINE
  8
_0-0_LAYER001
  6
CONTINUOUS
 62
    4
 10
1342.7849000000001
 20
1022.4114999999999
 11
1334.3244999999999
 21
1019.3420000000001
  0
LINE
  8
_0-0_LAYER001
  6
CONTINUOUS
 62
    4
 10
1332.8943999999999
 20
1049.6728000000001
 11
1342.7849000000001
 21
1022.4114999999999
  0
LINE
  8
_0-0_LAYER001
  6
CONTINUOUS
 62
    4
 10
1330.2319
 20
1030.6224999999999
 11
1334.3244999999999
 21
1019.3420000000001
  0
ARC
  8
_0-0_LAYER001
  6
CONTINUOUS
 62
    4
 10
1479.8166000000001
 20
1128.5072
 40
10
 50
109.94091000000002
 51
199.94091
  0
ARC
  8
_0-0_LAYER001
  6
CONTINUOUS
 62
    4
 10
1685.5288
 20
1221.2245
 40
10
 50
109.94091000000002
 51
199.94091
  0
ARC
  8
_0-0_LAYER001
  6
CONTINUOUS
 62
    4
 10
1274.1043999999999
 20
1035.79
 40
10
 50
109.94091000000002
 51
199.94091
  0
ARC
  8
_0-0_LAYER001
  6
CONTINUOUS
 62
    4
 10
1030.3797
 20
1102.8777
 40
104.21281
 50
268.69240000000002
 51
288.42793999999998
  0
LINE
  8
_0-0_LAYER001
  6
CONTINUOUS
 62
    4
 10
1081.3251
 20
921.35609999999997
 11
1086.6078
 21
899.68380000000002
  0
ARC
  8
_0-0_LAYER001
  6
CONTINUOUS
 62
    4
 10
1100.7561000000001
 20
926.09249999999997
 40
20
 50
109.94091000000002
 51
193.69899000000001
  0
LINE
  8
_0-0_LAYER001
  6
CONTINUOUS
 62
    4
 10
1251.4607000000001
 20
1068.8821
 11
1267.0913
 21
1025.7991999999999
  0
ARC
  8
_0-0_LAYER001
  6
CONTINUOUS
 62
    4
 10
1270.2616
 20
1075.7030999999999
 40
20
 50
109.94091000000002
 51
199.94091
  0
LINE
  8
_0-0_LAYER001
  6
CONTINUOUS
 62
    4
 10
1687.9162000000001
 20
1214.6442
 11
1882.0165999999999
 21
1285.0644
  0
LINE
  8
_0-0_LAYER001
  6
CONTINUOUS
 62
    4
 10
1754.2093
 20
1207.8459
 11
1745.7489
 21
1204.7764999999999
  0
LINE
  8
_0-0_LAYER001
  6
CONTINUOUS
 62
    4
 10
1535.9441000000002
 20
1123.3398
 11
1540.0367000000001
 21
1112.0591999999999
  0
LINE
  8
_0-0_LAYER001
  6
CONTINUOUS
 62
    4
 10
1548.4971
 20
1115.1287
 11
1540.0367000000001
 21
1112.0591999999999
  0
LINE
  8
_0-0_LAYER001
  6
CONTINUOUS
 62
    4
 10
1064.2050999999999
 20
1004.1268
 11
1250.4407000000001
 21
1071.6936000000001
  0
LINE
  8
_0-0_LAYER001
  6
CONTINUOUS
 62
    4
 10
1263.4405999999999
 20
1094.5039999999999
 11
1456.1498000000001
 21
1164.4194
  0
ARC
  8
_0-0_LAYER001
  6
CONTINUOUS
 62
    4
 10
1463.1628999999998
 20
1174.4103
 40
10
 50
109.94091000000002
 51
199.94091
  0
LINE
  8
_0-0_LAYER001
  6
CONTINUOUS
 62
    4
 10
1453.7624000000001
 20
1170.9998000000001
 11
1472.8035
 21
1118.5164
  0
LINE
  8
_0-0_LAYER001
  6
CONTINUOUS
 62
    4
 10
1462.9708000000001
 20
1145.6185
 11
1472.8035
 21
1118.5164
  0
LINE
  8
_0-0_LAYER001
  6
CONTINUOUS
 62
    4
 10
1538.6066000000001
 20
1142.3900000000001
 11
1548.4971
 21
1115.1287
  0
LINE
  8
_0-0_LAYER001
  6
CONTINUOUS
 62
    4
 10
1270.6939
 20
1045.1904999999999
 11
1741.6563000000001
 21
1216.057
  0
LINE
  8
_0-0_LAYER001
  6
CONTINUOUS
 62
    4
 10
1741.6563000000001
 20
1216.057
 11
1745.7489
 21
1204.7764999999999
  0
LINE
  8
_0-0_LAYER001
  6
CONTINUOUS
 62
    4
 10
1459.7523000000001
 20
1183.8107
 11
1661.8620000000001
 21
1257.1367
  0
ARC
  8
_0-0_LAYER001
  6
CONTINUOUS
 62
    4
 10
1668.8751000000002
 20
1267.1275000000001
 40
10
 50
109.94091000000002
 51
199.94091
  0
LINE
  8
_0-0_LAYER001
  6
CONTINUOUS
 62
    4
 10
1659.4746
 20
1263.7170000000001
 11
1678.5156999999999
 21
1211.2336
  0
LINE
  8
_0-0_LAYER001
  6
CONTINUOUS
 62
    4
 10
1659.4746
 20
1263.7170000000001
 11
1678.5156999999999
 21
1211.2336
  0
LINE
  8
_0-0_LAYER001
  6
CONTINUOUS
 62
    4
 10
1476.4061000000002
 20
1137.9077
 11
1744.3189000000002
 21
1235.1071999999999
  0
LINE
  8
_0-0_LAYER001
  6
CONTINUOUS
 62
    4
 10
1744.3189000000002
 20
1235.1071999999999
 11
1754.2093
 21
1207.8459
  0
LINE
  8
_0-0_LAYER001
  6
CONTINUOUS
 62
    4
 10
1665.4645999999998
 20
1276.5279
 11
1855.4339
 21
1345.4494
  0
LINE
  8
_0-0_LAYER001
  6
CONTINUOUS
 62
    4
 10
1682.1183000000001
 20
1230.6249
 11
1875.152
 21
1300.6581000000001
  0
LINE
  8
_0-0_LAYER001
  6
CONTINUOUS
 62
    4
 10
1028.1797999999999
 20
998.52029999999991
 11
1057.0938000000001
 21
905.81639999999993
  0
ARC
  8
_0-0_LAYER001
  6
CONTINUOUS
 62
    4
 10
1208.6415999999999
 20
1004.6922999999999
 40
181.02933999999999
 50
181.81043
 51
212.85045999999997
  0
LINE
  8
_0-0_LAYER001
  6
CONTINUOUS
 62
    4
 10
1055.7237
 20
949.17699999999991
 11
1055.6485
 21
948.52909999999997
  0
LINE
  8
_0-0_LAYER001
  6
CONTINUOUS
 62
    4
 10
1535.9441000000002
 20
1123.3398
 11
1055.5178000000001
 21
949.03970000000004
  0
LINE
  8
_0-0_LAYER001
  6
CONTINUOUS
 62
    4
 10
1057.0938000000001
 20
905.81639999999993
 11
1067.1270999999999
 21
909.45650000000001
  0
LINE
  8
_0-0_LAYER001
  6
CONTINUOUS
 62
    4
 10
1055.5178000000001
 20
949.03970000000004
 11
1071.5912000000001
 21
894.23579999999993
  0
LINE
  8
_0-0_LAYER001
  6
CONTINUOUS
 62
    4
 10
1086.6078
 20
899.68380000000002
 11
1071.5912000000001
 21
894.23579999999993
  0
CIRCLE
  8
_0-0_LAYER001
  6
CONTINUOUS
 62
    2
 10
970.05529999999999
 20
1183.2719999999999
 40
1.6999999999999997
  0
LINE
  8
_0-0_LAYER001
  6
CONTINUOUS
 62
    2
 10
970.05529999999999
 20
1183.2719999999999
 11
1181.4047
 21
1260.4496999999999
  0
CIRCLE
  8
_0-0_LAYER001
  6
CONTINUOUS
 62
    2
 10
1181.4047
 20
1260.4496999999999
 40
1.6999999999999997
  0
LINE
  8
_0-0_LAYER001
  6
CONTINUOUS
 62
    2
 10
969.19779999999992
 20
1185.6203
 11
987.20589999999993
 21
1136.3054
  0
LINE
  8
_0-0_LAYER001
  6
CONTINUOUS
 62
    2
 10
1180.5472
 20
1262.7981
 11
1198.5554
 21
1213.4831999999999
  0
CIRCLE
  8
_0-0_LAYER001
  6
CONTINUOUS
 62
    2
 10
1172.1645000000001
 20
1285.7539999999999
 40
1.6999999999999997
  0
LINE
  8
_0-0_LAYER001
  6
CONTINUOUS
 62
    2
 10
1172.1645000000001
 20
1285.7539999999999
 11
1383.5138999999999
 21
1362.9318000000001
  0
CIRCLE
  8
_0-0_LAYER001
  6
CONTINUOUS
 62
    2
 10
1383.5138999999999
 20
1362.9318000000001
 40
1.6999999999999997
  0
LINE
  8
_0-0_LAYER001
  6
CONTINUOUS
 62
    2
 10
1171.3069
 20
1288.1023
 11
1189.3151
 21
1238.7874999999999
  0
LINE
  8
_0-0_LAYER001
  6
CONTINUOUS
 62
    2
 10
1382.6564000000003
 20
1365.2800999999999
 11
1400.6645000000001
 21
1315.9652000000001
  0
CIRCLE
  8
_0-0_LAYER001
  6
CONTINUOUS
 62
    2
 10
1374.9061000000002
 20
1386.5039999999999
 40
1.6999999999999997
  0
LINE
  8
_0-0_LAYER001
  6
CONTINUOUS
 62
    2
 10
1374.9061000000002
 20
1386.5039999999999
 11
1586.2556
 21
1463.6817999999998
  0
CIRCLE
  8
_0-0_LAYER001
  6
CONTINUOUS
 62
    2
 10
1586.2556
 20
1463.6817999999998
 40
1.6999999999999997
  0
LINE
  8
_0-0_LAYER001
  6
CONTINUOUS
 62
    2
 10
1374.0486000000001
 20
1388.8524000000002
 11
1392.0567000000001
 21
1339.5374999999999
  0
LINE
  8
_0-0_LAYER001
  6
CONTINUOUS
 62
    2
 10
1585.3980000000001
 20
1466.0300999999999
 11
1603.4061999999999
 21
1416.7153000000003
  0
LINE
  8
_0-1_LAYER003
  6
CONTINUOUS
 62
    2
 10
1170.0228999999999
 20
919.95820000000003
 11
1175.3262
 21
925.26150000000007
  0
LINE
  8
_0-1_LAYER003
  6
CONTINUOUS
 62
    2
 10
1175.3262
 20
925.26150000000007
 11
1085.1016
 21
768.98800000000006
  0
LINE
  8
_0-1_LAYER003
  6
CONTINUOUS
 62
    2
 10
1085.1016
 20
768.98800000000006
 11
962.10159999999996
 21
768.98800000000006
  0
LINE
  8
_0-0_LAYER001
  6
CONTINUOUS
 62
    2
 10
1843.9146000000001
 20
995.99219999999991
 11
1822.3742000000002
 21
1043.8697999999999
  0
CIRCLE
  8
_0-0_LAYER001
  6
CONTINUOUS
 62
    2
 10
1842.8888999999999
 20
998.27209999999991
 40
1.6999999999999997
  0
LINE
  8
_0-0_LAYER001
  6
CONTINUOUS
 62
    2
 10
1842.8888999999999
 20
998.27209999999991
 11
1636.7953000000002
 21
905.54950000000008
  0
CIRCLE
  8
_0-0_LAYER001
  6
CONTINUOUS
 62
    2
 10
1636.7953000000002
 20
905.54950000000008
 40
1.6999999999999997
  0
LINE
  8
_0-0_LAYER001
  6
CONTINUOUS
 62
    2
 10
1637.8211000000001
 20
903.26960000000008
 11
1616.2806999999998
 21
951.14709999999991
  0
CIRCLE
  8
_0-0_LAYER001
  6
CONTINUOUS
 62
    2
 10
1636.7953000000002
 20
905.54950000000008
 40
1.6999999999999997
  0
LINE
  8
_0-0_LAYER001
  6
CONTINUOUS
 62
    2
 10
1636.7953000000002
 20
905.54950000000008
 11
1430.7017999999998
 21
812.82680000000005
  0
CIRCLE
  8
_0-0_LAYER001
  6
CONTINUOUS
 62
    2
 10
1430.7017999999998
 20
812.82680000000005
 40
1.6999999999999997
  0
LINE
  8
_0-0_LAYER001
  6
CONTINUOUS
 62
    2
 10
1431.7276000000002
 20
810.54690000000005
 11
1410.1872000000001
 21
858.42450000000008
  0
CIRCLE
  8
_0-0_LAYER001
  6
CONTINUOUS
 62
    2
 10
1430.7017999999998
 20
812.82680000000005
 40
1.6999999999999997
  0
LINE
  8
_0-0_LAYER001
  6
CONTINUOUS
 62
    2
 10
1430.7017999999998
 20
812.82680000000005
 11
1214.5678
 21
715.58690000000001
  0
CIRCLE
  8
_0-0_LAYER001
  6
CONTINUOUS
 62
    2
 10
1214.5678
 20
715.58690000000001
 40
1.6999999999999997
  0
LINE
  8
_0-0_LAYER001
  6
CONTINUOUS
 62
    2
 10
1215.5934999999999
 20
713.30700000000002
 11
1194.0531000000001
 21
761.18460000000005
  0
LINE
  8
_0-1_LAYER003
  6
CONTINUOUS
 62
    2
 10
1185.4804999999999
 20
633.96980000000008
 11
1163.9401
 21
681.8472999999999
  0
CIRCLE
  8
_0-1_LAYER003
  6
CONTINUOUS
 62
    2
 10
1184.4548
 20
636.24970000000008
 40
1.6999999999999997
  0
LINE
  8
_0-1_LAYER003
  6
CONTINUOUS
 62
    2
 10
1184.4548
 20
636.24970000000008
 11
1239.184
 21
660.8726999999999
  0
CIRCLE
  8
_0-1_LAYER003
  6
CONTINUOUS
 62
    2
 10
1239.184
 20
660.8726999999999
 40
1.6999999999999997
  0
LINE
  8
_0-1_LAYER003
  6
CONTINUOUS
 62
    2
 10
1240.2098000000001
 20
658.5927999999999
 11
1218.6694
 21
706.47029999999995
  0
CIRCLE
  8
_0-1_LAYER003
  6
CONTINUOUS
 62
    2
 10
1239.184
 20
660.8726999999999
 40
1.6999999999999997
  0
LINE
  8
_0-1_LAYER003
  6
CONTINUOUS
 62
    2
 10
1239.184
 20
660.8726999999999
 11
1263.5659000000001
 21
671.84220000000005
  0
CIRCLE
  8
_0-1_LAYER003
  6
CONTINUOUS
 62
    2
 10
1263.5659000000001
 20
671.84220000000005
 40
1.6999999999999997
  0
LINE
  8
_0-1_LAYER003
  6
CONTINUOUS
 62
    2
 10
1264.5916999999999
 20
669.56230000000005
 11
1243.0513000000001
 21
717.43990000000008
  0
CIRCLE
  8
_0-1_LAYER003
  6
CONTINUOUS
 62
    2
 10
1263.5659000000001
 20
671.84220000000005
 40
1.6999999999999997
  0
LINE
  8
_0-1_LAYER003
  6
CONTINUOUS
 62
    2
 10
1263.5659000000001
 20
671.84220000000005
 11
1277.2672
 21
678.00649999999996
  0
CIRCLE
  8
_0-1_LAYER003
  6
CONTINUOUS
 62
    2
 10
1277.2672
 20
678.00649999999996
 40
1.6999999999999997
  0
LINE
  8
_0-1_LAYER003
  6
CONTINUOUS
 62
    2
 10
1278.2929999999999
 20
675.72659999999996
 11
1256.7526
 21
723.60419999999999
  0
LINE
  8
_0-1_LAYER003
  6
CONTINUOUS
 62
    2
 10
1616.3290000000002
 20
1188.2058999999999
 11
1618.2701000000002
 21
1180.9614999999999
  0
LINE
  8
_0-1_LAYER003
  6
CONTINUOUS
 62
    2
 10
1618.2701000000002
 20
1180.9614999999999
 11
1612.9668000000001
 21
1186.2647999999999
  0
LINE
  8
_0-1_LAYER003
  6
CONTINUOUS
 62
    2
 10
1618.2701000000002
 20
1180.9614999999999
 11
1552.6259
 21
1294.6605999999999
  0
LINE
  8
_0-0_LAYER001
  6
DASHED3
 62
    2
 10
1154.0966000000001
 20
935.85059999999999
 11
1232.1678999999999
 21
970.97479999999996
  0
LINE
  8
_0-0_LAYER001
  6
CONTINUOUS
 62
    2
 10
1294.6297999999999
 20
943.16139999999996
 11
1296.7273
 21
944.10519999999997
  0
LINE
  8
_0-0_LAYER001
  6
CONTINUOUS
 62
    2
 10
1319.2514000000001
 20
888.44599999999991
 11
1321.3489999999999
 21
889.38979999999992
  0
LINE
  8
_0-0_LAYER001
  6
CONTINUOUS
 62
    2
 10
1247.7889
 20
941.49279999999999
 11
1285.5426
 21
958.48170000000005
  0
LINE
  8
_0-0_LAYER001
  6
CONTINUOUS
 62
    2
 10
1294.6297999999999
 20
943.16139999999996
 11
1288.1872000000001
 21
957.47859999999991
  0
LINE
  8
_0-0_LAYER001
  6
CONTINUOUS
 62
    2
 10
1325.6941000000002
 20
874.12889999999993
 11
1319.2514000000001
 21
888.44599999999991
  0
LINE
  8
_0-0_LAYER001
  6
CONTINUOUS
 62
    2
 10
1286.9373999999998
 20
854.49520000000007
 11
1324.6909000000001
 21
871.4840999999999
  0
LINE
  8
_0-0_LAYER001
  6
CONTINUOUS
 62
    2
 10
1296.7273
 20
944.10519999999997
 11
1290.2845
 21
958.42229999999995
  0
LINE
  8
_0-0_LAYER001
  6
CONTINUOUS
 62
    2
 10
1246.845
 20
943.59009999999989
 11
1284.5987
 21
960.57899999999995
  0
LINE
  8
_0-0_LAYER001
  6
CONTINUOUS
 62
    2
 10
1327.7917
 20
875.07259999999997
 11
1321.3489999999999
 21
889.38979999999992
  0
LINE
  8
_0-0_LAYER001
  6
CONTINUOUS
 62
    2
 10
1287.8813
 20
852.39779999999996
 11
1325.6347000000001
 21
869.38679999999999
  0
LINE
  8
_0-0_LAYER001
  6
CONTINUOUS
 62
    2
 10
1284.2928000000002
 20
855.49839999999995
 11
1246.7858000000001
 21
938.84830000000011
  0
LINE
  8
_0-0_LAYER001
  6
CONTINUOUS
 62
    2
 10
1244.6885
 20
937.90429999999992
 11
1282.1956
 21
854.55449999999996
  0
LINE
  8
_0-0_LAYER001
  6
CONTINUOUS
 62
    2
 10
1290.2845
 20
958.42239999999993
 11
1327.7918
 21
875.07269999999994
  0
LINE
  8
_0-0_LAYER001
  6
CONTINUOUS
 62
    2
 10
1294.3880999999999
 20
960.26900000000001
 11
1331.8954000000003
 21
876.91930000000002
  0
LINE
  8
_0-0_LAYER001
  6
CONTINUOUS
 62
    2
 10
1290.2845
 20
958.42229999999995
 11
1294.3882000000003
 21
960.26900000000001
  0
LINE
  8
_0-0_LAYER001
  6
CONTINUOUS
 62
    2
 10
1331.8954000000003
 20
876.91930000000002
 11
1327.7915000000003
 21
875.07249999999999
  0
LINE
  8
_0-0_LAYER001
  6
CONTINUOUS
 62
    2
 10
1337.7636000000002
 20
863.87889999999993
 11
1300.8317999999999
 21
945.95280000000002
  0
LINE
  8
_0-0_LAYER001
  6
CONTINUOUS
 62
    2
 10
1309.2668000000001
 20
944.2654
 11
1337.1705999999999
 21
882.25450000000001
  0
LINE
  8
_0-0_LAYER001
  6
CONTINUOUS
 62
    2
 10
1302.6550999999999
 20
946.77389999999991
 11
1300.8317999999999
 21
945.95280000000002
  0
LINE
  8
_0-0_LAYER001
  6
CONTINUOUS
 62
    2
 10
1412.4052000000001
 20
905.14329999999995
 11
1350.3937000000001
 21
877.23880000000008
  0
LINE
  8
_0-0_LAYER001
  6
CONTINUOUS
 62
    2
 10
1309.0378000000001
 20
916.74800000000005
 11
1306.3018
 21
915.51639999999998
  0
LINE
  8
_0-0_LAYER001
  6
CONTINUOUS
 62
    2
 10
1302.4722999999999
 20
931.33829999999989
 11
1299.7363999999998
 21
930.10680000000002
  0
LINE
  8
_0-0_LAYER001
  6
CONTINUOUS
 62
    2
 10
1312.8664000000001
 20
900.92699999999991
 11
1299.7363999999998
 21
930.10680000000002
  0
LINE
  8
_0-0_LAYER001
  6
CONTINUOUS
 62
    2
 10
1315.6033
 20
902.15789999999993
 11
1312.8664000000001
 21
900.92699999999991
  0
LINE
  8
_0-0_LAYER001
  6
CONTINUOUS
 62
    2
 10
1301.002
 20
905.53649999999993
 11
1309.1428999999998
 21
909.20039999999995
  0
LINE
  8
_0-0_LAYER001
  6
CONTINUOUS
 62
    2
 10
1295.3168000000001
 20
918.17139999999995
 11
1303.4576999999999
 21
921.83400000000006
  0
LINE
  8
_0-0_LAYER001
  6
CONTINUOUS
 62
    2
 10
1292.4728
 20
924.48890000000006
 11
1300.6152
 21
928.15290000000005
  0
LINE
  8
_0-0_LAYER001
  6
CONTINUOUS
 62
    2
 10
1292.2573
 20
922.35840000000007
 11
1292.4728
 21
924.48890000000006
  0
LINE
  8
_0-0_LAYER001
  6
CONTINUOUS
 62
    2
 10
1302.1056000000001
 20
900.4713999999999
 11
1292.2573
 21
922.35840000000007
  0
LINE
  8
_0-0_LAYER001
  6
CONTINUOUS
 62
    2
 10
1303.8454999999999
 20
899.21820000000002
 11
1311.9868999999999
 21
902.88159999999993
  0
LINE
  8
_0-0_LAYER001
  6
CONTINUOUS
 62
    2
 10
1302.1056000000001
 20
900.4713999999999
 11
1303.8454999999999
 21
899.21820000000002
  0
LINE
  8
_0-0_LAYER001
  6
CONTINUOUS
 62
    2
 10
1285.2373
 20
914.8103000000001
 11
1294.3761999999997
 21
901.3780999999999
  0
LINE
  8
_0-0_LAYER001
  6
CONTINUOUS
 62
    2
 10
1290.7937999999999
 20
917.31040000000007
 11
1299.9317999999998
 21
903.87740000000008
  0
LINE
  8
_0-0_LAYER001
  6
CONTINUOUS
 62
    2
 10
1324.8251
 20
931.44849999999997
 11
1316.6842999999999
 21
927.78469999999993
  0
LINE
  8
_0-0_LAYER001
  6
CONTINUOUS
 62
    2
 10
1330.5106000000001
 20
918.81359999999995
 11
1322.3688999999999
 21
915.15030000000002
  0
LINE
  8
_0-0_LAYER001
  6
CONTINUOUS
 62
    2
 10
1333.3544000000002
 20
912.49610000000007
 11
1325.2123000000001
 21
908.83210000000008
  0
LINE
  8
_0-0_LAYER001
  6
CONTINUOUS
 62
    2
 10
1333.5699999999999
 20
914.62650000000008
 11
1333.3544000000002
 21
912.49610000000007
  0
LINE
  8
_0-0_LAYER001
  6
CONTINUOUS
 62
    2
 10
1323.7215000000001
 20
936.5136
 11
1333.5699999999999
 21
914.62650000000008
  0
LINE
  8
_0-0_LAYER001
  6
CONTINUOUS
 62
    2
 10
1321.9820999999999
 20
937.7666999999999
 11
1313.8405
 21
934.10349999999994
  0
LINE
  8
_0-0_LAYER001
  6
CONTINUOUS
 62
    2
 10
1323.7215000000001
 20
936.5136
 11
1321.9820999999999
 21
937.7666999999999
  0
LINE
  8
_0-0_LAYER001
  6
CONTINUOUS
 62
    2
 10
1419.0161000000001
 20
902.63529999999992
 11
1419.8368
 21
900.81130000000007
  0
LINE
  8
_0-0_LAYER001
  6
CONTINUOUS
 62
    2
 10
1419.8368
 20
900.81130000000007
 11
1337.7637999999999
 21
863.87850000000003
  0
LINE
  8
_0-0_LAYER001
  6
CONTINUOUS
 62
    2
 10
1293.9000000000001
 20
918.70779999999991
 11
1285.2373
 21
914.8103000000001
  0
LINE
  8
_0-0_LAYER001
  6
CONTINUOUS
 62
    2
 10
1285.2373
 20
914.8103000000001
 11
1284.2340999999999
 21
912.16570000000002
  0
LINE
  8
_0-0_LAYER001
  6
CONTINUOUS
 62
    2
 10
1300.4648
 20
904.11809999999991
 11
1291.8028999999999
 21
900.2201
  0
LINE
  8
_0-0_LAYER001
  6
CONTINUOUS
 62
    2
 10
1285.2373
 20
914.8103000000001
 11
1291.8028999999999
 21
900.2201
  0
LINE
  8
_0-0_LAYER001
  6
CONTINUOUS
 62
    2
 10
1289.1576
 20
901.22289999999998
 11
1291.8028999999999
 21
900.2201
  0
LINE
  8
_0-0_LAYER001
  6
CONTINUOUS
 62
    2
 10
1284.2340999999999
 20
912.16570000000002
 11
1289.1576
 21
901.22289999999998
  0
LINE
  8
_0-0_LAYER001
  6
CONTINUOUS
 62
    2
 10
1288.0636999999999
 20
841.5139999999999
 11
1997.7231000000002
 21
1160.8601000000001
  0
LINE
  8
_0-0_LAYER001
  6
CONTINUOUS
 62
    2
 10
1197.3277
 20
921.30729999999994
 11
1952.5830999999998
 21
1261.1714999999999
  0
ARC
  8
_0-0_LAYER001
  6
CONTINUOUS
 62
    2
 10
1286.3633
 20
956.65779999999995
 40
2.000003
 50
24.227606000000002
 51
114.22759000000003
  0
ARC
  8
_0-0_LAYER001
  6
CONTINUOUS
 62
    2
 10
1323.8702000000001
 20
873.30799999999999
 40
2.000003
 50
294.2276
 51
24.227605999999994
  0
ARC
  8
_0-0_LAYER001
  6
CONTINUOUS
 62
    2
 10
1323.8702000000001
 20
873.30799999999999
 40
4.2999999999999998
 50
294.2276
 51
24.227605999999994
  0
ARC
  8
_0-0_LAYER001
  6
CONTINUOUS
 62
    2
 10
1286.3633
 20
956.65779999999995
 40
4.2999999999999998
 50
24.227606000000002
 51
114.22759000000003
  0
ARC
  8
_0-0_LAYER001
  6
CONTINUOUS
 62
    2
 10
1248.6098
 20
939.66889999999989
 40
2.000003
 50
114.22759000000001
 51
204.2276
  0
ARC
  8
_0-0_LAYER001
  6
CONTINUOUS
 62
    2
 10
1286.1167
 20
856.31899999999996
 40
2.000003
 50
204.22760000000002
 51
294.22760000000005
  0
ARC
  8
_0-0_LAYER001
  6
CONTINUOUS
 62
    2
 10
1286.1167
 20
856.31899999999996
 40
4.2999999999999998
 50
204.22760000000002
 51
294.22760000000005
  0
ARC
  8
_0-0_LAYER001
  6
CONTINUOUS
 62
    2
 10
1248.6098
 20
939.66889999999989
 40
4.2999999999999998
 50
114.22759000000001
 51
204.2276
  0
ARC
  8
_0-0_LAYER001
  6
CONTINUOUS
 62
    2
 10
1346.2906
 20
886.36030000000005
 40
10.001999
 50
204.23162000000002
 51
294.21884999999997
  0
ARC
  8
_0-0_LAYER001
  6
CONTINUOUS
 62
    2
 10
1304.7081000000001
 20
942.21479999999997
 40
4.9989999999999997
 50
24.224675999999999
 51
114.23530999999998
  0
ARC
  8
_0-0_LAYER001
  6
CONTINUOUS
 62
    2
 10
1414.4575
 20
900.58459999999991
 40
4.9989999999999997
 50
24.224675999999999
 51
114.23530999999998
  0
ARC
  8
_0-0_LAYER001
  6
CONTINUOUS
 62
    2
 10
1298.5205000000001
 20
923.42049999999995
 40
6.1470010000000013
 50
204.58582999999999
 51
238.59309999999999
  0
ARC
  8
_0-0_LAYER001
  6
CONTINUOUS
 62
    2
 10
1307.066
 20
904.45650000000001
 40
6.1580000000000004
 50
169.89975999999999
 51
203.85441
  0
ARC
  8
_0-0_LAYER001
  6
CONTINUOUS
 62
    2
 10
1318.0630999999998
 20
920.81169999999997
 40
22.898997999999999
 50
186.62326999999999
 51
221.83878999999999
  0
ARC
  8
_0-0_LAYER001
  6
CONTINUOUS
 62
    2
 10
1327.3040000000001
 20
913.5655999999999
 40
6.1479999999999997
 50
24.562656
 51
58.577396
  0
ARC
  8
_0-0_LAYER001
  6
CONTINUOUS
 62
    2
 10
1318.7718999999997
 20
932.52800000000002
 40
6.1479999999999997
 50
349.89938000000006
 51
23.901646000000021
  0
ARC
  8
_0-0_LAYER001
  6
CONTINUOUS
 62
    2
 10
1307.7275
 20
916.15830000000005
 40
22.936000999999997
 50
6.6513660000000003
 51
41.808135999999998
  0
LINE
  8
_0-0_LAYER001
  6
DASHED3
 62
    2
 10
1232.1678999999999
 20
970.97479999999996
 11
1234.2553
 21
968.3931
  0
LINE
  8
_0-0_LAYER001
  6
CONTINUOUS
 62
    2
 10
1965.0295000000001
 20
1153.8245999999999
 11
1903.0180999999998
 21
1125.9197999999999
  0
LINE
  8
_0-0_LAYER001
  6
CONTINUOUS
 62
    2
 10
1971.6404000000002
 20
1151.3166000000001
 11
1972.4611
 21
1149.4926
  0
LINE
  8
_0-0_LAYER001
  6
CONTINUOUS
 62
    2
 10
1972.4611
 20
1149.4926
 11
1890.3881999999999
 21
1112.5595000000001
  0
ARC
  8
_0-0_LAYER001
  6
CONTINUOUS
 62
    2
 10
1898.915
 20
1135.0413000000001
 40
10.001999
 50
204.2319
 51
294.21913000000001
  0
ARC
  8
_0-0_LAYER001
  6
CONTINUOUS
 62
    2
 10
1967.0817999999999
 20
1149.2659000000001
 40
4.9989999999999997
 50
24.224954
 51
114.23559000000002
  0
LINE
  8
_0-0_LAYER001
  6
CONTINUOUS
 62
    2
 10
1855.9423000000002
 20
1149.6975
 11
1857.6821
 21
1148.4441999999999
  0
LINE
  8
_0-0_LAYER001
  6
CONTINUOUS
 62
    2
 10
1839.0738999999999
 20
1164.0363
 11
1848.2129
 21
1150.6041
  0
LINE
  8
_0-0_LAYER001
  6
CONTINUOUS
 62
    2
 10
1844.6304
 20
1166.5364
 11
1853.7685000000001
 21
1153.1034
  0
LINE
  8
_0-0_LAYER001
  6
CONTINUOUS
 62
    2
 10
1839.0738999999999
 20
1164.0363
 11
1838.0707000000002
 21
1161.3915999999999
  0
LINE
  8
_0-0_LAYER001
  6
CONTINUOUS
 62
    2
 10
1854.3015
 20
1153.3442
 11
1845.6396
 21
1149.4460999999999
  0
LINE
  8
_0-0_LAYER001
  6
CONTINUOUS
 62
    2
 10
1839.0738999999999
 20
1164.0363
 11
1845.6396
 21
1149.4460999999999
  0
LINE
  8
_0-0_LAYER001
  6
CONTINUOUS
 62
    2
 10
1842.9942000000001
 20
1150.4487999999999
 11
1845.6396
 21
1149.4460999999999
  0
LINE
  8
_0-0_LAYER001
  6
CONTINUOUS
 62
    2
 10
1838.0707000000002
 20
1161.3915999999999
 11
1842.9942000000001
 21
1150.4487999999999
  0
ARC
  8
_0-0_LAYER001
  6
CONTINUOUS
 62
    2
 10
1860.9027000000001
 20
1153.6826000000001
 40
6.1580000000000004
 50
169.90002999999999
 51
203.85469000000001
  0
LINE
  8
_0-0_LAYER001
  6
CONTINUOUS
 62
    2
 10
1855.2791000000002
 20
1195.4547
 11
1853.4558999999999
 21
1194.6334999999999
  0
LINE
  8
_0-0_LAYER001
  6
CONTINUOUS
 62
    2
 10
1890.3879999999999
 20
1112.5599
 11
1853.4558999999999
 21
1194.6334999999999
  0
LINE
  8
_0-0_LAYER001
  6
CONTINUOUS
 62
    2
 10
1861.8908999999999
 20
1192.9462000000001
 11
1889.7950000000001
 21
1130.9355
  0
LINE
  8
_0-0_LAYER001
  6
CONTINUOUS
 62
    2
 10
1862.8744000000002
 20
1165.9740999999999
 11
1860.1383999999998
 21
1164.7424000000001
  0
LINE
  8
_0-0_LAYER001
  6
CONTINUOUS
 62
    2
 10
1856.3087999999998
 20
1180.5644
 11
1853.5729999999999
 21
1179.3327999999999
  0
LINE
  8
_0-0_LAYER001
  6
CONTINUOUS
 62
    2
 10
1866.7031000000002
 20
1150.1531
 11
1853.5729999999999
 21
1179.3327999999999
  0
LINE
  8
_0-0_LAYER001
  6
CONTINUOUS
 62
    2
 10
1869.4398999999999
 20
1151.384
 11
1866.7031000000002
 21
1150.1531
  0
LINE
  8
_0-0_LAYER001
  6
CONTINUOUS
 62
    2
 10
1854.8386
 20
1154.7626
 11
1862.9794999999999
 21
1158.4265
  0
LINE
  8
_0-0_LAYER001
  6
CONTINUOUS
 62
    2
 10
1849.1534000000001
 20
1167.3974000000001
 11
1857.2941999999998
 21
1171.0600999999999
  0
LINE
  8
_0-0_LAYER001
  6
CONTINUOUS
 62
    2
 10
1846.3092999999999
 20
1173.7148999999999
 11
1854.4517000000001
 21
1177.3788999999999
  0
LINE
  8
_0-0_LAYER001
  6
CONTINUOUS
 62
    2
 10
1846.0938999999998
 20
1171.5844
 11
1846.3092999999999
 21
1173.7148999999999
  0
LINE
  8
_0-0_LAYER001
  6
CONTINUOUS
 62
    2
 10
1855.9423000000002
 20
1149.6975
 11
1846.0938999999998
 21
1171.5844
  0
LINE
  8
_0-0_LAYER001
  6
CONTINUOUS
 62
    2
 10
1857.6821
 20
1148.4441999999999
 11
1865.8235
 21
1152.1077
  0
LINE
  8
_0-0_LAYER001
  6
CONTINUOUS
 62
    2
 10
1877.4493000000002
 20
1180.1294
 11
1869.3085000000001
 21
1176.4655
  0
LINE
  8
_0-0_LAYER001
  6
CONTINUOUS
 62
    2
 10
1883.1347999999998
 20
1167.4945
 11
1874.9931000000001
 21
1163.8312000000001
  0
LINE
  8
_0-0_LAYER001
  6
CONTINUOUS
 62
    2
 10
1885.9785999999999
 20
1161.1769999999999
 11
1877.8366000000001
 21
1157.5129999999999
  0
LINE
  8
_0-0_LAYER001
  6
CONTINUOUS
 62
    2
 10
1886.1941999999999
 20
1163.3074999999999
 11
1885.9785999999999
 21
1161.1769999999999
  0
LINE
  8
_0-0_LAYER001
  6
CONTINUOUS
 62
    2
 10
1876.3456000000001
 20
1185.1945000000001
 11
1886.1941999999999
 21
1163.3074999999999
  0
LINE
  8
_0-0_LAYER001
  6
CONTINUOUS
 62
    2
 10
1874.6062000000002
 20
1186.4476
 11
1866.4645999999998
 21
1182.7844
  0
LINE
  8
_0-0_LAYER001
  6
CONTINUOUS
 62
    2
 10
1876.3456000000001
 20
1185.1945000000001
 11
1874.6062000000002
 21
1186.4476
  0
LINE
  8
_0-0_LAYER001
  6
CONTINUOUS
 62
    2
 10
1847.7365
 20
1167.9338
 11
1839.0738999999999
 21
1164.0363
  0
ARC
  8
_0-0_LAYER001
  6
CONTINUOUS
 62
    2
 10
1857.3321000000001
 20
1190.8956000000001
 40
4.9989999999999997
 50
24.224954
 51
114.23559000000002
  0
ARC
  8
_0-0_LAYER001
  6
CONTINUOUS
 62
    2
 10
1852.3571000000002
 20
1172.6466
 40
6.1470010000000013
 50
204.58611000000002
 51
238.59338000000002
  0
ARC
  8
_0-0_LAYER001
  6
CONTINUOUS
 62
    2
 10
1871.8996999999999
 20
1170.0379
 40
22.898997999999999
 50
186.62354999999999
 51
221.83906999999999
  0
ARC
  8
_0-0_LAYER001
  6
CONTINUOUS
 62
    2
 10
1879.9281999999998
 20
1162.2465
 40
6.1479999999999997
 50
24.562933999999998
 51
58.577674000000009
  0
ARC
  8
_0-0_LAYER001
  6
CONTINUOUS
 62
    2
 10
1871.3960000000002
 20
1181.2089000000001
 40
6.1479999999999997
 50
349.89965999999998
 51
23.901924000000019
  0
ARC
  8
_0-0_LAYER001
  6
CONTINUOUS
 62
    2
 10
1860.3517000000002
 20
1164.8390999999999
 40
22.936000999999997
 50
6.651644000000001
 51
41.808413999999999
  0
LINE
  8
_0-0_LAYER001
  6
CONTINUOUS
 62
    2
 10
1807.5717
 20
1223.3314
 11
1816.6918999999998
 21
1227.4356
  0
LINE
  8
_0-0_LAYER001
  6
CONTINUOUS
 62
    2
 10
1808.8040000000001
 20
1220.596
 11
1817.922
 21
1224.6996999999999
  0
LINE
  8
_0-0_LAYER001
  6
CONTINUOUS
 62
    2
 10
1816.6918999999998
 20
1227.4356
 11
1817.922
 21
1224.6996999999999
  0
LINE
  8
_0-0_LAYER001
  6
CONTINUOUS
 62
    2
 10
1807.5717
 20
1223.3314
 11
1808.8040000000001
 21
1220.596
  0
LINE
  8
_0-0_LAYER001
  6
CONTINUOUS
 62
    2
 10
1812.1316999999999
 20
1225.3834999999999
 11
1813.3634999999999
 21
1222.6474000000001
  0
LINE
  8
_0-0_LAYER001
  6
CONTINUOUS
 62
    2
 10
1830.5329000000002
 20
1184.4909
 11
1830.0587999999998
 21
1190.4187999999999
  0
LINE
  8
_0-0_LAYER001
  6
CONTINUOUS
 62
    2
 10
1830.5329000000002
 20
1184.4909
 11
1826.4115000000002
 21
1188.7769000000001
  0
LINE
  8
_0-0_LAYER001
  6
CONTINUOUS
 62
    2
 10
1822.8571000000002
 20
1209.4367
 11
1816.3620000000001
 21
1207.673
  0
LINE
  8
_0-0_LAYER001
  6
CONTINUOUS
 62
    2
 10
1824.9095000000002
 20
1204.8766000000001
 11
1818.4133000000002
 21
1203.1121000000001
  0
LINE
  8
_0-0_LAYER001
  6
CONTINUOUS
 62
    2
 10
1826.9602
 20
1200.3166000000001
 11
1820.4663
 21
1198.5527999999999
  0
LINE
  8
_0-0_LAYER001
  6
CONTINUOUS
 62
    2
 10
1829.0131000000001
 20
1195.7571
 11
1822.5176999999999
 21
1193.9935
  0
LINE
  8
_0-0_LAYER001
  6
CONTINUOUS
 62
    2
 10
1830.5481
 20
1192.3447000000001
 11
1824.0529999999999
 21
1190.5812000000001
  0
LINE
  8
_0-0_LAYER001
  6
CONTINUOUS
 62
    2
 10
1812.7687000000001
 20
1219.0926999999999
 11
1826.4115000000002
 21
1188.7769000000001
  0
LINE
  8
_0-0_LAYER001
  6
CONTINUOUS
 62
    2
 10
1808.8040000000001
 20
1220.596
 11
1812.7687000000001
 21
1219.0926999999999
  0
LINE
  8
_0-0_LAYER001
  6
CONTINUOUS
 62
    2
 10
1816.4175
 20
1220.7317
 11
1830.0587999999998
 21
1190.4187999999999
  0
LINE
  8
_0-0_LAYER001
  6
CONTINUOUS
 62
    2
 10
1817.922
 20
1224.6996999999999
 11
1816.4175
 21
1220.7317
  0
LINE
  8
_0-0_LAYER001
  6
CONTINUOUS
 62
    2
 10
1809.5518000000002
 20
1174.8761999999999
 11
1807.4544000000001
 21
1173.9322999999999
  0
LINE
  8
_0-0_LAYER001
  6
CONTINUOUS
 62
    2
 10
1834.1738
 20
1120.1609000000001
 11
1832.0763999999999
 21
1119.2170000000001
  0
LINE
  8
_0-0_LAYER001
  6
CONTINUOUS
 62
    2
 10
1841.8656999999998
 20
1208.8271
 11
1804.1122
 21
1191.8379
  0
LINE
  8
_0-0_LAYER001
  6
CONTINUOUS
 62
    2
 10
1809.5518000000002
 20
1174.8761999999999
 11
1803.1089999999999
 21
1189.1932999999999
  0
LINE
  8
_0-0_LAYER001
  6
CONTINUOUS
 62
    2
 10
1840.6165000000001
 20
1105.8438000000001
 11
1834.1738
 21
1120.1609000000001
  0
LINE
  8
_0-0_LAYER001
  6
CONTINUOUS
 62
    2
 10
1881.0147000000002
 20
1121.8297
 11
1843.2613000000001
 21
1104.8406
  0
LINE
  8
_0-0_LAYER001
  6
CONTINUOUS
 62
    2
 10
1807.4544000000001
 20
1173.9322999999999
 11
1801.0117
 21
1188.2493999999999
  0
LINE
  8
_0-0_LAYER001
  6
CONTINUOUS
 62
    2
 10
1840.922
 20
1210.9245000000001
 11
1803.1684
 21
1193.9353000000001
  0
LINE
  8
_0-0_LAYER001
  6
CONTINUOUS
 62
    2
 10
1838.5191
 20
1104.8997999999999
 11
1832.0763999999999
 21
1119.2170000000001
  0
LINE
  8
_0-0_LAYER001
  6
CONTINUOUS
 62
    2
 10
1881.9585000000002
 20
1119.7322999999999
 11
1844.2049999999999
 21
1102.7433000000001
  0
LINE
  8
_0-0_LAYER001
  6
CONTINUOUS
 62
    2
 10
1882.0176999999999
 20
1124.4744000000001
 11
1844.5102000000002
 21
1207.8240000000001
  0
LINE
  8
_0-0_LAYER001
  6
CONTINUOUS
 62
    2
 10
1846.6077
 20
1208.7675999999999
 11
1884.1151
 21
1125.4179999999999
  0
ARC
  8
_0-0_LAYER001
  6
CONTINUOUS
 62
    2
 10
1804.933
 20
1190.0139999999999
 40
2.000003
 50
114.22777000000002
 51
204.22776000000002
  0
ARC
  8
_0-0_LAYER001
  6
CONTINUOUS
 62
    2
 10
1842.4405000000002
 20
1106.6645000000001
 40
2.000003
 50
204.22776000000002
 51
294.22775999999999
  0
ARC
  8
_0-0_LAYER001
  6
CONTINUOUS
 62
    2
 10
1842.4405000000002
 20
1106.6645000000001
 40
4.2999999999999998
 50
204.22776000000002
 51
294.22775999999999
  0
ARC
  8
_0-0_LAYER001
  6
CONTINUOUS
 62
    2
 10
1804.933
 20
1190.0139999999999
 40
4.2999999999999998
 50
114.22777000000002
 51
204.22776000000002
  0
ARC
  8
_0-0_LAYER001
  6
CONTINUOUS
 62
    2
 10
1842.6862999999998
 20
1207.0030999999999
 40
2.000003
 50
24.227764000000004
 51
114.22777000000002
  0
ARC
  8
_0-0_LAYER001
  6
CONTINUOUS
 62
    2
 10
1880.1939000000002
 20
1123.6534999999999
 40
2.000003
 50
294.22775999999999
 51
24.227764000000008
  0
ARC
  8
_0-0_LAYER001
  6
CONTINUOUS
 62
    2
 10
1880.1939000000002
 20
1123.6534999999999
 40
4.2999999999999998
 50
294.22775999999999
 51
24.227764000000008
  0
ARC
  8
_0-0_LAYER001
  6
CONTINUOUS
 62
    2
 10
1842.6862999999998
 20
1207.0030999999999
 40
4.2999999999999998
 50
24.227764000000004
 51
114.22777000000002
  0
LINE
  8
_0-1_LAYER003
  6
CONTINUOUS
 62
    2
 10
1142.8215
 20
955.42859999999996
 11
1144.7626
 21
948.18419999999992
  0
LINE
  8
_0-1_LAYER003
  6
CONTINUOUS
 62
    2
 10
1144.7626
 20
948.18419999999992
 11
1139.4593
 21
953.48749999999995
  0
LINE
  8
_0-1_LAYER003
  6
CONTINUOUS
 62
    2
 10
1144.7626
 20
948.18419999999992
 11
1061.0445
 21
1093.1883
  0
LINE
  8
_0-1_LAYER003
  6
CONTINUOUS
 62
    2
 10
1061.0445
 20
1093.1883
 11
1010.8181
 21
1093.1883
  0
LINE
  8
_0-0_LAYER001
  6
CONTINUOUS
 62
    2
 10
1523.9176000000002
 20
1096.7843
 11
1523.9176000000002
 21
1104.2843
  0
LINE
  8
_0-0_LAYER001
  6
CONTINUOUS
 62
    2
 10
1523.9176000000002
 20
1104.2843
 11
1527.6676000000002
 21
1097.7891
  0
LINE
  8
_0-0_LAYER001
  6
CONTINUOUS
 62
    2
 10
1523.9176000000002
 20
1104.2843
 11
1615.5430999999999
 21
762.33300000000008
  0
LINE
  8
_0-1_LAYER003
  6
CONTINUOUS
 62
    7
 10
2007.8982999999998
 20
762.33300000000008
 11
1615.5430999999999
 21
762.33300000000008
  0
LINE
  8
_0-1_LAYER003
  6
CONTINUOUS
 62
    7
 10
1135.5435
 20
711.29420000000005
 11
1087.5435
 21
711.29420000000005
  0
LINE
  8
_0-1_LAYER003
  6
CONTINUOUS
 62
    7
 10
962.10159999999996
 20
768.98800000000006
 11
1085.1016
 21
768.98800000000006
  0
LINE
  8
_0-1_LAYER003
  6
CONTINUOUS
 62
    7
 10
1065.8961999999999
 20
1155.8634
 11
1130.3961999999999
 21
1155.8634
  0
LINE
  8
_0-1_LAYER003
  6
CONTINUOUS
 62
    7
 10
1010.8181
 20
1093.1883
 11
1061.0445
 21
1093.1883
  0
LINE
  8
_0-1_LAYER003
  6
CONTINUOUS
 62
    7
 10
987.20589999999993
 20
1136.3054
 11
969.47219668421531
 21
1184.8688689749383
  0
LINE
  8
_0-1_LAYER003
  6
CONTINUOUS
 62
    7
 10
1198.5554
 20
1213.4831999999999
 11
1171.5813102859263
 21
1287.3508374235964
  0
LINE
  8
_0-1_LAYER003
  6
CONTINUOUS
 62
    7
 10
1172.1645000000001
 20
1285.7539999999999
 11
1383.5138999999999
 21
1362.9318000000001
  0
LINE
  8
_0-1_LAYER003
  6
CONTINUOUS
 62
    7
 10
1400.6645000000001
 20
1315.9652000000001
 11
1374.3230289045814
 21
1388.1008807399701
  0
LINE
  8
_0-1_LAYER003
  6
CONTINUOUS
 62
    7
 10
1374.9061484065933
 20
1386.504017676476
 11
1586.2556
 21
1463.6817999999998
  0
LINE
  8
_0-1_LAYER003
  6
CONTINUOUS
 62
    7
 10
1585.6724102859262
 20
1465.2786374235966
 11
1603.4061999999999
 21
1416.7153000000003
  0
LINE
  8
_0-1_LAYER003
  6
CONTINUOUS
 62
    7
 10
1181.4047
 20
1260.4496999999999
 11
970.05529999999999
 21
1183.2719999999999
  0
LINE
  8
_0-1_LAYER003
  6
CONTINUOUS
 62
    7
 10
1061.0445
 20
1093.1883
 11
1144.7626
 21
948.18419999999992
  0
LINE
  8
_0-1_LAYER003
  6
CONTINUOUS
 62
    7
 10
1144.7626
 20
948.18419999999992
 11
1142.8215
 21
955.42859999999996
  0
LINE
  8
_0-1_LAYER003
  6
CONTINUOUS
 62
    7
 10
1144.7626
 20
948.18419999999992
 11
1139.4593
 21
953.48749999999995
  0
LINE
  8
_0-1_LAYER003
  6
CONTINUOUS
 62
    7
 10
1111.9766860013422
 20
951.43893481243776
 11
1125.0486000000001
 21
921.6853000000001
  0
LINE
  8
_0-1_LAYER003
  6
CONTINUOUS
 62
    7
 10
1125.0486000000001
 20
921.6853000000001
 11
1220.405889342145
 21
965.68308313671434
  0
LINE
  8
_0-1_LAYER003
  6
CONTINUOUS
 62
    7
 10
1220.405889342145
 20
965.68308313671434
 11
1212.2656999999999
 21
984.21119999999996
  0
LINE
  8
_0-1_LAYER003
  6
CONTINUOUS
 62
    7
 10
1212.2656999999999
 20
984.21119999999996
 11
1113.798437201222
 21
952.09987093510051
  0
LINE
  8
_0-1_LAYER003
  6
CONTINUOUS
 62
    7
 10
1113.798437201222
 20
952.09987093510051
 11
1111.9766860013422
 21
951.43893481243776
  0
LINE
  8
_0-1_LAYER003
  6
CONTINUOUS
 62
    7
 10
1134.1690000000001
 20
925.78860000000009
 11
1232.1678999999999
 21
970.97479999999996
  0
LINE
  8
_0-1_LAYER003
  6
CONTINUOUS
 62
    7
 10
1232.1678999999999
 20
970.97479999999996
 11
1234.2553
 21
968.3931
  0
LINE
  8
_0-1_LAYER003
  6
CONTINUOUS
 62
    7
 10
1234.2553
 20
968.3931
 11
1941.5569999999998
 21
1286.6784000000002
  0
LINE
  8
_0-1_LAYER003
  6
CONTINUOUS
 62
    7
 10
1942.3240000000001
 20
1283.9695000000002
 11
1233.7611010766605
 21
965.11690048449611
  0
LINE
  8
_0-1_LAYER003
  6
CONTINUOUS
 62
    7
 10
1244.0608051039662
 20
942.33715212641368
 11
1231.7516000000001
 21
969.69100000000003
  0
LINE
  8
_0-1_LAYER003
  6
CONTINUOUS
 62
    7
 10
1231.7516000000001
 20
969.69100000000003
 11
1149.6724999999999
 21
932.76330000000007
  0
LINE
  8
_0-1_LAYER003
  6
CONTINUOUS
 62
    7
 10
1149.6724999999999
 20
932.76330000000007
 11
1161.7391
 21
905.29680000000008
  0
LINE
  8
_0-1_LAYER003
  6
CONTINUOUS
 62
    7
 10
1161.7391
 20
905.29680000000008
 11
1952.5830999999998
 21
1261.1714999999999
  0
LINE
  8
_0-1_LAYER003
  6
CONTINUOUS
 62
    7
 10
1719.2287000000001
 20
1188.9940999999999
 11
1713.0731999999998
 21
1202.6729
  0
LINE
  8
_0-1_LAYER003
  6
CONTINUOUS
 62
    7
 10
1713.0731999999998
 20
1202.6729
 11
1740.4308999999998
 21
1214.9838999999999
  0
LINE
  8
_0-1_LAYER003
  6
CONTINUOUS
 62
    7
 10
1740.4308999999998
 20
1214.9838999999999
 11
1746.5864000000001
 21
1201.3051
  0
LINE
  8
_0-1_LAYER003
  6
CONTINUOUS
 62
    7
 10
1746.5864000000001
 20
1201.3051
 11
1719.2287000000001
 21
1188.9940999999999
  0
LINE
  8
_0-1_LAYER003
  6
CONTINUOUS
 62
    7
 10
1719.2287000000001
 20
1188.9940999999999
 11
1740.4308999999998
 21
1214.9838999999999
  0
LINE
  8
_0-1_LAYER003
  6
CONTINUOUS
 62
    7
 10
1616.3290000000002
 20
1188.2058999999999
 11
1618.2701000000002
 21
1180.9614999999999
  0
LINE
  8
_0-1_LAYER003
  6
CONTINUOUS
 62
    7
 10
1618.2701000000002
 20
1180.9614999999999
 11
1612.9668000000001
 21
1186.2647999999999
  0
LINE
  8
_0-1_LAYER003
  6
CONTINUOUS
 62
    7
 10
1618.2701000000002
 20
1180.9614999999999
 11
1552.6259
 21
1294.6605999999999
  0
LINE
  8
_0-1_LAYER003
  6
CONTINUOUS
 62
    7
 10
1507.3056999999999
 20
1110.0775000000001
 11
1513.4612000000002
 21
1096.3986
  0
LINE
  8
_0-1_LAYER003
  6
CONTINUOUS
 62
    7
 10
1540.8188
 20
1108.7095999999999
 11
1513.4612000000002
 21
1096.3986
  0
LINE
  8
_0-1_LAYER003
  6
CONTINUOUS
 62
    7
 10
1507.3056999999999
 20
1110.0775000000001
 11
1534.6633000000002
 21
1122.3884
  0
LINE
  8
_0-1_LAYER003
  6
CONTINUOUS
 62
    7
 10
1534.6633000000002
 20
1122.3884
 11
1540.8188
 21
1108.7095999999999
  0
LINE
  8
_0-1_LAYER003
  6
CONTINUOUS
 62
    7
 10
1534.6633000000002
 20
1122.3884
 11
1513.4612000000002
 21
1096.3986
  0
LINE
  8
_0-1_LAYER003
  6
CONTINUOUS
 62
    7
 10
1523.9176000000002
 20
1104.2843
 11
1523.9176000000002
 21
1096.7843
  0
LINE
  8
_0-1_LAYER003
  6
CONTINUOUS
 62
    7
 10
1523.9176000000002
 20
1104.2843
 11
1524.6780606046766
 21
1101.4462200728196
  0
LINE
  8
_0-1_LAYER003
  6
CONTINUOUS
 62
    7
 10
1523.9176000000002
 20
1104.2843
 11
1527.6676000000002
 21
1097.7891
  0
LINE
  8
_0-1_LAYER003
  6
CONTINUOUS
 62
    7
 10
1523.9176000000002
 20
1104.2843
 11
1615.5430999999999
 21
762.33300000000008
  0
LINE
  8
_0-1_LAYER003
  6
CONTINUOUS
 62
    7
 10
1175.3262
 20
925.26150000000007
 11
1170.5574144737304
 21
920.49271447373053
  0
LINE
  8
_0-1_LAYER003
  6
CONTINUOUS
 62
    2
 10
1175.3262
 20
925.26150000000007
 11
1175.1427559864683
 21
924.57690191034942
  0
LINE
  8
_0-1_LAYER003
  6
CONTINUOUS
 62
    2
 10
1175.1427559864683
 20
924.57690191034942
 11
1173.385
 21
918.01710000000003
  0
LINE
  8
_0-1_LAYER003
  6
CONTINUOUS
 62
    7
 10
1175.3262
 20
925.26150000000007
 11
1171.8351311973047
 21
919.21479499340546
  0
LINE
  8
_0-1_LAYER003
  6
CONTINUOUS
 62
    7
 10
1173.385
 20
918.01710000000003
 11
1175.3262
 21
925.26150000000007
  0
LINE
  8
_0-1_LAYER003
  6
CONTINUOUS
 62
    7
 10
1171.8351311973047
 20
919.21479499340546
 11
1085.1016
 21
768.98800000000006
  0
LINE
  8
_0-1_LAYER003
  6
CONTINUOUS
 62
    7
 10
1209.0847000000001
 20
842.55359999999996
 11
1214.3879999999999
 21
847.8569
  0
LINE
  8
_0-1_LAYER003
  6
CONTINUOUS
 62
    7
 10
1214.3879999999999
 20
847.8569
 11
1212.4468999999999
 21
840.61239999999998
  0
LINE
  8
_0-1_LAYER003
  6
CONTINUOUS
 62
    7
 10
1214.3879999999999
 20
847.8569
 11
1135.5435
 21
711.29420000000005
  0
LINE
  8
_0-1_LAYER003
  6
CONTINUOUS
 62
    7
 10
1194.0531000000001
 20
761.18460000000005
 11
1215.2652651672961
 21
714.03656379762037
  0
LINE
  8
_0-1_LAYER003
  6
CONTINUOUS
 62
    7
 10
1214.5678
 20
715.58690000000001
 11
1842.8888669327487
 21
998.2720851228687
  0
LINE
  8
_0-1_LAYER003
  6
CONTINUOUS
 62
    7
 10
1843.5863651672962
 20
996.7217637976205
 11
1822.3742000000002
 21
1043.8697999999999
  0
LINE
  8
_0-1_LAYER003
  6
CONTINUOUS
 62
    7
 10
1637.4928477628659
 20
903.9992009583566
 11
1616.2806999999998
 21
951.14709999999991
  0
LINE
  8
_0-1_LAYER003
  6
CONTINUOUS
 62
    7
 10
1431.3993483330496
 20
811.27650121490751
 11
1410.1872000000001
 21
858.42450000000008
  0
LINE
  8
_0-1_LAYER003
  6
CONTINUOUS
 62
    7
 10
1163.9401
 20
681.8472999999999
 11
1185.1522645971281
 21
634.69936354111348
  0
LINE
  8
_0-1_LAYER003
  6
CONTINUOUS
 62
    7
 10
1184.4548
 20
636.24970000000008
 11
1277.2672
 21
678.00649999999996
  0
LINE
  8
_0-1_LAYER003
  6
CONTINUOUS
 62
    7
 10
1277.9647483330493
 20
676.4562012149072
 11
1256.7526
 21
723.60419999999999
  0
LINE
  8
_0-1_LAYER003
  6
CONTINUOUS
 62
    7
 10
1264.2634483330494
 20
670.29190121490728
 11
1243.0513000000001
 21
717.43990000000008
  0
LINE
  8
_0-1_LAYER003
  6
CONTINUOUS
 62
    7
 10
1239.8815477628661
 20
659.32240095835652
 11
1218.6694
 21
706.47029999999995
  0
LINE
  8
_0-1_LAYER003
  6
CONTINUOUS
 62
    7
 10
1214.9514999999999
 20
786.8248000000001
 11
1226.3230202043824
 21
798.36504205395556
  0
LINE
  8
_0-1_LAYER003
  6
CONTINUOUS
 62
    7
 10
1228.6333
 20
800.70959999999991
 11
1226.3230202043824
 21
798.36504205395556
  0
LINE
  8
_0-1_LAYER003
  6
CONTINUOUS
 62
    7
 10
1228.6333
 20
800.70959999999991
 11
1227.7456999999999
 21
805.85969999999998
  0
LINE
  8
_0-1_LAYER003
  6
CONTINUOUS
 62
    7
 10
1227.7456999999999
 20
805.85969999999998
 11
1236.7737
 21
803.53639999999996
  0
LINE
  8
_0-1_LAYER003
  6
CONTINUOUS
 62
    7
 10
1236.7737
 20
803.53639999999996
 11
1236.2177999999999
 21
808.40650000000005
  0
LINE
  8
_0-1_LAYER003
  6
CONTINUOUS
 62
    7
 10
1236.2177999999999
 20
808.40650000000005
 11
1252.7127
 21
825.14609999999993
  0
LINE
  8
_0-1_LAYER003
  6
CONTINUOUS
 62
    7
 10
1245.0047
 20
815.33660000000009
 11
1197.3276000000001
 21
921.30749999999989
  0
LINE
  8
_0-1_LAYER003
  6
CONTINUOUS
 62
    7
 10
1175.4408000000001
 20
911.46019999999999
 11
1227.3027999999999
 21
796.18730000000005
  0
LINE
  8
_0-1_LAYER003
  6
CONTINUOUS
 62
    7
 10
1288.0636999999999
 20
841.5139999999999
 11
1309.7828
 21
793.24900000000002
  0
LINE
  8
_0-1_LAYER003
  6
CONTINUOUS
 62
    7
 10
1288.0636999999999
 20
841.5139999999999
 11
1997.7231000000002
 21
1160.8601000000001
  0
LINE
  8
_0-1_LAYER003
  6
CONTINUOUS
 62
    7
 10
1307.6937
 20
1003.8031000000001
 11
1301.5373999999999
 21
1017.4816000000001
  0
LINE
  8
_0-1_LAYER003
  6
CONTINUOUS
 62
    7
 10
1301.5373999999999
 20
1017.4816000000001
 11
1328.8943999999997
 21
1029.7940000000001
  0
LINE
  8
_0-1_LAYER003
  6
CONTINUOUS
 62
    7
 10
1328.8943999999997
 20
1029.7940000000001
 11
1335.0506
 21
1016.1155000000001
  0
LINE
  8
_0-1_LAYER003
  6
CONTINUOUS
 62
    7
 10
1335.0506
 20
1016.1155000000001
 11
1307.6937
 21
1003.8031000000001
  0
LINE
  8
_0-1_LAYER003
  6
CONTINUOUS
 62
    7
 10
1307.6937
 20
1003.8031000000001
 11
1328.8943999999997
 21
1029.7940000000001
  0
LINE
  8
_0-1_LAYER003
  6
CONTINUOUS
 62
    7
 10
1202.0382999999999
 20
1035.6578999999999
 11
1203.9794999999999
 21
1028.4133999999999
  0
LINE
  8
_0-1_LAYER003
  6
CONTINUOUS
 62
    7
 10
1203.9794999999999
 20
1028.4133999999999
 11
1198.6762000000001
 21
1033.7166999999999
  0
LINE
  8
_0-1_LAYER003
  6
CONTINUOUS
 62
    7
 10
1203.9794999999999
 20
1028.4133999999999
 11
1130.3961999999999
 21
1155.8634
  0
TEXT
  8
_0-1_LAYER003
 62
    7
 10
1046.0445000000002
 20
1095.6882999999998
 40
20
 41
1
 50
0
  1
　
  0
TEXT
  8
_0-1_LAYER003
 62
    7
 10
1030.0788899610552
 20
1094.7718167556889
 40
20
 41
1
 50
0
  1
淀
  0
TEXT
  8
_0-1_LAYER003
 62
    7
 10
1065.8962000000001
 20
1158.3633999999993
 40
20
 41
1
 50
0
  1
万十軒瓦
  0
TEXT
  8
_0-0_LAYER001
 62
    7
 10
1590.1975000000002
 20
854.89020000000039
 40
20
 41
1
 50
0
  1
　瓦桟：１５ｘ３０以上
  0
TEXT
  8
_0-0_LAYER001
 62
    7
 10
1062.1988301706053
 20
1230.6500572771083
 40
20
 41
1
 50
20.060506999999973
  1
225
  0
TEXT
  8
_0-0_LAYER001
 62
    7
 10
1262.9647437185984
 20
1335.5958757226506
 40
20
 41
1
 50
20.060506999999973
  1
225
  0
TEXT
  8
_0-0_LAYER001
 62
    7
 10
1465.2516111571063
 20
1437.4997863871624
 40
20
 41
1
 50
20.06050700000003
  1
225
  0
TEXT
  8
_0-1_LAYER003
 62
    7
 10
962.10160000000019
 20
771.4880000000004
 40
20
 41
1
 50
0
  1
下地　36x90
  0
TEXT
  8
_0-1_LAYER003
 62
    7
 10
1067.2293360407091
 20
718.24953849009387
 40
20
 41
1
 50
0
  1
破風板
  0
TEXT
  8
_0-1_LAYER003
 62
    7
 10
1202.1265880979943
 20
657.25044055291528
 40
20
 41
1
 50
24.223252000000056
  1
60
  0
TEXT
  8
_0-1_LAYER003
 62
    7
 10
1238.6294814703567
 20
673.98093334858231
 40
20
 41
1
 50
24.223300000000012
  1
25
  0
TEXT
  8
_0-1_LAYER003
 62
    7
 10
1276.6533287332343
 20
690.71142614424843
 40
20
 41
1
 50
24.223252000000056
  1
15
  0
TEXT
  8
_0-0_LAYER001
 62
    7
 10
1310.1143143245663
 20
772.84293623206338
 40
20
 41
1
 50
24.223299999999988
  1
236
  0
TEXT
  8
_0-0_LAYER001
 62
    7
 10
1518.4849973251353
 20
867.14207744399937
 40
20
 41
1
 50
24.223251999999995
  1
226
  0
TEXT
  8
_0-0_LAYER001
 62
    7
 10
1723.8137725446734
 20
959.9202647654206
 40
20
 41
1
 50
24.223251999999988
  1
226
  0
TEXT
  8
_0-1_LAYER003
 62
    7
 10
1499.4789438551256
 20
1302.2158960671866
 40
20
 41
1
 50
0
  1
桟　瓦
  0
TEXT
  8
_0-0_LAYER001
 62
    7
 10
1603.9631205784781
 20
828.45887558184916
 40
20
 41
1
 50
0
  1
下葺材：ルーフィング
  0
TEXT
  8
_0-0_LAYER001
 62
    7
 10
1611.1195710389816
 20
795.53920346353266
 40
20
 41
1
 50
0
  1
野地板：硬質木片セメントパネルｔ＝25
  0
TEXT
  8
_0-0_LAYER001
 62
    7
 10
1618.2760214994851
 20
765.48211152941747
 40
20
 41
1
 50
0
  1
鋼製：C－100x50x⑳x2.3　@606
  0
LINE
  8
_0-0_LAYER001
  6
CONTINUOUS
 62
    2
 10
1615.5430999999999
 20
762.33300000000008
 11
1913.1217804722328
 21
762.33300000000008
  0
LINE
  8
_0-1_LAYER003
  6
CONTINUOUS
 62
    7
 10
1615.5430999999999
 20
762.33300000000008
 11
1915.9843606564343
 21
762.33300000000008
  0
LINE
  8
_0-0_LAYER001
  6
CONTINUOUS
 62
    2
 10
1608.3699999999999
 20
792.19959999999992
 11
1997.5678959061752
 21
792.19959999999992
  0
LINE
  8
_0-0_LAYER001
  6
CONTINUOUS
 62
    7
 10
1608.3699999999999
 20
792.19959999999992
 11
1994.7053157219739
 21
792.19959999999992
  0
LINE
  8
_0-0_LAYER001
  6
CONTINUOUS
 62
    2
 10
1598.8269
 20
822.2949000000001
 11
1801.4811532883768
 21
822.2949000000001
  0
LINE
  8
_0-0_LAYER001
  6
CONTINUOUS
 62
    7
 10
1598.8269
 20
822.2949000000001
 11
1814.3627641172834
 21
822.2949000000001
  0
LINE
  8
_0-0_LAYER001
  6
CONTINUOUS
 62
    2
 10
1590.1975000000002
 20
852.39020000000005
 11
1815.7940542093841
 21
852.39020000000005
  0
LINE
  8
_0-0_LAYER001
  6
CONTINUOUS
 62
    7
 10
1591.4123656568347
 20
852.39020000000005
 11
1820.087924485686
 21
852.39020000000005
  0
LINE
  8
_0-1_LAYER003
  6
CONTINUOUS
 62
    2
 10
1135.5435
 20
711.29420000000005
 11
1061.5041756723062
 21
711.29420000000005
  0
LINE
  8
_0-1_LAYER003
  6
CONTINUOUS
 62
    7
 10
1057.2103053960041
 20
711.29420000000005
 11
1135.5435
 21
711.29420000000005
  0
LINE
  8
_0-1_LAYER003
  6
CONTINUOUS
 62
    2
 10
1552.6259
 20
1294.6605999999999
 11
1502.3415240393272
 21
1294.6605999999999
  0
LINE
  8
_0-1_LAYER003
  6
CONTINUOUS
 62
    7
 10
1493.7537834867228
 20
1294.6605999999999
 11
1552.6259
 21
1294.6605999999999
  0
ENDSEC
  0
EOF
