  0
SECTION
  2
HEADER
  9
$ACADVER
  1
AC1009
  9
$INSBASE
 10
0
 20
0
 30
0
  9
$EXTMIN
 10
0
 20
0
  9
$EXTMAX
 10
2970
 20
2100
  9
$LIMMIN
 10
0
 20
0
  9
$LIMMAX
 10
2970
 20
2100
  9
$LTSCALE
 40
10
  0
ENDSEC
  0
SECTION
  2
TABLES
  0
TABLE
  2
LTYPE
 70
     9
  0
LTYPE
  2
CONTINUOUS
 70
    64
  3
実線
 72
    65
 73
     0
 40
0.0
  0
LTYPE
  2
DASHED1
 70
    64
  3
--  --  --  --  --  --  --  --  
 72
    65
 73
     2
 40
2.5
 49
1.25
 49
-1.25
  0
LTYPE
  2
DASHED2
 70
    64
  3
----    ----    ----    ----    
 72
    65
 73
     2
 40
5.0
 49
2.5
 49
-2.5
  0
LTYPE
  2
DASHED3
 70
    64
  3
------  ------  ------  ------  
 72
    65
 73
     2
 40
5.0
 49
3.75
 49
-1.25
  0
LTYPE
  2
CENTER1
 70
    64
  3
----- - ----- - ----- - ----- - 
 72
    65
 73
     4
 40
10.0
 49
6.25
 49
-1.25
 49
1.25
 49
-1.25
  0
LTYPE
  2
CENTER2
 70
    64
  3
----------  --  ----------  --  
 72
    65
 73
     4
 40
20.0
 49
12.5
 49
-2.5
 49
2.5
 49
-2.5
  0
LTYPE
  2
PHANTOM1
 70
    64
  3
--- - - --- - - --- - - --- - - 
 72
    65
 73
     6
 40
10.0
 49
3.25
 49
-1.25
 49
1.25
 49
-1.25
 49
1.25
 49
-1.25
  0
LTYPE
  2
PHANTOM2
 70
    64
  3
--------  -  -  --------  -  -  
 72
    65
 73
     6
 40
20.0
 49
10.0
 49
-2.5
 49
1.25
 49
-2.5
 49
1.25
 49
-2.5
  0
LTYPE
  2
DOT
 70
    64
  3
-   -   -   -   -   -   -   -   
 72
    65
 73
     2
 40
2.5
 49
0.625
 49
-1.875
  0
LTYPE
  2
DUMMY
 70
    64
  3
ダミー
 72
    65
 73
     0
 40
0.0
  0
LTYPE
  2
RAND1
 70
    64
  3
ランダム線1
 72
    65
 73
     4
 40
10.0
 49
1.0
 49
-2.0
 49
3.0
 49
-4.0
  0
LTYPE
  2
RAND2
 70
    64
  3
ランダム線2
 72
    65
 73
     4
 40
14.0
 49
2.0
 49
-3.0
 49
4.0
 49
-5.0
  0
LTYPE
  2
RAND3
 70
    64
  3
ランダム線3
 72
    65
 73
     4
 40
18.0
 49
3.0
 49
-4.0
 49
5.0
 49
-6.0
  0
LTYPE
  2
RAND4
 70
    64
  3
ランダム線4
 72
    65
 73
     4
 40
22.0
 49
4.0
 49
-5.0
 49
6.0
 49
-7.0
  0
LTYPE
  2
RAND5
 70
    64
  3
ランダム線5
 72
    65
 73
     4
 40
26.0
 49
5.0
 49
-6.0
 49
7.0
 49
-8.0
  0
LTYPE
  2
LONG1
 70
    64
  3
----------  --  ----------  --  
 72
    65
 73
     4
 40
40.0
 49
32.5
 49
-2.5
 49
2.5
 49
-2.5
  0
LTYPE
  2
LONG2
 70
    64
  3
--------  -  -  --------  -  -  
 72
    65
 73
     6
 40
40.0
 49
30.0
 49
-2.5
 49
1.25
 49
-2.5
 49
1.25
 49
-2.5
  0
LTYPE
  2
LONG3
 70
    64
  3
+++++++++++++++..+++++++++++++++
 72
    65
 73
     2
 40
40.0
 49
37.5
 49
-2.5
  0
LTYPE
  2
LONG4
 70
    64
  3
+++++++++++++++..+++++++++++++++
 72
    65
 73
     2
 40
80.0
 49
75.0
 49
-5.0
  0
LTYPE
  2
LONG5
 70
    64
  3
----------  --  ----------  --  
 72
    65
 73
     4
 40
60.0
 49
37.5
 49
-7.5
 49
7.5
 49
-7.5
  0
LTYPE
  2
dashed
 70
   64
  3
-------   -------------   ------
 72
   65
 73
    2
 40
7.5
 49
6
 49
-1.5
  0
LTYPE
  2
dashed_spaced
 70
   64
  3
----        --------        ----
 72
   65
 73
    2
 40
12
 49
6
 49
-6
  0
LTYPE
  2
long_dashed_dotted
 70
   64
  3
------------- --- --------------
 72
   65
 73
    4
 40
15.25
 49
12
 49
-1.5
 49
0.25
 49
-1.5
  0
LTYPE
  2
long_dashed_double-dotted
 70
   64
  3
----------- --- --- ------------
 72
   65
 73
    6
 40
17
 49
12
 49
-1.5
 49
0.25
 49
-1.5
 49
0.25
 49
-1.5
  0
LTYPE
  2
long_dashed_triplicate-dotted
 70
   64
  3
--------- --- --- --- ----------
 72
   65
 73
    8
 40
18.75
 49
12
 49
-1.5
 49
0.25
 49
-1.5
 49
0.25
 49
-1.5
 49
0.25
 49
-1.5
  0
LTYPE
  2
dotted
 70
   64
  3
   -       -       -       -    
 72
   65
 73
    2
 40
1.75
 49
0.25
 49
-1.5
  0
LTYPE
  2
chain
 70
   64
  3
-------------- -- --------------
 72
   65
 73
    4
 40
18.5
 49
12
 49
-1.5
 49
3.5
 49
-1.5
  0
LTYPE
  2
chain_double_dash
 70
   64
  3
------------ -- -- -------------
 72
   65
 73
    6
 40
23.5
 49
12
 49
-1.5
 49
3.5
 49
-1.5
 49
3.5
 49
-1.5
  0
LTYPE
  2
dashed_dotted
 70
   64
  3
-----------     -     ----------
 72
   65
 73
    4
 40
9.25
 49
6
 49
-1.5
 49
0.25
 49
-1.5
  0
LTYPE
  2
double-dashed_dotted
 70
   64
  3
------   -----------   -   -----
 72
   65
 73
    6
 40
16.75
 49
6
 49
-1.5
 49
6
 49
-1.5
 49
0.25
 49
-1.5
  0
LTYPE
  2
dashed_double-dotted
 70
   64
  3
---------    -    -    ---------
 72
   65
 73
    6
 40
11
 49
6
 49
-1.5
 49
0.25
 49
-1.5
 49
0.25
 49
-1.5
  0
LTYPE
  2
double-dashed_double-dotted
 70
   64
  3
-----   ---------   -   -   ----
 72
   65
 73
    8
 40
18.5
 49
6
 49
-1.5
 49
6
 49
-1.5
 49
0.25
 49
-1.5
 49
0.25
 49
-1.5
  0
LTYPE
  2
dashed_triplicate-dotted
 70
   64
  3
-------    -    -    -    ------
 72
   65
 73
    8
 40
12.75
 49
6
 49
-1.5
 49
0.25
 49
-1.5
 49
0.25
 49
-1.5
 49
0.25
 49
-1.5
  0
LTYPE
  2
double-dashed_triplicate-dotted
 70
   64
  3
-----  ---------  -  -  -  -----
 72
   65
 73
   10
 40
20.25
 49
6
 49
-1.5
 49
6
 49
-1.5
 49
0.25
 49
-1.5
 49
0.25
 49
-1.5
 49
0.25
 49
-1.5
  0
LTYPE
  2
undefined
 70
   64
  3
--------------------------------
 72
   65
 73
    0
 40
0
  0
ENDTAB
  0
TABLE
  2
STYLE
  5
3
100
AcDbSymbolTable
 70
     1
  0
STYLE
  5
10
100
AcDbSymbolTableRecord
100
AcDbTextStyleTableRecord
  2
STANDARD
 70
     0
 40
0.0
 41
1.0
 50
0.0
 71
     0
 42
0.2
  3
txt
  4
bigfont.shx
  0
STYLE
  5
26
100
AcDbSymbolTableRecord
100
AcDbTextStyleTableRecord
  2
TATEGAKI
 70
    68
 40
0.0
 41
1.0
 50
0.0
 71
     0
 42
1.0
  3
txt
  4
bigfont.shx
  0
ENDTAB
  0
TABLE
  2
LAYER
 70
    4
  0
LAYER
  2
_0-0_1
 70
   64
 62
    7
  6
CONTINUOUS
  0
LAYER
  2
_0-1_2
 70
   64
 62
    7
  6
CONTINUOUS
  0
LAYER
  2
_0-2_3
 70
   64
 62
    7
  6
CONTINUOUS
  0
LAYER
  2
ADD_LINE
 70
   64
 62
    7
  6
CONTINUOUS
  0
ENDTAB
  0
ENDSEC
  0
SECTION
  2
BLOCKS
  0
ENDSEC
  0
SECTION
  2
ENTITIES
  0
LINE
  8
_0-0_1
  6
CONTINUOUS
 62
    2
 10
1272.8384000000001
 20
749.13499999999999
 11
1281.8662999999997
 21
746.81169999999997
  0
LINE
  8
_0-0_1
  6
CONTINUOUS
 62
    2
 10
1273.7260000000001
 20
743.98489999999993
 11
1272.8384000000001
 21
749.13499999999999
  0
LINE
  8
_0-0_1
  6
CONTINUOUS
 62
    2
 10
1281.8662999999997
 20
746.81169999999997
 11
1281.3104000000001
 21
751.68190000000004
  0
LINE
  8
_0-0_1
  6
CONTINUOUS
 62
    2
 10
1252.0699999999999
 20
722.00770000000011
 11
1273.7260000000001
 21
743.98489999999993
  0
LINE
  8
_0-0_1
  6
CONTINUOUS
 62
    2
 10
1281.3104000000001
 20
751.68190000000004
 11
1305.7729999999997
 21
776.50729999999999
  0
LINE
  8
_0-0_1
  6
CONTINUOUS
 62
    2
 10
1788.7754
 20
1127.7291
 11
1722.6610999999998
 21
1152.8069
  0
LINE
  8
_0-0_1
  6
CONTINUOUS
 62
    2
 10
1792.6444000000001
 20
1129.4701
 11
1726.5300000000002
 21
1154.548
  0
LINE
  8
_0-2_3
  6
CONTINUOUS
 62
    2
 10
1243.8661999999999
 20
1035.0610999999999
 11
1245.8073999999999
 21
1027.8167000000001
  0
LINE
  8
_0-2_3
  6
CONTINUOUS
 62
    2
 10
1245.8073999999999
 20
1027.8167000000001
 11
1240.5041000000001
 21
1033.1199999999999
  0
LINE
  8
_0-2_3
  6
CONTINUOUS
 62
    2
 10
1245.8073999999999
 20
1027.8167000000001
 11
1197.423
 21
1111.6208999999999
  0
LINE
  8
_0-2_3
  6
CONTINUOUS
 62
    2
 10
1197.423
 20
1111.6208999999999
 11
1132.923
 21
1111.6208999999999
  0
LINE
  8
_0-1_2
  6
CONTINUOUS
 62
    2
 10
1220.3125
 20
634.4052999999999
 11
1198.7683999999999
 21
682.2813000000001
  0
CIRCLE
  8
_0-1_2
  6
CONTINUOUS
 62
    2
 10
1219.2865999999999
 20
636.68509999999992
 40
1.6999999999999997
  0
LINE
  8
_0-1_2
  6
CONTINUOUS
 62
    2
 10
1219.2865999999999
 20
636.68509999999992
 11
1287.6806999999999
 21
667.46229999999991
  0
CIRCLE
  8
_0-1_2
  6
CONTINUOUS
 62
    2
 10
1287.6806999999999
 20
667.46229999999991
 40
1.6999999999999997
  0
LINE
  8
_0-1_2
  6
CONTINUOUS
 62
    2
 10
1288.7067
 20
665.18249999999989
 11
1267.1626000000001
 21
713.05850000000009
  0
LINE
  8
_0-0_1
  6
CONTINUOUS
 62
    2
 10
1764.0763999999999
 20
1176.0585000000001
 11
1791.4340000000002
 21
1188.3695
  0
LINE
  8
_0-0_1
  6
CONTINUOUS
 62
    2
 10
1785.2784999999999
 20
1202.0482999999999
 11
1757.9209000000001
 21
1189.7373
  0
LINE
  8
_0-0_1
  6
CONTINUOUS
 62
    2
 10
1791.4340000000002
 20
1188.3695
 11
1785.2784999999999
 21
1202.0482999999999
  0
LINE
  8
_0-0_1
  6
CONTINUOUS
 62
    2
 10
1757.9209000000001
 20
1189.7373
 11
1764.0763999999999
 21
1176.0585000000001
  0
LINE
  8
_0-0_1
  6
CONTINUOUS
 62
    2
 10
1785.2784999999999
 20
1202.0482999999999
 11
1764.0763999999999
 21
1176.0585000000001
  0
LINE
  8
_0-0_1
  6
CONTINUOUS
 62
    2
 10
1558.3087999999998
 20
1083.463
 11
1585.6664999999998
 21
1095.7739999999999
  0
LINE
  8
_0-0_1
  6
CONTINUOUS
 62
    2
 10
1579.511
 20
1109.4528
 11
1552.1532999999999
 21
1097.1418000000001
  0
LINE
  8
_0-0_1
  6
CONTINUOUS
 62
    2
 10
1585.6664999999998
 20
1095.7739999999999
 11
1579.511
 21
1109.4528
  0
LINE
  8
_0-0_1
  6
CONTINUOUS
 62
    2
 10
1552.1532999999999
 20
1097.1418000000001
 11
1558.3087999999998
 21
1083.463
  0
LINE
  8
_0-0_1
  6
CONTINUOUS
 62
    2
 10
1579.511
 20
1109.4528
 11
1558.3087999999998
 21
1083.463
  0
LINE
  8
_0-0_1
  6
CONTINUOUS
 62
    2
 10
1352.5413000000001
 20
990.86750000000006
 11
1379.8983000000001
 21
1003.1799000000001
  0
LINE
  8
_0-0_1
  6
CONTINUOUS
 62
    2
 10
1373.7420999999999
 20
1016.8584000000001
 11
1346.3851
 21
1004.546
  0
LINE
  8
_0-0_1
  6
CONTINUOUS
 62
    2
 10
1379.8983000000001
 20
1003.1799000000001
 11
1373.7420999999999
 21
1016.8584000000001
  0
LINE
  8
_0-0_1
  6
CONTINUOUS
 62
    2
 10
1346.3851
 20
1004.546
 11
1352.5413000000001
 21
990.86750000000006
  0
LINE
  8
_0-0_1
  6
CONTINUOUS
 62
    2
 10
1373.7420999999999
 20
1016.8584000000001
 11
1352.5413000000001
 21
990.86750000000006
  0
LINE
  8
_0-0_1
  6
CONTINUOUS
 62
    4
 10
1138.7827
 20
931.95779999999991
 11
1375.0794999999998
 21
1017.6868999999999
  0
LINE
  8
_0-0_1
  6
CONTINUOUS
 62
    4
 10
1387.6324999999999
 20
1009.4757999999999
 11
1379.1721000000002
 21
1006.4064000000001
  0
LINE
  8
_0-0_1
  6
CONTINUOUS
 62
    4
 10
1377.7420999999999
 20
1036.7371000000001
 11
1387.6324999999999
 21
1009.4757999999999
  0
LINE
  8
_0-0_1
  6
CONTINUOUS
 62
    4
 10
1375.0794999999998
 20
1017.6868999999999
 11
1379.1721000000002
 21
1006.4064000000001
  0
ARC
  8
_0-0_1
  6
CONTINUOUS
 62
    4
 10
1524.6642000000002
 20
1115.5716
 40
10
 50
109.94091000000002
 51
199.94091
  0
ARC
  8
_0-0_1
  6
CONTINUOUS
 62
    4
 10
1730.3764999999999
 20
1208.2889
 40
10
 50
109.94091000000002
 51
199.94091
  0
ARC
  8
_0-0_1
  6
CONTINUOUS
 62
    4
 10
1318.9519999999998
 20
1022.8543999999999
 40
10
 50
109.94091000000002
 51
199.94091
  0
ARC
  8
_0-0_1
  6
CONTINUOUS
 62
    4
 10
1075.2273
 20
1089.9421
 40
104.21281
 50
268.69240000000002
 51
288.42793999999998
  0
LINE
  8
_0-0_1
  6
CONTINUOUS
 62
    4
 10
1126.1727000000001
 20
908.42039999999997
 11
1131.4554000000001
 21
886.7482
  0
ARC
  8
_0-0_1
  6
CONTINUOUS
 62
    4
 10
1145.6038000000001
 20
913.15689999999995
 40
20
 50
109.94091000000002
 51
193.69899000000001
  0
LINE
  8
_0-0_1
  6
CONTINUOUS
 62
    4
 10
1296.3083000000001
 20
1055.9465
 11
1311.9389000000001
 21
1012.8635999999999
  0
ARC
  8
_0-0_1
  6
CONTINUOUS
 62
    4
 10
1315.1091999999999
 20
1062.7674999999999
 40
20
 50
109.94091000000002
 51
199.94091
  0
LINE
  8
_0-0_1
  6
CONTINUOUS
 62
    4
 10
1732.7638000000002
 20
1201.7085
 11
1926.8643000000002
 21
1272.1287
  0
LINE
  8
_0-0_1
  6
CONTINUOUS
 62
    4
 10
1799.0569999999998
 20
1194.9103
 11
1790.5965999999999
 21
1191.8407999999999
  0
LINE
  8
_0-0_1
  6
CONTINUOUS
 62
    4
 10
1580.7918
 20
1110.4041
 11
1584.8843999999999
 21
1099.1235999999999
  0
LINE
  8
_0-0_1
  6
CONTINUOUS
 62
    4
 10
1593.3447999999999
 20
1102.1931
 11
1584.8843999999999
 21
1099.1235999999999
  0
LINE
  8
_0-0_1
  6
CONTINUOUS
 62
    4
 10
1109.0527
 20
991.19119999999998
 11
1295.2882999999999
 21
1058.758
  0
LINE
  8
_0-0_1
  6
CONTINUOUS
 62
    4
 10
1308.2882
 20
1081.5684000000001
 11
1500.9974000000002
 21
1151.4838
  0
ARC
  8
_0-0_1
  6
CONTINUOUS
 62
    4
 10
1508.0104999999999
 20
1161.4746
 40
10
 50
109.94091000000002
 51
199.94091
  0
LINE
  8
_0-0_1
  6
CONTINUOUS
 62
    4
 10
1498.6100000000001
 20
1158.0641000000001
 11
1517.6511999999998
 21
1105.5808
  0
LINE
  8
_0-0_1
  6
CONTINUOUS
 62
    4
 10
1507.8184000000001
 20
1132.6829
 11
1517.6511999999998
 21
1105.5808
  0
LINE
  8
_0-0_1
  6
CONTINUOUS
 62
    4
 10
1583.4542999999999
 20
1129.4544000000001
 11
1593.3447999999999
 21
1102.1931
  0
LINE
  8
_0-0_1
  6
CONTINUOUS
 62
    4
 10
1315.5414999999998
 20
1032.2547999999999
 11
1786.5039999999999
 21
1203.1214
  0
LINE
  8
_0-0_1
  6
CONTINUOUS
 62
    4
 10
1786.5039999999999
 20
1203.1214
 11
1790.5965999999999
 21
1191.8407999999999
  0
LINE
  8
_0-0_1
  6
CONTINUOUS
 62
    4
 10
1504.5999999999999
 20
1170.8751
 11
1706.7096000000001
 21
1244.201
  0
ARC
  8
_0-0_1
  6
CONTINUOUS
 62
    4
 10
1713.7226999999998
 20
1254.1919
 40
10
 50
109.94091000000002
 51
199.94091
  0
LINE
  8
_0-0_1
  6
CONTINUOUS
 62
    4
 10
1704.3222999999998
 20
1250.7814000000001
 11
1723.3634000000002
 21
1198.298
  0
LINE
  8
_0-0_1
  6
CONTINUOUS
 62
    4
 10
1704.3222999999998
 20
1250.7814000000001
 11
1723.3634000000002
 21
1198.298
  0
LINE
  8
_0-0_1
  6
CONTINUOUS
 62
    4
 10
1521.2537000000002
 20
1124.9721
 11
1789.1664999999998
 21
1222.1715999999999
  0
LINE
  8
_0-0_1
  6
CONTINUOUS
 62
    4
 10
1789.1664999999998
 20
1222.1715999999999
 11
1799.0569999999998
 21
1194.9103
  0
LINE
  8
_0-0_1
  6
CONTINUOUS
 62
    4
 10
1710.3121999999998
 20
1263.5923
 11
1900.2815000000001
 21
1332.5137
  0
LINE
  8
_0-0_1
  6
CONTINUOUS
 62
    4
 10
1726.9659999999999
 20
1217.6893
 11
1919.9996000000001
 21
1287.7225000000001
  0
LINE
  8
_0-0_1
  6
CONTINUOUS
 62
    4
 10
1073.0273999999999
 20
985.58470000000011
 11
1101.9413999999999
 21
892.88079999999991
  0
ARC
  8
_0-0_1
  6
CONTINUOUS
 62
    4
 10
1253.4893
 20
991.75659999999993
 40
181.02933999999999
 50
181.81043
 51
212.85045999999997
  0
LINE
  8
_0-0_1
  6
CONTINUOUS
 62
    4
 10
1100.5713000000001
 20
936.24129999999991
 11
1100.4961000000001
 21
935.59349999999995
  0
LINE
  8
_0-0_1
  6
CONTINUOUS
 62
    4
 10
1580.7918
 20
1110.4041
 11
1100.3653999999999
 21
936.10410000000002
  0
LINE
  8
_0-0_1
  6
CONTINUOUS
 62
    4
 10
1101.9413999999999
 20
892.88079999999991
 11
1111.9748
 21
896.52089999999998
  0
LINE
  8
_0-0_1
  6
CONTINUOUS
 62
    4
 10
1100.3653999999999
 20
936.10410000000002
 11
1116.4389000000001
 21
881.3001999999999
  0
LINE
  8
_0-0_1
  6
CONTINUOUS
 62
    4
 10
1131.4554000000001
 20
886.7482
 11
1116.4389000000001
 21
881.3001999999999
  0
CIRCLE
  8
_0-0_1
  6
CONTINUOUS
 62
    2
 10
1010.3382999999999
 20
1182.8363999999999
 40
1.6999999999999997
  0
LINE
  8
_0-0_1
  6
CONTINUOUS
 62
    2
 10
1010.3382999999999
 20
1182.8363999999999
 11
1221.6877999999999
 21
1260.0142000000001
  0
CIRCLE
  8
_0-0_1
  6
CONTINUOUS
 62
    2
 10
1221.6877999999999
 20
1260.0142000000001
 40
1.6999999999999997
  0
LINE
  8
_0-0_1
  6
CONTINUOUS
 62
    2
 10
1009.4808
 20
1185.1847
 11
1027.4889000000001
 21
1135.8698999999999
  0
LINE
  8
_0-0_1
  6
CONTINUOUS
 62
    2
 10
1220.8303000000001
 20
1262.3625
 11
1238.8384000000001
 21
1213.0476000000001
  0
CIRCLE
  8
_0-0_1
  6
CONTINUOUS
 62
    2
 10
1212.4475
 20
1285.3184000000001
 40
1.6999999999999997
  0
LINE
  8
_0-0_1
  6
CONTINUOUS
 62
    2
 10
1212.4475
 20
1285.3184000000001
 11
1423.797
 21
1362.4962
  0
CIRCLE
  8
_0-0_1
  6
CONTINUOUS
 62
    2
 10
1423.797
 20
1362.4962
 40
1.6999999999999997
  0
LINE
  8
_0-0_1
  6
CONTINUOUS
 62
    2
 10
1211.5899999999999
 20
1287.6668
 11
1229.5980999999999
 21
1238.3518999999999
  0
LINE
  8
_0-0_1
  6
CONTINUOUS
 62
    2
 10
1422.9394
 20
1364.8444999999997
 11
1440.9476
 21
1315.5297
  0
CIRCLE
  8
_0-0_1
  6
CONTINUOUS
 62
    2
 10
1415.1892
 20
1386.0685000000001
 40
1.6999999999999997
  0
LINE
  8
_0-0_1
  6
CONTINUOUS
 62
    2
 10
1415.1892
 20
1386.0685000000001
 11
1626.5385999999999
 21
1463.2462
  0
CIRCLE
  8
_0-0_1
  6
CONTINUOUS
 62
    2
 10
1626.5385999999999
 20
1463.2462
 40
1.6999999999999997
  0
LINE
  8
_0-0_1
  6
CONTINUOUS
 62
    2
 10
1414.3316
 20
1388.4168
 11
1432.3398000000002
 21
1339.1019000000001
  0
LINE
  8
_0-0_1
  6
CONTINUOUS
 62
    2
 10
1625.6810999999998
 20
1465.5945999999999
 11
1643.6891999999998
 21
1416.2797
  0
LINE
  8
_0-1_2
  6
CONTINUOUS
 62
    2
 10
1215.7469000000001
 20
959.35889999999995
 11
1173.3262
 21
943.96849999999995
  0
LINE
  8
_0-1_2
  6
CONTINUOUS
 62
    2
 10
1186.8371
 20
913.94419999999991
 11
1173.3262
 21
943.96849999999995
  0
LINE
  8
_0-0_1
  6
CONTINUOUS
 62
    2
 10
1227.8735999999999
 20
932.41059999999993
 11
1215.7469000000001
 21
959.35889999999995
  0
LINE
  8
_0-0_1
  6
CONTINUOUS
 62
    2
 10
1215.7469000000001
 20
959.35889999999995
 11
1186.8371
 21
913.94419999999991
  0
LINE
  8
_0-0_1
  6
CONTINUOUS
 62
    2
 10
1173.3262
 20
943.96849999999995
 11
1227.8735999999999
 21
932.41059999999993
  0
LINE
  8
_0-0_1
  6
CONTINUOUS
 62
    2
 10
1275.0542
 20
695.52150000000006
 11
1253.5101999999999
 21
743.39750000000004
  0
CIRCLE
  8
_0-0_1
  6
CONTINUOUS
 62
    2
 10
1274.0282999999999
 20
697.80130000000008
 40
1.6999999999999997
  0
LINE
  8
_0-0_1
  6
CONTINUOUS
 62
    2
 10
1274.0282999999999
 20
697.80130000000008
 11
1475.5632000000001
 21
788.49140000000011
  0
CIRCLE
  8
_0-0_1
  6
CONTINUOUS
 62
    2
 10
1475.5632000000001
 20
788.49140000000011
 40
1.6999999999999997
  0
LINE
  8
_0-0_1
  6
CONTINUOUS
 62
    2
 10
1476.5891000000001
 20
786.21160000000009
 11
1455.0450000000001
 21
834.08760000000007
  0
CIRCLE
  8
_0-0_1
  6
CONTINUOUS
 62
    2
 10
1475.5632000000001
 20
788.49140000000011
 40
1.6999999999999997
  0
LINE
  8
_0-0_1
  6
CONTINUOUS
 62
    2
 10
1475.5632000000001
 20
788.49140000000011
 11
1681.6576
 21
881.23340000000007
  0
CIRCLE
  8
_0-0_1
  6
CONTINUOUS
 62
    2
 10
1681.6576
 20
881.23340000000007
 40
1.6999999999999997
  0
LINE
  8
_0-0_1
  6
CONTINUOUS
 62
    2
 10
1682.6835000000001
 20
878.95360000000005
 11
1661.1395000000002
 21
926.82950000000005
  0
CIRCLE
  8
_0-0_1
  6
CONTINUOUS
 62
    2
 10
1681.6576
 20
881.23340000000007
 40
1.6999999999999997
  0
LINE
  8
_0-0_1
  6
CONTINUOUS
 62
    2
 10
1681.6576
 20
881.23340000000007
 11
1887.7521000000002
 21
973.97530000000006
  0
CIRCLE
  8
_0-0_1
  6
CONTINUOUS
 62
    2
 10
1887.7521000000002
 20
973.97530000000006
 40
1.6999999999999997
  0
LINE
  8
_0-0_1
  6
CONTINUOUS
 62
    2
 10
1888.7779999999998
 20
971.69550000000004
 11
1867.2339999999999
 21
1019.5714
  0
LINE
  8
_0-1_2
  6
CONTINUOUS
 62
    2
 10
1687.4722999999999
 20
1183.2846
 11
1689.4135000000001
 21
1176.0401999999999
  0
LINE
  8
_0-1_2
  6
CONTINUOUS
 62
    2
 10
1689.4135000000001
 20
1176.0401999999999
 11
1684.1102000000001
 21
1181.3434999999999
  0
LINE
  8
_0-1_2
  6
CONTINUOUS
 62
    2
 10
1689.4135000000001
 20
1176.0401999999999
 11
1624.8252000000002
 21
1287.9103
  0
LINE
  8
_0-1_2
  6
CONTINUOUS
 62
    2
 10
1624.8252000000002
 20
1287.9103
 11
1584.3252000000002
 21
1287.9103
  0
LINE
  8
_0-0_1
  6
DASHED3
 62
    2
 10
1169.1214
 20
907.59140000000002
 11
1921.9045000000001
 21
1246.3434
  0
LINE
  8
_0-0_1
  6
CONTINUOUS
 62
    2
 10
1396.931
 20
951.39940000000001
 11
1330.8167000000001
 21
976.47730000000001
  0
LINE
  8
_0-0_1
  6
CONTINUOUS
 62
    2
 10
1400.7999999999997
 20
953.14049999999997
 11
1334.6857
 21
978.21839999999997
  0
LINE
  8
_0-0_1
  6
CONTINUOUS
 62
    2
 10
1590.3789000000002
 20
1038.4508000000001
 11
1524.2645000000002
 21
1063.5287000000001
  0
LINE
  8
_0-0_1
  6
CONTINUOUS
 62
    2
 10
1594.2478000000001
 20
1040.1919
 11
1528.1334999999999
 21
1065.2697000000001
  0
LINE
  8
_0-0_1
  6
CONTINUOUS
 62
    2
 10
1297.1258
 20
884.55549999999994
 11
1299.2233000000001
 21
885.49929999999995
  0
LINE
  8
_0-0_1
  6
CONTINUOUS
 62
    2
 10
1321.7474999999999
 20
829.84009999999989
 11
1323.845
 21
830.7838999999999
  0
LINE
  8
_0-0_1
  6
CONTINUOUS
 62
    2
 10
1250.2850000000001
 20
882.88689999999997
 11
1288.0387000000001
 21
899.87580000000003
  0
LINE
  8
_0-0_1
  6
CONTINUOUS
 62
    2
 10
1297.1258
 20
884.55549999999994
 11
1290.6831999999999
 21
898.8726999999999
  0
LINE
  8
_0-0_1
  6
CONTINUOUS
 62
    2
 10
1328.1902
 20
815.52299999999991
 11
1321.7474999999999
 21
829.84009999999989
  0
LINE
  8
_0-0_1
  6
CONTINUOUS
 62
    2
 10
1289.4335000000001
 20
795.88930000000005
 11
1327.1869999999999
 21
812.87820000000011
  0
LINE
  8
_0-0_1
  6
CONTINUOUS
 62
    2
 10
1299.2233000000001
 20
885.49929999999995
 11
1292.7806
 21
899.81639999999993
  0
LINE
  8
_0-0_1
  6
CONTINUOUS
 62
    2
 10
1249.3411000000001
 20
884.9842000000001
 11
1287.0948000000001
 21
901.97309999999993
  0
LINE
  8
_0-0_1
  6
CONTINUOUS
 62
    2
 10
1330.2878000000001
 20
816.46669999999995
 11
1323.845
 21
830.7838999999999
  0
LINE
  8
_0-0_1
  6
CONTINUOUS
 62
    2
 10
1290.3774000000001
 20
793.79189999999994
 11
1328.1307999999999
 21
810.78089999999997
  0
LINE
  8
_0-0_1
  6
CONTINUOUS
 62
    2
 10
1286.7889
 20
796.89249999999993
 11
1249.2819
 21
880.24240000000009
  0
LINE
  8
_0-0_1
  6
CONTINUOUS
 62
    2
 10
1247.1846
 20
879.2983999999999
 11
1284.6916000000001
 21
795.94859999999994
  0
LINE
  8
_0-0_1
  6
CONTINUOUS
 62
    2
 10
1252.2601
 20
941.12699999999995
 11
1243.1397999999999
 21
937.02289999999994
  0
LINE
  8
_0-0_1
  6
CONTINUOUS
 62
    2
 10
1253.4901
 20
938.39049999999997
 11
1244.3715999999999
 21
934.28780000000006
  0
LINE
  8
_0-0_1
  6
CONTINUOUS
 62
    2
 10
1243.1397999999999
 20
937.02289999999994
 11
1244.3715999999999
 21
934.28780000000006
  0
LINE
  8
_0-0_1
  6
CONTINUOUS
 62
    2
 10
1252.2601
 20
941.12699999999995
 11
1253.4901
 21
938.39049999999997
  0
LINE
  8
_0-0_1
  6
CONTINUOUS
 62
    2
 10
1247.7
 20
939.07500000000005
 11
1248.9309000000001
 21
936.33850000000007
  0
LINE
  8
_0-0_1
  6
CONTINUOUS
 62
    2
 10
1274.3735999999999
 20
879.8001999999999
 11
1270.2512999999999
 21
884.08639999999991
  0
LINE
  8
_0-0_1
  6
CONTINUOUS
 62
    2
 10
1274.3735999999999
 20
879.8001999999999
 11
1273.8991000000001
 21
885.72720000000004
  0
LINE
  8
_0-0_1
  6
CONTINUOUS
 62
    2
 10
1252.5861
 20
920.32709999999997
 11
1258.2139
 21
924.0184999999999
  0
LINE
  8
_0-0_1
  6
CONTINUOUS
 62
    2
 10
1254.6379999999999
 20
915.76790000000005
 11
1260.2669000000001
 21
919.45839999999998
  0
LINE
  8
_0-0_1
  6
CONTINUOUS
 62
    2
 10
1256.691
 20
911.20749999999998
 11
1262.3186000000001
 21
914.89920000000006
  0
LINE
  8
_0-0_1
  6
CONTINUOUS
 62
    2
 10
1258.7418
 20
906.64730000000009
 11
1264.3696
 21
910.33989999999994
  0
LINE
  8
_0-0_1
  6
CONTINUOUS
 62
    2
 10
1260.7937999999999
 20
902.08909999999992
 11
1266.4213999999999
 21
905.78070000000002
  0
LINE
  8
_0-0_1
  6
CONTINUOUS
 62
    2
 10
1262.8456000000001
 20
897.52880000000005
 11
1268.4745
 21
901.2206000000001
  0
LINE
  8
_0-0_1
  6
CONTINUOUS
 62
    2
 10
1264.8984
 20
892.9697000000001
 11
1270.5253
 21
896.66030000000001
  0
LINE
  8
_0-0_1
  6
CONTINUOUS
 62
    2
 10
1266.9494999999999
 20
888.40949999999998
 11
1272.5771999999999
 21
892.10120000000006
  0
LINE
  8
_0-0_1
  6
CONTINUOUS
 62
    2
 10
1268.4854
 20
884.99739999999997
 11
1274.1128000000001
 21
888.68910000000005
  0
LINE
  8
_0-0_1
  6
CONTINUOUS
 62
    2
 10
1251.9857999999999
 20
934.42620000000011
 11
1273.8991000000001
 21
885.72720000000004
  0
LINE
  8
_0-0_1
  6
CONTINUOUS
 62
    2
 10
1253.4901
 20
938.39049999999997
 11
1251.9857999999999
 21
934.42620000000011
  0
LINE
  8
_0-0_1
  6
CONTINUOUS
 62
    2
 10
1248.3389999999999
 20
932.78230000000008
 11
1270.2512999999999
 21
884.08639999999991
  0
LINE
  8
_0-0_1
  6
CONTINUOUS
 62
    2
 10
1244.3715999999999
 20
934.28780000000006
 11
1248.3389999999999
 21
932.78230000000008
  0
LINE
  8
_0-0_1
  6
CONTINUOUS
 62
    2
 10
1292.7806
 20
899.81649999999991
 11
1330.2879000000003
 21
816.46679999999992
  0
LINE
  8
_0-0_1
  6
CONTINUOUS
 62
    2
 10
1296.8842
 20
901.66309999999999
 11
1334.3914999999997
 21
818.3134
  0
LINE
  8
_0-0_1
  6
CONTINUOUS
 62
    2
 10
1292.7806
 20
899.81639999999993
 11
1296.8842
 21
901.66309999999999
  0
LINE
  8
_0-0_1
  6
CONTINUOUS
 62
    2
 10
1334.3914999999997
 20
818.3134
 11
1330.2876000000001
 21
816.46659999999997
  0
LINE
  8
_0-0_1
  6
CONTINUOUS
 62
    2
 10
1340.2597000000001
 20
805.27299999999991
 11
1303.3278999999998
 21
887.34690000000001
  0
LINE
  8
_0-0_1
  6
CONTINUOUS
 62
    2
 10
1311.7628999999999
 20
885.65949999999998
 11
1339.6667
 21
823.64859999999999
  0
LINE
  8
_0-0_1
  6
CONTINUOUS
 62
    2
 10
1305.1512
 20
888.16810000000009
 11
1303.3278999999998
 21
887.34690000000001
  0
LINE
  8
_0-0_1
  6
CONTINUOUS
 62
    2
 10
1414.9013
 20
846.53739999999993
 11
1352.8897999999999
 21
818.63290000000006
  0
LINE
  8
_0-0_1
  6
CONTINUOUS
 62
    2
 10
1311.5338999999999
 20
858.14210000000003
 11
1308.7979
 21
856.91049999999996
  0
LINE
  8
_0-0_1
  6
CONTINUOUS
 62
    2
 10
1304.9683
 20
872.7324000000001
 11
1302.2325000000001
 21
871.5009
  0
LINE
  8
_0-0_1
  6
CONTINUOUS
 62
    2
 10
1315.3625
 20
842.32109999999989
 11
1302.2325000000001
 21
871.5009
  0
LINE
  8
_0-0_1
  6
CONTINUOUS
 62
    2
 10
1318.0993000000001
 20
843.55199999999991
 11
1315.3625
 21
842.32109999999989
  0
LINE
  8
_0-0_1
  6
CONTINUOUS
 62
    2
 10
1303.4980999999998
 20
846.93059999999991
 11
1311.6389999999999
 21
850.59449999999993
  0
LINE
  8
_0-0_1
  6
CONTINUOUS
 62
    2
 10
1297.8128999999999
 20
859.56549999999993
 11
1305.9537
 21
863.22810000000004
  0
LINE
  8
_0-0_1
  6
CONTINUOUS
 62
    2
 10
1294.9688000000001
 20
865.88300000000004
 11
1303.1112000000003
 21
869.54700000000003
  0
LINE
  8
_0-0_1
  6
CONTINUOUS
 62
    2
 10
1294.7534000000001
 20
863.75250000000005
 11
1294.9688000000001
 21
865.88300000000004
  0
LINE
  8
_0-0_1
  6
CONTINUOUS
 62
    2
 10
1304.6017000000002
 20
841.86560000000009
 11
1294.7534000000001
 21
863.75250000000005
  0
LINE
  8
_0-0_1
  6
CONTINUOUS
 62
    2
 10
1306.3415
 20
840.6123
 11
1314.4829999999999
 21
844.27569999999992
  0
LINE
  8
_0-0_1
  6
CONTINUOUS
 62
    2
 10
1304.6017000000002
 20
841.86560000000009
 11
1306.3415
 21
840.6123
  0
LINE
  8
_0-0_1
  6
CONTINUOUS
 62
    2
 10
1287.7334000000001
 20
856.20440000000008
 11
1296.8723
 21
842.77220000000011
  0
LINE
  8
_0-0_1
  6
CONTINUOUS
 62
    2
 10
1293.2899
 20
858.70450000000005
 11
1302.4278999999999
 21
845.27150000000006
  0
LINE
  8
_0-0_1
  6
CONTINUOUS
 62
    2
 10
1327.3212000000001
 20
872.84259999999995
 11
1319.1804
 21
869.17879999999991
  0
LINE
  8
_0-0_1
  6
CONTINUOUS
 62
    2
 10
1333.0066999999999
 20
860.20769999999993
 11
1324.8649
 21
856.5444
  0
LINE
  8
_0-0_1
  6
CONTINUOUS
 62
    2
 10
1335.8503999999998
 20
853.89020000000005
 11
1327.7084
 21
850.22620000000006
  0
LINE
  8
_0-0_1
  6
CONTINUOUS
 62
    2
 10
1336.0661
 20
856.02060000000006
 11
1335.8503999999998
 21
853.89020000000005
  0
LINE
  8
_0-0_1
  6
CONTINUOUS
 62
    2
 10
1326.2175999999999
 20
877.90769999999998
 11
1336.0661
 21
856.02060000000006
  0
LINE
  8
_0-0_1
  6
CONTINUOUS
 62
    2
 10
1324.4782
 20
879.16080000000011
 11
1316.3366000000001
 21
875.49759999999992
  0
LINE
  8
_0-0_1
  6
CONTINUOUS
 62
    2
 10
1326.2175999999999
 20
877.90769999999998
 11
1324.4782
 21
879.16080000000011
  0
LINE
  8
_0-0_1
  6
CONTINUOUS
 62
    2
 10
1421.5121999999999
 20
844.0293999999999
 11
1422.3327999999997
 21
842.20540000000005
  0
LINE
  8
_0-0_1
  6
CONTINUOUS
 62
    2
 10
1422.3327999999997
 20
842.20540000000005
 11
1340.2598
 21
805.27260000000001
  0
LINE
  8
_0-0_1
  6
CONTINUOUS
 62
    2
 10
1296.396
 20
860.10189999999989
 11
1287.7334000000001
 21
856.20440000000008
  0
LINE
  8
_0-0_1
  6
CONTINUOUS
 62
    2
 10
1287.7334000000001
 20
856.20440000000008
 11
1286.7302
 21
853.5598
  0
LINE
  8
_0-0_1
  6
CONTINUOUS
 62
    2
 10
1302.9609
 20
845.51219999999989
 11
1294.299
 21
841.61419999999998
  0
LINE
  8
_0-0_1
  6
CONTINUOUS
 62
    2
 10
1287.7334000000001
 20
856.20440000000008
 11
1294.299
 21
841.61419999999998
  0
LINE
  8
_0-0_1
  6
CONTINUOUS
 62
    2
 10
1291.6536999999998
 20
842.61699999999996
 11
1294.299
 21
841.61419999999998
  0
LINE
  8
_0-0_1
  6
CONTINUOUS
 62
    2
 10
1286.7302
 20
853.5598
 11
1291.6536999999998
 21
842.61699999999996
  0
LINE
  8
_0-0_1
  6
CONTINUOUS
 62
    2
 10
1218.2898
 20
821.66529999999989
 11
1222.394
 21
812.54510000000005
  0
LINE
  8
_0-0_1
  6
CONTINUOUS
 62
    2
 10
1221.0262
 20
822.89529999999991
 11
1225.1289999999999
 21
813.77690000000007
  0
LINE
  8
_0-0_1
  6
CONTINUOUS
 62
    2
 10
1222.394
 20
812.54510000000005
 11
1225.1289999999999
 21
813.77690000000007
  0
LINE
  8
_0-0_1
  6
CONTINUOUS
 62
    2
 10
1218.2898
 20
821.66529999999989
 11
1221.0262
 21
822.89529999999991
  0
LINE
  8
_0-0_1
  6
CONTINUOUS
 62
    2
 10
1220.3417999999999
 20
817.10529999999994
 11
1223.0781999999999
 21
818.33619999999996
  0
LINE
  8
_0-0_1
  6
CONTINUOUS
 62
    2
 10
1279.6161
 20
843.77980000000002
 11
1275.3299999999999
 21
839.65750000000003
  0
LINE
  8
_0-0_1
  6
CONTINUOUS
 62
    2
 10
1279.6161
 20
843.77980000000002
 11
1273.6891000000001
 21
843.30520000000001
  0
LINE
  8
_0-0_1
  6
CONTINUOUS
 62
    2
 10
1239.0896
 20
821.99160000000006
 11
1235.3979999999999
 21
827.61940000000004
  0
LINE
  8
_0-0_1
  6
CONTINUOUS
 62
    2
 10
1243.6487999999999
 20
824.04369999999994
 11
1239.9582
 21
829.6724999999999
  0
LINE
  8
_0-0_1
  6
CONTINUOUS
 62
    2
 10
1248.2091
 20
826.09670000000006
 11
1244.5173
 21
831.72409999999991
  0
LINE
  8
_0-0_1
  6
CONTINUOUS
 62
    2
 10
1252.7692999999999
 20
828.14760000000001
 11
1249.0766000000001
 21
833.77520000000004
  0
LINE
  8
_0-0_1
  6
CONTINUOUS
 62
    2
 10
1257.3273999999999
 20
830.19969999999989
 11
1253.6358
 21
835.82719999999995
  0
LINE
  8
_0-0_1
  6
CONTINUOUS
 62
    2
 10
1261.8877
 20
832.25160000000005
 11
1258.1958
 21
837.88030000000003
  0
LINE
  8
_0-0_1
  6
CONTINUOUS
 62
    2
 10
1266.4467
 20
834.30439999999999
 11
1262.7561000000001
 21
839.93129999999996
  0
LINE
  8
_0-0_1
  6
CONTINUOUS
 62
    2
 10
1271.0071
 20
836.35560000000009
 11
1267.3152
 21
841.9831999999999
  0
LINE
  8
_0-0_1
  6
CONTINUOUS
 62
    2
 10
1274.4190000000001
 20
837.89159999999993
 11
1270.7273
 21
843.51880000000006
  0
LINE
  8
_0-0_1
  6
CONTINUOUS
 62
    2
 10
1224.9905000000001
 20
821.39110000000005
 11
1273.6891000000001
 21
843.30520000000001
  0
LINE
  8
_0-0_1
  6
CONTINUOUS
 62
    2
 10
1221.0262
 20
822.89529999999991
 11
1224.9905000000001
 21
821.39110000000005
  0
LINE
  8
_0-0_1
  6
CONTINUOUS
 62
    2
 10
1226.6343999999999
 20
817.74440000000004
 11
1275.3299999999999
 21
839.65750000000003
  0
LINE
  8
_0-0_1
  6
CONTINUOUS
 62
    2
 10
1225.1289999999999
 20
813.77690000000007
 11
1226.6343999999999
 21
817.74440000000004
  0
LINE
  8
_0-0_1
  6
CONTINUOUS
 62
    2
 10
1290.5597
 20
782.9081000000001
 11
1993.2775999999999
 21
1099.1305
  0
LINE
  8
_0-0_1
  6
CONTINUOUS
 62
    2
 10
1245.4199000000001
 20
883.21939999999995
 11
1297.3064999999999
 21
767.91519999999991
  0
LINE
  8
_0-0_1
  6
CONTINUOUS
 62
    2
 10
1199.8237999999999
 20
862.70129999999995
 11
1259.6664000000001
 21
729.71679999999992
  0
LINE
  8
_0-0_1
  6
CONTINUOUS
 62
    2
 10
1272.9235000000001
 20
822.10010000000011
 11
1206.8090999999999
 21
847.17800000000011
  0
LINE
  8
_0-0_1
  6
CONTINUOUS
 62
    2
 10
1274.6646000000001
 20
818.23109999999997
 11
1208.5503000000001
 21
843.30899999999997
  0
LINE
  8
_0-0_1
  6
CONTINUOUS
 62
    2
 10
1186.1449
 20
856.54590000000007
 11
1948.1374999999998
 21
1199.4418000000001
  0
LINE
  8
_0-0_1
  6
CONTINUOUS
 62
    2
 10
1165.6268
 20
902.14200000000005
 11
1927.6192999999998
 21
1245.038
  0
LINE
  8
_0-0_1
  6
CONTINUOUS
 62
    2
 10
1165.6268
 20
902.14200000000005
 11
1186.1449
 21
856.54590000000007
  0
ARC
  8
_0-0_1
  6
CONTINUOUS
 62
    2
 10
1288.8593000000001
 20
898.05189999999993
 40
2.000003
 50
24.227606000000002
 51
114.22759000000003
  0
ARC
  8
_0-0_1
  6
CONTINUOUS
 62
    2
 10
1326.3662999999999
 20
814.70209999999997
 40
2.000003
 50
294.2276
 51
24.227605999999994
  0
ARC
  8
_0-0_1
  6
CONTINUOUS
 62
    2
 10
1326.3662999999999
 20
814.70209999999997
 40
4.2999999999999998
 50
294.2276
 51
24.227605999999994
  0
ARC
  8
_0-0_1
  6
CONTINUOUS
 62
    2
 10
1288.8593000000001
 20
898.05189999999993
 40
4.2999999999999998
 50
24.227606000000002
 51
114.22759000000003
  0
ARC
  8
_0-0_1
  6
CONTINUOUS
 62
    2
 10
1251.1059
 20
881.0630000000001
 40
2.000003
 50
114.22759000000001
 51
204.2276
  0
ARC
  8
_0-0_1
  6
CONTINUOUS
 62
    2
 10
1288.6128000000003
 20
797.71319999999992
 40
2.000003
 50
204.22760000000002
 51
294.22760000000005
  0
ARC
  8
_0-0_1
  6
CONTINUOUS
 62
    2
 10
1288.6128000000003
 20
797.71319999999992
 40
4.2999999999999998
 50
204.22760000000002
 51
294.22760000000005
  0
ARC
  8
_0-0_1
  6
CONTINUOUS
 62
    2
 10
1251.1059
 20
881.0630000000001
 40
4.2999999999999998
 50
114.22759000000001
 51
204.2276
  0
ARC
  8
_0-0_1
  6
CONTINUOUS
 62
    2
 10
1348.7867000000001
 20
827.75440000000003
 40
10.001999
 50
204.23162000000002
 51
294.21884999999997
  0
ARC
  8
_0-0_1
  6
CONTINUOUS
 62
    2
 10
1307.2040999999999
 20
883.60889999999995
 40
4.9989999999999997
 50
24.224675999999999
 51
114.23530999999998
  0
ARC
  8
_0-0_1
  6
CONTINUOUS
 62
    2
 10
1416.9535999999998
 20
841.97869999999989
 40
4.9989999999999997
 50
24.224675999999999
 51
114.23530999999998
  0
ARC
  8
_0-0_1
  6
CONTINUOUS
 62
    2
 10
1301.0165999999999
 20
864.81459999999993
 40
6.1470010000000013
 50
204.58582999999999
 51
238.59309999999999
  0
ARC
  8
_0-0_1
  6
CONTINUOUS
 62
    2
 10
1309.5621000000001
 20
845.85059999999999
 40
6.1580000000000004
 50
169.89975999999999
 51
203.85441
  0
ARC
  8
_0-0_1
  6
CONTINUOUS
 62
    2
 10
1320.5591999999999
 20
862.20579999999995
 40
22.898997999999999
 50
186.62326999999999
 51
221.83878999999999
  0
ARC
  8
_0-0_1
  6
CONTINUOUS
 62
    2
 10
1329.8000999999999
 20
854.95970000000011
 40
6.1479999999999997
 50
24.562656
 51
58.577396
  0
ARC
  8
_0-0_1
  6
CONTINUOUS
 62
    2
 10
1321.268
 20
873.9221
 40
6.1479999999999997
 50
349.89938000000006
 51
23.901646000000021
  0
ARC
  8
_0-0_1
  6
CONTINUOUS
 62
    2
 10
1310.2235999999998
 20
857.55240000000003
 40
22.936000999999997
 50
6.6513660000000003
 51
41.808135999999998
  0
LINE
  8
_0-0_1
  6
CONTINUOUS
 62
    2
 10
1967.5255000000002
 20
1095.2186999999999
 11
1905.5140999999999
 21
1067.3139000000001
  0
LINE
  8
_0-0_1
  6
CONTINUOUS
 62
    2
 10
1974.1363999999999
 20
1092.7107000000001
 11
1974.9571000000001
 21
1090.8867
  0
LINE
  8
_0-0_1
  6
CONTINUOUS
 62
    2
 10
1974.9571000000001
 20
1090.8867
 11
1892.8843000000002
 21
1053.9536000000001
  0
ARC
  8
_0-0_1
  6
CONTINUOUS
 62
    2
 10
1901.4110999999998
 20
1076.4354000000001
 40
10.001999
 50
204.2319
 51
294.21913000000001
  0
ARC
  8
_0-0_1
  6
CONTINUOUS
 62
    2
 10
1969.5779000000002
 20
1090.6600000000001
 40
4.9989999999999997
 50
24.224954
 51
114.23559000000002
  0
LINE
  8
_0-0_1
  6
CONTINUOUS
 62
    2
 10
1858.4384
 20
1091.0916
 11
1860.1781999999998
 21
1089.8384000000001
  0
LINE
  8
_0-0_1
  6
CONTINUOUS
 62
    2
 10
1841.5700000000002
 20
1105.4304
 11
1850.7089999999998
 21
1091.9982
  0
LINE
  8
_0-0_1
  6
CONTINUOUS
 62
    2
 10
1847.1264999999999
 20
1107.9304999999999
 11
1856.2645000000002
 21
1094.4974999999999
  0
LINE
  8
_0-0_1
  6
CONTINUOUS
 62
    2
 10
1841.5700000000002
 20
1105.4304
 11
1840.5668000000001
 21
1102.7856999999999
  0
LINE
  8
_0-0_1
  6
CONTINUOUS
 62
    2
 10
1856.7975000000001
 20
1094.7383
 11
1848.1356999999998
 21
1090.8402000000001
  0
LINE
  8
_0-0_1
  6
CONTINUOUS
 62
    2
 10
1841.5700000000002
 20
1105.4304
 11
1848.1356999999998
 21
1090.8402000000001
  0
LINE
  8
_0-0_1
  6
CONTINUOUS
 62
    2
 10
1845.4902999999999
 20
1091.8429000000001
 11
1848.1356999999998
 21
1090.8402000000001
  0
LINE
  8
_0-0_1
  6
CONTINUOUS
 62
    2
 10
1840.5668000000001
 20
1102.7856999999999
 11
1845.4902999999999
 21
1091.8429000000001
  0
ARC
  8
_0-0_1
  6
CONTINUOUS
 62
    2
 10
1863.3987000000002
 20
1095.0767000000001
 40
6.1580000000000004
 50
169.90002999999999
 51
203.85469000000001
  0
LINE
  8
_0-0_1
  6
CONTINUOUS
 62
    2
 10
1857.7752
 20
1136.8488
 11
1855.9519
 21
1136.0275999999999
  0
LINE
  8
_0-0_1
  6
CONTINUOUS
 62
    2
 10
1892.8841000000002
 20
1053.954
 11
1855.9519
 21
1136.0275999999999
  0
LINE
  8
_0-0_1
  6
CONTINUOUS
 62
    2
 10
1864.3870000000002
 20
1134.3403000000001
 11
1892.2910000000002
 21
1072.3296
  0
LINE
  8
_0-0_1
  6
CONTINUOUS
 62
    2
 10
1865.3703999999998
 20
1107.3681999999999
 11
1862.6345000000001
 21
1106.1366
  0
LINE
  8
_0-0_1
  6
CONTINUOUS
 62
    2
 10
1858.8049000000001
 20
1121.9585
 11
1856.069
 21
1120.7270000000001
  0
LINE
  8
_0-0_1
  6
CONTINUOUS
 62
    2
 10
1869.1992
 20
1091.5472
 11
1856.069
 21
1120.7270000000001
  0
LINE
  8
_0-0_1
  6
CONTINUOUS
 62
    2
 10
1871.9360000000001
 20
1092.7781
 11
1869.1992
 21
1091.5472
  0
LINE
  8
_0-0_1
  6
CONTINUOUS
 62
    2
 10
1857.3346999999999
 20
1096.1567
 11
1865.4756000000002
 21
1099.8206
  0
LINE
  8
_0-0_1
  6
CONTINUOUS
 62
    2
 10
1851.6495
 20
1108.7915
 11
1859.7903000000001
 21
1112.4541999999999
  0
LINE
  8
_0-0_1
  6
CONTINUOUS
 62
    2
 10
1848.8054000000002
 20
1115.1089999999999
 11
1856.9477999999999
 21
1118.7729999999999
  0
LINE
  8
_0-0_1
  6
CONTINUOUS
 62
    2
 10
1848.5898999999999
 20
1112.9784999999999
 11
1848.8054000000002
 21
1115.1089999999999
  0
LINE
  8
_0-0_1
  6
CONTINUOUS
 62
    2
 10
1858.4384
 20
1091.0916
 11
1848.5898999999999
 21
1112.9784999999999
  0
LINE
  8
_0-0_1
  6
CONTINUOUS
 62
    2
 10
1860.1781999999998
 20
1089.8384000000001
 11
1868.3195999999998
 21
1093.5018
  0
LINE
  8
_0-0_1
  6
CONTINUOUS
 62
    2
 10
1879.9452999999999
 20
1121.5235
 11
1871.8045000000002
 21
1117.8596
  0
LINE
  8
_0-0_1
  6
CONTINUOUS
 62
    2
 10
1885.6309000000001
 20
1108.8886
 11
1877.4890999999998
 21
1105.2253000000001
  0
LINE
  8
_0-0_1
  6
CONTINUOUS
 62
    2
 10
1888.4747000000002
 20
1102.5710999999999
 11
1880.3326000000002
 21
1098.9070999999999
  0
LINE
  8
_0-0_1
  6
CONTINUOUS
 62
    2
 10
1888.6903000000002
 20
1104.7016000000001
 11
1888.4747000000002
 21
1102.5710999999999
  0
LINE
  8
_0-0_1
  6
CONTINUOUS
 62
    2
 10
1878.8416999999999
 20
1126.5886
 11
1888.6903000000002
 21
1104.7016000000001
  0
LINE
  8
_0-0_1
  6
CONTINUOUS
 62
    2
 10
1877.1023
 20
1127.8416999999999
 11
1868.9607000000001
 21
1124.1785
  0
LINE
  8
_0-0_1
  6
CONTINUOUS
 62
    2
 10
1878.8416999999999
 20
1126.5886
 11
1877.1023
 21
1127.8416999999999
  0
LINE
  8
_0-0_1
  6
CONTINUOUS
 62
    2
 10
1850.2325999999998
 20
1109.3279
 11
1841.5700000000002
 21
1105.4304
  0
ARC
  8
_0-0_1
  6
CONTINUOUS
 62
    2
 10
1859.8281999999999
 20
1132.2897
 40
4.9989999999999997
 50
24.224954
 51
114.23559000000002
  0
ARC
  8
_0-0_1
  6
CONTINUOUS
 62
    2
 10
1854.8532
 20
1114.0407
 40
6.1470010000000013
 50
204.58611000000002
 51
238.59338000000002
  0
ARC
  8
_0-0_1
  6
CONTINUOUS
 62
    2
 10
1874.3957999999998
 20
1111.432
 40
22.898997999999999
 50
186.62354999999999
 51
221.83906999999999
  0
ARC
  8
_0-0_1
  6
CONTINUOUS
 62
    2
 10
1882.4243000000001
 20
1103.6405999999999
 40
6.1479999999999997
 50
24.562933999999998
 51
58.577674000000009
  0
ARC
  8
_0-0_1
  6
CONTINUOUS
 62
    2
 10
1873.8921
 20
1122.6030000000001
 40
6.1479999999999997
 50
349.89965999999998
 51
23.901924000000019
  0
ARC
  8
_0-0_1
  6
CONTINUOUS
 62
    2
 10
1862.8478
 20
1106.2331999999999
 40
22.936000999999997
 50
6.651644000000001
 51
41.808413999999999
  0
LINE
  8
_0-0_1
  6
CONTINUOUS
 62
    2
 10
1810.0677000000001
 20
1164.7255
 11
1819.1880000000001
 21
1168.8297
  0
LINE
  8
_0-0_1
  6
CONTINUOUS
 62
    2
 10
1811.3000999999999
 20
1161.9901
 11
1820.4180999999999
 21
1166.0938000000001
  0
LINE
  8
_0-0_1
  6
CONTINUOUS
 62
    2
 10
1819.1880000000001
 20
1168.8297
 11
1820.4180999999999
 21
1166.0938000000001
  0
LINE
  8
_0-0_1
  6
CONTINUOUS
 62
    2
 10
1810.0677000000001
 20
1164.7255
 11
1811.3000999999999
 21
1161.9901
  0
LINE
  8
_0-0_1
  6
CONTINUOUS
 62
    2
 10
1814.6277
 20
1166.7775999999999
 11
1815.8595
 21
1164.0415
  0
LINE
  8
_0-0_1
  6
CONTINUOUS
 62
    2
 10
1833.0288999999998
 20
1125.885
 11
1832.5549000000001
 21
1131.8128999999999
  0
LINE
  8
_0-0_1
  6
CONTINUOUS
 62
    2
 10
1833.0288999999998
 20
1125.885
 11
1828.9076
 21
1130.171
  0
LINE
  8
_0-0_1
  6
CONTINUOUS
 62
    2
 10
1825.3532
 20
1150.8308
 11
1818.8580999999999
 21
1149.0671
  0
LINE
  8
_0-0_1
  6
CONTINUOUS
 62
    2
 10
1827.4054999999998
 20
1146.2707
 11
1820.9094
 21
1144.5063
  0
LINE
  8
_0-0_1
  6
CONTINUOUS
 62
    2
 10
1829.4562999999998
 20
1141.7107000000001
 11
1822.9623999999999
 21
1139.9468999999999
  0
LINE
  8
_0-0_1
  6
CONTINUOUS
 62
    2
 10
1831.5091000000002
 20
1137.1512
 11
1825.0138000000002
 21
1135.3876
  0
LINE
  8
_0-0_1
  6
CONTINUOUS
 62
    2
 10
1833.0441999999998
 20
1133.7388000000001
 11
1826.5491000000002
 21
1131.9753000000001
  0
LINE
  8
_0-0_1
  6
CONTINUOUS
 62
    2
 10
1815.2647999999999
 20
1160.4867999999999
 11
1828.9076
 21
1130.171
  0
LINE
  8
_0-0_1
  6
CONTINUOUS
 62
    2
 10
1811.3000999999999
 20
1161.9901
 11
1815.2647999999999
 21
1160.4867999999999
  0
LINE
  8
_0-0_1
  6
CONTINUOUS
 62
    2
 10
1818.9135999999999
 20
1162.1258
 11
1832.5549000000001
 21
1131.8128999999999
  0
LINE
  8
_0-0_1
  6
CONTINUOUS
 62
    2
 10
1820.4180999999999
 20
1166.0938000000001
 11
1818.9135999999999
 21
1162.1258
  0
LINE
  8
_0-0_1
  6
CONTINUOUS
 62
    2
 10
1812.0479
 20
1116.2702999999999
 11
1809.9504999999999
 21
1115.3263999999999
  0
LINE
  8
_0-0_1
  6
CONTINUOUS
 62
    2
 10
1836.6698999999999
 20
1061.5550000000001
 11
1834.5724
 21
1060.6111000000001
  0
LINE
  8
_0-0_1
  6
CONTINUOUS
 62
    2
 10
1844.3618000000001
 20
1150.2212
 11
1806.6082000000001
 21
1133.232
  0
LINE
  8
_0-0_1
  6
CONTINUOUS
 62
    2
 10
1812.0479
 20
1116.2702999999999
 11
1805.6051000000002
 21
1130.5873999999999
  0
LINE
  8
_0-0_1
  6
CONTINUOUS
 62
    2
 10
1843.1125999999999
 20
1047.2379000000001
 11
1836.6698999999999
 21
1061.5550000000001
  0
LINE
  8
_0-0_1
  6
CONTINUOUS
 62
    2
 10
1883.5108
 20
1063.2238
 11
1845.7574
 21
1046.2347
  0
LINE
  8
_0-0_1
  6
CONTINUOUS
 62
    2
 10
1809.9504999999999
 20
1115.3263999999999
 11
1803.5077999999999
 21
1129.6434999999999
  0
LINE
  8
_0-0_1
  6
CONTINUOUS
 62
    2
 10
1843.4180999999999
 20
1152.3186000000001
 11
1805.6644999999999
 21
1135.3294000000001
  0
LINE
  8
_0-0_1
  6
CONTINUOUS
 62
    2
 10
1841.0151000000001
 20
1046.2938999999999
 11
1834.5724
 21
1060.6111000000001
  0
LINE
  8
_0-0_1
  6
CONTINUOUS
 62
    2
 10
1884.4546
 20
1061.1264000000001
 11
1846.7011000000002
 21
1044.1374000000001
  0
LINE
  8
_0-0_1
  6
CONTINUOUS
 62
    2
 10
1884.5138000000002
 20
1065.8685
 11
1847.0063
 21
1149.2181
  0
LINE
  8
_0-0_1
  6
CONTINUOUS
 62
    2
 10
1849.1037000000001
 20
1150.1617000000001
 11
1886.6111999999998
 21
1066.8122000000001
  0
ARC
  8
_0-0_1
  6
CONTINUOUS
 62
    2
 10
1807.4290000000001
 20
1131.4081000000001
 40
2.000003
 50
114.22777000000002
 51
204.22776000000002
  0
ARC
  8
_0-0_1
  6
CONTINUOUS
 62
    2
 10
1844.9366
 20
1048.0586000000001
 40
2.000003
 50
204.22776000000002
 51
294.22775999999999
  0
ARC
  8
_0-0_1
  6
CONTINUOUS
 62
    2
 10
1844.9366
 20
1048.0586000000001
 40
4.2999999999999998
 50
204.22776000000002
 51
294.22775999999999
  0
ARC
  8
_0-0_1
  6
CONTINUOUS
 62
    2
 10
1807.4290000000001
 20
1131.4081000000001
 40
4.2999999999999998
 50
114.22777000000002
 51
204.22776000000002
  0
ARC
  8
_0-0_1
  6
CONTINUOUS
 62
    2
 10
1845.1824000000001
 20
1148.3972000000001
 40
2.000003
 50
24.227764000000004
 51
114.22777000000002
  0
ARC
  8
_0-0_1
  6
CONTINUOUS
 62
    2
 10
1882.6900000000001
 20
1065.0476000000001
 40
2.000003
 50
294.22775999999999
 51
24.227764000000008
  0
ARC
  8
_0-0_1
  6
CONTINUOUS
 62
    2
 10
1882.6900000000001
 20
1065.0476000000001
 40
4.2999999999999998
 50
294.22775999999999
 51
24.227764000000008
  0
ARC
  8
_0-0_1
  6
CONTINUOUS
 62
    2
 10
1845.1824000000001
 20
1148.3972000000001
 40
4.2999999999999998
 50
24.227764000000004
 51
114.22777000000002
  0
LINE
  8
_0-2_3
  6
CONTINUOUS
 62
    2
 10
1246.7215000000001
 20
784.50859999999989
 11
1252.0247999999999
 21
789.81189999999992
  0
LINE
  8
_0-2_3
  6
CONTINUOUS
 62
    2
 10
1252.0247999999999
 20
789.81189999999992
 11
1250.0835999999999
 21
782.56750000000011
  0
LINE
  8
_0-2_3
  6
CONTINUOUS
 62
    2
 10
1252.0247999999999
 20
789.81189999999992
 11
1181.5160000000001
 21
667.6871000000001
  0
LINE
  8
_0-2_3
  6
CONTINUOUS
 62
    2
 10
1190.4091000000001
 20
946.48099999999999
 11
1192.3503000000001
 21
939.23659999999995
  0
LINE
  8
_0-2_3
  6
CONTINUOUS
 62
    2
 10
1192.3503000000001
 20
939.23659999999995
 11
1187.047
 21
944.53989999999999
  0
LINE
  8
_0-2_3
  6
CONTINUOUS
 62
    2
 10
1192.3503000000001
 20
939.23659999999995
 11
1132.3746000000001
 21
1043.1175000000001
  0
LINE
  8
_0-2_3
  6
CONTINUOUS
 62
    2
 10
1132.3746000000001
 20
1043.1175000000001
 11
1065.2348
 21
1043.1175000000001
  0
LINE
  8
_0-0_1
  6
CONTINUOUS
 62
    2
 10
1647.5237000000002
 20
818.75649999999996
 11
1852.3463999999999
 21
818.75649999999996
  0
LINE
  8
_0-0_1
  6
CONTINUOUS
 62
    2
 10
1573.5245
 20
1085.7674999999999
 11
1573.5245
 21
1093.2674999999999
  0
LINE
  8
_0-0_1
  6
CONTINUOUS
 62
    2
 10
1573.5245
 20
1093.2674999999999
 11
1577.2745
 21
1086.7723000000001
  0
LINE
  8
_0-0_1
  6
CONTINUOUS
 62
    2
 10
1573.5245
 20
1093.2674999999999
 11
1671.1489999999999
 21
728.92810000000009
  0
LINE
  8
_0-0_1
  6
CONTINUOUS
 62
    7
 10
1647.5237000000002
 20
818.75649999999996
 11
1852.3463999999999
 21
818.75649999999996
  0
LINE
  8
_0-0_1
  6
CONTINUOUS
 62
    7
 10
1065.2348
 20
1043.1175000000001
 11
1132.3746000000001
 21
1043.1175000000001
  0
LINE
  8
_0-0_1
  6
CONTINUOUS
 62
    7
 10
1132.923
 20
1111.6208999999999
 11
1197.423
 21
1111.6208999999999
  0
LINE
  8
_0-0_1
  6
CONTINUOUS
 62
    7
 10
1584.3252000000002
 20
1287.9103
 11
1624.8252000000002
 21
1287.9103
  0
LINE
  8
_0-0_1
  6
CONTINUOUS
 62
    7
 10
1009.7551971751693
 20
1184.4332691542122
 11
1027.4889000000001
 21
1135.8698999999999
  0
LINE
  8
_0-0_1
  6
CONTINUOUS
 62
    7
 10
1010.3382999999999
 20
1182.8363999999999
 11
1221.6877999999999
 21
1260.0142000000001
  0
LINE
  8
_0-0_1
  6
CONTINUOUS
 62
    7
 10
1238.8384000000001
 20
1213.0476000000001
 11
1212.4475
 21
1285.3184000000001
  0
LINE
  8
_0-0_1
  6
CONTINUOUS
 62
    7
 10
1211.8644289045815
 20
1286.9152807399701
 11
1213.0306212178384
 21
1283.7215375621845
  0
LINE
  8
_0-0_1
  6
CONTINUOUS
 62
    7
 10
1212.4475482241653
 20
1285.3184176098594
 11
1423.797
 21
1362.4962
  0
LINE
  8
_0-0_1
  6
CONTINUOUS
 62
    7
 10
1440.9476
 20
1315.5297
 11
1414.6060097949589
 21
1387.6653372442877
  0
LINE
  8
_0-0_1
  6
CONTINUOUS
 62
    7
 10
1415.1892
 20
1386.0685000000001
 11
1626.5385999999999
 21
1463.2462
  0
LINE
  8
_0-0_1
  6
CONTINUOUS
 62
    7
 10
1625.9555289045811
 20
1464.84308073997
 11
1643.6891999999998
 21
1416.2797
  0
LINE
  8
_0-0_1
  6
CONTINUOUS
 62
    7
 10
1624.8252000000002
 20
1287.9103
 11
1689.4135000000001
 21
1176.0401999999999
  0
LINE
  8
_0-0_1
  6
CONTINUOUS
 62
    7
 10
1689.4135000000001
 20
1176.0401999999999
 11
1687.4722999999999
 21
1183.2846
  0
LINE
  8
_0-0_1
  6
CONTINUOUS
 62
    7
 10
1684.1102000000001
 20
1181.3434999999999
 11
1689.4135000000001
 21
1176.0401999999999
  0
LINE
  8
_0-0_1
  6
CONTINUOUS
 62
    7
 10
1764.0763999999999
 20
1176.0585000000001
 11
1757.9209000000001
 21
1189.7373
  0
LINE
  8
_0-0_1
  6
CONTINUOUS
 62
    7
 10
1757.9209000000001
 20
1189.7373
 11
1785.2784999999999
 21
1202.0482999999999
  0
LINE
  8
_0-0_1
  6
CONTINUOUS
 62
    7
 10
1785.2784999999999
 20
1202.0482999999999
 11
1764.0763999999999
 21
1176.0585000000001
  0
LINE
  8
_0-0_1
  6
CONTINUOUS
 62
    7
 10
1764.0763999999999
 20
1176.0585000000001
 11
1791.4340000000002
 21
1188.3695
  0
LINE
  8
_0-0_1
  6
CONTINUOUS
 62
    7
 10
1791.4340000000002
 20
1188.3695
 11
1785.2784999999999
 21
1202.0482999999999
  0
LINE
  8
_0-0_1
  6
CONTINUOUS
 62
    7
 10
1927.6192999999998
 20
1245.038
 11
1165.6268
 21
902.14200000000005
  0
LINE
  8
_0-0_1
  6
CONTINUOUS
 62
    7
 10
1169.1214
 20
907.59140000000002
 11
1921.9045000000001
 21
1246.3434
  0
LINE
  8
_0-0_1
  6
CONTINUOUS
 62
    7
 10
1579.511
 20
1109.4528
 11
1552.1532999999999
 21
1097.1418000000001
  0
LINE
  8
_0-0_1
  6
CONTINUOUS
 62
    7
 10
1552.1532999999999
 20
1097.1418000000001
 11
1558.3087999999998
 21
1083.463
  0
LINE
  8
_0-0_1
  6
CONTINUOUS
 62
    7
 10
1558.3087999999998
 20
1083.463
 11
1585.6664999999998
 21
1095.7739999999999
  0
LINE
  8
_0-0_1
  6
CONTINUOUS
 62
    7
 10
1585.6664999999998
 20
1095.7739999999999
 11
1579.511
 21
1109.4528
  0
LINE
  8
_0-0_1
  6
CONTINUOUS
 62
    7
 10
1579.511
 20
1109.4528
 11
1558.3087999999998
 21
1083.463
  0
LINE
  8
_0-0_1
  6
CONTINUOUS
 62
    7
 10
1573.5245
 20
1085.7674999999999
 11
1573.5245
 21
1093.2674999999999
  0
LINE
  8
_0-0_1
  6
CONTINUOUS
 62
    7
 10
1573.5245
 20
1093.2674999999999
 11
1576.994567525664
 21
1087.2571579752821
  0
LINE
  8
_0-0_1
  6
CONTINUOUS
 62
    7
 10
1573.5245
 20
1093.2674999999999
 11
1671.1489999999999
 21
728.92810000000009
  0
LINE
  8
_0-0_1
  6
CONTINUOUS
 62
    7
 10
1181.5160000000001
 20
667.6871000000001
 11
1252.0247999999999
 21
789.81189999999992
  0
LINE
  8
_0-0_1
  6
CONTINUOUS
 62
    7
 10
1252.0247999999999
 20
789.81189999999992
 11
1246.7215000000001
 21
784.50859999999989
  0
LINE
  8
_0-0_1
  6
CONTINUOUS
 62
    7
 10
1252.0247999999999
 20
789.81189999999992
 11
1250.0835999999999
 21
782.56750000000011
  0
LINE
  8
_0-0_1
  6
CONTINUOUS
 62
    7
 10
1198.7683999999999
 20
682.2813000000001
 11
1219.9842129026295
 21
635.13483026924825
  0
LINE
  8
_0-0_1
  6
CONTINUOUS
 62
    7
 10
1219.2865999999999
 20
636.68509999999992
 11
1287.6806999999999
 21
667.46229999999991
  0
LINE
  8
_0-0_1
  6
CONTINUOUS
 62
    7
 10
1288.7067
 20
665.18249999999989
 11
1199.8237999999999
 21
862.70129999999995
  0
LINE
  8
_0-0_1
  6
CONTINUOUS
 62
    7
 10
1165.6268
 20
902.14200000000005
 11
1186.1449
 21
856.54590000000007
  0
LINE
  8
_0-0_1
  6
CONTINUOUS
 62
    7
 10
1186.1449
 20
856.54590000000007
 11
1948.1374999999998
 21
1199.4418000000001
  0
LINE
  8
_0-0_1
  6
CONTINUOUS
 62
    7
 10
1993.2775999999999
 20
1099.1305
 11
1290.5597
 21
782.9081000000001
  0
LINE
  8
_0-0_1
  6
CONTINUOUS
 62
    7
 10
1208.5503000000001
 20
843.30899999999997
 11
1274.6644451109482
 21
818.23115875116503
  0
LINE
  8
_0-0_1
  6
CONTINUOUS
 62
    7
 10
1272.9235000000001
 20
822.10010000000011
 11
1206.8092700070454
 21
847.17793551450711
  0
LINE
  8
_0-0_1
  6
CONTINUOUS
 62
    7
 10
1297.3064891856034
 20
767.91522403212593
 11
1245.4199000000001
 21
883.21939999999995
  0
LINE
  8
_0-0_1
  6
CONTINUOUS
 62
    7
 10
1281.3104000000001
 20
751.68190000000004
 11
1305.7729999999997
 21
776.50729999999999
  0
LINE
  8
_0-0_1
  6
CONTINUOUS
 62
    7
 10
1281.3104000000001
 20
751.68190000000004
 11
1281.8662999999997
 21
746.81169999999997
  0
LINE
  8
_0-0_1
  6
CONTINUOUS
 62
    7
 10
1281.8662999999997
 20
746.81169999999997
 11
1272.8384000000001
 21
749.13499999999999
  0
LINE
  8
_0-0_1
  6
CONTINUOUS
 62
    7
 10
1272.8384000000001
 20
749.13499999999999
 11
1273.7260000000001
 21
743.98489999999993
  0
LINE
  8
_0-0_1
  6
CONTINUOUS
 62
    7
 10
1273.7260000000001
 20
743.98489999999993
 11
1259.6664492355956
 21
729.71681914206385
  0
LINE
  8
_0-0_1
  6
CONTINUOUS
 62
    7
 10
1274.0283270104092
 20
697.80131215460312
 11
1887.7520978219798
 21
973.97529901989742
  0
LINE
  8
_0-0_1
  6
CONTINUOUS
 62
    7
 10
1888.4497135995878
 20
972.42503058287593
 11
1867.2339999999999
 21
1019.5714
  0
LINE
  8
_0-0_1
  6
CONTINUOUS
 62
    7
 10
1682.3552135995883
 20
879.68313058287617
 11
1661.1395000000002
 21
926.82950000000005
  0
LINE
  8
_0-0_1
  6
CONTINUOUS
 62
    7
 10
1476.5891000000001
 20
786.21160000000009
 11
1455.0450000000001
 21
834.08760000000007
  0
LINE
  8
_0-0_1
  6
CONTINUOUS
 62
    7
 10
1352.5413000000001
 20
990.86750000000006
 11
1346.3851
 21
1004.546
  0
LINE
  8
_0-0_1
  6
CONTINUOUS
 62
    7
 10
1346.3851
 20
1004.546
 11
1373.7420999999999
 21
1016.8584000000001
  0
LINE
  8
_0-0_1
  6
CONTINUOUS
 62
    7
 10
1373.7420999999999
 20
1016.8584000000001
 11
1379.8983000000001
 21
1003.1799000000001
  0
LINE
  8
_0-0_1
  6
CONTINUOUS
 62
    7
 10
1379.8983000000001
 20
1003.1799000000001
 11
1352.5413000000001
 21
990.86750000000006
  0
LINE
  8
_0-0_1
  6
CONTINUOUS
 62
    7
 10
1352.5413000000001
 20
990.86750000000006
 11
1373.7420999999999
 21
1016.8584000000001
  0
LINE
  8
_0-0_1
  6
CONTINUOUS
 62
    7
 10
1334.6857405941589
 20
978.21838460217748
 11
1400.7999999999997
 21
953.14049999999997
  0
LINE
  8
_0-0_1
  6
CONTINUOUS
 62
    7
 10
1396.931
 20
951.39940000000001
 11
1330.8167000000001
 21
976.47730000000001
  0
LINE
  8
_0-0_1
  6
CONTINUOUS
 62
    7
 10
1186.8371
 20
913.94419999999991
 11
1227.8735999999999
 21
932.41059999999993
  0
LINE
  8
_0-0_1
  6
CONTINUOUS
 62
    7
 10
1227.8735999999999
 20
932.41059999999993
 11
1202.0724323412396
 21
937.87753913336257
  0
LINE
  8
_0-0_1
  6
CONTINUOUS
 62
    7
 10
1202.0724323412396
 20
937.87753913336257
 11
1186.8371
 21
913.94419999999991
  0
LINE
  8
_0-0_1
  6
CONTINUOUS
 62
    7
 10
1186.8371
 20
913.94419999999991
 11
1173.3262
 21
943.96849999999995
  0
LINE
  8
_0-0_1
  6
CONTINUOUS
 62
    7
 10
1173.3262
 20
943.96849999999995
 11
1202.0724323412396
 21
937.87753913336257
  0
LINE
  8
_0-0_1
  6
CONTINUOUS
 62
    7
 10
1202.0724323412396
 20
937.87753913336257
 11
1215.7469000000001
 21
959.35889999999995
  0
LINE
  8
_0-0_1
  6
CONTINUOUS
 62
    7
 10
1215.7469000000001
 20
959.35889999999995
 11
1173.3262
 21
943.96849999999995
  0
LINE
  8
_0-0_1
  6
CONTINUOUS
 62
    7
 10
1215.7469000000001
 20
959.35889999999995
 11
1227.8735999999999
 21
932.41059999999993
  0
LINE
  8
_0-0_1
  6
CONTINUOUS
 62
    7
 10
1187.047
 20
944.53989999999999
 11
1192.3503000000001
 21
939.23659999999995
  0
LINE
  8
_0-0_1
  6
CONTINUOUS
 62
    7
 10
1192.3503000000001
 20
939.23659999999995
 11
1190.4091000000001
 21
946.48099999999999
  0
LINE
  8
_0-0_1
  6
CONTINUOUS
 62
    7
 10
1192.3503000000001
 20
939.23659999999995
 11
1132.3746000000001
 21
1043.1175000000001
  0
LINE
  8
_0-0_1
  6
CONTINUOUS
 62
    7
 10
1197.423
 20
1111.6208999999999
 11
1245.8073999999999
 21
1027.8167000000001
  0
LINE
  8
_0-0_1
  6
CONTINUOUS
 62
    7
 10
1245.8073999999999
 20
1027.8167000000001
 11
1243.8661999999999
 21
1035.0610999999999
  0
LINE
  8
_0-0_1
  6
CONTINUOUS
 62
    7
 10
1245.8073999999999
 20
1027.8167000000001
 11
1240.5041000000001
 21
1033.1199999999999
  0
LINE
  8
_0-0_1
  6
CONTINUOUS
 62
    7
 10
1524.2645000000002
 20
1063.5287000000001
 11
1590.3789000000002
 21
1038.4508000000001
  0
LINE
  8
_0-0_1
  6
CONTINUOUS
 62
    7
 10
1528.1334999999999
 20
1065.2697000000001
 11
1594.2478000000001
 21
1040.1919
  0
LINE
  8
_0-0_1
  6
CONTINUOUS
 62
    7
 10
1726.5300000000002
 20
1154.548
 11
1792.6444000000001
 21
1129.4701
  0
LINE
  8
_0-0_1
  6
CONTINUOUS
 62
    7
 10
1788.7754
 20
1127.7291
 11
1722.6610999999998
 21
1152.8069
  0
TEXT
  8
_0-0_1
 62
    7
 10
1663.9758000000004
 20
761.29459999999995
 40
20
 41
1
 50
0
  1
　野地板：ＡＬＣｔ＝５０
  0
TEXT
  8
_0-0_1
 62
    7
 10
1100.4099102715663
 20
1230.0989199919159
 40
20
 41
1
 50
20.060506999999973
  1
225
  0
TEXT
  8
_0-0_1
 62
    7
 10
1305.0120846841514
 20
1333.0125885587249
 40
20
 41
1
 50
20.060506999999973
  1
225
  0
TEXT
  8
_0-0_1
 62
    7
 10
1505.9387709336352
 20
1435.926257125534
 40
20
 41
1
 50
20.06050700000003
  1
225
  0
TEXT
  8
_0-1_2
 62
    7
 10
1238.8532977483453
 20
664.07374287446601
 40
20
 41
1
 50
24.227608999999983
  1
75
  0
TEXT
  8
_0-0_1
 62
    7
 10
1360.1444071306557
 20
757.18610967300788
 40
20
 41
1
 50
24.227609000000026
  1
221
  0
TEXT
  8
_0-0_1
 62
    7
 10
1560.3203957747942
 20
847.16195168094714
 40
20
 41
1
 50
24.227609000000026
  1
226
  0
TEXT
  8
_0-0_1
 62
    7
 10
1747.4773493957046
 20
926.84263490569094
 40
20
 41
1
 50
24.227608999999983
  1
226
  0
TEXT
  8
_0-0_1
 62
    7
 10
1651.1193138681072
 20
826.77852108857087
 40
20
 41
1
 50
0
  1
瓦桟：１５ｘ３０以上
  0
TEXT
  8
_0-0_1
 62
    7
 10
1664.0905878814374
 20
793.42381648286391
 40
20
 41
1
 50
0
  1
下葺材：ルーフィング
  0
TEXT
  8
_0-0_1
 62
    7
 10
1673.3557836052451
 20
734.1265638504965
 40
20
 41
1
 50
0
  1
鋼製：C－100x50x⑳x2.3　
  0
LINE
  8
_0-0_1
  6
CONTINUOUS
 62
    2
 10
1671.1489999999999
 20
728.92810000000009
 11
1893.8674418318619
 21
728.92810000000009
  0
LINE
  8
_0-0_1
  6
CONTINUOUS
 62
    2
 10
1663.9758000000002
 20
758.79459999999995
 11
1897.5735201213847
 21
758.79459999999995
  0
LINE
  8
_0-0_1
  6
CONTINUOUS
 62
    7
 10
1663.9758000000002
 20
758.79459999999995
 11
1906.8387158451922
 21
758.79459999999995
  0
LINE
  8
_0-0_1
  6
CONTINUOUS
 62
    7
 10
1671.1489999999999
 20
728.92810000000009
 11
1893.8674418318619
 21
728.92810000000009
  0
LINE
  8
_0-0_1
  6
CONTINUOUS
 62
    2
 10
1654.4326999999998
 20
788.8900000000001
 11
1895.7204809766233
 21
788.8900000000001
  0
LINE
  8
_0-0_1
  6
CONTINUOUS
 62
    7
 10
1654.4326999999998
 20
788.8900000000001
 11
1888.3083243975773
 21
788.8900000000001
  0
LINE
  8
_0-2_3
  6
CONTINUOUS
 62
    2
 10
1181.5160000000001
 20
667.6871000000001
 11
961.78875201683456
 21
667.6871000000001
  0
LINE
  8
_0-0_1
  6
CONTINUOUS
 62
    7
 10
958.08267372731154
 20
667.6871000000001
 11
1181.5160000000001
 21
667.6871000000001
  0
TEXT
  8
_0-1_2
 62
    7
 10
1571.4386306433632
 20
1295.5974247132267
 40
20
 41
1
 50
0
  1
桟　瓦
  0
TEXT
  8
_0-2_3
 62
    7
 10
1067.4119832682393
 20
1049.1432184599491
 40
20
 41
1
 50
0
  1
瓦　座　
  0
TEXT
  8
_0-2_3
 62
    7
 10
1130.4153141901297
 20
1123.2647842504084
 40
20
 41
1
 50
0
  1
万十軒瓦
  0
TEXT
  8
_0-2_3
 62
    7
 10
961.78875201683456
 20
676.68235036289047
 40
20
 41
1
 50
0
  1
破風板：薄型ALCパネル
  0
ENDSEC
  0
EOF
