  0
SECTION
  2
HEADER
  9
$ACADVER
  1
AC1009
  9
$INSBASE
 10
0
 20
0
 30
0
  9
$EXTMIN
 10
0
 20
0
  9
$EXTMAX
 10
2970
 20
2100
  9
$LIMMIN
 10
0
 20
0
  9
$LIMMAX
 10
2970
 20
2100
  9
$LTSCALE
 40
10
  0
ENDSEC
  0
SECTION
  2
TABLES
  0
TABLE
  2
LTYPE
 70
     9
  0
LTYPE
  2
CONTINUOUS
 70
    64
  3
実線
 72
    65
 73
     0
 40
0.0
  0
LTYPE
  2
DASHED1
 70
    64
  3
--  --  --  --  --  --  --  --  
 72
    65
 73
     2
 40
2.5
 49
1.25
 49
-1.25
  0
LTYPE
  2
DASHED2
 70
    64
  3
----    ----    ----    ----    
 72
    65
 73
     2
 40
5.0
 49
2.5
 49
-2.5
  0
LTYPE
  2
DASHED3
 70
    64
  3
------  ------  ------  ------  
 72
    65
 73
     2
 40
5.0
 49
3.75
 49
-1.25
  0
LTYPE
  2
CENTER1
 70
    64
  3
----- - ----- - ----- - ----- - 
 72
    65
 73
     4
 40
10.0
 49
6.25
 49
-1.25
 49
1.25
 49
-1.25
  0
LTYPE
  2
CENTER2
 70
    64
  3
----------  --  ----------  --  
 72
    65
 73
     4
 40
20.0
 49
12.5
 49
-2.5
 49
2.5
 49
-2.5
  0
LTYPE
  2
PHANTOM1
 70
    64
  3
--- - - --- - - --- - - --- - - 
 72
    65
 73
     6
 40
10.0
 49
3.25
 49
-1.25
 49
1.25
 49
-1.25
 49
1.25
 49
-1.25
  0
LTYPE
  2
PHANTOM2
 70
    64
  3
--------  -  -  --------  -  -  
 72
    65
 73
     6
 40
20.0
 49
10.0
 49
-2.5
 49
1.25
 49
-2.5
 49
1.25
 49
-2.5
  0
LTYPE
  2
DOT
 70
    64
  3
-   -   -   -   -   -   -   -   
 72
    65
 73
     2
 40
2.5
 49
0.625
 49
-1.875
  0
LTYPE
  2
DUMMY
 70
    64
  3
ダミー
 72
    65
 73
     0
 40
0.0
  0
LTYPE
  2
RAND1
 70
    64
  3
ランダム線1
 72
    65
 73
     4
 40
10.0
 49
1.0
 49
-2.0
 49
3.0
 49
-4.0
  0
LTYPE
  2
RAND2
 70
    64
  3
ランダム線2
 72
    65
 73
     4
 40
14.0
 49
2.0
 49
-3.0
 49
4.0
 49
-5.0
  0
LTYPE
  2
RAND3
 70
    64
  3
ランダム線3
 72
    65
 73
     4
 40
18.0
 49
3.0
 49
-4.0
 49
5.0
 49
-6.0
  0
LTYPE
  2
RAND4
 70
    64
  3
ランダム線4
 72
    65
 73
     4
 40
22.0
 49
4.0
 49
-5.0
 49
6.0
 49
-7.0
  0
LTYPE
  2
RAND5
 70
    64
  3
ランダム線5
 72
    65
 73
     4
 40
26.0
 49
5.0
 49
-6.0
 49
7.0
 49
-8.0
  0
LTYPE
  2
LONG1
 70
    64
  3
----------  --  ----------  --  
 72
    65
 73
     4
 40
40.0
 49
32.5
 49
-2.5
 49
2.5
 49
-2.5
  0
LTYPE
  2
LONG2
 70
    64
  3
--------  -  -  --------  -  -  
 72
    65
 73
     6
 40
40.0
 49
30.0
 49
-2.5
 49
1.25
 49
-2.5
 49
1.25
 49
-2.5
  0
LTYPE
  2
LONG3
 70
    64
  3
+++++++++++++++..+++++++++++++++
 72
    65
 73
     2
 40
40.0
 49
37.5
 49
-2.5
  0
LTYPE
  2
LONG4
 70
    64
  3
+++++++++++++++..+++++++++++++++
 72
    65
 73
     2
 40
80.0
 49
75.0
 49
-5.0
  0
LTYPE
  2
LONG5
 70
    64
  3
----------  --  ----------  --  
 72
    65
 73
     4
 40
60.0
 49
37.5
 49
-7.5
 49
7.5
 49
-7.5
  0
LTYPE
  2
dashed
 70
   64
  3
-------   -------------   ------
 72
   65
 73
    2
 40
7.5
 49
6
 49
-1.5
  0
LTYPE
  2
dashed_spaced
 70
   64
  3
----        --------        ----
 72
   65
 73
    2
 40
12
 49
6
 49
-6
  0
LTYPE
  2
long_dashed_dotted
 70
   64
  3
------------- --- --------------
 72
   65
 73
    4
 40
15.25
 49
12
 49
-1.5
 49
0.25
 49
-1.5
  0
LTYPE
  2
long_dashed_double-dotted
 70
   64
  3
----------- --- --- ------------
 72
   65
 73
    6
 40
17
 49
12
 49
-1.5
 49
0.25
 49
-1.5
 49
0.25
 49
-1.5
  0
LTYPE
  2
long_dashed_triplicate-dotted
 70
   64
  3
--------- --- --- --- ----------
 72
   65
 73
    8
 40
18.75
 49
12
 49
-1.5
 49
0.25
 49
-1.5
 49
0.25
 49
-1.5
 49
0.25
 49
-1.5
  0
LTYPE
  2
dotted
 70
   64
  3
   -       -       -       -    
 72
   65
 73
    2
 40
1.75
 49
0.25
 49
-1.5
  0
LTYPE
  2
chain
 70
   64
  3
-------------- -- --------------
 72
   65
 73
    4
 40
18.5
 49
12
 49
-1.5
 49
3.5
 49
-1.5
  0
LTYPE
  2
chain_double_dash
 70
   64
  3
------------ -- -- -------------
 72
   65
 73
    6
 40
23.5
 49
12
 49
-1.5
 49
3.5
 49
-1.5
 49
3.5
 49
-1.5
  0
LTYPE
  2
dashed_dotted
 70
   64
  3
-----------     -     ----------
 72
   65
 73
    4
 40
9.25
 49
6
 49
-1.5
 49
0.25
 49
-1.5
  0
LTYPE
  2
double-dashed_dotted
 70
   64
  3
------   -----------   -   -----
 72
   65
 73
    6
 40
16.75
 49
6
 49
-1.5
 49
6
 49
-1.5
 49
0.25
 49
-1.5
  0
LTYPE
  2
dashed_double-dotted
 70
   64
  3
---------    -    -    ---------
 72
   65
 73
    6
 40
11
 49
6
 49
-1.5
 49
0.25
 49
-1.5
 49
0.25
 49
-1.5
  0
LTYPE
  2
double-dashed_double-dotted
 70
   64
  3
-----   ---------   -   -   ----
 72
   65
 73
    8
 40
18.5
 49
6
 49
-1.5
 49
6
 49
-1.5
 49
0.25
 49
-1.5
 49
0.25
 49
-1.5
  0
LTYPE
  2
dashed_triplicate-dotted
 70
   64
  3
-------    -    -    -    ------
 72
   65
 73
    8
 40
12.75
 49
6
 49
-1.5
 49
0.25
 49
-1.5
 49
0.25
 49
-1.5
 49
0.25
 49
-1.5
  0
LTYPE
  2
double-dashed_triplicate-dotted
 70
   64
  3
-----  ---------  -  -  -  -----
 72
   65
 73
   10
 40
20.25
 49
6
 49
-1.5
 49
6
 49
-1.5
 49
0.25
 49
-1.5
 49
0.25
 49
-1.5
 49
0.25
 49
-1.5
  0
LTYPE
  2
undefined
 70
   64
  3
--------------------------------
 72
   65
 73
    0
 40
0
  0
ENDTAB
  0
TABLE
  2
STYLE
  5
3
100
AcDbSymbolTable
 70
     1
  0
STYLE
  5
10
100
AcDbSymbolTableRecord
100
AcDbTextStyleTableRecord
  2
STANDARD
 70
     0
 40
0.0
 41
1.0
 50
0.0
 71
     0
 42
0.2
  3
txt
  4
bigfont.shx
  0
STYLE
  5
26
100
AcDbSymbolTableRecord
100
AcDbTextStyleTableRecord
  2
TATEGAKI
 70
    68
 40
0.0
 41
1.0
 50
0.0
 71
     0
 42
1.0
  3
txt
  4
bigfont.shx
  0
ENDTAB
  0
TABLE
  2
LAYER
 70
    7
  0
LAYER
  2
_0-0_LAYER001
 70
   64
 62
    7
  6
CONTINUOUS
  0
LAYER
  2
_0-1_LAYER002
 70
   64
 62
    7
  6
CONTINUOUS
  0
LAYER
  2
_0-3_LAYER004
 70
   64
 62
    7
  6
CONTINUOUS
  0
LAYER
  2
_0-4_LAYER005
 70
   64
 62
    7
  6
CONTINUOUS
  0
LAYER
  2
_0-5_LAYER006
 70
   64
 62
    7
  6
CONTINUOUS
  0
LAYER
  2
_0-6_LAYER007
 70
   64
 62
    7
  6
CONTINUOUS
  0
LAYER
  2
ADD_LINE
 70
   64
 62
    7
  6
CONTINUOUS
  0
ENDTAB
  0
ENDSEC
  0
SECTION
  2
BLOCKS
  0
ENDSEC
  0
SECTION
  2
ENTITIES
  0
LINE
  8
_0-0_LAYER001
  6
CONTINUOUS
 62
    2
 10
1650.6482000000001
 20
910.71280000000002
 11
1625.5700999999999
 21
976.82709999999997
  0
LINE
  8
_0-0_LAYER001
  6
CONTINUOUS
 62
    2
 10
1654.5169999999998
 20
908.97170000000006
 11
1629.4391000000001
 21
975.08600000000001
  0
LINE
  8
_0-0_LAYER001
  6
CONTINUOUS
 62
    2
 10
1847.9648999999999
 20
821.92039999999997
 11
1822.8870000000002
 21
888.03469999999993
  0
LINE
  8
_0-0_LAYER001
  6
CONTINUOUS
 62
    2
 10
1844.096
 20
823.66139999999996
 11
1819.0180999999998
 21
889.77569999999992
  0
LINE
  8
_0-0_LAYER001
  6
DASHED3
 62
    2
 10
1446.4479999999999
 20
1058.394
 11
918.51009999999997
 21
820.82230000000004
  0
LINE
  8
_0-0_LAYER001
  6
CONTINUOUS
 62
    2
 10
1244.9836
 20
910.71280000000002
 11
1270.0616
 21
976.82709999999997
  0
LINE
  8
_0-0_LAYER001
  6
CONTINUOUS
 62
    2
 10
1241.1148000000001
 20
908.97170000000006
 11
1266.1926000000001
 21
975.08600000000001
  0
LINE
  8
_0-0_LAYER001
  6
CONTINUOUS
 62
    2
 10
1446.4479999999999
 20
1001.3715
 11
939.84899999999993
 21
773.40239999999994
  0
LINE
  8
_0-0_LAYER001
  6
CONTINUOUS
 62
    2
 10
1047.6668999999999
 20
821.92039999999997
 11
1072.7447
 21
888.03469999999993
  0
LINE
  8
_0-0_LAYER001
  6
CONTINUOUS
 62
    2
 10
1051.5358000000001
 20
823.66139999999996
 11
1076.6137000000001
 21
889.77569999999992
  0
LINE
  8
_0-0_LAYER001
  6
CONTINUOUS
 62
    2
 10
1446.4479999999999
 20
878.00569999999993
 11
986.0148999999999
 21
670.81130000000007
  0
LINE
  8
_0-0_LAYER001
  6
CONTINUOUS
 62
    2
 10
1386.4450999999999
 20
883.90180000000009
 11
1388.5423000000001
 21
884.8454999999999
  0
LINE
  8
_0-0_LAYER001
  6
CONTINUOUS
 62
    2
 10
1361.8214
 20
938.61640000000011
 11
1363.9193
 21
939.55999999999995
  0
LINE
  8
_0-0_LAYER001
  6
CONTINUOUS
 62
    2
 10
1355.6659999999999
 20
952.29600000000005
 11
1361.8214
 21
938.61640000000011
  0
LINE
  8
_0-0_LAYER001
  6
CONTINUOUS
 62
    2
 10
1315.6195
 20
937.23579999999993
 11
1352.0953
 21
953.64989999999989
  0
LINE
  8
_0-0_LAYER001
  6
CONTINUOUS
 62
    2
 10
1351.1527000000001
 20
955.7469000000001
 11
1314.675
 21
939.33179999999993
  0
LINE
  8
_0-0_LAYER001
  6
CONTINUOUS
 62
    2
 10
1357.7636000000002
 20
953.23960000000011
 11
1363.9193
 21
939.55999999999995
  0
LINE
  8
_0-0_LAYER001
  6
CONTINUOUS
 62
    2
 10
1349.1007999999999
 20
850.64679999999998
 11
1312.1676
 21
932.7206000000001
  0
LINE
  8
_0-0_LAYER001
  6
CONTINUOUS
 62
    2
 10
1392.1905999999999
 20
864.55479999999989
 11
1355.7118
 21
848.13940000000002
  0
LINE
  8
_0-0_LAYER001
  6
CONTINUOUS
 62
    2
 10
1394.6978999999999
 20
871.16579999999999
 11
1388.5423000000001
 21
884.8454999999999
  0
LINE
  8
_0-0_LAYER001
  6
CONTINUOUS
 62
    2
 10
1392.6010999999999
 20
870.2222999999999
 11
1386.4450999999999
 21
883.90180000000009
  0
LINE
  8
_0-0_LAYER001
  6
CONTINUOUS
 62
    2
 10
1354.7693999999999
 20
850.23649999999998
 11
1391.2469000000001
 21
866.65169999999989
  0
LINE
  8
_0-0_LAYER001
  6
CONTINUOUS
 62
    2
 10
1351.1987999999999
 20
851.59050000000002
 11
1314.2656999999999
 21
933.66529999999989
  0
LINE
  8
_0-0_LAYER001
  6
CONTINUOUS
 62
    2
 10
1355.2570000000001
 20
836.96980000000008
 11
1318.3231000000001
 21
919.04259999999999
  0
LINE
  8
_0-0_LAYER001
  6
CONTINUOUS
 62
    2
 10
1313.9918
 20
911.61040000000003
 11
1341.8973000000001
 21
849.60040000000004
  0
LINE
  8
_0-0_LAYER001
  6
CONTINUOUS
 62
    2
 10
1316.4992000000002
 20
918.22260000000006
 11
1318.3231000000001
 21
919.04259999999999
  0
LINE
  8
_0-0_LAYER001
  6
CONTINUOUS
 62
    2
 10
1274.8706
 20
808.47170000000006
 11
1336.8816999999999
 21
836.3773000000001
  0
LINE
  8
_0-0_LAYER001
  6
CONTINUOUS
 62
    2
 10
1332.7312999999999
 20
892.62899999999991
 11
1335.4676999999997
 21
893.85989999999993
  0
LINE
  8
_0-0_LAYER001
  6
CONTINUOUS
 62
    2
 10
1326.1655000000001
 20
907.21910000000003
 11
1328.9016999999999
 21
908.45000000000005
  0
LINE
  8
_0-0_LAYER001
  6
CONTINUOUS
 62
    2
 10
1342.0332000000003
 20
879.27080000000001
 11
1328.9016999999999
 21
908.45000000000005
  0
LINE
  8
_0-0_LAYER001
  6
CONTINUOUS
 62
    2
 10
1339.2968000000001
 20
878.03890000000001
 11
1342.0332000000003
 21
879.27080000000001
  0
LINE
  8
_0-0_LAYER001
  6
CONTINUOUS
 62
    2
 10
1341.3044
 20
905.25839999999994
 11
1351.9735000000001
 21
910.06040000000007
  0
LINE
  8
_0-0_LAYER001
  6
CONTINUOUS
 62
    2
 10
1347.8697
 20
890.66920000000005
 11
1358.5391
 21
895.4701
  0
LINE
  8
_0-0_LAYER001
  6
CONTINUOUS
 62
    2
 10
1346.4518
 20
891.20779999999991
 11
1338.3104000000001
 21
887.54459999999995
  0
LINE
  8
_0-0_LAYER001
  6
CONTINUOUS
 62
    2
 10
1340.7657999999997
 20
903.84220000000005
 11
1332.6255000000001
 21
900.17840000000001
  0
LINE
  8
_0-0_LAYER001
  6
CONTINUOUS
 62
    2
 10
1337.9237000000001
 20
910.16059999999993
 11
1329.7813999999998
 21
906.49649999999997
  0
LINE
  8
_0-0_LAYER001
  6
CONTINUOUS
 62
    2
 10
1339.6611000000003
 20
908.90900000000011
 11
1337.9237000000001
 21
910.16059999999993
  0
LINE
  8
_0-0_LAYER001
  6
CONTINUOUS
 62
    2
 10
1349.5107000000003
 20
887.02250000000004
 11
1339.6611000000003
 21
908.90900000000011
  0
LINE
  8
_0-0_LAYER001
  6
CONTINUOUS
 62
    2
 10
1349.2949000000001
 20
884.88920000000007
 11
1341.1536000000001
 21
881.22540000000004
  0
LINE
  8
_0-0_LAYER001
  6
CONTINUOUS
 62
    2
 10
1349.5107000000003
 20
887.02250000000004
 11
1349.2949000000001
 21
884.88920000000007
  0
LINE
  8
_0-0_LAYER001
  6
CONTINUOUS
 62
    2
 10
1359.5429999999999
 20
898.11509999999998
 11
1358.5391
 21
895.4701
  0
LINE
  8
_0-0_LAYER001
  6
CONTINUOUS
 62
    2
 10
1354.6181999999999
 20
909.05729999999994
 11
1359.5429999999999
 21
898.11509999999998
  0
LINE
  8
_0-0_LAYER001
  6
CONTINUOUS
 62
    2
 10
1351.9735000000001
 20
910.06040000000007
 11
1354.6181999999999
 21
909.05729999999994
  0
LINE
  8
_0-0_LAYER001
  6
CONTINUOUS
 62
    2
 10
1351.9735000000001
 20
910.06040000000007
 11
1358.5391
 21
895.4701
  0
LINE
  8
_0-0_LAYER001
  6
CONTINUOUS
 62
    2
 10
1351.9735000000001
 20
910.06040000000007
 11
1355.9657999999999
 21
894.31220000000008
  0
LINE
  8
_0-0_LAYER001
  6
CONTINUOUS
 62
    2
 10
1346.4173000000001
 20
907.5598
 11
1350.4106999999999
 21
891.81169999999997
  0
LINE
  8
_0-0_LAYER001
  6
CONTINUOUS
 62
    2
 10
1313.2662
 20
891.46579999999994
 11
1321.4073000000003
 21
895.12879999999996
  0
LINE
  8
_0-0_LAYER001
  6
CONTINUOUS
 62
    2
 10
1318.9519
 20
878.83110000000011
 11
1327.0934
 21
882.49520000000007
  0
LINE
  8
_0-0_LAYER001
  6
CONTINUOUS
 62
    2
 10
1321.7943
 20
872.51289999999995
 11
1329.9362999999998
 21
876.17679999999996
  0
LINE
  8
_0-0_LAYER001
  6
CONTINUOUS
 62
    2
 10
1320.0565999999999
 20
873.76440000000002
 11
1321.7943
 21
872.51289999999995
  0
LINE
  8
_0-0_LAYER001
  6
CONTINUOUS
 62
    2
 10
1310.2072000000001
 20
895.65100000000007
 11
1320.0565999999999
 21
873.76440000000002
  0
LINE
  8
_0-0_LAYER001
  6
CONTINUOUS
 62
    2
 10
1310.4229
 20
897.7838999999999
 11
1318.5641000000001
 21
901.44800000000009
  0
LINE
  8
_0-0_LAYER001
  6
CONTINUOUS
 62
    2
 10
1310.2072000000001
 20
895.65100000000007
 11
1310.4229
 21
897.7838999999999
  0
LINE
  8
_0-0_LAYER001
  6
CONTINUOUS
 62
    2
 10
1272.3633
 20
801.8605
 11
1273.1840999999999
 21
800.03670000000011
  0
LINE
  8
_0-0_LAYER001
  6
CONTINUOUS
 62
    2
 10
1273.1840999999999
 20
800.03670000000011
 11
1355.2572
 21
836.96939999999995
  0
LINE
  8
_0-0_LAYER001
  6
CONTINUOUS
 62
    2
 10
1701.4169999999999
 20
761.5933
 11
1695.8867
 21
754.0326
  0
LINE
  8
_0-0_LAYER001
  6
CONTINUOUS
 62
    2
 10
1701.4169999999999
 20
761.5933
 11
1700.7667000000001
 21
752.24849999999992
  0
LINE
  8
_0-0_LAYER001
  6
CONTINUOUS
 62
    2
 10
1695.8867
 20
754.0326
 11
1700.7667000000001
 21
752.24849999999992
  0
LINE
  8
_0-0_LAYER001
  6
CONTINUOUS
 62
    2
 10
1316.8416999999999
 20
997.87860000000001
 11
1307.7213999999999
 21
993.77449999999999
  0
LINE
  8
_0-0_LAYER001
  6
CONTINUOUS
 62
    2
 10
1318.0717
 20
995.14210000000003
 11
1308.9531999999999
 21
991.03939999999989
  0
LINE
  8
_0-0_LAYER001
  6
CONTINUOUS
 62
    2
 10
1307.7213999999999
 20
993.77449999999999
 11
1308.9531999999999
 21
991.03939999999989
  0
LINE
  8
_0-0_LAYER001
  6
CONTINUOUS
 62
    2
 10
1316.8416999999999
 20
997.87860000000001
 11
1318.0717
 21
995.14210000000003
  0
LINE
  8
_0-0_LAYER001
  6
CONTINUOUS
 62
    2
 10
1312.2816
 20
995.8266000000001
 11
1313.5124999999998
 21
993.0902000000001
  0
LINE
  8
_0-0_LAYER001
  6
CONTINUOUS
 62
    2
 10
1338.9552000000001
 20
936.55179999999996
 11
1334.8329000000001
 21
940.83799999999997
  0
LINE
  8
_0-0_LAYER001
  6
CONTINUOUS
 62
    2
 10
1338.9552000000001
 20
936.55179999999996
 11
1338.4807000000001
 21
942.47880000000009
  0
LINE
  8
_0-0_LAYER001
  6
CONTINUOUS
 62
    2
 10
1317.1677
 20
977.07870000000003
 11
1322.7954999999999
 21
980.77019999999993
  0
LINE
  8
_0-0_LAYER001
  6
CONTINUOUS
 62
    2
 10
1319.2195999999999
 20
972.51950000000011
 11
1324.8485000000001
 21
976.21000000000004
  0
LINE
  8
_0-0_LAYER001
  6
CONTINUOUS
 62
    2
 10
1321.2726
 20
967.95920000000001
 11
1326.9001000000001
 21
971.65079999999989
  0
LINE
  8
_0-0_LAYER001
  6
CONTINUOUS
 62
    2
 10
1323.3233999999998
 20
963.39899999999989
 11
1328.9510999999998
 21
967.0915
  0
LINE
  8
_0-0_LAYER001
  6
CONTINUOUS
 62
    2
 10
1325.3753999999999
 20
958.84079999999994
 11
1331.0030000000002
 21
962.53230000000008
  0
LINE
  8
_0-0_LAYER001
  6
CONTINUOUS
 62
    2
 10
1327.4272000000001
 20
954.28050000000007
 11
1333.056
 21
957.9722999999999
  0
LINE
  8
_0-0_LAYER001
  6
CONTINUOUS
 62
    2
 10
1329.48
 20
949.7213999999999
 11
1335.1069000000002
 21
953.41190000000006
  0
LINE
  8
_0-0_LAYER001
  6
CONTINUOUS
 62
    2
 10
1331.5310999999999
 20
945.16110000000003
 11
1337.1587999999999
 21
948.85279999999989
  0
LINE
  8
_0-0_LAYER001
  6
CONTINUOUS
 62
    2
 10
1333.067
 20
941.74900000000002
 11
1338.6943999999999
 21
945.44070000000011
  0
LINE
  8
_0-0_LAYER001
  6
CONTINUOUS
 62
    2
 10
1316.5673999999999
 20
991.17779999999993
 11
1338.4807000000001
 21
942.47880000000009
  0
LINE
  8
_0-0_LAYER001
  6
CONTINUOUS
 62
    2
 10
1318.0717
 20
995.14210000000003
 11
1316.5673999999999
 21
991.17779999999993
  0
LINE
  8
_0-0_LAYER001
  6
CONTINUOUS
 62
    2
 10
1312.9205999999999
 20
989.5338999999999
 11
1334.8329000000001
 21
940.83799999999997
  0
LINE
  8
_0-0_LAYER001
  6
CONTINUOUS
 62
    2
 10
1308.9531999999999
 20
991.03939999999989
 11
1312.9205999999999
 21
989.5338999999999
  0
LINE
  8
_0-0_LAYER001
  6
CONTINUOUS
 62
    2
 10
1310.1159000000002
 20
937.27999999999997
 11
1446.4479999999999
 21
998.62930000000006
  0
LINE
  8
_0-0_LAYER001
  6
CONTINUOUS
 62
    2
 10
1310.1159000000002
 20
937.27999999999997
 11
1309.0897
 21
939.56040000000007
  0
LINE
  8
_0-0_LAYER001
  6
CONTINUOUS
 62
    2
 10
1446.4479999999999
 20
1056.2008000000001
 11
919.33069999999998
 21
818.9985999999999
  0
CIRCLE
  8
_0-0_LAYER001
  6
CONTINUOUS
 62
    2
 10
1446.4479000000001
 20
878.00569999999993
 40
1.5
  0
ARC
  8
_0-0_LAYER001
  6
CONTINUOUS
 62
    2
 10
1353.2035999999998
 20
951.18759999999997
 40
2.7000000000000002
 50
24.240376000000001
 51
114.23248
  0
ARC
  8
_0-0_LAYER001
  6
CONTINUOUS
 62
    2
 10
1316.7279000000003
 20
934.77359999999999
 40
2.7000000000000002
 50
114.23248000000001
 51
204.21279999999999
  0
ARC
  8
_0-0_LAYER001
  6
CONTINUOUS
 62
    2
 10
1316.7257999999997
 20
934.77260000000001
 40
4.9989999999999997
 50
114.22009000000001
 51
204.23074000000003
  0
ARC
  8
_0-0_LAYER001
  6
CONTINUOUS
 62
    2
 10
1353.2046
 20
951.1887999999999
 40
4.9989999999999997
 50
24.224354999999999
 51
114.24136
  0
ARC
  8
_0-0_LAYER001
  6
CONTINUOUS
 62
    2
 10
1353.6599000000001
 20
852.69759999999997
 40
4.9989999999999997
 50
204.20946000000004
 51
294.23500000000001
  0
ARC
  8
_0-0_LAYER001
  6
CONTINUOUS
 62
    2
 10
1390.1396
 20
869.11390000000006
 40
4.9989999999999997
 50
294.21370999999999
 51
24.245640999999971
  0
ARC
  8
_0-0_LAYER001
  6
CONTINUOUS
 62
    2
 10
1390.1384000000003
 20
869.11390000000006
 40
2.7000000000000002
 50
294.22066999999998
 51
24.240376000000015
  0
ARC
  8
_0-0_LAYER001
  6
CONTINUOUS
 62
    2
 10
1353.6608000000001
 20
852.69859999999994
 40
2.7000000000000002
 50
204.21279999999999
 51
294.22066999999998
  0
ARC
  8
_0-0_LAYER001
  6
CONTINUOUS
 62
    2
 10
1332.7760000000001
 20
845.49749999999995
 40
10.001999
 50
294.23665999999992
 51
24.223896999999997
  0
ARC
  8
_0-0_LAYER001
  6
CONTINUOUS
 62
    2
 10
1318.5499
 20
913.66239999999993
 40
4.9989999999999997
 50
114.22009000000001
 51
204.23074000000003
  0
ARC
  8
_0-0_LAYER001
  6
CONTINUOUS
 62
    2
 10
1276.9213
 20
803.91229999999996
 40
4.9989999999999997
 50
114.22009000000001
 51
204.23074000000003
  0
ARC
  8
_0-0_LAYER001
  6
CONTINUOUS
 62
    2
 10
1334.7123999999999
 20
904.92570000000001
 40
6.1470010000000013
 50
349.86246
 51
23.869739999999961
  0
ARC
  8
_0-0_LAYER001
  6
CONTINUOUS
 62
    2
 10
1343.2384
 20
885.9529
 40
6.1580000000000004
 50
24.600926000000005
 51
58.555577
  0
ARC
  8
_0-0_LAYER001
  6
CONTINUOUS
 62
    2
 10
1323.7041999999999
 20
888.56899999999996
 40
22.898997999999999
 50
6.6164910000000008
 51
41.832005000000002
  0
ARC
  8
_0-0_LAYER001
  6
CONTINUOUS
 62
    2
 10
1325.0064
 20
877.7505000000001
 40
6.1479999999999997
 50
169.87801000000002
 51
203.89275000000004
  0
ARC
  8
_0-0_LAYER001
  6
CONTINUOUS
 62
    2
 10
1316.4728
 20
896.71209999999996
 40
6.1479999999999997
 50
204.55376000000004
 51
238.55601999999999
  0
ARC
  8
_0-0_LAYER001
  6
CONTINUOUS
 62
    2
 10
1336.0491
 20
894.12179999999989
 40
22.936000999999997
 50
186.64732000000004
 51
221.80409000000003
  0
LINE
  8
_0-0_LAYER001
  6
DASHED3
 62
    2
 10
1446.4479999999999
 20
1058.394
 11
1974.3859000000002
 21
820.82230000000004
  0
LINE
  8
_0-0_LAYER001
  6
CONTINUOUS
 62
    2
 10
1446.4479999999999
 20
1001.3715
 11
1953.047
 21
773.40239999999994
  0
LINE
  8
_0-0_LAYER001
  6
CONTINUOUS
 62
    2
 10
1446.4479999999999
 20
878.00569999999993
 11
1906.8809999999999
 21
670.81130000000007
  0
LINE
  8
_0-0_LAYER001
  6
CONTINUOUS
 62
    2
 10
1506.4508000000001
 20
883.90180000000009
 11
1504.3537000000001
 21
884.8454999999999
  0
LINE
  8
_0-0_LAYER001
  6
CONTINUOUS
 62
    2
 10
1531.0745000000002
 20
938.61640000000011
 11
1528.9767000000002
 21
939.55999999999995
  0
LINE
  8
_0-0_LAYER001
  6
CONTINUOUS
 62
    2
 10
1537.2298999999998
 20
952.29600000000005
 11
1531.0745000000002
 21
938.61640000000011
  0
LINE
  8
_0-0_LAYER001
  6
CONTINUOUS
 62
    2
 10
1577.2764000000002
 20
937.23579999999993
 11
1540.8006999999998
 21
953.64989999999989
  0
LINE
  8
_0-0_LAYER001
  6
CONTINUOUS
 62
    2
 10
1541.7433000000001
 20
955.7469000000001
 11
1578.2208999999998
 21
939.33179999999993
  0
LINE
  8
_0-0_LAYER001
  6
CONTINUOUS
 62
    2
 10
1535.1323000000002
 20
953.23960000000011
 11
1528.9767000000002
 21
939.55999999999995
  0
LINE
  8
_0-0_LAYER001
  6
CONTINUOUS
 62
    2
 10
1543.7950999999998
 20
850.64679999999998
 11
1580.7283000000002
 21
932.7206000000001
  0
LINE
  8
_0-0_LAYER001
  6
CONTINUOUS
 62
    2
 10
1500.7053999999998
 20
864.55479999999989
 11
1537.1840999999999
 21
848.13940000000002
  0
LINE
  8
_0-0_LAYER001
  6
CONTINUOUS
 62
    2
 10
1498.1981000000001
 20
871.16579999999999
 11
1504.3537000000001
 21
884.8454999999999
  0
LINE
  8
_0-0_LAYER001
  6
CONTINUOUS
 62
    2
 10
1500.2948999999999
 20
870.2222999999999
 11
1506.4508000000001
 21
883.90180000000009
  0
LINE
  8
_0-0_LAYER001
  6
CONTINUOUS
 62
    2
 10
1538.1264999999999
 20
850.23649999999998
 11
1501.6489999999999
 21
866.65169999999989
  0
LINE
  8
_0-0_LAYER001
  6
CONTINUOUS
 62
    2
 10
1541.6970999999999
 20
851.59050000000002
 11
1578.6302999999998
 21
933.66529999999989
  0
LINE
  8
_0-0_LAYER001
  6
CONTINUOUS
 62
    2
 10
1537.6388999999999
 20
836.96980000000008
 11
1574.5727999999999
 21
919.04259999999999
  0
LINE
  8
_0-0_LAYER001
  6
CONTINUOUS
 62
    2
 10
1578.9041999999999
 20
911.61040000000003
 11
1550.9985999999999
 21
849.60040000000004
  0
LINE
  8
_0-0_LAYER001
  6
CONTINUOUS
 62
    2
 10
1576.3968
 20
918.22260000000006
 11
1574.5727999999999
 21
919.04259999999999
  0
LINE
  8
_0-0_LAYER001
  6
CONTINUOUS
 62
    2
 10
1618.0254
 20
808.47170000000006
 11
1556.0142000000001
 21
836.3773000000001
  0
LINE
  8
_0-0_LAYER001
  6
CONTINUOUS
 62
    2
 10
1560.1646000000001
 20
892.62899999999991
 11
1557.4281999999998
 21
893.85989999999993
  0
LINE
  8
_0-0_LAYER001
  6
CONTINUOUS
 62
    2
 10
1566.7303999999999
 20
907.21910000000003
 11
1563.9942000000001
 21
908.45000000000005
  0
LINE
  8
_0-0_LAYER001
  6
CONTINUOUS
 62
    2
 10
1550.8627999999999
 20
879.27080000000001
 11
1563.9942000000001
 21
908.45000000000005
  0
LINE
  8
_0-0_LAYER001
  6
CONTINUOUS
 62
    2
 10
1553.5990999999999
 20
878.03890000000001
 11
1550.8627999999999
 21
879.27080000000001
  0
LINE
  8
_0-0_LAYER001
  6
CONTINUOUS
 62
    2
 10
1551.5916000000002
 20
905.25839999999994
 11
1540.9225000000001
 21
910.06040000000007
  0
LINE
  8
_0-0_LAYER001
  6
CONTINUOUS
 62
    2
 10
1545.0261999999998
 20
890.66920000000005
 11
1534.3569000000002
 21
895.4701
  0
LINE
  8
_0-0_LAYER001
  6
CONTINUOUS
 62
    2
 10
1546.4441999999999
 20
891.20779999999991
 11
1554.5855000000001
 21
887.54459999999995
  0
LINE
  8
_0-0_LAYER001
  6
CONTINUOUS
 62
    2
 10
1552.1300999999999
 20
903.84220000000005
 11
1560.2703999999999
 21
900.17840000000001
  0
LINE
  8
_0-0_LAYER001
  6
CONTINUOUS
 62
    2
 10
1554.9722000000002
 20
910.16059999999993
 11
1563.1145000000001
 21
906.49649999999997
  0
LINE
  8
_0-0_LAYER001
  6
CONTINUOUS
 62
    2
 10
1553.2348999999999
 20
908.90900000000011
 11
1554.9722000000002
 21
910.16059999999993
  0
LINE
  8
_0-0_LAYER001
  6
CONTINUOUS
 62
    2
 10
1543.3852000000002
 20
887.02250000000004
 11
1553.2348999999999
 21
908.90900000000011
  0
LINE
  8
_0-0_LAYER001
  6
CONTINUOUS
 62
    2
 10
1543.6010000000001
 20
884.88920000000007
 11
1551.7422999999999
 21
881.22540000000004
  0
LINE
  8
_0-0_LAYER001
  6
CONTINUOUS
 62
    2
 10
1543.3852000000002
 20
887.02250000000004
 11
1543.6010000000001
 21
884.88920000000007
  0
LINE
  8
_0-0_LAYER001
  6
CONTINUOUS
 62
    2
 10
1533.3528999999999
 20
898.11509999999998
 11
1534.3569000000002
 21
895.4701
  0
LINE
  8
_0-0_LAYER001
  6
CONTINUOUS
 62
    2
 10
1538.2777000000001
 20
909.05729999999994
 11
1533.3528999999999
 21
898.11509999999998
  0
LINE
  8
_0-0_LAYER001
  6
CONTINUOUS
 62
    2
 10
1540.9225000000001
 20
910.06040000000007
 11
1538.2777000000001
 21
909.05729999999994
  0
LINE
  8
_0-0_LAYER001
  6
CONTINUOUS
 62
    2
 10
1540.9225000000001
 20
910.06040000000007
 11
1534.3569000000002
 21
895.4701
  0
LINE
  8
_0-0_LAYER001
  6
CONTINUOUS
 62
    2
 10
1540.9225000000001
 20
910.06040000000007
 11
1536.9301999999998
 21
894.31220000000008
  0
LINE
  8
_0-0_LAYER001
  6
CONTINUOUS
 62
    2
 10
1546.4785999999999
 20
907.5598
 11
1542.4852000000001
 21
891.81169999999997
  0
LINE
  8
_0-0_LAYER001
  6
CONTINUOUS
 62
    2
 10
1579.6297
 20
891.46579999999994
 11
1571.4886000000001
 21
895.12879999999996
  0
LINE
  8
_0-0_LAYER001
  6
CONTINUOUS
 62
    2
 10
1573.944
 20
878.83110000000011
 11
1565.8026
 21
882.49520000000007
  0
LINE
  8
_0-0_LAYER001
  6
CONTINUOUS
 62
    2
 10
1571.1016
 20
872.51289999999995
 11
1562.9596000000001
 21
876.17679999999996
  0
LINE
  8
_0-0_LAYER001
  6
CONTINUOUS
 62
    2
 10
1572.8393000000001
 20
873.76440000000002
 11
1571.1016
 21
872.51289999999995
  0
LINE
  8
_0-0_LAYER001
  6
CONTINUOUS
 62
    2
 10
1582.6887000000002
 20
895.65100000000007
 11
1572.8393000000001
 21
873.76440000000002
  0
LINE
  8
_0-0_LAYER001
  6
CONTINUOUS
 62
    2
 10
1582.473
 20
897.7838999999999
 11
1574.3317999999999
 21
901.44800000000009
  0
LINE
  8
_0-0_LAYER001
  6
CONTINUOUS
 62
    2
 10
1582.6887000000002
 20
895.65100000000007
 11
1582.473
 21
897.7838999999999
  0
LINE
  8
_0-0_LAYER001
  6
CONTINUOUS
 62
    2
 10
1620.5326
 20
801.8605
 11
1619.7118
 21
800.03670000000011
  0
LINE
  8
_0-0_LAYER001
  6
CONTINUOUS
 62
    2
 10
1619.7118
 20
800.03670000000011
 11
1537.6387
 21
836.96939999999995
  0
LINE
  8
_0-0_LAYER001
  6
CONTINUOUS
 62
    2
 10
1576.0542
 20
997.87860000000001
 11
1585.1745000000001
 21
993.77449999999999
  0
LINE
  8
_0-0_LAYER001
  6
CONTINUOUS
 62
    2
 10
1574.8243000000002
 20
995.14210000000003
 11
1583.9427000000001
 21
991.03939999999989
  0
LINE
  8
_0-0_LAYER001
  6
CONTINUOUS
 62
    2
 10
1585.1745000000001
 20
993.77449999999999
 11
1583.9427000000001
 21
991.03939999999989
  0
LINE
  8
_0-0_LAYER001
  6
CONTINUOUS
 62
    2
 10
1576.0542
 20
997.87860000000001
 11
1574.8243000000002
 21
995.14210000000003
  0
LINE
  8
_0-0_LAYER001
  6
CONTINUOUS
 62
    2
 10
1580.6143000000002
 20
995.8266000000001
 11
1579.3834999999999
 21
993.0902000000001
  0
LINE
  8
_0-0_LAYER001
  6
CONTINUOUS
 62
    2
 10
1553.9407000000001
 20
936.55179999999996
 11
1558.0630000000001
 21
940.83799999999997
  0
LINE
  8
_0-0_LAYER001
  6
CONTINUOUS
 62
    2
 10
1553.9407000000001
 20
936.55179999999996
 11
1554.4151999999999
 21
942.47880000000009
  0
LINE
  8
_0-0_LAYER001
  6
CONTINUOUS
 62
    2
 10
1575.7283000000002
 20
977.07870000000003
 11
1570.1003999999998
 21
980.77019999999993
  0
LINE
  8
_0-0_LAYER001
  6
CONTINUOUS
 62
    2
 10
1573.6763000000001
 20
972.51950000000011
 11
1568.0473999999999
 21
976.21000000000004
  0
LINE
  8
_0-0_LAYER001
  6
CONTINUOUS
 62
    2
 10
1571.6233999999999
 20
967.95920000000001
 11
1565.9958000000001
 21
971.65079999999989
  0
LINE
  8
_0-0_LAYER001
  6
CONTINUOUS
 62
    2
 10
1569.5725000000002
 20
963.39899999999989
 11
1563.9448000000002
 21
967.0915
  0
LINE
  8
_0-0_LAYER001
  6
CONTINUOUS
 62
    2
 10
1567.5205000000001
 20
958.84079999999994
 11
1561.8928999999998
 21
962.53230000000008
  0
LINE
  8
_0-0_LAYER001
  6
CONTINUOUS
 62
    2
 10
1565.4686999999999
 20
954.28050000000007
 11
1559.8398999999999
 21
957.9722999999999
  0
LINE
  8
_0-0_LAYER001
  6
CONTINUOUS
 62
    2
 10
1563.4159
 20
949.7213999999999
 11
1557.7890000000002
 21
953.41190000000006
  0
LINE
  8
_0-0_LAYER001
  6
CONTINUOUS
 62
    2
 10
1561.3649
 20
945.16110000000003
 11
1555.7370999999998
 21
948.85279999999989
  0
LINE
  8
_0-0_LAYER001
  6
CONTINUOUS
 62
    2
 10
1559.8289
 20
941.74900000000002
 11
1554.2015000000001
 21
945.44070000000011
  0
LINE
  8
_0-0_LAYER001
  6
CONTINUOUS
 62
    2
 10
1576.3285999999998
 20
991.17779999999993
 11
1554.4151999999999
 21
942.47880000000009
  0
LINE
  8
_0-0_LAYER001
  6
CONTINUOUS
 62
    2
 10
1574.8243000000002
 20
995.14210000000003
 11
1576.3285999999998
 21
991.17779999999993
  0
LINE
  8
_0-0_LAYER001
  6
CONTINUOUS
 62
    2
 10
1579.9753000000001
 20
989.5338999999999
 11
1558.0630000000001
 21
940.83799999999997
  0
LINE
  8
_0-0_LAYER001
  6
CONTINUOUS
 62
    2
 10
1583.9427000000001
 20
991.03939999999989
 11
1579.9753000000001
 21
989.5338999999999
  0
LINE
  8
_0-0_LAYER001
  6
CONTINUOUS
 62
    2
 10
1582.7800999999999
 20
937.27999999999997
 11
1446.4479999999999
 21
998.62930000000006
  0
LINE
  8
_0-0_LAYER001
  6
CONTINUOUS
 62
    2
 10
1582.7800999999999
 20
937.27999999999997
 11
1583.8063000000002
 21
939.56040000000007
  0
LINE
  8
_0-0_LAYER001
  6
CONTINUOUS
 62
    2
 10
1446.4479999999999
 20
1056.2008000000001
 11
1973.5652
 21
818.9985999999999
  0
CIRCLE
  8
_0-0_LAYER001
  6
CONTINUOUS
 62
    2
 10
1446.4479999999999
 20
878.00569999999993
 40
1.5
  0
ARC
  8
_0-0_LAYER001
  6
CONTINUOUS
 62
    2
 10
1539.6923999999999
 20
951.18759999999997
 40
2.7000000000000002
 50
65.767520000000005
 51
155.75962000000001
  0
ARC
  8
_0-0_LAYER001
  6
CONTINUOUS
 62
    2
 10
1576.1680999999999
 20
934.77359999999999
 40
2.7000000000000002
 50
335.78719999999998
 51
65.767520000000005
  0
ARC
  8
_0-0_LAYER001
  6
CONTINUOUS
 62
    2
 10
1576.1700999999998
 20
934.77260000000001
 40
4.9989999999999997
 50
335.76925999999997
 51
65.779910000000015
  0
ARC
  8
_0-0_LAYER001
  6
CONTINUOUS
 62
    2
 10
1539.6914000000002
 20
951.1887999999999
 40
4.9989999999999997
 50
65.75864
 51
155.77564000000001
  0
ARC
  8
_0-0_LAYER001
  6
CONTINUOUS
 62
    2
 10
1539.2359999999999
 20
852.69759999999997
 40
4.9989999999999997
 50
245.76499999999999
 51
335.79054000000002
  0
ARC
  8
_0-0_LAYER001
  6
CONTINUOUS
 62
    2
 10
1502.7564000000002
 20
869.11390000000006
 40
4.9989999999999997
 50
155.75434999999999
 51
245.78629000000001
  0
ARC
  8
_0-0_LAYER001
  6
CONTINUOUS
 62
    2
 10
1502.7575000000002
 20
869.11390000000006
 40
2.7000000000000002
 50
155.75962000000001
 51
245.77932999999999
  0
ARC
  8
_0-0_LAYER001
  6
CONTINUOUS
 62
    2
 10
1539.2352000000001
 20
852.69859999999994
 40
2.7000000000000002
 50
245.77933000000002
 51
335.78720000000004
  0
ARC
  8
_0-0_LAYER001
  6
CONTINUOUS
 62
    2
 10
1560.1199999999999
 20
845.49749999999995
 40
10.001999
 50
155.77610000000004
 51
245.76334
  0
ARC
  8
_0-0_LAYER001
  6
CONTINUOUS
 62
    2
 10
1574.346
 20
913.66239999999993
 40
4.9989999999999997
 50
335.76925999999997
 51
65.779910000000015
  0
ARC
  8
_0-0_LAYER001
  6
CONTINUOUS
 62
    2
 10
1615.9746
 20
803.91229999999996
 40
4.9989999999999997
 50
335.76925999999997
 51
65.779910000000015
  0
ARC
  8
_0-0_LAYER001
  6
CONTINUOUS
 62
    2
 10
1558.1835000000001
 20
904.92570000000001
 40
6.1470010000000013
 50
156.13026000000002
 51
190.13754000000003
  0
ARC
  8
_0-0_LAYER001
  6
CONTINUOUS
 62
    2
 10
1549.6574999999998
 20
885.9529
 40
6.1580000000000004
 50
121.44441999999999
 51
155.39906999999999
  0
ARC
  8
_0-0_LAYER001
  6
CONTINUOUS
 62
    2
 10
1569.1918000000001
 20
888.56899999999996
 40
22.898997999999999
 50
138.16799
 51
173.3835
  0
ARC
  8
_0-0_LAYER001
  6
CONTINUOUS
 62
    2
 10
1567.8896
 20
877.7505000000001
 40
6.1479999999999997
 50
336.10724999999996
 51
10.121989999999936
  0
ARC
  8
_0-0_LAYER001
  6
CONTINUOUS
 62
    2
 10
1576.4232000000002
 20
896.71209999999996
 40
6.1479999999999997
 50
301.44398000000001
 51
335.44623999999999
  0
ARC
  8
_0-0_LAYER001
  6
CONTINUOUS
 62
    2
 10
1556.8467999999998
 20
894.12179999999989
 40
22.936000999999997
 50
318.19591000000008
 51
353.35268000000008
  0
LINE
  8
_0-0_LAYER001
  6
CONTINUOUS
 62
    2
 10
1446.4479999999999
 20
1001.3715
 11
1446.4479999999999
 21
1056.2008000000001
  0
LINE
  8
_0-0_LAYER001
  6
CONTINUOUS
 62
    2
 10
1416.4865
 20
1173.9437
 11
1416.4865
 21
1192.3400999999999
  0
LINE
  8
_0-0_LAYER001
  6
CONTINUOUS
 62
    2
 10
1476.4866999999999
 20
1173.9437
 11
1476.4866999999999
 21
1192.3395
  0
LINE
  8
_0-0_LAYER001
  6
CONTINUOUS
 62
    2
 10
1506.0052000000001
 20
1244.7265
 11
1502.2552000000001
 21
1238.2312999999999
  0
LINE
  8
_0-0_LAYER001
  6
CONTINUOUS
 62
    2
 10
1502.2552000000001
 20
1238.2312999999999
 11
1502.2552000000001
 21
1245.7312999999999
  0
LINE
  8
_0-0_LAYER001
  6
CONTINUOUS
 62
    2
 10
1502.2552000000001
 20
1238.2312999999999
 11
1525.2860000000001
 21
1324.1833999999999
  0
LINE
  8
_0-0_LAYER001
  6
CONTINUOUS
 62
    2
 10
1416.4865
 20
1203.6514
 11
1416.4865
 21
1222.2154
  0
LINE
  8
_0-0_LAYER001
  6
CONTINUOUS
 62
    3
 10
1427.6873000000001
 20
1222.2936999999999
 11
1427.6980000000001
 21
1221.828
  0
LINE
  8
_0-0_LAYER001
  6
CONTINUOUS
 62
    3
 10
1427.6980000000001
 20
1221.828
 11
1427.7270000000001
 21
1220.5641000000001
  0
LINE
  8
_0-0_LAYER001
  6
CONTINUOUS
 62
    3
 10
1427.7270000000001
 20
1220.5641000000001
 11
1427.7696000000001
 21
1218.7014999999999
  0
LINE
  8
_0-0_LAYER001
  6
CONTINUOUS
 62
    3
 10
1427.7696000000001
 20
1218.7014999999999
 11
1427.8214
 21
1216.4396999999999
  0
LINE
  8
_0-0_LAYER001
  6
CONTINUOUS
 62
    3
 10
1427.8214
 20
1216.4396999999999
 11
1427.8778
 21
1213.9784
  0
LINE
  8
_0-0_LAYER001
  6
CONTINUOUS
 62
    3
 10
1427.8778
 20
1213.9784
 11
1427.9341999999999
 21
1211.5170000000001
  0
LINE
  8
_0-0_LAYER001
  6
CONTINUOUS
 62
    3
 10
1427.9341999999999
 20
1211.5170000000001
 11
1427.9860000000003
 21
1209.2553
  0
LINE
  8
_0-0_LAYER001
  6
CONTINUOUS
 62
    3
 10
1427.9860000000003
 20
1209.2553
 11
1428.0287000000001
 21
1207.3925999999999
  0
LINE
  8
_0-0_LAYER001
  6
CONTINUOUS
 62
    3
 10
1428.0287000000001
 20
1207.3925999999999
 11
1428.0576000000001
 21
1206.1287
  0
LINE
  8
_0-0_LAYER001
  6
CONTINUOUS
 62
    3
 10
1428.0576000000001
 20
1206.1287
 11
1428.0682999999999
 21
1205.6631
  0
LINE
  8
_0-0_LAYER001
  6
CONTINUOUS
 62
    3
 10
1428.0682999999999
 20
1205.6631
 11
1426.9207000000001
 21
1205.6567
  0
LINE
  8
_0-0_LAYER001
  6
CONTINUOUS
 62
    3
 10
1426.9207000000001
 20
1205.6567
 11
1423.5491
 21
1205.4838999999999
  0
LINE
  8
_0-0_LAYER001
  6
CONTINUOUS
 62
    3
 10
1423.5491
 20
1205.4838999999999
 11
1418.0608000000002
 21
1204.9141
  0
LINE
  8
_0-0_LAYER001
  6
CONTINUOUS
 62
    3
 10
1418.0608000000002
 20
1204.9141
 11
1410.5626999999999
 21
1203.7168999999999
  0
LINE
  8
_0-0_LAYER001
  6
CONTINUOUS
 62
    3
 10
1410.5626999999999
 20
1203.7168999999999
 11
1401.1619000000001
 21
1201.6618000000001
  0
LINE
  8
_0-0_LAYER001
  6
CONTINUOUS
 62
    3
 10
1401.1619000000001
 20
1201.6618000000001
 11
1389.9655000000002
 21
1198.5183
  0
LINE
  8
_0-0_LAYER001
  6
CONTINUOUS
 62
    3
 10
1389.9655000000002
 20
1198.5183
 11
1377.0805999999998
 21
1194.0558000000001
  0
LINE
  8
_0-0_LAYER001
  6
CONTINUOUS
 62
    3
 10
1377.0805999999998
 20
1194.0558000000001
 11
1362.6143
 21
1188.0438999999999
  0
LINE
  8
_0-0_LAYER001
  6
CONTINUOUS
 62
    3
 10
1362.6143
 20
1188.0438999999999
 11
1346.6734999999999
 21
1180.252
  0
LINE
  8
_0-0_LAYER001
  6
CONTINUOUS
 62
    3
 10
1346.6734999999999
 20
1180.252
 11
1329.3655000000001
 21
1170.4498000000001
  0
LINE
  8
_0-0_LAYER001
  6
CONTINUOUS
 62
    3
 10
1329.3655000000001
 20
1170.4498000000001
 11
1329.3480999999999
 21
1171.2076
  0
LINE
  8
_0-0_LAYER001
  6
CONTINUOUS
 62
    3
 10
1329.3480999999999
 20
1171.2076
 11
1329.3009999999999
 21
1173.2646
  0
LINE
  8
_0-0_LAYER001
  6
CONTINUOUS
 62
    3
 10
1329.3009999999999
 20
1173.2646
 11
1329.2316000000001
 21
1176.296
  0
LINE
  8
_0-0_LAYER001
  6
CONTINUOUS
 62
    3
 10
1329.2316000000001
 20
1176.296
 11
1329.1472000000001
 21
1179.9768999999999
  0
LINE
  8
_0-0_LAYER001
  6
CONTINUOUS
 62
    3
 10
1329.1472000000001
 20
1179.9768999999999
 11
1329.0554999999999
 21
1183.9827
  0
LINE
  8
_0-0_LAYER001
  6
CONTINUOUS
 62
    3
 10
1329.0554999999999
 20
1183.9827
 11
1328.9636999999998
 21
1187.9884
  0
LINE
  8
_0-0_LAYER001
  6
CONTINUOUS
 62
    3
 10
1328.9636999999998
 20
1187.9884
 11
1328.8794000000003
 21
1191.6694
  0
LINE
  8
_0-0_LAYER001
  6
CONTINUOUS
 62
    3
 10
1328.8794000000003
 20
1191.6694
 11
1328.8099999999999
 21
1194.7008000000001
  0
LINE
  8
_0-0_LAYER001
  6
CONTINUOUS
 62
    3
 10
1328.8099999999999
 20
1194.7008000000001
 11
1328.7628999999997
 21
1196.7578000000001
  0
LINE
  8
_0-0_LAYER001
  6
CONTINUOUS
 62
    3
 10
1328.7628999999997
 20
1196.7578000000001
 11
1328.7455
 21
1197.5155999999999
  0
LINE
  8
_0-0_LAYER001
  6
CONTINUOUS
 62
    3
 10
1328.7455
 20
1197.5155999999999
 11
1330.3987000000002
 21
1198.1397999999999
  0
LINE
  8
_0-0_LAYER001
  6
CONTINUOUS
 62
    3
 10
1330.3987000000002
 20
1198.1397999999999
 11
1335.0634
 21
1199.845
  0
LINE
  8
_0-0_LAYER001
  6
CONTINUOUS
 62
    3
 10
1335.0634
 20
1199.845
 11
1342.2969000000001
 21
1202.3803
  0
LINE
  8
_0-0_LAYER001
  6
CONTINUOUS
 62
    3
 10
1342.2969000000001
 20
1202.3803
 11
1351.6567
 21
1205.4947999999999
  0
LINE
  8
_0-0_LAYER001
  6
CONTINUOUS
 62
    3
 10
1351.6567
 20
1205.4947999999999
 11
1362.7003999999999
 21
1208.9376
  0
LINE
  8
_0-0_LAYER001
  6
CONTINUOUS
 62
    3
 10
1362.7003999999999
 20
1208.9376
 11
1374.9854
 21
1212.4576999999999
  0
LINE
  8
_0-0_LAYER001
  6
CONTINUOUS
 62
    3
 10
1374.9854
 20
1212.4576999999999
 11
1388.0690999999999
 21
1215.8043
  0
LINE
  8
_0-0_LAYER001
  6
CONTINUOUS
 62
    3
 10
1388.0690999999999
 20
1215.8043
 11
1401.509
 21
1218.7265
  0
LINE
  8
_0-0_LAYER001
  6
CONTINUOUS
 62
    3
 10
1401.509
 20
1218.7265
 11
1414.8625999999999
 21
1220.9731999999999
  0
LINE
  8
_0-0_LAYER001
  6
CONTINUOUS
 62
    3
 10
1427.6873000000001
 20
1222.2936999999999
 11
1414.7507000000001
 21
1220.9544000000001
  0
LINE
  8
_0-0_LAYER001
  6
CONTINUOUS
 62
    3
 10
1421.8569
 20
1191.9681
 11
1421.8676
 21
1191.5024000000001
  0
LINE
  8
_0-0_LAYER001
  6
CONTINUOUS
 62
    3
 10
1421.8676
 20
1191.5024000000001
 11
1421.8966
 21
1190.2384999999999
  0
LINE
  8
_0-0_LAYER001
  6
CONTINUOUS
 62
    3
 10
1421.8966
 20
1190.2384999999999
 11
1421.9391999999998
 21
1188.3759
  0
LINE
  8
_0-0_LAYER001
  6
CONTINUOUS
 62
    3
 10
1421.9391999999998
 20
1188.3759
 11
1421.991
 21
1186.1141
  0
LINE
  8
_0-0_LAYER001
  6
CONTINUOUS
 62
    3
 10
1421.991
 20
1186.1141
 11
1422.0473999999999
 21
1183.6528000000001
  0
LINE
  8
_0-0_LAYER001
  6
CONTINUOUS
 62
    3
 10
1422.0473999999999
 20
1183.6528000000001
 11
1422.1038000000001
 21
1181.1913999999999
  0
LINE
  8
_0-0_LAYER001
  6
CONTINUOUS
 62
    3
 10
1422.1038000000001
 20
1181.1913999999999
 11
1422.1556
 21
1178.9296999999999
  0
LINE
  8
_0-0_LAYER001
  6
CONTINUOUS
 62
    3
 10
1422.1556
 20
1178.9296999999999
 11
1422.1983
 21
1177.067
  0
LINE
  8
_0-0_LAYER001
  6
CONTINUOUS
 62
    3
 10
1422.1983
 20
1177.067
 11
1422.2272
 21
1175.8031000000001
  0
LINE
  8
_0-0_LAYER001
  6
CONTINUOUS
 62
    3
 10
1422.2272
 20
1175.8031000000001
 11
1422.2379000000001
 21
1175.3375000000001
  0
LINE
  8
_0-0_LAYER001
  6
CONTINUOUS
 62
    3
 10
1422.2379000000001
 20
1175.3375000000001
 11
1421.0903000000003
 21
1175.3311000000001
  0
LINE
  8
_0-0_LAYER001
  6
CONTINUOUS
 62
    3
 10
1421.0903000000003
 20
1175.3311000000001
 11
1417.7186999999999
 21
1175.1583000000001
  0
LINE
  8
_0-0_LAYER001
  6
CONTINUOUS
 62
    3
 10
1417.7186999999999
 20
1175.1583000000001
 11
1412.2303999999999
 21
1174.5885000000001
  0
LINE
  8
_0-0_LAYER001
  6
CONTINUOUS
 62
    3
 10
1412.2303999999999
 20
1174.5885000000001
 11
1404.7323000000001
 21
1173.3913
  0
LINE
  8
_0-0_LAYER001
  6
CONTINUOUS
 62
    3
 10
1404.7323000000001
 20
1173.3913
 11
1395.3315
 21
1171.3362
  0
LINE
  8
_0-0_LAYER001
  6
CONTINUOUS
 62
    3
 10
1395.3315
 20
1171.3362
 11
1384.1351
 21
1168.1927000000001
  0
LINE
  8
_0-0_LAYER001
  6
CONTINUOUS
 62
    3
 10
1384.1351
 20
1168.1927000000001
 11
1371.2501999999999
 21
1163.7302
  0
LINE
  8
_0-0_LAYER001
  6
CONTINUOUS
 62
    3
 10
1371.2501999999999
 20
1163.7302
 11
1356.7838999999999
 21
1157.7183
  0
LINE
  8
_0-0_LAYER001
  6
CONTINUOUS
 62
    3
 10
1356.7838999999999
 20
1157.7183
 11
1340.8431
 21
1149.9264000000001
  0
LINE
  8
_0-0_LAYER001
  6
CONTINUOUS
 62
    3
 10
1340.8431
 20
1149.9264000000001
 11
1323.5351000000001
 21
1140.1242
  0
LINE
  8
_0-0_LAYER001
  6
CONTINUOUS
 62
    3
 10
1323.5351000000001
 20
1140.1242
 11
1323.5177000000001
 21
1140.8820000000001
  0
LINE
  8
_0-0_LAYER001
  6
CONTINUOUS
 62
    3
 10
1323.5177000000001
 20
1140.8820000000001
 11
1323.4706000000001
 21
1142.9390000000001
  0
LINE
  8
_0-0_LAYER001
  6
CONTINUOUS
 62
    3
 10
1323.4706000000001
 20
1142.9390000000001
 11
1323.4012000000002
 21
1145.9703999999999
  0
LINE
  8
_0-0_LAYER001
  6
CONTINUOUS
 62
    3
 10
1323.4012000000002
 20
1145.9703999999999
 11
1323.3168000000001
 21
1149.6513
  0
LINE
  8
_0-0_LAYER001
  6
CONTINUOUS
 62
    3
 10
1323.3168000000001
 20
1149.6513
 11
1323.2251000000001
 21
1153.6570999999999
  0
LINE
  8
_0-0_LAYER001
  6
CONTINUOUS
 62
    3
 10
1323.2251000000001
 20
1153.6570999999999
 11
1323.1333
 21
1157.6628000000001
  0
LINE
  8
_0-0_LAYER001
  6
CONTINUOUS
 62
    3
 10
1323.1333
 20
1157.6628000000001
 11
1323.049
 21
1161.3438000000001
  0
LINE
  8
_0-0_LAYER001
  6
CONTINUOUS
 62
    3
 10
1323.049
 20
1161.3438000000001
 11
1322.9795999999999
 21
1164.3751999999999
  0
LINE
  8
_0-0_LAYER001
  6
CONTINUOUS
 62
    3
 10
1322.9795999999999
 20
1164.3751999999999
 11
1322.9323999999999
 21
1166.4322
  0
LINE
  8
_0-0_LAYER001
  6
CONTINUOUS
 62
    3
 10
1322.9323999999999
 20
1166.4322
 11
1322.9150999999999
 21
1167.1900000000001
  0
LINE
  8
_0-0_LAYER001
  6
CONTINUOUS
 62
    3
 10
1322.9150999999999
 20
1167.1900000000001
 11
1324.5682999999999
 21
1167.8142
  0
LINE
  8
_0-0_LAYER001
  6
CONTINUOUS
 62
    3
 10
1324.5682999999999
 20
1167.8142
 11
1329.2329
 21
1169.5192999999999
  0
LINE
  8
_0-0_LAYER001
  6
CONTINUOUS
 62
    3
 10
1329.2329
 20
1169.5192999999999
 11
1336.4665
 21
1172.0546999999999
  0
LINE
  8
_0-0_LAYER001
  6
CONTINUOUS
 62
    3
 10
1336.4665
 20
1172.0546999999999
 11
1345.8262999999999
 21
1175.1692
  0
LINE
  8
_0-0_LAYER001
  6
CONTINUOUS
 62
    3
 10
1345.8262999999999
 20
1175.1692
 11
1356.8699999999999
 21
1178.6120000000001
  0
LINE
  8
_0-0_LAYER001
  6
CONTINUOUS
 62
    3
 10
1356.8699999999999
 20
1178.6120000000001
 11
1369.1550000000002
 21
1182.1321
  0
LINE
  8
_0-0_LAYER001
  6
CONTINUOUS
 62
    3
 10
1369.1550000000002
 20
1182.1321
 11
1382.2387000000001
 21
1185.4786999999999
  0
LINE
  8
_0-0_LAYER001
  6
CONTINUOUS
 62
    3
 10
1382.2387000000001
 20
1185.4786999999999
 11
1395.6786
 21
1188.4009000000001
  0
LINE
  8
_0-0_LAYER001
  6
CONTINUOUS
 62
    3
 10
1395.6786
 20
1188.4009000000001
 11
1409.0322000000001
 21
1190.6476
  0
LINE
  8
_0-0_LAYER001
  6
CONTINUOUS
 62
    3
 10
1421.8569
 20
1191.9681
 11
1408.9203
 21
1190.6288
  0
LINE
  8
_0-0_LAYER001
  6
CONTINUOUS
 62
    3
 10
1413.7722000000003
 20
1158.1578999999999
 11
1413.7828
 21
1157.6922
  0
LINE
  8
_0-0_LAYER001
  6
CONTINUOUS
 62
    3
 10
1413.7828
 20
1157.6922
 11
1413.8117999999999
 21
1156.4283
  0
LINE
  8
_0-0_LAYER001
  6
CONTINUOUS
 62
    3
 10
1413.8117999999999
 20
1156.4283
 11
1413.8544999999999
 21
1154.5655999999999
  0
LINE
  8
_0-0_LAYER001
  6
CONTINUOUS
 62
    3
 10
1413.8544999999999
 20
1154.5655999999999
 11
1413.9063000000001
 21
1152.3039000000001
  0
LINE
  8
_0-0_LAYER001
  6
CONTINUOUS
 62
    3
 10
1413.9063000000001
 20
1152.3039000000001
 11
1413.9626000000001
 21
1149.8425999999999
  0
LINE
  8
_0-0_LAYER001
  6
CONTINUOUS
 62
    3
 10
1413.9626000000001
 20
1149.8425999999999
 11
1414.0190000000002
 21
1147.3812
  0
LINE
  8
_0-0_LAYER001
  6
CONTINUOUS
 62
    3
 10
1414.0190000000002
 20
1147.3812
 11
1414.0708
 21
1145.1195
  0
LINE
  8
_0-0_LAYER001
  6
CONTINUOUS
 62
    3
 10
1414.0708
 20
1145.1195
 11
1414.1134999999999
 21
1143.2568000000001
  0
LINE
  8
_0-0_LAYER001
  6
CONTINUOUS
 62
    3
 10
1414.1134999999999
 20
1143.2568000000001
 11
1414.1424999999999
 21
1141.9929
  0
LINE
  8
_0-0_LAYER001
  6
CONTINUOUS
 62
    3
 10
1414.1424999999999
 20
1141.9929
 11
1414.1531
 21
1141.5272
  0
LINE
  8
_0-0_LAYER001
  6
CONTINUOUS
 62
    3
 10
1414.1531
 20
1141.5272
 11
1413.0054999999998
 21
1141.5209
  0
LINE
  8
_0-0_LAYER001
  6
CONTINUOUS
 62
    3
 10
1413.0054999999998
 20
1141.5209
 11
1409.634
 21
1141.348
  0
LINE
  8
_0-0_LAYER001
  6
CONTINUOUS
 62
    3
 10
1409.634
 20
1141.348
 11
1404.1455999999998
 21
1140.7782999999999
  0
LINE
  8
_0-0_LAYER001
  6
CONTINUOUS
 62
    3
 10
1404.1455999999998
 20
1140.7782999999999
 11
1396.6475
 21
1139.5811000000001
  0
LINE
  8
_0-0_LAYER001
  6
CONTINUOUS
 62
    3
 10
1396.6475
 20
1139.5811000000001
 11
1387.2467000000001
 21
1137.5260000000001
  0
LINE
  8
_0-0_LAYER001
  6
CONTINUOUS
 62
    3
 10
1387.2467000000001
 20
1137.5260000000001
 11
1376.0504000000001
 21
1134.3824
  0
LINE
  8
_0-0_LAYER001
  6
CONTINUOUS
 62
    3
 10
1376.0504000000001
 20
1134.3824
 11
1363.1655000000001
 21
1129.9200000000001
  0
LINE
  8
_0-0_LAYER001
  6
CONTINUOUS
 62
    3
 10
1363.1655000000001
 20
1129.9200000000001
 11
1348.6991
 21
1123.9081000000001
  0
LINE
  8
_0-0_LAYER001
  6
CONTINUOUS
 62
    3
 10
1348.6991
 20
1123.9081000000001
 11
1332.7583999999999
 21
1116.1161999999999
  0
LINE
  8
_0-0_LAYER001
  6
CONTINUOUS
 62
    3
 10
1332.7583999999999
 20
1116.1161999999999
 11
1315.4503
 21
1106.3139000000001
  0
LINE
  8
_0-0_LAYER001
  6
CONTINUOUS
 62
    3
 10
1315.4503
 20
1106.3139000000001
 11
1315.4329000000002
 21
1107.0717999999999
  0
LINE
  8
_0-0_LAYER001
  6
CONTINUOUS
 62
    3
 10
1315.4329000000002
 20
1107.0717999999999
 11
1315.3858
 21
1109.1288
  0
LINE
  8
_0-0_LAYER001
  6
CONTINUOUS
 62
    3
 10
1315.3858
 20
1109.1288
 11
1315.3163999999997
 21
1112.1602
  0
LINE
  8
_0-0_LAYER001
  6
CONTINUOUS
 62
    3
 10
1315.3163999999997
 20
1112.1602
 11
1315.2321000000002
 21
1115.8411000000001
  0
LINE
  8
_0-0_LAYER001
  6
CONTINUOUS
 62
    3
 10
1315.2321000000002
 20
1115.8411000000001
 11
1315.1403
 21
1119.8469
  0
LINE
  8
_0-0_LAYER001
  6
CONTINUOUS
 62
    3
 10
1315.1403
 20
1119.8469
 11
1315.0486000000001
 21
1123.8525999999999
  0
LINE
  8
_0-0_LAYER001
  6
CONTINUOUS
 62
    3
 10
1315.0486000000001
 20
1123.8525999999999
 11
1314.9641999999999
 21
1127.5336
  0
LINE
  8
_0-0_LAYER001
  6
CONTINUOUS
 62
    3
 10
1314.9641999999999
 20
1127.5336
 11
1314.8948
 21
1130.5649000000001
  0
LINE
  8
_0-0_LAYER001
  6
CONTINUOUS
 62
    3
 10
1314.8948
 20
1130.5649000000001
 11
1314.8477
 21
1132.6219000000001
  0
LINE
  8
_0-0_LAYER001
  6
CONTINUOUS
 62
    3
 10
1314.8477
 20
1132.6219000000001
 11
1314.8303000000001
 21
1133.3797999999999
  0
LINE
  8
_0-0_LAYER001
  6
CONTINUOUS
 62
    3
 10
1314.8303000000001
 20
1133.3797999999999
 11
1316.4834999999998
 21
1134.0038999999999
  0
LINE
  8
_0-0_LAYER001
  6
CONTINUOUS
 62
    3
 10
1316.4834999999998
 20
1134.0038999999999
 11
1321.1482000000001
 21
1135.7091
  0
LINE
  8
_0-0_LAYER001
  6
CONTINUOUS
 62
    3
 10
1321.1482000000001
 20
1135.7091
 11
1328.3816999999999
 21
1138.2444
  0
LINE
  8
_0-0_LAYER001
  6
CONTINUOUS
 62
    3
 10
1328.3816999999999
 20
1138.2444
 11
1337.7415999999998
 21
1141.3589999999999
  0
LINE
  8
_0-0_LAYER001
  6
CONTINUOUS
 62
    3
 10
1337.7415999999998
 20
1141.3589999999999
 11
1348.7853
 21
1144.8018
  0
LINE
  8
_0-0_LAYER001
  6
CONTINUOUS
 62
    3
 10
1348.7853
 20
1144.8018
 11
1361.0702000000001
 21
1148.3218999999999
  0
LINE
  8
_0-0_LAYER001
  6
CONTINUOUS
 62
    3
 10
1361.0702000000001
 20
1148.3218999999999
 11
1374.1539
 21
1151.6685
  0
LINE
  8
_0-0_LAYER001
  6
CONTINUOUS
 62
    3
 10
1374.1539
 20
1151.6685
 11
1387.5938999999998
 21
1154.5907
  0
LINE
  8
_0-0_LAYER001
  6
CONTINUOUS
 62
    3
 10
1387.5938999999998
 20
1154.5907
 11
1400.9474
 21
1156.8373999999999
  0
LINE
  8
_0-0_LAYER001
  6
CONTINUOUS
 62
    3
 10
1413.7722000000003
 20
1158.1578999999999
 11
1400.8355000000001
 21
1156.8186000000001
  0
LINE
  8
_0-0_LAYER001
  6
CONTINUOUS
 62
    3
 10
1465.2858999999999
 20
1222.2936999999999
 11
1465.2752
 21
1221.828
  0
LINE
  8
_0-0_LAYER001
  6
CONTINUOUS
 62
    3
 10
1465.2752
 20
1221.828
 11
1465.2462999999998
 21
1220.5641000000001
  0
LINE
  8
_0-0_LAYER001
  6
CONTINUOUS
 62
    3
 10
1465.2462999999998
 20
1220.5641000000001
 11
1465.2035999999998
 21
1218.7014999999999
  0
LINE
  8
_0-0_LAYER001
  6
CONTINUOUS
 62
    3
 10
1465.2035999999998
 20
1218.7014999999999
 11
1465.1518000000001
 21
1216.4396999999999
  0
LINE
  8
_0-0_LAYER001
  6
CONTINUOUS
 62
    3
 10
1465.1518000000001
 20
1216.4396999999999
 11
1465.0954000000002
 21
1213.9784
  0
LINE
  8
_0-0_LAYER001
  6
CONTINUOUS
 62
    3
 10
1465.0954000000002
 20
1213.9784
 11
1465.0390000000002
 21
1211.5170000000001
  0
LINE
  8
_0-0_LAYER001
  6
CONTINUOUS
 62
    3
 10
1465.0390000000002
 20
1211.5170000000001
 11
1464.9872
 21
1209.2553
  0
LINE
  8
_0-0_LAYER001
  6
CONTINUOUS
 62
    3
 10
1464.9872
 20
1209.2553
 11
1464.9445000000001
 21
1207.3925999999999
  0
LINE
  8
_0-0_LAYER001
  6
CONTINUOUS
 62
    3
 10
1464.9445000000001
 20
1207.3925999999999
 11
1464.9155999999998
 21
1206.1287
  0
LINE
  8
_0-0_LAYER001
  6
CONTINUOUS
 62
    3
 10
1464.9155999999998
 20
1206.1287
 11
1464.9049
 21
1205.6631
  0
LINE
  8
_0-0_LAYER001
  6
CONTINUOUS
 62
    3
 10
1464.9049
 20
1205.6631
 11
1466.0526
 21
1205.6567
  0
LINE
  8
_0-0_LAYER001
  6
CONTINUOUS
 62
    3
 10
1466.0526
 20
1205.6567
 11
1469.4241000000002
 21
1205.4838999999999
  0
LINE
  8
_0-0_LAYER001
  6
CONTINUOUS
 62
    3
 10
1469.4241000000002
 20
1205.4838999999999
 11
1474.9124000000002
 21
1204.9141
  0
LINE
  8
_0-0_LAYER001
  6
CONTINUOUS
 62
    3
 10
1474.9124000000002
 20
1204.9141
 11
1482.4105
 21
1203.7168999999999
  0
LINE
  8
_0-0_LAYER001
  6
CONTINUOUS
 62
    3
 10
1482.4105
 20
1203.7168999999999
 11
1491.8112999999998
 21
1201.6618000000001
  0
LINE
  8
_0-0_LAYER001
  6
CONTINUOUS
 62
    3
 10
1491.8112999999998
 20
1201.6618000000001
 11
1503.0077000000001
 21
1198.5183
  0
LINE
  8
_0-0_LAYER001
  6
CONTINUOUS
 62
    3
 10
1503.0077000000001
 20
1198.5183
 11
1515.8926000000001
 21
1194.0558000000001
  0
LINE
  8
_0-0_LAYER001
  6
CONTINUOUS
 62
    3
 10
1515.8926000000001
 20
1194.0558000000001
 11
1530.3589000000002
 21
1188.0438999999999
  0
LINE
  8
_0-0_LAYER001
  6
CONTINUOUS
 62
    3
 10
1530.3589000000002
 20
1188.0438999999999
 11
1546.2997
 21
1180.252
  0
LINE
  8
_0-0_LAYER001
  6
CONTINUOUS
 62
    3
 10
1546.2997
 20
1180.252
 11
1563.6077
 21
1170.4498000000001
  0
LINE
  8
_0-0_LAYER001
  6
CONTINUOUS
 62
    3
 10
1563.6077
 20
1170.4498000000001
 11
1563.6251000000002
 21
1171.2076
  0
LINE
  8
_0-0_LAYER001
  6
CONTINUOUS
 62
    3
 10
1563.6251000000002
 20
1171.2076
 11
1563.6722
 21
1173.2646
  0
LINE
  8
_0-0_LAYER001
  6
CONTINUOUS
 62
    3
 10
1563.6722
 20
1173.2646
 11
1563.7417
 21
1176.296
  0
LINE
  8
_0-0_LAYER001
  6
CONTINUOUS
 62
    3
 10
1563.7417
 20
1176.296
 11
1563.826
 21
1179.9768999999999
  0
LINE
  8
_0-0_LAYER001
  6
CONTINUOUS
 62
    3
 10
1563.826
 20
1179.9768999999999
 11
1563.9177
 21
1183.9827
  0
LINE
  8
_0-0_LAYER001
  6
CONTINUOUS
 62
    3
 10
1563.9177
 20
1183.9827
 11
1564.0095000000001
 21
1187.9884
  0
LINE
  8
_0-0_LAYER001
  6
CONTINUOUS
 62
    3
 10
1564.0095000000001
 20
1187.9884
 11
1564.0938000000001
 21
1191.6694
  0
LINE
  8
_0-0_LAYER001
  6
CONTINUOUS
 62
    3
 10
1564.0938000000001
 20
1191.6694
 11
1564.1633000000002
 21
1194.7008000000001
  0
LINE
  8
_0-0_LAYER001
  6
CONTINUOUS
 62
    3
 10
1564.1633000000002
 20
1194.7008000000001
 11
1564.2103999999999
 21
1196.7578000000001
  0
LINE
  8
_0-0_LAYER001
  6
CONTINUOUS
 62
    3
 10
1564.2103999999999
 20
1196.7578000000001
 11
1564.2276999999999
 21
1197.5155999999999
  0
LINE
  8
_0-0_LAYER001
  6
CONTINUOUS
 62
    3
 10
1564.2276999999999
 20
1197.5155999999999
 11
1562.5745000000002
 21
1198.1397999999999
  0
LINE
  8
_0-0_LAYER001
  6
CONTINUOUS
 62
    3
 10
1562.5745000000002
 20
1198.1397999999999
 11
1557.9099000000001
 21
1199.845
  0
LINE
  8
_0-0_LAYER001
  6
CONTINUOUS
 62
    3
 10
1557.9099000000001
 20
1199.845
 11
1550.6763000000001
 21
1202.3803
  0
LINE
  8
_0-0_LAYER001
  6
CONTINUOUS
 62
    3
 10
1550.6763000000001
 20
1202.3803
 11
1541.3164999999999
 21
1205.4947999999999
  0
LINE
  8
_0-0_LAYER001
  6
CONTINUOUS
 62
    3
 10
1541.3164999999999
 20
1205.4947999999999
 11
1530.2728000000002
 21
1208.9376
  0
LINE
  8
_0-0_LAYER001
  6
CONTINUOUS
 62
    3
 10
1530.2728000000002
 20
1208.9376
 11
1517.9877999999999
 21
1212.4576999999999
  0
LINE
  8
_0-0_LAYER001
  6
CONTINUOUS
 62
    3
 10
1517.9877999999999
 20
1212.4576999999999
 11
1504.9041000000002
 21
1215.8043
  0
LINE
  8
_0-0_LAYER001
  6
CONTINUOUS
 62
    3
 10
1504.9041000000002
 20
1215.8043
 11
1491.4641999999999
 21
1218.7265
  0
LINE
  8
_0-0_LAYER001
  6
CONTINUOUS
 62
    3
 10
1491.4641999999999
 20
1218.7265
 11
1478.1106
 21
1220.9731999999999
  0
LINE
  8
_0-0_LAYER001
  6
CONTINUOUS
 62
    3
 10
1465.2858999999999
 20
1222.2936999999999
 11
1478.2224999999999
 21
1220.9544000000001
  0
LINE
  8
_0-0_LAYER001
  6
CONTINUOUS
 62
    3
 10
1471.1163000000001
 20
1191.9681
 11
1471.1055999999999
 21
1191.5024000000001
  0
LINE
  8
_0-0_LAYER001
  6
CONTINUOUS
 62
    3
 10
1471.1055999999999
 20
1191.5024000000001
 11
1471.0767000000001
 21
1190.2384999999999
  0
LINE
  8
_0-0_LAYER001
  6
CONTINUOUS
 62
    3
 10
1471.0767000000001
 20
1190.2384999999999
 11
1471.0340000000001
 21
1188.3759
  0
LINE
  8
_0-0_LAYER001
  6
CONTINUOUS
 62
    3
 10
1471.0340000000001
 20
1188.3759
 11
1470.9821999999999
 21
1186.1141
  0
LINE
  8
_0-0_LAYER001
  6
CONTINUOUS
 62
    3
 10
1470.9821999999999
 20
1186.1141
 11
1470.9258
 21
1183.6528000000001
  0
LINE
  8
_0-0_LAYER001
  6
CONTINUOUS
 62
    3
 10
1470.9258
 20
1183.6528000000001
 11
1470.8694
 21
1181.1913999999999
  0
LINE
  8
_0-0_LAYER001
  6
CONTINUOUS
 62
    3
 10
1470.8694
 20
1181.1913999999999
 11
1470.8175999999999
 21
1178.9296999999999
  0
LINE
  8
_0-0_LAYER001
  6
CONTINUOUS
 62
    3
 10
1470.8175999999999
 20
1178.9296999999999
 11
1470.7750000000001
 21
1177.067
  0
LINE
  8
_0-0_LAYER001
  6
CONTINUOUS
 62
    3
 10
1470.7750000000001
 20
1177.067
 11
1470.7460000000001
 21
1175.8031000000001
  0
LINE
  8
_0-0_LAYER001
  6
CONTINUOUS
 62
    3
 10
1470.7460000000001
 20
1175.8031000000001
 11
1470.7352999999998
 21
1175.3375000000001
  0
LINE
  8
_0-0_LAYER001
  6
CONTINUOUS
 62
    3
 10
1470.7352999999998
 20
1175.3375000000001
 11
1471.8829999999998
 21
1175.3311000000001
  0
LINE
  8
_0-0_LAYER001
  6
CONTINUOUS
 62
    3
 10
1471.8829999999998
 20
1175.3311000000001
 11
1475.2545
 21
1175.1583000000001
  0
LINE
  8
_0-0_LAYER001
  6
CONTINUOUS
 62
    3
 10
1475.2545
 20
1175.1583000000001
 11
1480.7428
 21
1174.5885000000001
  0
LINE
  8
_0-0_LAYER001
  6
CONTINUOUS
 62
    3
 10
1480.7428
 20
1174.5885000000001
 11
1488.2408999999998
 21
1173.3913
  0
LINE
  8
_0-0_LAYER001
  6
CONTINUOUS
 62
    3
 10
1488.2408999999998
 20
1173.3913
 11
1497.6417000000001
 21
1171.3362
  0
LINE
  8
_0-0_LAYER001
  6
CONTINUOUS
 62
    3
 10
1497.6417000000001
 20
1171.3362
 11
1508.8380999999999
 21
1168.1927000000001
  0
LINE
  8
_0-0_LAYER001
  6
CONTINUOUS
 62
    3
 10
1508.8380999999999
 20
1168.1927000000001
 11
1521.723
 21
1163.7302
  0
LINE
  8
_0-0_LAYER001
  6
CONTINUOUS
 62
    3
 10
1521.723
 20
1163.7302
 11
1536.1894000000002
 21
1157.7183
  0
LINE
  8
_0-0_LAYER001
  6
CONTINUOUS
 62
    3
 10
1536.1894000000002
 20
1157.7183
 11
1552.1300999999999
 21
1149.9264000000001
  0
LINE
  8
_0-0_LAYER001
  6
CONTINUOUS
 62
    3
 10
1552.1300999999999
 20
1149.9264000000001
 11
1569.4382000000001
 21
1140.1242
  0
LINE
  8
_0-0_LAYER001
  6
CONTINUOUS
 62
    3
 10
1569.4382000000001
 20
1140.1242
 11
1569.4555
 21
1140.8820000000001
  0
LINE
  8
_0-0_LAYER001
  6
CONTINUOUS
 62
    3
 10
1569.4555
 20
1140.8820000000001
 11
1569.5025999999998
 21
1142.9390000000001
  0
LINE
  8
_0-0_LAYER001
  6
CONTINUOUS
 62
    3
 10
1569.5025999999998
 20
1142.9390000000001
 11
1569.5720999999999
 21
1145.9703999999999
  0
LINE
  8
_0-0_LAYER001
  6
CONTINUOUS
 62
    3
 10
1569.5720999999999
 20
1145.9703999999999
 11
1569.6563999999998
 21
1149.6513
  0
LINE
  8
_0-0_LAYER001
  6
CONTINUOUS
 62
    3
 10
1569.6563999999998
 20
1149.6513
 11
1569.7480999999998
 21
1153.6570999999999
  0
LINE
  8
_0-0_LAYER001
  6
CONTINUOUS
 62
    3
 10
1569.7480999999998
 20
1153.6570999999999
 11
1569.8398999999999
 21
1157.6628000000001
  0
LINE
  8
_0-0_LAYER001
  6
CONTINUOUS
 62
    3
 10
1569.8398999999999
 20
1157.6628000000001
 11
1569.9241999999999
 21
1161.3438000000001
  0
LINE
  8
_0-0_LAYER001
  6
CONTINUOUS
 62
    3
 10
1569.9241999999999
 20
1161.3438000000001
 11
1569.9937
 21
1164.3751999999999
  0
LINE
  8
_0-0_LAYER001
  6
CONTINUOUS
 62
    3
 10
1569.9937
 20
1164.3751999999999
 11
1570.0408000000002
 21
1166.4322
  0
LINE
  8
_0-0_LAYER001
  6
CONTINUOUS
 62
    3
 10
1570.0408000000002
 20
1166.4322
 11
1570.0581000000002
 21
1167.1900000000001
  0
LINE
  8
_0-0_LAYER001
  6
CONTINUOUS
 62
    3
 10
1570.0581000000002
 20
1167.1900000000001
 11
1568.4049
 21
1167.8142
  0
LINE
  8
_0-0_LAYER001
  6
CONTINUOUS
 62
    3
 10
1568.4049
 20
1167.8142
 11
1563.7402999999999
 21
1169.5192999999999
  0
LINE
  8
_0-0_LAYER001
  6
CONTINUOUS
 62
    3
 10
1563.7402999999999
 20
1169.5192999999999
 11
1556.5068000000001
 21
1172.0546999999999
  0
LINE
  8
_0-0_LAYER001
  6
CONTINUOUS
 62
    3
 10
1556.5068000000001
 20
1172.0546999999999
 11
1547.1469000000002
 21
1175.1692
  0
LINE
  8
_0-0_LAYER001
  6
CONTINUOUS
 62
    3
 10
1547.1469000000002
 20
1175.1692
 11
1536.1032
 21
1178.6120000000001
  0
LINE
  8
_0-0_LAYER001
  6
CONTINUOUS
 62
    3
 10
1536.1032
 20
1178.6120000000001
 11
1523.8182000000002
 21
1182.1321
  0
LINE
  8
_0-0_LAYER001
  6
CONTINUOUS
 62
    3
 10
1523.8182000000002
 20
1182.1321
 11
1510.7345
 21
1185.4786999999999
  0
LINE
  8
_0-0_LAYER001
  6
CONTINUOUS
 62
    3
 10
1510.7345
 20
1185.4786999999999
 11
1497.2946000000002
 21
1188.4009000000001
  0
LINE
  8
_0-0_LAYER001
  6
CONTINUOUS
 62
    3
 10
1497.2946000000002
 20
1188.4009000000001
 11
1483.9409999999998
 21
1190.6476
  0
LINE
  8
_0-0_LAYER001
  6
CONTINUOUS
 62
    3
 10
1471.1163000000001
 20
1191.9681
 11
1484.0529000000001
 21
1190.6288
  0
LINE
  8
_0-0_LAYER001
  6
CONTINUOUS
 62
    3
 10
1479.201
 20
1158.1578999999999
 11
1479.1904
 21
1157.6922
  0
LINE
  8
_0-0_LAYER001
  6
CONTINUOUS
 62
    3
 10
1479.1904
 20
1157.6922
 11
1479.1614
 21
1156.4283
  0
LINE
  8
_0-0_LAYER001
  6
CONTINUOUS
 62
    3
 10
1479.1614
 20
1156.4283
 11
1479.1188000000002
 21
1154.5655999999999
  0
LINE
  8
_0-0_LAYER001
  6
CONTINUOUS
 62
    3
 10
1479.1188000000002
 20
1154.5655999999999
 11
1479.067
 21
1152.3039000000001
  0
LINE
  8
_0-0_LAYER001
  6
CONTINUOUS
 62
    3
 10
1479.067
 20
1152.3039000000001
 11
1479.0106000000001
 21
1149.8425999999999
  0
LINE
  8
_0-0_LAYER001
  6
CONTINUOUS
 62
    3
 10
1479.0106000000001
 20
1149.8425999999999
 11
1478.9542000000001
 21
1147.3812
  0
LINE
  8
_0-0_LAYER001
  6
CONTINUOUS
 62
    3
 10
1478.9542000000001
 20
1147.3812
 11
1478.9023999999999
 21
1145.1195
  0
LINE
  8
_0-0_LAYER001
  6
CONTINUOUS
 62
    3
 10
1478.9023999999999
 20
1145.1195
 11
1478.8597
 21
1143.2568000000001
  0
LINE
  8
_0-0_LAYER001
  6
CONTINUOUS
 62
    3
 10
1478.8597
 20
1143.2568000000001
 11
1478.8308000000002
 21
1141.9929
  0
LINE
  8
_0-0_LAYER001
  6
CONTINUOUS
 62
    3
 10
1478.8308000000002
 20
1141.9929
 11
1478.8200999999999
 21
1141.5272
  0
LINE
  8
_0-0_LAYER001
  6
CONTINUOUS
 62
    3
 10
1478.8200999999999
 20
1141.5272
 11
1479.9677000000001
 21
1141.5209
  0
LINE
  8
_0-0_LAYER001
  6
CONTINUOUS
 62
    3
 10
1479.9677000000001
 20
1141.5209
 11
1483.3393000000001
 21
1141.348
  0
LINE
  8
_0-0_LAYER001
  6
CONTINUOUS
 62
    3
 10
1483.3393000000001
 20
1141.348
 11
1488.8276000000001
 21
1140.7782999999999
  0
LINE
  8
_0-0_LAYER001
  6
CONTINUOUS
 62
    3
 10
1488.8276000000001
 20
1140.7782999999999
 11
1496.3256999999999
 21
1139.5811000000001
  0
LINE
  8
_0-0_LAYER001
  6
CONTINUOUS
 62
    3
 10
1496.3256999999999
 20
1139.5811000000001
 11
1505.7265000000002
 21
1137.5260000000001
  0
LINE
  8
_0-0_LAYER001
  6
CONTINUOUS
 62
    3
 10
1505.7265000000002
 20
1137.5260000000001
 11
1516.9229
 21
1134.3824
  0
LINE
  8
_0-0_LAYER001
  6
CONTINUOUS
 62
    3
 10
1516.9229
 20
1134.3824
 11
1529.8078
 21
1129.9200000000001
  0
LINE
  8
_0-0_LAYER001
  6
CONTINUOUS
 62
    3
 10
1529.8078
 20
1129.9200000000001
 11
1544.2741000000001
 21
1123.9081000000001
  0
LINE
  8
_0-0_LAYER001
  6
CONTINUOUS
 62
    3
 10
1544.2741000000001
 20
1123.9081000000001
 11
1560.2148999999999
 21
1116.1161999999999
  0
LINE
  8
_0-0_LAYER001
  6
CONTINUOUS
 62
    3
 10
1560.2148999999999
 20
1116.1161999999999
 11
1577.5228999999999
 21
1106.3139000000001
  0
LINE
  8
_0-0_LAYER001
  6
CONTINUOUS
 62
    3
 10
1577.5228999999999
 20
1106.3139000000001
 11
1577.5403000000001
 21
1107.0717999999999
  0
LINE
  8
_0-0_LAYER001
  6
CONTINUOUS
 62
    3
 10
1577.5403000000001
 20
1107.0717999999999
 11
1577.5873999999999
 21
1109.1288
  0
LINE
  8
_0-0_LAYER001
  6
CONTINUOUS
 62
    3
 10
1577.5873999999999
 20
1109.1288
 11
1577.6568000000002
 21
1112.1602
  0
LINE
  8
_0-0_LAYER001
  6
CONTINUOUS
 62
    3
 10
1577.6568000000002
 20
1112.1602
 11
1577.7411999999999
 21
1115.8411000000001
  0
LINE
  8
_0-0_LAYER001
  6
CONTINUOUS
 62
    3
 10
1577.7411999999999
 20
1115.8411000000001
 11
1577.8328999999999
 21
1119.8469
  0
LINE
  8
_0-0_LAYER001
  6
CONTINUOUS
 62
    3
 10
1577.8328999999999
 20
1119.8469
 11
1577.9247
 21
1123.8525999999999
  0
LINE
  8
_0-0_LAYER001
  6
CONTINUOUS
 62
    3
 10
1577.9247
 20
1123.8525999999999
 11
1578.009
 21
1127.5336
  0
LINE
  8
_0-0_LAYER001
  6
CONTINUOUS
 62
    3
 10
1578.009
 20
1127.5336
 11
1578.0783999999999
 21
1130.5649000000001
  0
LINE
  8
_0-0_LAYER001
  6
CONTINUOUS
 62
    3
 10
1578.0783999999999
 20
1130.5649000000001
 11
1578.1255000000001
 21
1132.6219000000001
  0
LINE
  8
_0-0_LAYER001
  6
CONTINUOUS
 62
    3
 10
1578.1255000000001
 20
1132.6219000000001
 11
1578.1428999999998
 21
1133.3797999999999
  0
LINE
  8
_0-0_LAYER001
  6
CONTINUOUS
 62
    3
 10
1578.1428999999998
 20
1133.3797999999999
 11
1576.4897000000001
 21
1134.0038999999999
  0
LINE
  8
_0-0_LAYER001
  6
CONTINUOUS
 62
    3
 10
1576.4897000000001
 20
1134.0038999999999
 11
1571.8249999999998
 21
1135.7091
  0
LINE
  8
_0-0_LAYER001
  6
CONTINUOUS
 62
    3
 10
1571.8249999999998
 20
1135.7091
 11
1564.5915
 21
1138.2444
  0
LINE
  8
_0-0_LAYER001
  6
CONTINUOUS
 62
    3
 10
1564.5915
 20
1138.2444
 11
1555.2316000000001
 21
1141.3589999999999
  0
LINE
  8
_0-0_LAYER001
  6
CONTINUOUS
 62
    3
 10
1555.2316000000001
 20
1141.3589999999999
 11
1544.1880000000001
 21
1144.8018
  0
LINE
  8
_0-0_LAYER001
  6
CONTINUOUS
 62
    3
 10
1544.1880000000001
 20
1144.8018
 11
1531.9029999999998
 21
1148.3218999999999
  0
LINE
  8
_0-0_LAYER001
  6
CONTINUOUS
 62
    3
 10
1531.9029999999998
 20
1148.3218999999999
 11
1518.8193000000001
 21
1151.6685
  0
LINE
  8
_0-0_LAYER001
  6
CONTINUOUS
 62
    3
 10
1518.8193000000001
 20
1151.6685
 11
1505.3793999999998
 21
1154.5907
  0
LINE
  8
_0-0_LAYER001
  6
CONTINUOUS
 62
    3
 10
1505.3793999999998
 20
1154.5907
 11
1492.0257999999999
 21
1156.8373999999999
  0
LINE
  8
_0-0_LAYER001
  6
CONTINUOUS
 62
    3
 10
1479.201
 20
1158.1578999999999
 11
1492.1377000000002
 21
1156.8186000000001
  0
LINE
  8
_0-0_LAYER001
  6
CONTINUOUS
 62
    2
 10
1414.6898000000001
 20
1220.0976000000001
 11
1416.6309000000001
 21
1212.8531
  0
LINE
  8
_0-0_LAYER001
  6
CONTINUOUS
 62
    2
 10
1416.6309000000001
 20
1212.8531
 11
1411.3276000000001
 21
1218.1564000000001
  0
LINE
  8
_0-0_LAYER001
  6
CONTINUOUS
 62
    2
 10
1416.6309000000001
 20
1212.8531
 11
1348.9137000000001
 21
1330.1429000000003
  0
LINE
  8
_0-0_LAYER001
  6
CONTINUOUS
 62
    2
 10
1348.9137000000001
 20
1330.1429000000003
 11
1272.4137000000001
 21
1330.1429000000003
  0
LINE
  8
_0-0_LAYER001
  6
CONTINUOUS
 62
    2
 10
1517.9126999999999
 20
1182.8191999999999
 11
1514.1626999999999
 21
1176.3241
  0
LINE
  8
_0-0_LAYER001
  6
CONTINUOUS
 62
    2
 10
1514.1626999999999
 20
1176.3241
 11
1514.1626999999999
 21
1183.8241
  0
LINE
  8
_0-0_LAYER001
  6
CONTINUOUS
 62
    2
 10
1514.1626999999999
 20
1176.3241
 11
1542.3737999999998
 21
1281.6093000000001
  0
LINE
  8
_0-3_LAYER004
  6
CONTINUOUS
 62
    2
 10
1396.3875000000003
 20
851.13850000000002
 11
1496.3874999999998
 21
851.13850000000002
  0
LINE
  8
_0-3_LAYER004
  6
CONTINUOUS
 62
    2
 10
1496.3874999999998
 20
651.13850000000002
 11
1396.3875000000003
 21
651.13850000000002
  0
LINE
  8
_0-3_LAYER004
  6
CONTINUOUS
 62
    2
 10
1396.3875000000003
 20
651.13850000000002
 11
1396.3875000000003
 21
659.13850000000002
  0
LINE
  8
_0-3_LAYER004
  6
CONTINUOUS
 62
    2
 10
1396.3875000000003
 20
843.13850000000002
 11
1396.3875000000003
 21
851.13850000000002
  0
LINE
  8
_0-3_LAYER004
  6
CONTINUOUS
 62
    2
 10
1496.3874999999998
 20
659.13850000000002
 11
1496.3874999999998
 21
651.13850000000002
  0
LINE
  8
_0-3_LAYER004
  6
CONTINUOUS
 62
    2
 10
1438.3874999999998
 20
843.13850000000002
 11
1396.3875000000003
 21
843.13850000000002
  0
LINE
  8
_0-3_LAYER004
  6
CONTINUOUS
 62
    2
 10
1454.3874999999998
 20
843.13850000000002
 11
1496.3874999999998
 21
843.13850000000002
  0
LINE
  8
_0-3_LAYER004
  6
CONTINUOUS
 62
    2
 10
1449.3874999999998
 20
664.13850000000002
 11
1449.3874999999998
 21
838.13850000000002
  0
LINE
  8
_0-3_LAYER004
  6
CONTINUOUS
 62
    2
 10
1454.3874999999998
 20
659.13850000000002
 11
1496.3874999999998
 21
659.13850000000002
  0
LINE
  8
_0-3_LAYER004
  6
CONTINUOUS
 62
    2
 10
1438.3874999999998
 20
659.13850000000002
 11
1396.3875000000003
 21
659.13850000000002
  0
LINE
  8
_0-3_LAYER004
  6
CONTINUOUS
 62
    2
 10
1443.3874999999998
 20
664.13850000000002
 11
1443.3874999999998
 21
838.13850000000002
  0
LINE
  8
_0-3_LAYER004
  6
CONTINUOUS
 62
    2
 10
1496.3874999999998
 20
851.13850000000002
 11
1496.3874999999998
 21
843.13850000000002
  0
ARC
  8
_0-3_LAYER004
  6
CONTINUOUS
 62
    2
 10
1438.3874999999998
 20
838.13850000000002
 40
5
 50
0
 51
90
  0
ARC
  8
_0-3_LAYER004
  6
CONTINUOUS
 62
    2
 10
1454.3874999999998
 20
838.13850000000002
 40
5
 50
90
 51
180
  0
ARC
  8
_0-3_LAYER004
  6
CONTINUOUS
 62
    2
 10
1454.3874999999998
 20
664.13850000000002
 40
5
 50
180
 51
270
  0
ARC
  8
_0-3_LAYER004
  6
CONTINUOUS
 62
    2
 10
1438.3874999999998
 20
664.13850000000002
 40
5
 50
270
 51
0
  0
LINE
  8
_0-0_LAYER001
  6
CONTINUOUS
 62
    2
 10
1436.4848000000002
 20
1055.0072
 11
1356.4480000000001
 21
1018.9907000000001
  0
LINE
  8
_0-0_LAYER001
  6
CONTINUOUS
 62
    2
 10
1435.1984000000002
 20
1056.0732
 11
1356.4480000000001
 21
1020.6356000000001
  0
LINE
  8
_0-0_LAYER001
  6
CONTINUOUS
 62
    2
 10
1456.4652000000001
 20
1054.9829
 11
1536.4479999999999
 21
1018.9907000000001
  0
LINE
  8
_0-0_LAYER001
  6
CONTINUOUS
 62
    2
 10
1457.7516000000001
 20
1056.0489
 11
1536.4479999999999
 21
1020.6356000000001
  0
LINE
  8
_0-1_LAYER002
  6
CONTINUOUS
 62
    2
 10
1444.8766000000001
 20
1239.5659000000001
 11
1446.6587
 21
1231.6393
  0
LINE
  8
_0-1_LAYER002
  6
CONTINUOUS
 62
    2
 10
1444.8789000000002
 20
1275.0949000000001
 11
1444.8766000000001
 21
1235.421
  0
LINE
  8
_0-1_LAYER002
  6
CONTINUOUS
 62
    2
 10
1448.0693000000001
 20
1275.1301000000001
 11
1448.0680000000002
 21
1234.5192
  0
LINE
  8
_0-1_LAYER002
  6
CONTINUOUS
 62
    2
 10
1446.6587
 20
1231.6393
 11
1448.0680000000002
 21
1238.664
  0
LINE
  8
_0-1_LAYER002
  6
CONTINUOUS
 62
    2
 10
1432.1550999999999
 20
1228.8266000000001
 11
1432.1550999999999
 21
1257.4647
  0
LINE
  8
_0-1_LAYER002
  6
CONTINUOUS
 62
    2
 10
1460.7930999999999
 20
1257.4647
 11
1460.7930999999999
 21
1228.8266000000001
  0
LINE
  8
_0-1_LAYER002
  6
CONTINUOUS
 62
    2
 10
1460.7930999999999
 20
1228.8266000000001
 11
1432.1550999999999
 21
1228.8266000000001
  0
LINE
  8
_0-1_LAYER002
  6
CONTINUOUS
 62
    2
 10
1463.1795000000002
 20
1224.9407000000001
 11
1429.7686000000001
 21
1224.9407000000001
  0
LINE
  8
_0-1_LAYER002
  6
CONTINUOUS
 62
    2
 10
1432.1550999999999
 20
1228.8266000000001
 11
1460.7930999999999
 21
1257.4647
  0
LINE
  8
_0-1_LAYER002
  6
CONTINUOUS
 62
    2
 10
1432.1550999999999
 20
1257.4647
 11
1460.7930999999999
 21
1257.4647
  0
LINE
  8
_0-1_LAYER002
  6
CONTINUOUS
 62
    2
 10
1432.1550999999999
 20
1257.4647
 11
1460.7930999999999
 21
1228.8266000000001
  0
LINE
  8
_0-1_LAYER002
  6
CONTINUOUS
 62
    2
 10
1461.8157000000001
 20
1226.3042
 11
1431.1323000000002
 21
1226.3042
  0
LINE
  8
_0-1_LAYER002
  6
CONTINUOUS
 62
    2
 10
1429.7686000000001
 20
1224.9407000000001
 11
1429.7686000000001
 21
1243.3508999999999
  0
LINE
  8
_0-1_LAYER002
  6
CONTINUOUS
 62
    2
 10
1431.1323000000002
 20
1226.3042
 11
1431.1323000000002
 21
1243.3508999999999
  0
LINE
  8
_0-1_LAYER002
  6
CONTINUOUS
 62
    2
 10
1429.7686000000001
 20
1243.3508999999999
 11
1431.1323000000002
 21
1243.3508999999999
  0
LINE
  8
_0-1_LAYER002
  6
CONTINUOUS
 62
    2
 10
1463.1795000000002
 20
1224.9407000000001
 11
1463.1795000000002
 21
1243.3508999999999
  0
LINE
  8
_0-1_LAYER002
  6
CONTINUOUS
 62
    2
 10
1461.8157000000001
 20
1226.3042
 11
1461.8157000000001
 21
1243.3508999999999
  0
LINE
  8
_0-1_LAYER002
  6
CONTINUOUS
 62
    2
 10
1461.8157000000001
 20
1243.3508999999999
 11
1463.1795000000002
 21
1243.3508999999999
  0
LINE
  8
_0-1_LAYER002
  6
CONTINUOUS
 62
    2
 10
1441.1957000000002
 20
1116.7465999999999
 11
1436.4848000000002
 21
1055.0072
  0
LINE
  8
_0-1_LAYER002
  6
CONTINUOUS
 62
    2
 10
1443.4058
 20
1085.2737
 11
1449.5423999999998
 21
1085.2737
  0
LINE
  8
_0-1_LAYER002
  6
CONTINUOUS
 62
    2
 10
1451.7525000000001
 20
1116.7465999999999
 11
1456.4652000000001
 21
1054.9829
  0
LINE
  8
_0-1_LAYER002
  6
CONTINUOUS
 62
    2
 10
1439.9321
 20
1118.1103000000001
 11
1435.1984000000002
 21
1056.0732
  0
LINE
  8
_0-1_LAYER002
  6
CONTINUOUS
 62
    2
 10
1453.0160999999998
 20
1118.1103000000001
 11
1457.7516000000001
 21
1056.0489
  0
LINE
  8
_0-1_LAYER002
  6
CONTINUOUS
 62
    2
 10
1443.4058
 20
1224.9407000000001
 11
1443.4058
 21
1085.2737
  0
LINE
  8
_0-1_LAYER002
  6
CONTINUOUS
 62
    2
 10
1449.5423999999998
 20
1224.9407000000001
 11
1449.5423999999998
 21
1085.2737
  0
LINE
  8
_0-1_LAYER002
  6
CONTINUOUS
 62
    2
 10
1444.2105999999999
 20
1239.3874000000001
 11
1448.7341000000001
 21
1240.5995
  0
LINE
  8
_0-1_LAYER002
  6
CONTINUOUS
 62
    2
 10
1444.2105999999999
 20
1241.3853999999999
 11
1448.7341000000001
 21
1242.5975000000001
  0
LINE
  8
_0-1_LAYER002
  6
CONTINUOUS
 62
    2
 10
1444.2105999999999
 20
1243.3833999999999
 11
1448.7341000000001
 21
1244.5954999999999
  0
LINE
  8
_0-1_LAYER002
  6
CONTINUOUS
 62
    2
 10
1444.2105999999999
 20
1245.3814
 11
1448.7341000000001
 21
1246.5934999999999
  0
LINE
  8
_0-1_LAYER002
  6
CONTINUOUS
 62
    2
 10
1444.2105999999999
 20
1247.3795
 11
1448.7341000000001
 21
1248.5915
  0
LINE
  8
_0-1_LAYER002
  6
CONTINUOUS
 62
    2
 10
1444.2105999999999
 20
1249.3775000000001
 11
1448.7341000000001
 21
1250.5895
  0
LINE
  8
_0-1_LAYER002
  6
CONTINUOUS
 62
    2
 10
1444.2105999999999
 20
1251.3755000000001
 11
1448.7341000000001
 21
1252.5875000000001
  0
LINE
  8
_0-1_LAYER002
  6
CONTINUOUS
 62
    2
 10
1444.2105999999999
 20
1253.3733999999999
 11
1448.7341000000001
 21
1254.5854999999999
  0
LINE
  8
_0-1_LAYER002
  6
CONTINUOUS
 62
    2
 10
1444.2105999999999
 20
1255.3714
 11
1448.7341000000001
 21
1256.5835
  0
LINE
  8
_0-1_LAYER002
  6
CONTINUOUS
 62
    2
 10
1444.2105999999999
 20
1257.3694
 11
1448.7341000000001
 21
1258.5815
  0
LINE
  8
_0-1_LAYER002
  6
CONTINUOUS
 62
    2
 10
1444.2105999999999
 20
1259.3674000000001
 11
1448.7341000000001
 21
1260.5795000000001
  0
LINE
  8
_0-1_LAYER002
  6
CONTINUOUS
 62
    2
 10
1444.2105999999999
 20
1261.3653999999999
 11
1448.7341000000001
 21
1262.5775000000001
  0
LINE
  8
_0-1_LAYER002
  6
CONTINUOUS
 62
    2
 10
1444.2105999999999
 20
1263.3634
 11
1448.7341000000001
 21
1264.5754999999999
  0
LINE
  8
_0-1_LAYER002
  6
CONTINUOUS
 62
    2
 10
1444.2105999999999
 20
1265.3614
 11
1448.7341000000001
 21
1266.5735
  0
LINE
  8
_0-6_LAYER007
  6
CONTINUOUS
 62
    2
 10
1356.4480000000001
 20
1020.6356000000001
 11
1356.4480000000001
 21
1018.9907000000001
  0
LINE
  8
_0-6_LAYER007
  6
CONTINUOUS
 62
    2
 10
1536.4479999999999
 20
1020.6356000000001
 11
1536.4479999999999
 21
1018.9907000000001
  0
LINE
  8
_0-0_LAYER001
  6
CONTINUOUS
 62
    2
 10
1451.7525000000001
 20
1116.7465999999999
 11
1441.1957000000002
 21
1116.7465999999999
  0
LINE
  8
_0-0_LAYER001
  6
CONTINUOUS
 62
    2
 10
1439.9321
 20
1118.1103000000001
 11
1452.8912999999998
 21
1118.1103000000001
  0
ARC
  8
_0-0_LAYER001
  6
CONTINUOUS
 62
    2
 10
1446.4740999999999
 20
1007.2229
 40
156.02564000000001
 50
74.824657999999999
 51
105.17534000000001
  0
ARC
  8
_0-0_LAYER001
  6
CONTINUOUS
 62
    2
 10
1446.4866000000002
 20
1484.1476
 40
282.09598999999997
 50
263.89521999999999
 51
276.10476999999997
  0
ARC
  8
_0-0_LAYER001
  6
CONTINUOUS
 62
    2
 10
1446.4866000000002
 20
2181.7021
 40
1008.2048
 50
268.29485
 51
271.70513999999997
  0
LINE
  8
_0-0_LAYER001
  6
CONTINUOUS
 62
    2
 10
1405.6306
 20
1157.8078
 11
1405.6306
 21
1139.9843000000001
  0
LINE
  8
_0-0_LAYER001
  6
CONTINUOUS
 62
    2
 10
1487.3175000000001
 20
1157.8078
 11
1487.3175000000001
 21
1139.9843000000001
  0
ARC
  8
_0-0_LAYER001
  6
CONTINUOUS
 62
    2
 10
1446.4740999999999
 20
1952.5
 40
813.54162999999994
 50
267.12227999999999
 51
272.87770999999998
  0
LINE
  8
_0-0_LAYER001
  6
CONTINUOUS
 62
    2
 10
1370.9362000000001
 20
1191.9513999999999
 11
1369.1550000000002
 21
1182.1321
  0
LINE
  8
_0-0_LAYER001
  6
CONTINUOUS
 62
    2
 10
1367.9984999999999
 20
1162.1971000000001
 11
1366.4585
 21
1149.7062000000001
  0
ARC
  8
_0-0_LAYER001
  6
CONTINUOUS
 62
    2
 10
932.25250000000005
 20
1149.0896
 40
437.65383999999995
 50
348.55191000000002
 51
357.76253000000003
  0
LINE
  8
_0-0_LAYER001
  6
CONTINUOUS
 62
    2
 10
1522.0120000000002
 20
1191.9513999999999
 11
1523.7932000000001
 21
1182.1321
  0
LINE
  8
_0-0_LAYER001
  6
CONTINUOUS
 62
    2
 10
1524.9497000000001
 20
1162.1971000000001
 11
1526.4895999999999
 21
1149.7062000000001
  0
ARC
  8
_0-0_LAYER001
  6
DASHED1
 62
    2
 10
1960.6956
 20
1149.0896
 40
437.65383999999995
 50
182.23746000000003
 51
191.44808
  0
CIRCLE
  8
_0-5_LAYER006
  6
CONTINUOUS
 62
    2
 10
1410.5677000000001
 20
1118.4974999999999
 40
1.5179999999999998
  0
CIRCLE
  8
_0-5_LAYER006
  6
CONTINUOUS
 62
    2
 10
1406.7716999999998
 20
1109.3875
 40
1.5179999999999998
  0
CIRCLE
  8
_0-5_LAYER006
  6
CONTINUOUS
 62
    2
 10
1405.2537000000002
 20
1128.3665000000001
 40
1.5179999999999998
  0
LINE
  8
_0-4_LAYER005
  6
CONTINUOUS
 62
    4
 10
1371.4866000000002
 20
1213.6384
 11
1387.2406000000001
 21
1216.6384
  0
LINE
  8
_0-4_LAYER005
  6
CONTINUOUS
 62
    4
 10
1505.7316000000001
 20
1216.6384
 11
1521.4866000000002
 21
1213.6384
  0
ARC
  8
_0-4_LAYER005
  6
CONTINUOUS
 62
    4
 10
1446.4866000000002
 20
1200.4954
 40
76.143000000000001
 50
9.9394530000000003
 51
170.06053999999997
  0
ARC
  8
_0-4_LAYER005
  6
CONTINUOUS
 62
    4
 10
1446.4866000000002
 20
1200.1384
 40
61.5
 50
15.562729000000001
 51
164.43727000000001
  0
CIRCLE
  8
_0-5_LAYER006
  6
CONTINUOUS
 62
    2
 10
1406.4375999999997
 20
1231.6774
 40
1.5179999999999998
  0
CIRCLE
  8
_0-5_LAYER006
  6
CONTINUOUS
 62
    2
 10
1415.5465999999999
 20
1238.5103999999999
 40
1.5179999999999998
  0
CIRCLE
  8
_0-5_LAYER006
  6
CONTINUOUS
 62
    2
 10
1414.9675999999999
 20
1237.3173999999999
 40
1.5179999999999998
  0
CIRCLE
  8
_0-5_LAYER006
  6
CONTINUOUS
 62
    2
 10
1428.4526000000001
 20
1241.5463999999999
 40
1.5179999999999998
  0
CIRCLE
  8
_0-5_LAYER006
  6
CONTINUOUS
 62
    2
 10
1426.9346
 20
1231.6774
 40
1.5179999999999998
  0
CIRCLE
  8
_0-5_LAYER006
  6
CONTINUOUS
 62
    2
 10
1465.6516000000001
 20
1239.2693999999999
 40
1.5179999999999998
  0
CIRCLE
  8
_0-5_LAYER006
  6
CONTINUOUS
 62
    2
 10
1473.2426
 20
1235.4734000000001
 40
1.5179999999999998
  0
CIRCLE
  8
_0-5_LAYER006
  6
CONTINUOUS
 62
    2
 10
1482.3526000000002
 20
1234.7144000000001
 40
1.5179999999999998
  0
CIRCLE
  8
_0-5_LAYER006
  6
CONTINUOUS
 62
    2
 10
1480.0756000000001
 20
1237.7514000000001
 40
1.5179999999999998
  0
CIRCLE
  8
_0-5_LAYER006
  6
CONTINUOUS
 62
    2
 10
1430.7296000000001
 20
1249.8974000000001
 40
1.5179999999999998
  0
CIRCLE
  8
_0-5_LAYER006
  6
CONTINUOUS
 62
    2
 10
1422.3795999999998
 20
1249.8974000000001
 40
1.5179999999999998
  0
CIRCLE
  8
_0-5_LAYER006
  6
CONTINUOUS
 62
    2
 10
1416.3065999999999
 20
1247.6204
 40
1.5179999999999998
  0
CIRCLE
  8
_0-5_LAYER006
  6
CONTINUOUS
 62
    2
 10
1410.2325999999998
 20
1237.7514000000001
 40
1.5179999999999998
  0
CIRCLE
  8
_0-5_LAYER006
  6
CONTINUOUS
 62
    2
 10
1473.2426
 20
1230.9184
 40
1.5179999999999998
  0
CIRCLE
  8
_0-5_LAYER006
  6
CONTINUOUS
 62
    2
 10
1484.6306
 20
1228.6414
 40
1.5179999999999998
  0
CIRCLE
  8
_0-5_LAYER006
  6
CONTINUOUS
 62
    2
 10
1489.9445999999998
 20
1227.8824
 40
1.5179999999999998
  0
CIRCLE
  8
_0-5_LAYER006
  6
CONTINUOUS
 62
    2
 10
1475.5205999999998
 20
1243.0654
 40
1.5179999999999998
  0
CIRCLE
  8
_0-5_LAYER006
  6
CONTINUOUS
 62
    2
 10
1458.8186000000001
 20
1201.3114
 40
1.5179999999999998
  0
CIRCLE
  8
_0-5_LAYER006
  6
CONTINUOUS
 62
    2
 10
1467.9286000000002
 20
1199.7934
 40
1.5179999999999998
  0
CIRCLE
  8
_0-5_LAYER006
  6
CONTINUOUS
 62
    2
 10
1470.2066
 20
1199.7934
 40
1.5179999999999998
  0
CIRCLE
  8
_0-5_LAYER006
  6
CONTINUOUS
 62
    2
 10
1482.3526000000002
 20
1198.2744
 40
1.5179999999999998
  0
CIRCLE
  8
_0-5_LAYER006
  6
CONTINUOUS
 62
    2
 10
1488.4256
 20
1197.5154
 40
1.5179999999999998
  0
CIRCLE
  8
_0-5_LAYER006
  6
CONTINUOUS
 62
    2
 10
1496.7766000000001
 20
1195.2384
 40
1.5179999999999998
  0
CIRCLE
  8
_0-5_LAYER006
  6
CONTINUOUS
 62
    2
 10
1433.7665999999999
 20
1202.0704000000001
 40
1.5179999999999998
  0
CIRCLE
  8
_0-5_LAYER006
  6
CONTINUOUS
 62
    2
 10
1427.6936000000001
 20
1199.7934
 40
1.5179999999999998
  0
CIRCLE
  8
_0-5_LAYER006
  6
CONTINUOUS
 62
    2
 10
1415.5465999999999
 20
1198.2744
 40
1.5179999999999998
  0
CIRCLE
  8
_0-5_LAYER006
  6
CONTINUOUS
 62
    2
 10
1404.9186
 20
1197.5154
 40
1.5179999999999998
  0
CIRCLE
  8
_0-5_LAYER006
  6
CONTINUOUS
 62
    2
 10
1395.8086000000001
 20
1195.2384
 40
1.5179999999999998
  0
CIRCLE
  8
_0-5_LAYER006
  6
CONTINUOUS
 62
    2
 10
1390.4946
 20
1192.9603999999999
 40
1.5179999999999998
  0
CIRCLE
  8
_0-5_LAYER006
  6
CONTINUOUS
 62
    2
 10
1382.9036000000001
 20
1191.4423999999999
 40
1.5179999999999998
  0
CIRCLE
  8
_0-5_LAYER006
  6
CONTINUOUS
 62
    2
 10
1419.3425999999999
 20
1157.2804000000001
 40
1.5179999999999998
  0
CIRCLE
  8
_0-5_LAYER006
  6
CONTINUOUS
 62
    2
 10
1422.3795999999998
 20
1144.3743999999999
 40
1.5179999999999998
  0
CIRCLE
  8
_0-5_LAYER006
  6
CONTINUOUS
 62
    2
 10
1426.9346
 20
1151.9664
 40
1.5179999999999998
  0
CIRCLE
  8
_0-5_LAYER006
  6
CONTINUOUS
 62
    2
 10
1429.9706000000001
 20
1157.2804000000001
 40
1.5179999999999998
  0
CIRCLE
  8
_0-5_LAYER006
  6
CONTINUOUS
 62
    2
 10
1370.4997000000001
 20
1109.5681999999999
 40
1.5179999999999998
  0
CIRCLE
  8
_0-5_LAYER006
  6
CONTINUOUS
 62
    2
 10
1375.8136999999999
 20
1107.2901999999999
 40
1.5179999999999998
  0
CIRCLE
  8
_0-5_LAYER006
  6
CONTINUOUS
 62
    2
 10
1384.9236999999998
 20
1111.8452
 40
1.5179999999999998
  0
CIRCLE
  8
_0-5_LAYER006
  6
CONTINUOUS
 62
    2
 10
1430.1802
 20
1123.1724999999999
 40
1.5179999999999998
  0
CIRCLE
  8
_0-5_LAYER006
  6
CONTINUOUS
 62
    2
 10
1427.9032000000002
 20
1117.0995
 40
1.5179999999999998
  0
CIRCLE
  8
_0-5_LAYER006
  6
CONTINUOUS
 62
    2
 10
1481.0441999999998
 20
1107.9894999999999
 40
1.5179999999999998
  0
CIRCLE
  8
_0-5_LAYER006
  6
CONTINUOUS
 62
    2
 10
1483.3211999999999
 20
1114.8225
 40
1.5179999999999998
  0
CIRCLE
  8
_0-5_LAYER006
  6
CONTINUOUS
 62
    2
 10
1469.4466000000002
 20
1136.7834
 40
1.5179999999999998
  0
CIRCLE
  8
_0-5_LAYER006
  6
CONTINUOUS
 62
    2
 10
1458.8186000000001
 20
1153.4844000000001
 40
1.5179999999999998
  0
CIRCLE
  8
_0-5_LAYER006
  6
CONTINUOUS
 62
    2
 10
1455.7826
 20
1156.5214000000001
 40
1.5179999999999998
  0
CIRCLE
  8
_0-5_LAYER006
  6
CONTINUOUS
 62
    2
 10
1457.3006
 20
1165.6314
 40
1.5179999999999998
  0
CIRCLE
  8
_0-5_LAYER006
  6
CONTINUOUS
 62
    2
 10
1469.4466000000002
 20
1161.0763999999999
 40
1.5179999999999998
  0
CIRCLE
  8
_0-5_LAYER006
  6
CONTINUOUS
 62
    2
 10
1477.7975999999999
 20
1159.5573999999999
 40
1.5179999999999998
  0
CIRCLE
  8
_0-5_LAYER006
  6
CONTINUOUS
 62
    2
 10
1488.4256
 20
1164.8724
 40
1.5179999999999998
  0
CIRCLE
  8
_0-5_LAYER006
  6
CONTINUOUS
 62
    2
 10
1494.4996000000001
 20
1165.6314
 40
1.5179999999999998
  0
CIRCLE
  8
_0-5_LAYER006
  6
CONTINUOUS
 62
    2
 10
1497.5356000000002
 20
1165.6314
 40
1.5179999999999998
  0
CIRCLE
  8
_0-5_LAYER006
  6
CONTINUOUS
 62
    2
 10
1512.7186000000002
 20
1161.0763999999999
 40
1.5179999999999998
  0
CIRCLE
  8
_0-5_LAYER006
  6
CONTINUOUS
 62
    2
 10
1508.1635999999999
 20
1135.2644
 40
1.5179999999999998
  0
CIRCLE
  8
_0-5_LAYER006
  6
CONTINUOUS
 62
    2
 10
1508.6667000000002
 20
1114.1222
 40
1.5179999999999998
  0
CIRCLE
  8
_0-5_LAYER006
  6
CONTINUOUS
 62
    2
 10
1512.4616999999998
 20
1112.6042
 40
1.5179999999999998
  0
CIRCLE
  8
_0-5_LAYER006
  6
CONTINUOUS
 62
    2
 10
1512.4616999999998
 20
1110.3271999999999
 40
1.5179999999999998
  0
CIRCLE
  8
_0-5_LAYER006
  6
CONTINUOUS
 62
    2
 10
1489.1855999999998
 20
1146.6523999999999
 40
1.5179999999999998
  0
CIRCLE
  8
_0-5_LAYER006
  6
CONTINUOUS
 62
    2
 10
1467.1696000000002
 20
1139.0604000000001
 40
1.5179999999999998
  0
CIRCLE
  8
_0-5_LAYER006
  6
CONTINUOUS
 62
    2
 10
1471.9342000000001
 20
1120.1365000000001
 40
1.5179999999999998
  0
CIRCLE
  8
_0-5_LAYER006
  6
CONTINUOUS
 62
    2
 10
1466.6201999999998
 20
1115.5815
 40
1.5179999999999998
  0
CIRCLE
  8
_0-5_LAYER006
  6
CONTINUOUS
 62
    2
 10
1459.0282000000002
 20
1113.3035
 40
1.5179999999999998
  0
CIRCLE
  8
_0-5_LAYER006
  6
CONTINUOUS
 62
    2
 10
1434.7352000000001
 20
1115.5815
 40
1.5179999999999998
  0
CIRCLE
  8
_0-5_LAYER006
  6
CONTINUOUS
 62
    2
 10
1424.1071999999999
 20
1107.9894999999999
 40
1.5179999999999998
  0
CIRCLE
  8
_0-5_LAYER006
  6
CONTINUOUS
 62
    2
 10
1422.5891999999999
 20
1126.9684999999999
 40
1.5179999999999998
  0
CIRCLE
  8
_0-5_LAYER006
  6
CONTINUOUS
 62
    2
 10
1372.0177000000001
 20
1105.0132000000001
 40
1.5179999999999998
  0
CIRCLE
  8
_0-5_LAYER006
  6
CONTINUOUS
 62
    2
 10
1378.3485999999998
 20
1155.0034000000001
 40
1.5179999999999998
  0
CIRCLE
  8
_0-5_LAYER006
  6
CONTINUOUS
 62
    2
 10
1388.2175999999999
 20
1161.0763999999999
 40
1.5179999999999998
  0
CIRCLE
  8
_0-5_LAYER006
  6
CONTINUOUS
 62
    2
 10
1425.4156
 20
1166.3904
 40
1.5179999999999998
  0
CIRCLE
  8
_0-5_LAYER006
  6
CONTINUOUS
 62
    2
 10
1439.8395999999998
 20
1170.1864
 40
1.5179999999999998
  0
CIRCLE
  8
_0-5_LAYER006
  6
CONTINUOUS
 62
    2
 10
1453.5046000000002
 20
1180.8144
 40
1.5179999999999998
  0
CIRCLE
  8
_0-5_LAYER006
  6
CONTINUOUS
 62
    2
 10
1454.2636000000002
 20
1191.4423999999999
 40
1.5179999999999998
  0
CIRCLE
  8
_0-5_LAYER006
  6
CONTINUOUS
 62
    2
 10
1439.8395999999998
 20
1186.8874000000001
 40
1.5179999999999998
  0
CIRCLE
  8
_0-5_LAYER006
  6
CONTINUOUS
 62
    2
 10
1458.8186000000001
 20
1167.9084
 40
1.5179999999999998
  0
CIRCLE
  8
_0-5_LAYER006
  6
CONTINUOUS
 62
    2
 10
1456.5416
 20
1150.4484
 40
1.5179999999999998
  0
CIRCLE
  8
_0-5_LAYER006
  6
CONTINUOUS
 62
    2
 10
1455.0225999999998
 20
1145.8933999999999
 40
1.5179999999999998
  0
CIRCLE
  8
_0-5_LAYER006
  6
CONTINUOUS
 62
    2
 10
1474.0016000000001
 20
1155.0034000000001
 40
1.5179999999999998
  0
CIRCLE
  8
_0-5_LAYER006
  6
CONTINUOUS
 62
    2
 10
1475.5205999999998
 20
1150.4484
 40
1.5179999999999998
  0
CIRCLE
  8
_0-5_LAYER006
  6
CONTINUOUS
 62
    2
 10
1475.5205999999998
 20
1150.4484
 40
1.5179999999999998
  0
CIRCLE
  8
_0-5_LAYER006
  6
CONTINUOUS
 62
    2
 10
1477.0385999999999
 20
1137.5424
 40
1.5179999999999998
  0
CIRCLE
  8
_0-5_LAYER006
  6
CONTINUOUS
 62
    2
 10
1431.4895999999999
 20
1140.5794000000001
 40
1.5179999999999998
  0
CIRCLE
  8
_0-5_LAYER006
  6
CONTINUOUS
 62
    2
 10
1468.1381999999999
 20
1112.5445
 40
1.5179999999999998
  0
CIRCLE
  8
_0-5_LAYER006
  6
CONTINUOUS
 62
    2
 10
1474.9702000000002
 20
1104.1935000000001
 40
1.5179999999999998
  0
CIRCLE
  8
_0-5_LAYER006
  6
CONTINUOUS
 62
    2
 10
1456.5416
 20
1144.3743999999999
 40
1.5179999999999998
  0
CIRCLE
  8
_0-5_LAYER006
  6
CONTINUOUS
 62
    2
 10
1437.0122000000001
 20
1126.9684999999999
 40
1.5179999999999998
  0
CIRCLE
  8
_0-5_LAYER006
  6
CONTINUOUS
 62
    2
 10
1425.4156
 20
1151.2074
 40
1.5179999999999998
  0
CIRCLE
  8
_0-5_LAYER006
  6
CONTINUOUS
 62
    2
 10
1407.1966
 20
1167.1494
 40
1.5179999999999998
  0
CIRCLE
  8
_0-5_LAYER006
  6
CONTINUOUS
 62
    2
 10
1474.9702000000002
 20
1115.5815
 40
1.5179999999999998
  0
CIRCLE
  8
_0-5_LAYER006
  6
CONTINUOUS
 62
    2
 10
1480.2842000000001
 20
1126.2094999999999
 40
1.5179999999999998
  0
CIRCLE
  8
_0-5_LAYER006
  6
CONTINUOUS
 62
    2
 10
1480.8346000000001
 20
1135.2644
 40
1.5179999999999998
  0
CIRCLE
  8
_0-5_LAYER006
  6
CONTINUOUS
 62
    2
 10
1483.8706000000002
 20
1156.5214000000001
 40
1.5179999999999998
  0
CIRCLE
  8
_0-5_LAYER006
  6
CONTINUOUS
 62
    2
 10
1431.4895999999999
 20
1148.9294
 40
1.5179999999999998
  0
CIRCLE
  8
_0-5_LAYER006
  6
CONTINUOUS
 62
    2
 10
1430.7296000000001
 20
1161.8353999999999
 40
1.5179999999999998
  0
CIRCLE
  8
_0-5_LAYER006
  6
CONTINUOUS
 62
    2
 10
1419.3425999999999
 20
1161.8353999999999
 40
1.5179999999999998
  0
CIRCLE
  8
_0-5_LAYER006
  6
CONTINUOUS
 62
    2
 10
1435.4942000000001
 20
1123.9314999999999
 40
1.5179999999999998
  0
CIRCLE
  8
_0-5_LAYER006
  6
CONTINUOUS
 62
    2
 10
1434.7352000000001
 20
1111.0264999999999
 40
1.5179999999999998
  0
CIRCLE
  8
_0-5_LAYER006
  6
CONTINUOUS
 62
    2
 10
1432.4582
 20
1105.7125000000001
 40
1.5179999999999998
  0
CIRCLE
  8
_0-5_LAYER006
  6
CONTINUOUS
 62
    2
 10
1468.6876000000002
 20
1152.7254
 40
1.5179999999999998
  0
CIRCLE
  8
_0-5_LAYER006
  6
CONTINUOUS
 62
    2
 10
1470.2066
 20
1167.9084
 40
1.5179999999999998
  0
CIRCLE
  8
_0-5_LAYER006
  6
CONTINUOUS
 62
    2
 10
1399.6045999999999
 20
1224.8453999999999
 40
1.5179999999999998
  0
CIRCLE
  8
_0-5_LAYER006
  6
CONTINUOUS
 62
    2
 10
1414.7876000000001
 20
1229.4004
 40
1.5179999999999998
  0
CIRCLE
  8
_0-5_LAYER006
  6
CONTINUOUS
 62
    2
 10
1401.8825999999999
 20
1236.9914000000001
 40
1.5179999999999998
  0
CIRCLE
  8
_0-5_LAYER006
  6
CONTINUOUS
 62
    2
 10
1489.1855999999998
 20
1237.7514000000001
 40
1.5179999999999998
  0
CIRCLE
  8
_0-5_LAYER006
  6
CONTINUOUS
 62
    2
 10
1469.4466000000002
 20
1248.3794
 40
1.5179999999999998
  0
ARC
  8
_0-3_LAYER004
  6
CONTINUOUS
 62
    2
 10
1446.4866000000002
 20
1031.0894000000001
 40
164.01599999999999
 50
79.460769999999997
 51
100.53923
  0
ARC
  8
_0-0_LAYER001
  6
CONTINUOUS
 62
    2
 10
1445.0547999999999
 20
1000.1197999999999
 40
223.92554000000001
 50
81.928702999999999
 51
97.329827000000009
  0
LINE
  8
_0-0_LAYER001
  6
CONTINUOUS
 62
    2
 10
1476.4866999999999
 20
1203.6514
 11
1476.4866999999999
 21
1221.8282999999999
  0
LINE
  8
_0-0_LAYER001
  6
CONTINUOUS
 62
    2
 10
1398.2601
 20
1039.8901000000001
 11
1425.6178
 21
1052.2011
  0
LINE
  8
_0-0_LAYER001
  6
CONTINUOUS
 62
    2
 10
1419.4622999999999
 20
1065.8798999999999
 11
1392.1045999999999
 21
1053.5689
  0
LINE
  8
_0-0_LAYER001
  6
CONTINUOUS
 62
    2
 10
1425.6178
 20
1052.2011
 11
1419.4622999999999
 21
1065.8798999999999
  0
LINE
  8
_0-0_LAYER001
  6
CONTINUOUS
 62
    2
 10
1392.1045999999999
 20
1053.5689
 11
1398.2601
 21
1039.8901000000001
  0
LINE
  8
_0-0_LAYER001
  6
CONTINUOUS
 62
    2
 10
1419.4622999999999
 20
1065.8798999999999
 11
1398.2601
 21
1039.8901000000001
  0
LINE
  8
_0-0_LAYER001
  6
CONTINUOUS
 62
    2
 10
1192.5825
 20
947.33510000000001
 11
1219.9297999999999
 21
959.66910000000007
  0
LINE
  8
_0-0_LAYER001
  6
CONTINUOUS
 62
    2
 10
1213.7628
 20
973.34269999999992
 11
1186.4155000000001
 21
961.00870000000009
  0
LINE
  8
_0-0_LAYER001
  6
CONTINUOUS
 62
    2
 10
1219.9297999999999
 20
959.66910000000007
 11
1213.7628
 21
973.34269999999992
  0
LINE
  8
_0-0_LAYER001
  6
CONTINUOUS
 62
    2
 10
1186.4155000000001
 20
961.00870000000009
 11
1192.5825
 21
947.33510000000001
  0
LINE
  8
_0-0_LAYER001
  6
CONTINUOUS
 62
    2
 10
1213.7628
 20
973.34269999999992
 11
1192.5825
 21
947.33510000000001
  0
LINE
  8
_0-0_LAYER001
  6
CONTINUOUS
 62
    2
 10
986.81510000000003
 20
854.73960000000011
 11
1014.1727000000001
 21
867.05060000000003
  0
LINE
  8
_0-0_LAYER001
  6
CONTINUOUS
 62
    2
 10
1008.0172
 20
880.72939999999994
 11
980.65959999999995
 21
868.41849999999999
  0
LINE
  8
_0-0_LAYER001
  6
CONTINUOUS
 62
    2
 10
1014.1727000000001
 20
867.05060000000003
 11
1008.0172
 21
880.72939999999994
  0
LINE
  8
_0-0_LAYER001
  6
CONTINUOUS
 62
    2
 10
980.65959999999995
 20
868.41849999999999
 11
986.81510000000003
 21
854.73960000000011
  0
LINE
  8
_0-0_LAYER001
  6
CONTINUOUS
 62
    2
 10
1008.0172
 20
880.72939999999994
 11
986.81510000000003
 21
854.73960000000011
  0
LINE
  8
_0-0_LAYER001
  6
CONTINUOUS
 62
    4
 10
1420.6671000000001
 20
1067.2370000000001
 11
1424.7597000000001
 21
1055.9564
  0
LINE
  8
_0-0_LAYER001
  6
CONTINUOUS
 62
    4
 10
1155.4168999999999
 20
989.08770000000004
 11
1423.3296
 21
1086.2872
  0
LINE
  8
_0-0_LAYER001
  6
CONTINUOUS
 62
    4
 10
1138.7630999999999
 20
1034.9907000000001
 11
1406.6759
 21
1132.1902
  0
ARC
  8
_0-0_LAYER001
  6
CONTINUOUS
 62
    4
 10
953.11519999999996
 20
886.97000000000003
 40
10
 50
109.94091000000002
 51
199.94091
  0
ARC
  8
_0-0_LAYER001
  6
CONTINUOUS
 62
    4
 10
1158.8273999999999
 20
979.68720000000008
 40
10
 50
109.94091000000002
 51
199.94091
  0
LINE
  8
_0-0_LAYER001
  6
CONTINUOUS
 62
    4
 10
1424.7597000000001
 20
1055.9564
 11
1433.2201
 21
1059.0259000000001
  0
LINE
  8
_0-0_LAYER001
  6
CONTINUOUS
 62
    4
 10
1406.6759
 20
1132.1902
 11
1433.2201
 21
1059.0259000000001
  0
LINE
  8
_0-0_LAYER001
  6
CONTINUOUS
 62
    4
 10
955.50250000000005
 20
880.38969999999995
 11
1214.9549
 21
974.51970000000006
  0
LINE
  8
_0-0_LAYER001
  6
CONTINUOUS
 62
    4
 10
1214.9549
 20
974.51970000000006
 11
1219.0474999999999
 21
963.23919999999998
  0
LINE
  8
_0-0_LAYER001
  6
CONTINUOUS
 62
    4
 10
1219.0474999999999
 20
963.23919999999998
 11
1227.5079000000001
 21
966.30860000000007
  0
LINE
  8
_0-0_LAYER001
  6
CONTINUOUS
 62
    4
 10
1021.7956999999999
 20
873.59140000000002
 11
1013.3353
 21
870.52199999999993
  0
LINE
  8
_0-0_LAYER001
  6
CONTINUOUS
 62
    4
 10
884.21759999999995
 20
836.44309999999996
 11
1009.2427
 21
881.80250000000001
  0
LINE
  8
_0-0_LAYER001
  6
CONTINUOUS
 62
    4
 10
1009.2427
 20
881.80250000000001
 11
1013.3353
 21
870.52199999999993
  0
LINE
  8
_0-0_LAYER001
  6
CONTINUOUS
 62
    4
 10
859.75579999999991
 20
897.59750000000008
 11
929.44830000000002
 21
922.88220000000001
  0
ARC
  8
_0-0_LAYER001
  6
CONTINUOUS
 62
    4
 10
936.46139999999991
 20
932.87300000000005
 40
10
 50
109.94091000000002
 51
199.94091
  0
LINE
  8
_0-0_LAYER001
  6
CONTINUOUS
 62
    4
 10
927.06099999999992
 20
929.46250000000009
 11
946.10210000000006
 21
876.97919999999999
  0
LINE
  8
_0-0_LAYER001
  6
CONTINUOUS
 62
    4
 10
927.06099999999992
 20
929.46250000000009
 11
946.10210000000006
 21
876.97919999999999
  0
LINE
  8
_0-0_LAYER001
  6
CONTINUOUS
 62
    4
 10
877.90069999999992
 20
852.2355
 11
1011.9051999999999
 21
900.85269999999991
  0
LINE
  8
_0-0_LAYER001
  6
CONTINUOUS
 62
    4
 10
1011.9051999999999
 20
900.85269999999991
 11
1021.7956999999999
 21
873.59140000000002
  0
LINE
  8
_0-0_LAYER001
  6
CONTINUOUS
 62
    4
 10
933.05089999999996
 20
942.27340000000004
 11
1135.1605
 21
1015.5994000000001
  0
LINE
  8
_0-0_LAYER001
  6
CONTINUOUS
 62
    4
 10
1138.5710999999999
 20
1006.1990000000001
 11
1151.8143
 21
969.69640000000004
  0
LINE
  8
_0-0_LAYER001
  6
CONTINUOUS
 62
    4
 10
1217.6174000000001
 20
993.56989999999996
 11
1227.5079000000001
 21
966.30860000000007
  0
LINE
  8
_0-0_LAYER001
  6
CONTINUOUS
 62
    4
 10
949.7047
 20
896.37040000000002
 11
1420.6671000000001
 21
1067.2370000000001
  0
LINE
  8
_0-0_LAYER001
  6
CONTINUOUS
 62
    4
 10
1132.7732000000001
 20
1022.1796999999999
 11
1151.8143
 21
969.69640000000004
  0
ARC
  8
_0-0_LAYER001
  6
CONTINUOUS
 62
    4
 10
1142.1736000000001
 20
1025.5902000000001
 40
10
 50
109.94091000000002
 51
199.94091
  0
LINE
  8
_0-0_LAYER001
  6
CONTINUOUS
 62
    2
 10
1517.9486000000002
 20
1102.4268999999999
 11
1512.1507000000001
 21
1086.4462000000001
  0
LINE
  8
_0-0_LAYER001
  6
CONTINUOUS
 62
    2
 10
1723.6608000000001
 20
1009.7097000000001
 11
1717.8629999999998
 21
993.72900000000004
  0
LINE
  8
_0-0_LAYER001
  6
CONTINUOUS
 62
    2
 10
1929.373
 20
916.99250000000006
 11
1923.5752000000002
 21
901.01170000000002
  0
LINE
  8
_0-0_LAYER001
  6
CONTINUOUS
 62
    2
 10
1991.9160999999999
 20
876.2174
 11
1923.5752000000002
 21
901.01170000000002
  0
LINE
  8
_0-0_LAYER001
  6
CONTINUOUS
 62
    4
 10
1978.4405999999999
 20
847.24559999999997
 11
1883.5779000000002
 21
881.66210000000001
  0
LINE
  8
_0-0_LAYER001
  6
CONTINUOUS
 62
    4
 10
1999.1129999999998
 20
891.6905999999999
 11
1891.7712000000001
 21
930.63449999999989
  0
LINE
  8
_0-0_LAYER001
  6
CONTINUOUS
 62
    4
 10
2006.3099000000002
 20
907.16380000000004
 11
1963.3721999999998
 21
922.74170000000004
  0
LINE
  8
_0-0_LAYER001
  6
CONTINUOUS
 62
    2
 10
1891.7712000000001
 20
930.63449999999989
 11
1717.8629999999998
 21
993.72900000000004
  0
LINE
  8
_0-0_LAYER001
  6
CONTINUOUS
 62
    2
 10
1473.3456000000001
 20
1065.9195
 11
1500.6927999999998
 21
1053.5854999999999
  0
LINE
  8
_0-0_LAYER001
  6
CONTINUOUS
 62
    2
 10
1467.1786000000002
 20
1052.2458999999999
 11
1473.3456000000001
 21
1065.9195
  0
LINE
  8
_0-0_LAYER001
  6
CONTINUOUS
 62
    2
 10
1473.3456000000001
 20
1065.9195
 11
1494.5257999999999
 21
1039.9119000000001
  0
LINE
  8
_0-0_LAYER001
  6
CONTINUOUS
 62
    4
 10
1472.1534999999999
 20
1067.0965000000001
 11
1468.0608999999999
 21
1055.816
  0
LINE
  8
_0-0_LAYER001
  6
CONTINUOUS
 62
    4
 10
1486.1446999999998
 20
1132.0497
 11
1459.6005
 21
1058.8853999999999
  0
ARC
  8
_0-0_LAYER001
  6
CONTINUOUS
 62
    4
 10
1940.9830999999999
 20
912.7043000000001
 40
17.623681999999999
 50
340.29127000000005
 51
57.209820000000029
  0
LINE
  8
_0-0_LAYER001
  6
CONTINUOUS
 62
    2
 10
1494.5257999999999
 20
1039.9119000000001
 11
1467.1786000000002
 21
1052.2458999999999
  0
LINE
  8
_0-0_LAYER001
  6
CONTINUOUS
 62
    2
 10
1500.6927999999998
 20
1053.5854999999999
 11
1494.5257999999999
 21
1039.9119000000001
  0
LINE
  8
_0-0_LAYER001
  6
CONTINUOUS
 62
    2
 10
1700.2932999999998
 20
947.31639999999993
 11
1672.9357
 21
959.62740000000008
  0
LINE
  8
_0-0_LAYER001
  6
CONTINUOUS
 62
    2
 10
1706.4488000000001
 20
960.99520000000007
 11
1700.2932999999998
 21
947.31639999999993
  0
LINE
  8
_0-0_LAYER001
  6
CONTINUOUS
 62
    2
 10
1906.0608000000002
 20
854.72090000000003
 11
1878.7031999999999
 21
867.03189999999995
  0
LINE
  8
_0-0_LAYER001
  6
CONTINUOUS
 62
    2
 10
1884.8587000000002
 20
880.71070000000009
 11
1912.2163
 21
868.39969999999994
  0
LINE
  8
_0-0_LAYER001
  6
CONTINUOUS
 62
    2
 10
1878.7031999999999
 20
867.03189999999995
 11
1884.8587000000002
 21
880.71070000000009
  0
LINE
  8
_0-0_LAYER001
  6
CONTINUOUS
 62
    2
 10
1912.2163
 20
868.39969999999994
 11
1906.0608000000002
 21
854.72090000000003
  0
LINE
  8
_0-0_LAYER001
  6
CONTINUOUS
 62
    2
 10
1884.8587000000002
 20
880.71070000000009
 11
1906.0608000000002
 21
854.72090000000003
  0
LINE
  8
_0-0_LAYER001
  6
CONTINUOUS
 62
    4
 10
1468.0608999999999
 20
1055.816
 11
1459.6005
 21
1058.8853999999999
  0
LINE
  8
_0-0_LAYER001
  6
CONTINUOUS
 62
    4
 10
1665.3126999999999
 20
966.16820000000007
 11
1673.7730999999999
 21
963.09870000000001
  0
LINE
  8
_0-0_LAYER001
  6
CONTINUOUS
 62
    4
 10
1883.5779000000002
 20
881.66210000000001
 11
1879.4852999999998
 21
870.38149999999996
  0
LINE
  8
_0-0_LAYER001
  6
CONTINUOUS
 62
    4
 10
1871.0248999999999
 20
873.45100000000002
 11
1879.4852999999998
 21
870.38149999999996
  0
ARC
  8
_0-0_LAYER001
  6
CONTINUOUS
 62
    4
 10
1956.3591999999999
 20
932.73250000000007
 40
10
 50
340.05907999999999
 51
70.059082999999987
  0
LINE
  8
_0-0_LAYER001
  6
CONTINUOUS
 62
    4
 10
1957.5744
 20
906.76099999999997
 11
1965.7595999999999
 21
929.32199999999989
  0
LINE
  8
_0-0_LAYER001
  6
CONTINUOUS
 62
    4
 10
1891.7712000000001
 20
930.63449999999989
 11
1871.0248999999999
 21
873.45100000000002
  0
ARC
  8
_0-0_LAYER001
  6
CONTINUOUS
 62
    4
 10
1735.2709
 20
1005.4215999999999
 40
17.623681999999999
 50
340.29127000000005
 51
57.209820000000029
  0
LINE
  8
_0-0_LAYER001
  6
CONTINUOUS
 62
    4
 10
1880.9153999999999
 20
900.71229999999991
 11
1677.8656999999998
 21
974.37930000000006
  0
LINE
  8
_0-0_LAYER001
  6
CONTINUOUS
 62
    2
 10
1679.0911000000001
 20
973.30619999999999
 11
1706.4488000000001
 21
960.99520000000007
  0
LINE
  8
_0-0_LAYER001
  6
CONTINUOUS
 62
    2
 10
1672.9357
 20
959.62740000000008
 11
1679.0911000000001
 21
973.30619999999999
  0
LINE
  8
_0-0_LAYER001
  6
CONTINUOUS
 62
    2
 10
1679.0911000000001
 20
973.30619999999999
 11
1700.2932999999998
 21
947.31639999999993
  0
LINE
  8
_0-0_LAYER001
  6
CONTINUOUS
 62
    4
 10
1950.9202
 20
927.25939999999991
 11
1686.0590000000002
 21
1023.3517999999999
  0
LINE
  8
_0-0_LAYER001
  6
CONTINUOUS
 62
    4
 10
1677.8656999999998
 20
974.37930000000006
 11
1673.7730999999999
 21
963.09870000000001
  0
LINE
  8
_0-0_LAYER001
  6
CONTINUOUS
 62
    4
 10
1959.7696999999998
 20
942.13300000000004
 11
1757.6599999999999
 21
1015.4589000000001
  0
ARC
  8
_0-0_LAYER001
  6
CONTINUOUS
 62
    4
 10
1750.6469000000002
 20
1025.4498000000001
 40
10
 50
340.05907999999999
 51
70.059082999999987
  0
LINE
  8
_0-0_LAYER001
  6
CONTINUOUS
 62
    4
 10
1751.8622
 20
999.47820000000002
 11
1760.0473999999999
 21
1022.0392999999999
  0
LINE
  8
_0-0_LAYER001
  6
CONTINUOUS
 62
    4
 10
1686.0590000000002
 20
1023.3517999999999
 11
1665.3126999999999
 21
966.16820000000007
  0
LINE
  8
_0-0_LAYER001
  6
CONTINUOUS
 62
    4
 10
1675.2031000000002
 20
993.42949999999996
 11
1472.1534999999999
 21
1067.0965000000001
  0
LINE
  8
_0-0_LAYER001
  6
CONTINUOUS
 62
    4
 10
1745.2080000000001
 20
1019.9766
 11
1480.3467999999998
 21
1116.069
  0
LINE
  8
_0-0_LAYER001
  6
CONTINUOUS
 62
    4
 10
1754.0574000000001
 20
1034.8502000000001
 11
1486.1446999999998
 21
1132.0497
  0
LINE
  8
_0-0_LAYER001
  6
CONTINUOUS
 62
    2
 10
1686.0590000000002
 20
1023.3517999999999
 11
1512.1507000000001
 21
1086.4462000000001
  0
LINE
  8
_0-0_LAYER001
  6
CONTINUOUS
 62
    2
 10
1210.3
 20
1008.0776000000001
 11
1210.3
 21
1000.5776000000001
  0
LINE
  8
_0-0_LAYER001
  6
CONTINUOUS
 62
    2
 10
1210.3
 20
1000.5776000000001
 11
1206.55
 21
1007.0727999999999
  0
LINE
  8
_0-0_LAYER001
  6
CONTINUOUS
 62
    2
 10
1210.3
 20
1000.5776000000001
 11
1182.4548
 21
1104.4972
  0
CIRCLE
  8
_0-0_LAYER001
  6
CONTINUOUS
 62
    2
 10
1076.4362000000001
 20
1177.4623999999999
 40
1.6999999999999997
  0
LINE
  8
_0-0_LAYER001
  6
CONTINUOUS
 62
    2
 10
1076.4362000000001
 20
1177.4623999999999
 11
1353.7493999999997
 21
1278.0724
  0
CIRCLE
  8
_0-0_LAYER001
  6
CONTINUOUS
 62
    2
 10
1353.7493999999997
 20
1278.0724
 40
1.6999999999999997
  0
LINE
  8
_0-0_LAYER001
  6
CONTINUOUS
 62
    2
 10
1352.8968
 20
1280.4224999999999
 11
1370.8019999999999
 21
1231.0702000000001
  0
CIRCLE
  8
_0-0_LAYER001
  6
CONTINUOUS
 62
    2
 10
1086.952
 20
1148.4775999999999
 40
1.6999999999999997
  0
LINE
  8
_0-0_LAYER001
  6
CONTINUOUS
 62
    2
 10
1086.952
 20
1148.4775999999999
 11
875.44190000000003
 21
1071.7411
  0
CIRCLE
  8
_0-0_LAYER001
  6
CONTINUOUS
 62
    2
 10
875.44190000000003
 20
1071.7411
 40
1.6999999999999997
  0
LINE
  8
_0-0_LAYER001
  6
CONTINUOUS
 62
    2
 10
1076.4362000000001
 20
1177.4623999999999
 11
1104.0045
 21
1101.4753000000001
  0
LINE
  8
_0-0_LAYER001
  6
CONTINUOUS
 62
    2
 10
874.58930000000009
 20
1074.0912000000001
 11
892.49440000000004
 21
1024.7389000000001
  0
LINE
  8
_0-0_LAYER001
  6
CONTINUOUS
 62
    2
 10
1389.1265000000001
 20
1123.471
 11
1391.0677000000001
 21
1116.2266
  0
LINE
  8
_0-0_LAYER001
  6
CONTINUOUS
 62
    2
 10
1391.0677000000001
 20
1116.2266
 11
1385.7644
 21
1121.5299
  0
LINE
  8
_0-0_LAYER001
  6
CONTINUOUS
 62
    2
 10
1391.0677000000001
 20
1116.2266
 11
1292.453
 21
1287.0322000000001
  0
LINE
  8
_0-0_LAYER001
  6
CONTINUOUS
 62
    2
 10
1292.453
 20
1287.0322000000001
 11
1209.9459999999999
 21
1287.0322000000001
  0
LINE
  8
_0-0_LAYER001
  6
CONTINUOUS
 62
    2
 10
1445.2660999999998
 20
1222.0956000000001
 11
1447.2073
 21
1214.8511000000001
  0
LINE
  8
_0-0_LAYER001
  6
CONTINUOUS
 62
    2
 10
1447.2073
 20
1214.8511000000001
 11
1441.904
 21
1220.1543999999999
  0
LINE
  8
_0-0_LAYER001
  6
CONTINUOUS
 62
    2
 10
1447.2073
 20
1214.8511000000001
 11
1348.3488
 21
1386.079
  0
LINE
  8
_0-0_LAYER001
  6
CONTINUOUS
 62
    2
 10
1348.3488
 20
1386.079
 11
1258.864
 21
1386.079
  0
LINE
  8
_0-0_LAYER001
  6
CONTINUOUS
 62
    2
 10
1441.0702000000001
 20
1256.0495000000001
 11
1441.0702000000001
 21
1248.5495000000001
  0
LINE
  8
_0-0_LAYER001
  6
CONTINUOUS
 62
    2
 10
1441.0702000000001
 20
1248.5495000000001
 11
1437.3202000000001
 21
1255.0446999999999
  0
LINE
  8
_0-0_LAYER001
  6
CONTINUOUS
 62
    2
 10
1441.0702000000001
 20
1248.5495000000001
 11
1392.0859
 21
1431.3614000000002
  0
LINE
  8
_0-0_LAYER001
  6
CONTINUOUS
 62
    2
 10
1392.0859
 20
1431.3614000000002
 11
1236.0968
 21
1431.3614000000002
  0
LINE
  8
_0-0_LAYER001
  6
CONTINUOUS
 62
    2
 10
1451.819
 20
1272.8905
 11
1448.069
 21
1266.3952999999999
  0
LINE
  8
_0-0_LAYER001
  6
CONTINUOUS
 62
    2
 10
1448.069
 20
1266.3952999999999
 11
1448.069
 21
1273.8952999999999
  0
LINE
  8
_0-0_LAYER001
  6
CONTINUOUS
 62
    2
 10
1448.069
 20
1266.3952999999999
 11
1474.9187000000002
 21
1366.5996999999998
  0
LINE
  8
_0-0_LAYER001
  6
CONTINUOUS
 62
    2
 10
1773.5349000000001
 20
1271.3416999999999
 11
1978.3575999999998
 21
1271.3416999999999
  0
LINE
  8
_0-0_LAYER001
  6
CONTINUOUS
 62
    2
 10
1693.5342000000001
 20
965.27510000000007
 11
1689.7842000000001
 21
958.7799
  0
LINE
  8
_0-0_LAYER001
  6
CONTINUOUS
 62
    2
 10
1689.7842000000001
 20
958.7799
 11
1689.7842000000001
 21
966.2799
  0
LINE
  8
_0-0_LAYER001
  6
CONTINUOUS
 62
    2
 10
1689.7842000000001
 20
958.7799
 11
1773.5349000000001
 21
1271.3416999999999
  0
LINE
  8
_0-0_LAYER001
  6
CONTINUOUS
 62
    2
 10
1758.8674999999998
 20
1211.4942000000001
 11
2026.8761
 21
1211.4942000000001
  0
LINE
  8
_0-0_LAYER001
  6
CONTINUOUS
 62
    7
 10
1236.0968
 20
1431.3614000000002
 11
1392.0859
 21
1431.3614000000002
  0
LINE
  8
_0-0_LAYER001
  6
CONTINUOUS
 62
    7
 10
1348.3488
 20
1386.079
 11
1258.864
 21
1386.079
  0
LINE
  8
_0-0_LAYER001
  6
CONTINUOUS
 62
    7
 10
1348.9137000000001
 20
1330.1429000000003
 11
1272.4137000000001
 21
1330.1429000000003
  0
LINE
  8
_0-0_LAYER001
  6
CONTINUOUS
 62
    7
 10
1292.453
 20
1287.0322000000001
 11
1209.9459999999999
 21
1287.0322000000001
  0
LINE
  8
_0-0_LAYER001
  6
CONTINUOUS
 62
    7
 10
1773.5349000000001
 20
1271.3416999999999
 11
1978.3575999999998
 21
1271.3416999999999
  0
LINE
  8
_0-0_LAYER001
  6
CONTINUOUS
 62
    7
 10
1758.8674999999998
 20
1211.4942000000001
 11
2026.8761
 21
1211.4942000000001
  0
LINE
  8
_0-0_LAYER001
  6
CONTINUOUS
 62
    7
 10
1432.1550999999999
 20
1257.4647
 11
1460.7930999999999
 21
1257.4647
  0
LINE
  8
_0-0_LAYER001
  6
CONTINUOUS
 62
    7
 10
1460.7930999999999
 20
1257.4647
 11
1460.7930999999999
 21
1228.8266000000001
  0
LINE
  8
_0-0_LAYER001
  6
CONTINUOUS
 62
    7
 10
1460.7930999999999
 20
1228.8266000000001
 11
1432.1550999999999
 21
1228.8266000000001
  0
LINE
  8
_0-0_LAYER001
  6
CONTINUOUS
 62
    7
 10
1432.1550999999999
 20
1228.8266000000001
 11
1432.1550999999999
 21
1257.4647
  0
LINE
  8
_0-0_LAYER001
  6
CONTINUOUS
 62
    7
 10
1429.7686000000001
 20
1243.3508999999999
 11
1431.1323000000002
 21
1243.3508999999999
  0
LINE
  8
_0-0_LAYER001
  6
CONTINUOUS
 62
    7
 10
1431.1323000000002
 20
1243.3508999999999
 11
1431.1323000000002
 21
1226.3042
  0
LINE
  8
_0-0_LAYER001
  6
CONTINUOUS
 62
    7
 10
1431.1323000000002
 20
1226.3042
 11
1461.8157000000001
 21
1226.3042
  0
LINE
  8
_0-0_LAYER001
  6
CONTINUOUS
 62
    7
 10
1461.8157000000001
 20
1226.3042
 11
1461.8157000000001
 21
1243.3508999999999
  0
LINE
  8
_0-0_LAYER001
  6
CONTINUOUS
 62
    7
 10
1461.8157000000001
 20
1243.3508999999999
 11
1463.1795000000002
 21
1243.3508999999999
  0
LINE
  8
_0-1_LAYER002
  6
CONTINUOUS
 62
    7
 10
1463.1795000000002
 20
1243.3508999999999
 11
1463.1795000000002
 21
1224.9407000000001
  0
LINE
  8
_0-1_LAYER002
  6
CONTINUOUS
 62
    7
 10
1463.1795000000002
 20
1224.9407000000001
 11
1429.7686000000001
 21
1224.9407000000001
  0
LINE
  8
_0-1_LAYER002
  6
CONTINUOUS
 62
    7
 10
1429.7686000000001
 20
1224.9407000000001
 11
1429.7686000000001
 21
1243.3508999999999
  0
LINE
  8
_0-1_LAYER002
  6
CONTINUOUS
 62
    7
 10
1416.486166624338
 20
1222.2154565341577
 11
1416.486166624338
 21
1203.6513550869831
  0
LINE
  8
_0-1_LAYER002
  6
CONTINUOUS
 62
    7
 10
1416.4865306037984
 20
1203.6513550869831
 11
1476.4866204403713
 21
1203.6513550869831
  0
LINE
  8
_0-1_LAYER002
  6
CONTINUOUS
 62
    7
 10
1476.4866204403713
 20
1203.6513498509876
 11
1476.4866204403713
 21
1221.827160388214
  0
LINE
  8
_0-1_LAYER002
  6
CONTINUOUS
 62
    7
 10
1476.4951214675375
 20
1221.827160388214
 11
1416.4865
 21
1221.827160388214
  0
LINE
  8
_0-1_LAYER002
  6
CONTINUOUS
 62
    7
 10
1449.5423999999998
 20
1224.9407000000001
 11
1449.5423999999998
 21
1085.2737
  0
LINE
  8
_0-1_LAYER002
  6
CONTINUOUS
 62
    7
 10
1449.5423999999998
 20
1085.2737
 11
1443.4058
 21
1085.2737
  0
LINE
  8
_0-1_LAYER002
  6
CONTINUOUS
 62
    7
 10
1443.4058
 20
1085.2737
 11
1443.4058
 21
1224.9407000000001
  0
LINE
  8
_0-1_LAYER002
  6
CONTINUOUS
 62
    7
 10
1416.4865
 20
1192.3400999999999
 11
1416.4865
 21
1173.9437436238695
  0
LINE
  8
_0-1_LAYER002
  6
CONTINUOUS
 62
    7
 10
1416.4863683822291
 20
1173.9437436238695
 11
1476.4866999999999
 21
1173.9437436238695
  0
LINE
  8
_0-1_LAYER002
  6
CONTINUOUS
 62
    7
 10
1476.4866999999999
 20
1173.9437
 11
1476.4866999999999
 21
1192.3395
  0
LINE
  8
_0-1_LAYER002
  6
CONTINUOUS
 62
    7
 10
1476.4866999999999
 20
1192.3395
 11
1416.4865
 21
1192.3395
  0
LINE
  8
_0-1_LAYER002
  6
CONTINUOUS
 62
    7
 10
1405.6306732893399
 20
1157.8078090445006
 11
1405.6306732893399
 21
1139.9843000000001
  0
LINE
  8
_0-1_LAYER002
  6
CONTINUOUS
 62
    7
 10
1405.6306
 20
1139.9843000000001
 11
1487.3175000000001
 21
1139.9843000000001
  0
LINE
  8
_0-1_LAYER002
  6
CONTINUOUS
 62
    7
 10
1487.3175000000001
 20
1139.9843000000001
 11
1487.3175000000001
 21
1157.8078
  0
LINE
  8
_0-1_LAYER002
  6
CONTINUOUS
 62
    7
 10
1487.3175000000001
 20
1157.8078
 11
1405.6306
 21
1157.8078
  0
LINE
  8
_0-1_LAYER002
  6
CONTINUOUS
 62
    7
 10
1439.9321
 20
1118.1103000000001
 11
1453.0160999999998
 21
1118.1103000000001
  0
LINE
  8
_0-1_LAYER002
  6
CONTINUOUS
 62
    7
 10
1451.7525000000001
 20
1116.7465999999999
 11
1441.1957000000002
 21
1116.7465999999999
  0
LINE
  8
_0-1_LAYER002
  6
CONTINUOUS
 62
    7
 10
1385.7644
 20
1121.5299
 11
1391.0677000000001
 21
1116.2266
  0
LINE
  8
_0-1_LAYER002
  6
CONTINUOUS
 62
    7
 10
1391.0677000000001
 20
1116.2266
 11
1389.1265000000001
 21
1123.471
  0
LINE
  8
_0-1_LAYER002
  6
CONTINUOUS
 62
    7
 10
1391.0677000000001
 20
1116.2266
 11
1292.453
 21
1287.0322000000001
  0
LINE
  8
_0-1_LAYER002
  6
CONTINUOUS
 62
    7
 10
1348.9137000000001
 20
1330.1429000000003
 11
1416.6309000000001
 21
1212.8531
  0
LINE
  8
_0-1_LAYER002
  6
CONTINUOUS
 62
    7
 10
1416.6309000000001
 20
1212.8531
 11
1414.6898000000001
 21
1220.0976000000001
  0
LINE
  8
_0-1_LAYER002
  6
CONTINUOUS
 62
    7
 10
1411.3276000000001
 20
1218.1564000000001
 11
1416.6309000000001
 21
1212.8531
  0
LINE
  8
_0-1_LAYER002
  6
CONTINUOUS
 62
    7
 10
1445.2660999999998
 20
1222.0956000000001
 11
1447.2073
 21
1214.8511000000001
  0
LINE
  8
_0-1_LAYER002
  6
CONTINUOUS
 62
    7
 10
1447.2073
 20
1214.8511000000001
 11
1441.904
 21
1220.1543999999999
  0
LINE
  8
_0-1_LAYER002
  6
CONTINUOUS
 62
    7
 10
1447.2073
 20
1214.8511000000001
 11
1348.3488
 21
1386.079
  0
LINE
  8
_0-1_LAYER002
  6
CONTINUOUS
 62
    7
 10
1392.0859
 20
1431.3614000000002
 11
1441.0701747919147
 21
1248.5495940778567
  0
LINE
  8
_0-1_LAYER002
  6
CONTINUOUS
 62
    7
 10
1441.0701747919147
 20
1248.5495940778567
 11
1441.0702000000001
 21
1256.0495000000001
  0
LINE
  8
_0-1_LAYER002
  6
CONTINUOUS
 62
    7
 10
1437.3202000000001
 20
1255.0446999999999
 11
1441.070105922139
 21
1248.5496629478732
  0
LINE
  8
_0-1_LAYER002
  6
CONTINUOUS
 62
    7
 10
1432.1550999999999
 20
1257.4647
 11
1460.7930999999999
 21
1228.8266000000001
  0
LINE
  8
_0-1_LAYER002
  6
CONTINUOUS
 62
    7
 10
1432.1550999999999
 20
1228.8266000000001
 11
1460.7930999999999
 21
1257.4647
  0
LINE
  8
_0-1_LAYER002
  6
CONTINUOUS
 62
    7
 10
1444.8789000000002
 20
1275.0949000000001
 11
1444.8768402287758
 21
1239.5648314867781
  0
LINE
  8
_0-1_LAYER002
  6
CONTINUOUS
 62
    7
 10
1444.8768402287758
 20
1239.5648314867781
 11
1446.6587
 21
1231.6393
  0
LINE
  8
_0-1_LAYER002
  6
CONTINUOUS
 62
    7
 10
1446.6587
 20
1231.6393
 11
1448.0681889252512
 21
1240.4210649798379
  0
LINE
  8
_0-1_LAYER002
  6
CONTINUOUS
 62
    7
 10
1448.0681889252512
 20
1240.4210649798379
 11
1448.0693000000001
 21
1275.1301000000001
  0
LINE
  8
_0-1_LAYER002
  6
CONTINUOUS
 62
    7
 10
1448.069
 20
1266.3952999999999
 11
1451.819
 21
1272.8905
  0
LINE
  8
_0-1_LAYER002
  6
CONTINUOUS
 62
    7
 10
1448.069
 20
1266.3952999999999
 11
1474.9187000000002
 21
1366.5996999999998
  0
LINE
  8
_0-1_LAYER002
  6
CONTINUOUS
 62
    2
 10
1444.8782000000001
 20
1277.1420270809194
 11
1442.6406000000002
 21
1278.5150270809195
  0
LINE
  8
_0-1_LAYER002
  6
CONTINUOUS
 62
    7
 10
1442.6406000000002
 20
1278.5150270809195
 11
1444.8789000000002
 21
1277.1057270809195
  0
LINE
  8
_0-1_LAYER002
  6
CONTINUOUS
 62
    2
 10
1442.6406000000002
 20
1278.5150270809195
 11
1450.3074999999999
 21
1278.5144270809196
  0
LINE
  8
_0-1_LAYER002
  6
CONTINUOUS
 62
    2
 10
1448.0693000000001
 20
1277.1409270809195
 11
1450.3074999999999
 21
1278.5144270809196
  0
LINE
  8
_0-1_LAYER002
  6
CONTINUOUS
 62
    7
 10
1444.8789000000002
 20
1275.0949000000001
 11
1444.8789000000002
 21
1277.1057270809195
  0
LINE
  8
_0-1_LAYER002
  6
CONTINUOUS
 62
    7
 10
1448.0693000000001
 20
1275.1301000000001
 11
1448.0693000000001
 21
1277.1409270809195
  0
LINE
  8
_0-1_LAYER002
  6
CONTINUOUS
 62
    7
 10
1448.0693000000001
 20
1277.1409270809195
 11
1450.3074999999999
 21
1278.5144270809196
  0
LINE
  8
_0-1_LAYER002
  6
CONTINUOUS
 62
    7
 10
1450.3074999999999
 20
1278.5144270809196
 11
1442.6406000000002
 21
1278.5150270809195
  0
LINE
  8
_0-1_LAYER002
  6
CONTINUOUS
 62
    7
 10
1525.2860000000001
 20
1324.1833999999999
 11
1502.2552000000001
 21
1238.2312999999999
  0
LINE
  8
_0-1_LAYER002
  6
CONTINUOUS
 62
    7
 10
1502.2552000000001
 20
1238.2312999999999
 11
1506.0052000000001
 21
1244.7265
  0
LINE
  8
_0-1_LAYER002
  6
CONTINUOUS
 62
    7
 10
1502.2552000000001
 20
1238.2312999999999
 11
1502.2552000000001
 21
1245.7312999999999
  0
LINE
  8
_0-1_LAYER002
  6
CONTINUOUS
 62
    7
 10
1542.3737999999998
 20
1281.6093000000001
 11
1514.1626999999999
 21
1176.3241
  0
LINE
  8
_0-1_LAYER002
  6
CONTINUOUS
 62
    7
 10
1514.1626999999999
 20
1176.3241
 11
1517.9126999999999
 21
1182.8191999999999
  0
LINE
  8
_0-1_LAYER002
  6
CONTINUOUS
 62
    7
 10
1514.1626999999999
 20
1176.3241
 11
1514.1626999999999
 21
1183.8241
  0
LINE
  8
_0-1_LAYER002
  6
CONTINUOUS
 62
    7
 10
1456.4652000000001
 20
1054.9829
 11
1451.7525000000001
 21
1116.7465999999999
  0
LINE
  8
_0-1_LAYER002
  6
CONTINUOUS
 62
    7
 10
1457.7516000000001
 20
1056.0489
 11
1536.4479999999999
 21
1020.6356000000001
  0
LINE
  8
_0-1_LAYER002
  6
CONTINUOUS
 62
    7
 10
1536.4479999999999
 20
1020.6356000000001
 11
1536.4479999999999
 21
1018.9907000000001
  0
LINE
  8
_0-1_LAYER002
  6
CONTINUOUS
 62
    7
 10
1536.4479999999999
 20
1018.9907000000001
 11
1456.4652000000001
 21
1054.9829
  0
LINE
  8
_0-1_LAYER002
  6
CONTINUOUS
 62
    7
 10
1473.3456000000001
 20
1065.9195
 11
1467.1786000000002
 21
1052.2458999999999
  0
LINE
  8
_0-1_LAYER002
  6
CONTINUOUS
 62
    7
 10
1467.1786000000002
 20
1052.2458999999999
 11
1494.5257999999999
 21
1039.9119000000001
  0
LINE
  8
_0-1_LAYER002
  6
CONTINUOUS
 62
    7
 10
1494.5257999999999
 20
1039.9119000000001
 11
1500.6927999999998
 21
1053.5854999999999
  0
LINE
  8
_0-1_LAYER002
  6
CONTINUOUS
 62
    7
 10
1500.6927999999998
 20
1053.5854999999999
 11
1473.3456000000001
 21
1065.9195
  0
LINE
  8
_0-1_LAYER002
  6
CONTINUOUS
 62
    7
 10
1473.3456000000001
 20
1065.9195
 11
1494.5257999999999
 21
1039.9119000000001
  0
LINE
  8
_0-1_LAYER002
  6
CONTINUOUS
 62
    7
 10
1453.0160999999998
 20
1118.1103000000001
 11
1457.7516000000001
 21
1056.0489
  0
LINE
  8
_0-1_LAYER002
  6
CONTINUOUS
 62
    7
 10
1439.9321
 20
1118.1103000000001
 11
1435.1984000000002
 21
1056.0732
  0
LINE
  8
_0-1_LAYER002
  6
CONTINUOUS
 62
    7
 10
1441.1957000000002
 20
1116.7465999999999
 11
1436.4848000000002
 21
1055.0072
  0
LINE
  8
_0-1_LAYER002
  6
CONTINUOUS
 62
    7
 10
1436.4848000000002
 20
1055.0072
 11
1356.4480000000001
 21
1018.9907000000001
  0
LINE
  8
_0-1_LAYER002
  6
CONTINUOUS
 62
    7
 10
1356.4480000000001
 20
1018.9907000000001
 11
1356.4480000000001
 21
1020.6356000000001
  0
LINE
  8
_0-1_LAYER002
  6
CONTINUOUS
 62
    7
 10
1356.4480000000001
 20
1020.6356000000001
 11
1435.1984000000002
 21
1056.0732
  0
LINE
  8
_0-1_LAYER002
  6
CONTINUOUS
 62
    7
 10
1419.4622999999999
 20
1065.8798999999999
 11
1425.6178
 21
1052.2011
  0
LINE
  8
_0-1_LAYER002
  6
CONTINUOUS
 62
    7
 10
1425.6178
 20
1052.2011
 11
1398.2601
 21
1039.8901000000001
  0
LINE
  8
_0-1_LAYER002
  6
CONTINUOUS
 62
    7
 10
1398.2601
 20
1039.8901000000001
 11
1392.1045999999999
 21
1053.5689
  0
LINE
  8
_0-1_LAYER002
  6
CONTINUOUS
 62
    7
 10
1392.1045999999999
 20
1053.5689
 11
1419.4622999999999
 21
1065.8798999999999
  0
LINE
  8
_0-1_LAYER002
  6
CONTINUOUS
 62
    7
 10
1419.4622999999999
 20
1065.8798999999999
 11
1398.2601
 21
1039.8901000000001
  0
LINE
  8
_0-1_LAYER002
  6
CONTINUOUS
 62
    7
 10
1446.4479999999999
 20
1058.394
 11
918.51009999999997
 21
820.82230000000004
  0
LINE
  8
_0-1_LAYER002
  6
CONTINUOUS
 62
    7
 10
919.33069999999998
 20
818.9985999999999
 11
1446.4479999999999
 21
1056.2008000000001
  0
LINE
  8
_0-1_LAYER002
  6
CONTINUOUS
 62
    7
 10
1446.4479999999999
 20
1056.2008000000001
 11
1446.4479999999999
 21
998.62930000000006
  0
LINE
  8
_0-1_LAYER002
  6
CONTINUOUS
 62
    7
 10
1446.4479999999999
 20
1058.394
 11
1974.3859000000002
 21
820.82230000000004
  0
LINE
  8
_0-1_LAYER002
  6
CONTINUOUS
 62
    7
 10
1973.5652
 20
818.9985999999999
 11
1446.4479999999999
 21
1056.2008000000001
  0
LINE
  8
_0-1_LAYER002
  6
CONTINUOUS
 62
    7
 10
1446.4479999999999
 20
1001.3715
 11
1953.047
 21
773.40239999999994
  0
LINE
  8
_0-1_LAYER002
  6
CONTINUOUS
 62
    7
 10
1819.5811657229278
 20
888.29125767726214
 11
1844.096
 21
823.66139999999996
  0
LINE
  8
_0-1_LAYER002
  6
CONTINUOUS
 62
    7
 10
1847.9648999999999
 20
821.92039999999997
 11
1823.4500661970244
 21
886.55025642737542
  0
LINE
  8
_0-1_LAYER002
  6
CONTINUOUS
 62
    7
 10
1884.8587000000002
 20
880.71070000000009
 11
1878.7031999999999
 21
867.03189999999995
  0
LINE
  8
_0-1_LAYER002
  6
CONTINUOUS
 62
    7
 10
1878.7031999999999
 20
867.03189999999995
 11
1906.0608000000002
 21
854.72090000000003
  0
LINE
  8
_0-1_LAYER002
  6
CONTINUOUS
 62
    7
 10
1906.0608000000002
 20
854.72090000000003
 11
1912.2163
 21
868.39969999999994
  0
LINE
  8
_0-1_LAYER002
  6
CONTINUOUS
 62
    7
 10
1912.2163
 20
868.39969999999994
 11
1884.8587000000002
 21
880.71070000000009
  0
LINE
  8
_0-1_LAYER002
  6
CONTINUOUS
 62
    7
 10
1884.8587000000002
 20
880.71070000000009
 11
1906.0608000000002
 21
854.72090000000003
  0
LINE
  8
_0-1_LAYER002
  6
CONTINUOUS
 62
    7
 10
1679.0911000000001
 20
973.30619999999999
 11
1672.9357
 21
959.62740000000008
  0
LINE
  8
_0-1_LAYER002
  6
CONTINUOUS
 62
    7
 10
1672.9357
 20
959.62740000000008
 11
1700.2932999999998
 21
947.31639999999993
  0
LINE
  8
_0-1_LAYER002
  6
CONTINUOUS
 62
    7
 10
1700.2932999999998
 20
947.31639999999993
 11
1706.4488000000001
 21
960.99520000000007
  0
LINE
  8
_0-1_LAYER002
  6
CONTINUOUS
 62
    7
 10
1706.4488000000001
 20
960.99520000000007
 11
1679.0911000000001
 21
973.30619999999999
  0
LINE
  8
_0-1_LAYER002
  6
CONTINUOUS
 62
    7
 10
1679.0911000000001
 20
973.30619999999999
 11
1700.2932999999998
 21
947.31639999999993
  0
LINE
  8
_0-1_LAYER002
  6
CONTINUOUS
 62
    7
 10
1693.5342000000001
 20
965.27510000000007
 11
1689.7842000000001
 21
958.7799
  0
LINE
  8
_0-1_LAYER002
  6
CONTINUOUS
 62
    7
 10
1689.7842000000001
 20
958.7799
 11
1689.7842000000001
 21
966.2799
  0
LINE
  8
_0-1_LAYER002
  6
CONTINUOUS
 62
    7
 10
1689.7842000000001
 20
958.7799
 11
1773.5349000000001
 21
1271.3416999999999
  0
LINE
  8
_0-1_LAYER002
  6
CONTINUOUS
 62
    7
 10
1213.7628
 20
973.34269999999992
 11
1219.9297999999999
 21
959.66910000000007
  0
LINE
  8
_0-1_LAYER002
  6
CONTINUOUS
 62
    7
 10
1219.9297999999999
 20
959.66910000000007
 11
1192.5825
 21
947.33510000000001
  0
LINE
  8
_0-1_LAYER002
  6
CONTINUOUS
 62
    7
 10
1192.5825
 20
947.33510000000001
 11
1186.4155000000001
 21
961.00870000000009
  0
LINE
  8
_0-1_LAYER002
  6
CONTINUOUS
 62
    7
 10
1186.4155000000001
 20
961.00870000000009
 11
1213.7628
 21
973.34269999999992
  0
LINE
  8
_0-1_LAYER002
  6
CONTINUOUS
 62
    7
 10
1213.7628
 20
973.34269999999992
 11
1192.5825
 21
947.33510000000001
  0
LINE
  8
_0-1_LAYER002
  6
CONTINUOUS
 62
    7
 10
1206.55
 20
1007.0727999999999
 11
1210.3
 21
1000.5776000000001
  0
LINE
  8
_0-1_LAYER002
  6
CONTINUOUS
 62
    7
 10
1210.3
 20
1000.5776000000001
 11
1210.3
 21
1008.0776000000001
  0
LINE
  8
_0-1_LAYER002
  6
CONTINUOUS
 62
    7
 10
1210.3
 20
1000.5776000000001
 11
1182.4548
 21
1104.4972
  0
LINE
  8
_0-1_LAYER002
  6
CONTINUOUS
 62
    7
 10
1104.0045
 20
1101.4753000000001
 11
1076.4362000000001
 21
1177.4623999999999
  0
LINE
  8
_0-1_LAYER002
  6
CONTINUOUS
 62
    7
 10
1076.4362000000001
 20
1177.4623999999999
 11
1353.7493999999997
 21
1278.0724
  0
LINE
  8
_0-1_LAYER002
  6
CONTINUOUS
 62
    7
 10
1353.169634314206
 20
1279.6704837742673
 11
1370.8019999999999
 21
1231.0702000000001
  0
LINE
  8
_0-1_LAYER002
  6
CONTINUOUS
 62
    7
 10
1086.952
 20
1148.4775999999999
 11
875.44191798675286
 21
1071.7411065256479
  0
LINE
  8
_0-1_LAYER002
  6
CONTINUOUS
 62
    7
 10
874.86213296766664
 20
1073.3391832857581
 11
892.49440000000004
 21
1024.7389000000001
  0
LINE
  8
_0-1_LAYER002
  6
CONTINUOUS
 62
    7
 10
1076.6137000000001
 20
889.77569999999992
 11
1051.5358000000001
 21
823.66139999999996
  0
LINE
  8
_0-1_LAYER002
  6
CONTINUOUS
 62
    7
 10
1047.6668999999999
 20
821.92039999999997
 11
1072.7447
 21
888.03469999999993
  0
LINE
  8
_0-1_LAYER002
  6
CONTINUOUS
 62
    7
 10
1008.0172
 20
880.72939999999994
 11
1014.1727000000001
 21
867.05060000000003
  0
LINE
  8
_0-1_LAYER002
  6
CONTINUOUS
 62
    7
 10
1014.1727000000001
 20
867.05060000000003
 11
986.81510000000003
 21
854.73960000000011
  0
LINE
  8
_0-1_LAYER002
  6
CONTINUOUS
 62
    7
 10
986.81510000000003
 20
854.73960000000011
 11
980.65959999999995
 21
868.41849999999999
  0
LINE
  8
_0-1_LAYER002
  6
CONTINUOUS
 62
    7
 10
980.65959999999995
 20
868.41849999999999
 11
1008.0172
 21
880.72939999999994
  0
LINE
  8
_0-1_LAYER002
  6
CONTINUOUS
 62
    7
 10
1008.0172
 20
880.72939999999994
 11
986.81510000000003
 21
854.73960000000011
  0
LINE
  8
_0-1_LAYER002
  6
CONTINUOUS
 62
    7
 10
939.84899999999993
 20
773.40239999999994
 11
1446.4479999999999
 21
1001.3715
  0
LINE
  8
_0-1_LAYER002
  6
CONTINUOUS
 62
    7
 10
1446.4479999999999
 20
998.62930000000006
 11
1310.1159000000002
 21
937.27999999999997
  0
LINE
  8
_0-1_LAYER002
  6
CONTINUOUS
 62
    7
 10
1446.4479999999999
 20
998.62930000000006
 11
1582.7800999999999
 21
937.27999999999997
  0
LINE
  8
_0-1_LAYER002
  6
CONTINUOUS
 62
    7
 10
1626.1331703033948
 20
975.34265744016716
 11
1650.6482000000001
 21
910.71280000000002
  0
LINE
  8
_0-1_LAYER002
  6
CONTINUOUS
 62
    7
 10
1654.5169999999998
 20
908.97170000000006
 11
1630.0021402066745
 21
973.60162494721919
  0
LINE
  8
_0-1_LAYER002
  6
CONTINUOUS
 62
    7
 10
1270.0616
 20
976.82709999999997
 11
1244.9836
 21
910.71280000000002
  0
LINE
  8
_0-1_LAYER002
  6
CONTINUOUS
 62
    7
 10
1241.1148193895317
 20
908.97175111793376
 11
1266.1926000000001
 21
975.08600000000001
  0
LINE
  8
_0-1_LAYER002
  6
CONTINUOUS
 62
    7
 10
986.0148999999999
 20
670.81130000000007
 11
1447.8158827580526
 21
877.39015409576393
  0
LINE
  8
_0-1_LAYER002
  6
CONTINUOUS
 62
    7
 10
1447.8158827580526
 20
877.39015409576393
 11
1906.8809999999999
 21
670.81130000000007
  0
ARC
  8
_0-1_LAYER002
  6
CONTINUOUS
 62
    7
 10
1385.4111368889314
 20
1198.4163683736513
 40
15.134486600133625
 50
322.12501634890202
 51
15.255118703057688
  0
ARC
  8
_0-1_LAYER002
  6
CONTINUOUS
 62
    7
 10
1366.8277849118929
 20
1158.5948998514257
 40
12.899837074177467
 50
337.83365417791754
 51
30.963756532073702
  0
ARC
  8
_0-1_LAYER002
  6
CONTINUOUS
 62
    7
 10
1261.5054270761698
 20
1101.3755402599506
 40
98.134537439374043
 50
335.01549697865312
 51
14.176920300847417
  0
ARC
  8
_0-1_LAYER002
  6
CONTINUOUS
 62
    7
 10
1507.4848631110683
 20
1198.4163683736513
 40
15.134486600133625
 50
164.74488129694231
 51
217.87498365109795
  0
ARC
  8
_0-1_LAYER002
  6
CONTINUOUS
 62
    7
 10
1526.0682150881071
 20
1158.5948998514257
 40
12.899837074177467
 50
149.03624346792631
 51
202.16634582208246
  0
ARC
  8
_0-1_LAYER002
  6
CONTINUOUS
 62
    7
 10
1631.39057292383
 20
1101.3755402599506
 40
98.134537439374043
 50
165.82307969915257
 51
204.98450302134685
  0
TEXT
  8
_0-0_LAYER001
 62
    7
 10
1675.9402
 20
746.95109999999988
 40
20
 41
1
 50
-20.082497999999898
  1
梁天端Ｌ
  0
TEXT
  8
_0-0_LAYER001
 62
    7
 10
1525.2859999999998
 20
1326.6833999999999
 40
20
 41
1
 50
0
  1
冠　瓦
  0
TEXT
  8
_0-0_LAYER001
 62
    7
 10
1542.3738000000001
 20
1284.1093000000001
 40
20
 41
1
 50
0
  1
熨斗瓦３段積み
  0
TEXT
  8
_0-0_LAYER001
 62
    7
 10
1227.953
 20
1289.5322000000001
 40
20
 41
1
 50
0
  1
葺　土　
  0
TEXT
  8
_0-0_LAYER001
 62
    7
 10
1474.9186999999997
 20
1369.0996999999998
 40
20
 41
1
 50
0
  1
　パッキンステンレスネジ
  0
TEXT
  8
_0-0_LAYER001
 62
    7
 10
1253.0811921994482
 20
1438.3179683053668
 40
20
 41
1
 50
0
  1
芯木40x30以上
  0
TEXT
  8
_0-0_LAYER001
 62
    7
 10
1250.0791359505874
 20
1393.2871245724532
 40
20
 41
1
 50
0
  1
棟補強金物
  0
TEXT
  8
_0-0_LAYER001
 62
    7
 10
1272.4137000000001
 20
1332.6429000000003
 40
20
 41
1
 50
0
  1
銅線0.9mm
  0
TEXT
  8
_0-0_LAYER001
 62
    7
 10
1200.0200778799031
 20
1236.0255330890868
 40
20
 41
1
 50
19.940916999999981
  1
295
  0
TEXT
  8
_0-0_LAYER001
 62
    7
 10
963.74603131469712
 20
1123.6404997041388
 40
20
 41
1
 50
19.940916999999988
  1
225
  0
TEXT
  8
_0-0_LAYER001
 62
    7
 10
1760.4286982569406
 20
1276.2069308668783
 40
20
 41
1
 50
0
  1
　瓦桟：１５ｘ３０以上
  0
TEXT
  8
_0-0_LAYER001
 62
    7
 10
1773.9379513768145
 20
1247.6873965026998
 40
20
 41
1
 50
0
  1
下葺材：ルーフィング
  0
TEXT
  8
_0-0_LAYER001
 62
    7
 10
1766.4328107546623
 20
1217.6668340140907
 40
20
 41
1
 50
0
  1
　野地板：ALCパネルt＝50
  0
TEXT
  8
_0-0_LAYER001
 62
    7
 10
1728.9071076439013
 20
1184.6442152766208
 40
20
 41
1
 50
0
  1
　　鋼製：C－100x50x⑳x2.3　
  0
LINE
  8
_0-0_LAYER001
  6
CONTINUOUS
 62
    2
 10
1766.3616999999999
 20
1241.4751000000001
 11
1948.0572138107468
 21
1241.4751000000001
  0
LINE
  8
_0-0_LAYER001
  6
CONTINUOUS
 62
    7
 10
1766.3616999999999
 20
1241.4751000000001
 11
1984.0818887970777
 21
1241.4751000000001
  0
LINE
  8
_0-0_LAYER001
  6
CONTINUOUS
 62
    2
 10
1750.5590999999999
 20
1181.5132000000001
 11
2006.5973106635342
 21
1181.5132000000001
  0
LINE
  8
_0-0_LAYER001
  6
CONTINUOUS
 62
    7
 10
1750.5590999999999
 20
1181.5132000000001
 11
1999.0921700413821
 21
1181.5132000000001
  0
LINE
  8
_0-0_LAYER001
  6
CONTINUOUS
 62
    2
 10
1474.9187000000002
 20
1366.5996999999998
 11
1722.9029951461791
 21
1366.5996999999998
  0
LINE
  8
_0-0_LAYER001
  6
CONTINUOUS
 62
    7
 10
1474.9187000000002
 20
1366.5996999999998
 11
1721.4019670217488
 21
1366.5996999999998
  0
LINE
  8
_0-0_LAYER001
  6
CONTINUOUS
 62
    2
 10
1542.3737999999998
 20
1281.6093000000001
 11
1677.8721514132658
 21
1281.6093000000001
  0
LINE
  8
_0-0_LAYER001
  6
CONTINUOUS
 62
    7
 10
1542.3737999999998
 20
1281.6093000000001
 11
1688.3793482842791
 21
1281.6093000000001
  0
LINE
  8
_0-0_LAYER001
  6
CONTINUOUS
 62
    2
 10
1525.2860000000001
 20
1324.1833999999999
 11
1581.8063514497169
 21
1324.1833999999999
  0
LINE
  8
_0-0_LAYER001
  6
CONTINUOUS
 62
    7
 10
1525.2860000000001
 20
1324.1833999999999
 11
1581.8063514497169
 21
1324.1833999999999
  0
LINE
  8
_0-0_LAYER001
  6
CONTINUOUS
 62
    2
 10
1182.4548
 20
1104.4972
 11
1125.49380162286
 21
1104.4972
  0
LINE
  8
_0-0_LAYER001
  6
CONTINUOUS
 62
    7
 10
1125.49380162286
 20
1104.4972
 11
1182.4548
 21
1104.4972
  0
TEXT
  8
_0-0_LAYER001
 62
    7
 10
1128.495857871721
 20
1112.5948653039591
 40
20
 41
1
 50
0
  1
桟　瓦
  0
ENDSEC
  0
EOF
