  0
SECTION
  2
HEADER
  9
$ACADVER
  1
AC1009
  9
$INSBASE
 10
0
 20
0
 30
0
  9
$EXTMIN
 10
0
 20
0
  9
$EXTMAX
 10
2970
 20
2100
  9
$LIMMIN
 10
0
 20
0
  9
$LIMMAX
 10
2970
 20
2100
  9
$LTSCALE
 40
10
  0
ENDSEC
  0
SECTION
  2
TABLES
  0
TABLE
  2
LTYPE
 70
     9
  0
LTYPE
  2
CONTINUOUS
 70
    64
  3
実線
 72
    65
 73
     0
 40
0.0
  0
LTYPE
  2
DASHED1
 70
    64
  3
--  --  --  --  --  --  --  --  
 72
    65
 73
     2
 40
2.5
 49
1.25
 49
-1.25
  0
LTYPE
  2
DASHED2
 70
    64
  3
----    ----    ----    ----    
 72
    65
 73
     2
 40
5.0
 49
2.5
 49
-2.5
  0
LTYPE
  2
DASHED3
 70
    64
  3
------  ------  ------  ------  
 72
    65
 73
     2
 40
5.0
 49
3.75
 49
-1.25
  0
LTYPE
  2
CENTER1
 70
    64
  3
----- - ----- - ----- - ----- - 
 72
    65
 73
     4
 40
10.0
 49
6.25
 49
-1.25
 49
1.25
 49
-1.25
  0
LTYPE
  2
CENTER2
 70
    64
  3
----------  --  ----------  --  
 72
    65
 73
     4
 40
20.0
 49
12.5
 49
-2.5
 49
2.5
 49
-2.5
  0
LTYPE
  2
PHANTOM1
 70
    64
  3
--- - - --- - - --- - - --- - - 
 72
    65
 73
     6
 40
10.0
 49
3.25
 49
-1.25
 49
1.25
 49
-1.25
 49
1.25
 49
-1.25
  0
LTYPE
  2
PHANTOM2
 70
    64
  3
--------  -  -  --------  -  -  
 72
    65
 73
     6
 40
20.0
 49
10.0
 49
-2.5
 49
1.25
 49
-2.5
 49
1.25
 49
-2.5
  0
LTYPE
  2
DOT
 70
    64
  3
-   -   -   -   -   -   -   -   
 72
    65
 73
     2
 40
2.5
 49
0.625
 49
-1.875
  0
LTYPE
  2
DUMMY
 70
    64
  3
ダミー
 72
    65
 73
     0
 40
0.0
  0
LTYPE
  2
RAND1
 70
    64
  3
ランダム線1
 72
    65
 73
     4
 40
10.0
 49
1.0
 49
-2.0
 49
3.0
 49
-4.0
  0
LTYPE
  2
RAND2
 70
    64
  3
ランダム線2
 72
    65
 73
     4
 40
14.0
 49
2.0
 49
-3.0
 49
4.0
 49
-5.0
  0
LTYPE
  2
RAND3
 70
    64
  3
ランダム線3
 72
    65
 73
     4
 40
18.0
 49
3.0
 49
-4.0
 49
5.0
 49
-6.0
  0
LTYPE
  2
RAND4
 70
    64
  3
ランダム線4
 72
    65
 73
     4
 40
22.0
 49
4.0
 49
-5.0
 49
6.0
 49
-7.0
  0
LTYPE
  2
RAND5
 70
    64
  3
ランダム線5
 72
    65
 73
     4
 40
26.0
 49
5.0
 49
-6.0
 49
7.0
 49
-8.0
  0
LTYPE
  2
LONG1
 70
    64
  3
----------  --  ----------  --  
 72
    65
 73
     4
 40
40.0
 49
32.5
 49
-2.5
 49
2.5
 49
-2.5
  0
LTYPE
  2
LONG2
 70
    64
  3
--------  -  -  --------  -  -  
 72
    65
 73
     6
 40
40.0
 49
30.0
 49
-2.5
 49
1.25
 49
-2.5
 49
1.25
 49
-2.5
  0
LTYPE
  2
LONG3
 70
    64
  3
+++++++++++++++..+++++++++++++++
 72
    65
 73
     2
 40
40.0
 49
37.5
 49
-2.5
  0
LTYPE
  2
LONG4
 70
    64
  3
+++++++++++++++..+++++++++++++++
 72
    65
 73
     2
 40
80.0
 49
75.0
 49
-5.0
  0
LTYPE
  2
LONG5
 70
    64
  3
----------  --  ----------  --  
 72
    65
 73
     4
 40
60.0
 49
37.5
 49
-7.5
 49
7.5
 49
-7.5
  0
LTYPE
  2
dashed
 70
   64
  3
-------   -------------   ------
 72
   65
 73
    2
 40
7.5
 49
6
 49
-1.5
  0
LTYPE
  2
dashed_spaced
 70
   64
  3
----        --------        ----
 72
   65
 73
    2
 40
12
 49
6
 49
-6
  0
LTYPE
  2
long_dashed_dotted
 70
   64
  3
------------- --- --------------
 72
   65
 73
    4
 40
15.25
 49
12
 49
-1.5
 49
0.25
 49
-1.5
  0
LTYPE
  2
long_dashed_double-dotted
 70
   64
  3
----------- --- --- ------------
 72
   65
 73
    6
 40
17
 49
12
 49
-1.5
 49
0.25
 49
-1.5
 49
0.25
 49
-1.5
  0
LTYPE
  2
long_dashed_triplicate-dotted
 70
   64
  3
--------- --- --- --- ----------
 72
   65
 73
    8
 40
18.75
 49
12
 49
-1.5
 49
0.25
 49
-1.5
 49
0.25
 49
-1.5
 49
0.25
 49
-1.5
  0
LTYPE
  2
dotted
 70
   64
  3
   -       -       -       -    
 72
   65
 73
    2
 40
1.75
 49
0.25
 49
-1.5
  0
LTYPE
  2
chain
 70
   64
  3
-------------- -- --------------
 72
   65
 73
    4
 40
18.5
 49
12
 49
-1.5
 49
3.5
 49
-1.5
  0
LTYPE
  2
chain_double_dash
 70
   64
  3
------------ -- -- -------------
 72
   65
 73
    6
 40
23.5
 49
12
 49
-1.5
 49
3.5
 49
-1.5
 49
3.5
 49
-1.5
  0
LTYPE
  2
dashed_dotted
 70
   64
  3
-----------     -     ----------
 72
   65
 73
    4
 40
9.25
 49
6
 49
-1.5
 49
0.25
 49
-1.5
  0
LTYPE
  2
double-dashed_dotted
 70
   64
  3
------   -----------   -   -----
 72
   65
 73
    6
 40
16.75
 49
6
 49
-1.5
 49
6
 49
-1.5
 49
0.25
 49
-1.5
  0
LTYPE
  2
dashed_double-dotted
 70
   64
  3
---------    -    -    ---------
 72
   65
 73
    6
 40
11
 49
6
 49
-1.5
 49
0.25
 49
-1.5
 49
0.25
 49
-1.5
  0
LTYPE
  2
double-dashed_double-dotted
 70
   64
  3
-----   ---------   -   -   ----
 72
   65
 73
    8
 40
18.5
 49
6
 49
-1.5
 49
6
 49
-1.5
 49
0.25
 49
-1.5
 49
0.25
 49
-1.5
  0
LTYPE
  2
dashed_triplicate-dotted
 70
   64
  3
-------    -    -    -    ------
 72
   65
 73
    8
 40
12.75
 49
6
 49
-1.5
 49
0.25
 49
-1.5
 49
0.25
 49
-1.5
 49
0.25
 49
-1.5
  0
LTYPE
  2
double-dashed_triplicate-dotted
 70
   64
  3
-----  ---------  -  -  -  -----
 72
   65
 73
   10
 40
20.25
 49
6
 49
-1.5
 49
6
 49
-1.5
 49
0.25
 49
-1.5
 49
0.25
 49
-1.5
 49
0.25
 49
-1.5
  0
LTYPE
  2
undefined
 70
   64
  3
--------------------------------
 72
   65
 73
    0
 40
0
  0
ENDTAB
  0
TABLE
  2
STYLE
  5
3
100
AcDbSymbolTable
 70
     1
  0
STYLE
  5
10
100
AcDbSymbolTableRecord
100
AcDbTextStyleTableRecord
  2
STANDARD
 70
     0
 40
0.0
 41
1.0
 50
0.0
 71
     0
 42
0.2
  3
txt
  4
bigfont.shx
  0
STYLE
  5
26
100
AcDbSymbolTableRecord
100
AcDbTextStyleTableRecord
  2
TATEGAKI
 70
    68
 40
0.0
 41
1.0
 50
0.0
 71
     0
 42
1.0
  3
txt
  4
bigfont.shx
  0
ENDTAB
  0
TABLE
  2
LAYER
 70
    3
  0
LAYER
  2
_0-0_LAYER001
 70
   64
 62
    7
  6
CONTINUOUS
  0
LAYER
  2
_0-1_LAYER003
 70
   64
 62
    7
  6
CONTINUOUS
  0
LAYER
  2
ADD_LINE
 70
   64
 62
    7
  6
CONTINUOUS
  0
ENDTAB
  0
ENDSEC
  0
SECTION
  2
BLOCKS
  0
ENDSEC
  0
SECTION
  2
ENTITIES
  0
LINE
  8
_0-0_LAYER001
  6
DASHED3
 62
    2
 10
1783.9007999999999
 20
1034.2974999999999
 11
1241.702
 21
790.30860000000007
  0
LINE
  8
_0-0_LAYER001
  6
CONTINUOUS
 62
    2
 10
1775.6417000000001
 20
1028.3878
 11
1242.5227
 21
788.48469999999998
  0
LINE
  8
_0-0_LAYER001
  6
CONTINUOUS
 62
    2
 10
1785.9007999999999
 20
1005.5897
 11
1885.9007999999999
 21
1005.5897
  0
LINE
  8
_0-0_LAYER001
  6
CONTINUOUS
 62
    2
 10
1692.3465999999999
 20
1340.654
 11
1692.3465999999999
 21
1313.154
  0
CIRCLE
  8
_0-0_LAYER001
  6
CONTINUOUS
 62
    2
 10
1692.3465999999999
 20
1338.154
 40
1.6999999999999997
  0
LINE
  8
_0-0_LAYER001
  6
CONTINUOUS
 62
    2
 10
1692.3465999999999
 20
1338.154
 11
1783.9007999999999
 21
1338.154
  0
CIRCLE
  8
_0-0_LAYER001
  6
CONTINUOUS
 62
    2
 10
1783.9007999999999
 20
1338.154
 40
1.6999999999999997
  0
LINE
  8
_0-0_LAYER001
  6
CONTINUOUS
 62
    2
 10
1783.9007999999999
 20
1340.654
 11
1783.9007999999999
 21
1313.154
  0
LINE
  8
_0-0_LAYER001
  6
CONTINUOUS
 62
    2
 10
1713.1678999999999
 20
1189.1856
 11
1713.1678999999999
 21
1181.6856
  0
LINE
  8
_0-0_LAYER001
  6
CONTINUOUS
 62
    2
 10
1713.1678999999999
 20
1181.6856
 11
1709.4178999999999
 21
1188.1808000000001
  0
LINE
  8
_0-0_LAYER001
  6
CONTINUOUS
 62
    2
 10
1713.1678999999999
 20
1181.6856
 11
1672.2130999999999
 21
1334.5309
  0
LINE
  8
_0-0_LAYER001
  6
CONTINUOUS
 62
    2
 10
1780.7685000000001
 20
1159.329
 11
1775.4652000000001
 21
1154.0256999999999
  0
LINE
  8
_0-0_LAYER001
  6
CONTINUOUS
 62
    2
 10
1775.4652000000001
 20
1154.0256999999999
 11
1777.4063999999998
 21
1161.2701
  0
LINE
  8
_0-0_LAYER001
  6
CONTINUOUS
 62
    2
 10
1775.4652000000001
 20
1154.0256999999999
 11
1878.7417
 21
1332.9057
  0
LINE
  8
_0-0_LAYER001
  6
CONTINUOUS
 62
    2
 10
1878.7417
 20
1332.9057
 11
2009.2417
 21
1332.9057
  0
LINE
  8
_0-0_LAYER001
  6
CONTINUOUS
 62
    2
 10
1900.9007999999999
 20
1318.0045999999998
 11
1900.9007999999999
 21
706.87779999999998
  0
LINE
  8
_0-0_LAYER001
  6
CONTINUOUS
 62
    2
 10
1983.5722000000001
 20
1185.2094999999999
 11
1931.0722000000001
 21
1185.2094999999999
  0
CIRCLE
  8
_0-0_LAYER001
  6
CONTINUOUS
 62
    2
 10
1981.0722000000001
 20
1185.2094999999999
 40
1.6999999999999997
  0
LINE
  8
_0-0_LAYER001
  6
CONTINUOUS
 62
    2
 10
1981.0722000000001
 20
1185.2094999999999
 11
1981.0722000000001
 21
1034.2974999999999
  0
CIRCLE
  8
_0-0_LAYER001
  6
CONTINUOUS
 62
    2
 10
1981.0722000000001
 20
1034.2974999999999
 40
1.6999999999999997
  0
LINE
  8
_0-0_LAYER001
  6
CONTINUOUS
 62
    2
 10
1983.5722000000001
 20
1034.2974999999999
 11
1931.0722000000001
 21
1034.2974999999999
  0
LINE
  8
_0-0_LAYER001
  6
CONTINUOUS
 62
    1
 10
1783.8490000000002
 20
1010.1494
 11
1250.73
 21
770.24630000000002
  0
LINE
  8
_0-0_LAYER001
  6
CONTINUOUS
 62
    1
 10
1781.7972
 20
1014.7090000000001
 11
1248.6782000000001
 21
774.80590000000007
  0
LINE
  8
_0-0_LAYER001
  6
CONTINUOUS
 62
    1
 10
1779.7453
 20
1019.2686000000001
 11
1246.6262999999999
 21
779.36550000000011
  0
LINE
  8
_0-0_LAYER001
  6
CONTINUOUS
 62
    1
 10
1777.6934999999999
 20
1023.8281999999999
 11
1244.5744999999999
 21
783.92509999999993
  0
CIRCLE
  8
_0-0_LAYER001
  6
CONTINUOUS
 62
    2
 10
1743.1271999999999
 20
1137.1498999999999
 40
0.8999999999999999
  0
CIRCLE
  8
_0-0_LAYER001
  6
CONTINUOUS
 62
    2
 10
1745.5227
 20
1125.5717999999999
 40
0.8999999999999999
  0
CIRCLE
  8
_0-0_LAYER001
  6
CONTINUOUS
 62
    2
 10
1719.971
 20
1075.2669000000001
 40
0.8999999999999999
  0
CIRCLE
  8
_0-0_LAYER001
  6
CONTINUOUS
 62
    2
 10
1721.5679
 20
1059.2971
 40
0.8999999999999999
  0
CIRCLE
  8
_0-0_LAYER001
  6
CONTINUOUS
 62
    2
 10
1730.7505999999998
 20
1058.0994000000001
 40
0.8999999999999999
  0
CIRCLE
  8
_0-0_LAYER001
  6
CONTINUOUS
 62
    2
 10
1711.9861000000001
 20
1053.7076999999999
 40
0.8999999999999999
  0
CIRCLE
  8
_0-0_LAYER001
  6
CONTINUOUS
 62
    2
 10
1711.5868
 20
1068.8789999999999
 40
0.8999999999999999
  0
CIRCLE
  8
_0-0_LAYER001
  6
CONTINUOUS
 62
    2
 10
1686.8335999999999
 20
1044.9242999999999
 40
0.8999999999999999
  0
CIRCLE
  8
_0-0_LAYER001
  6
CONTINUOUS
 62
    2
 10
1676.8525
 20
1038.1370999999999
 40
0.8999999999999999
  0
CIRCLE
  8
_0-0_LAYER001
  6
CONTINUOUS
 62
    2
 10
1676.0540000000001
 20
1048.9167
 40
0.8999999999999999
  0
CIRCLE
  8
_0-0_LAYER001
  6
CONTINUOUS
 62
    2
 10
1680.4457000000002
 20
1069.2782
 40
0.8999999999999999
  0
CIRCLE
  8
_0-0_LAYER001
  6
CONTINUOUS
 62
    2
 10
1684.0389
 20
1092.8336999999999
 40
0.8999999999999999
  0
CIRCLE
  8
_0-0_LAYER001
  6
CONTINUOUS
 62
    2
 10
1696.4155000000001
 20
1097.6246000000001
 40
0.8999999999999999
  0
CIRCLE
  8
_0-0_LAYER001
  6
CONTINUOUS
 62
    2
 10
1741.9294
 20
1074.0691999999999
 40
0.8999999999999999
  0
CIRCLE
  8
_0-0_LAYER001
  6
CONTINUOUS
 62
    2
 10
1751.1120999999998
 20
1086.845
 40
0.8999999999999999
  0
CIRCLE
  8
_0-0_LAYER001
  6
CONTINUOUS
 62
    2
 10
1754.7053000000001
 20
1097.6246000000001
 40
0.8999999999999999
  0
CIRCLE
  8
_0-0_LAYER001
  6
CONTINUOUS
 62
    2
 10
1755.1044999999999
 20
1059.6963000000001
 40
0.8999999999999999
  0
CIRCLE
  8
_0-0_LAYER001
  6
CONTINUOUS
 62
    2
 10
1743.1271999999999
 20
1115.5907
 40
0.8999999999999999
  0
LINE
  8
_0-0_LAYER001
  6
CONTINUOUS
 62
    2
 10
1744.7375999999999
 20
1021.0604000000001
 11
1772.0952000000002
 21
1033.3714
  0
LINE
  8
_0-0_LAYER001
  6
CONTINUOUS
 62
    2
 10
1765.9396999999999
 20
1047.0501999999999
 11
1738.5821000000001
 21
1034.7393
  0
LINE
  8
_0-0_LAYER001
  6
CONTINUOUS
 62
    2
 10
1772.0952000000002
 20
1033.3714
 11
1765.9396999999999
 21
1047.0501999999999
  0
LINE
  8
_0-0_LAYER001
  6
CONTINUOUS
 62
    2
 10
1738.5821000000001
 20
1034.7393
 11
1744.7375999999999
 21
1021.0604000000001
  0
LINE
  8
_0-0_LAYER001
  6
CONTINUOUS
 62
    2
 10
1765.9396999999999
 20
1047.0501999999999
 11
1744.7375999999999
 21
1021.0604000000001
  0
LINE
  8
_0-0_LAYER001
  6
CONTINUOUS
 62
    2
 10
1539.0599999999999
 20
928.50540000000001
 11
1566.4072000000001
 21
940.83940000000007
  0
LINE
  8
_0-0_LAYER001
  6
CONTINUOUS
 62
    2
 10
1560.2402000000002
 20
954.51299999999992
 11
1532.893
 21
942.17900000000009
  0
LINE
  8
_0-0_LAYER001
  6
CONTINUOUS
 62
    2
 10
1566.4072000000001
 20
940.83940000000007
 11
1560.2402000000002
 21
954.51299999999992
  0
LINE
  8
_0-0_LAYER001
  6
CONTINUOUS
 62
    2
 10
1532.893
 20
942.17900000000009
 11
1539.0599999999999
 21
928.50540000000001
  0
LINE
  8
_0-0_LAYER001
  6
CONTINUOUS
 62
    2
 10
1560.2402000000002
 20
954.51299999999992
 11
1539.0599999999999
 21
928.50540000000001
  0
LINE
  8
_0-0_LAYER001
  6
CONTINUOUS
 62
    2
 10
1333.2925
 20
835.91000000000008
 11
1360.6502
 21
848.22090000000003
  0
LINE
  8
_0-0_LAYER001
  6
CONTINUOUS
 62
    2
 10
1354.4947
 20
861.89969999999994
 11
1327.1370999999999
 21
849.58879999999999
  0
LINE
  8
_0-0_LAYER001
  6
CONTINUOUS
 62
    2
 10
1360.6502
 20
848.22090000000003
 11
1354.4947
 21
861.89969999999994
  0
LINE
  8
_0-0_LAYER001
  6
CONTINUOUS
 62
    2
 10
1327.1370999999999
 20
849.58879999999999
 11
1333.2925
 21
835.91000000000008
  0
LINE
  8
_0-0_LAYER001
  6
CONTINUOUS
 62
    2
 10
1354.4947
 20
861.89969999999994
 11
1333.2925
 21
835.91000000000008
  0
LINE
  8
_0-0_LAYER001
  6
CONTINUOUS
 62
    4
 10
1767.1446000000001
 20
1048.4073000000001
 11
1771.2372
 21
1037.1267
  0
LINE
  8
_0-0_LAYER001
  6
CONTINUOUS
 62
    4
 10
1501.8942999999999
 20
970.25800000000004
 11
1769.8071
 21
1067.4575
  0
LINE
  8
_0-0_LAYER001
  6
CONTINUOUS
 62
    4
 10
1485.2406000000001
 20
1016.1610000000001
 11
1753.1534000000001
 21
1113.3605
  0
ARC
  8
_0-0_LAYER001
  6
CONTINUOUS
 62
    4
 10
1299.5925999999999
 20
868.14030000000002
 40
10
 50
109.94091000000002
 51
199.94091
  0
ARC
  8
_0-0_LAYER001
  6
CONTINUOUS
 62
    4
 10
1505.3047999999999
 20
960.85750000000007
 40
10
 50
109.94091000000002
 51
199.94091
  0
LINE
  8
_0-0_LAYER001
  6
CONTINUOUS
 62
    4
 10
1771.2372
 20
1037.1267
 11
1779.6976
 21
1040.1962000000001
  0
LINE
  8
_0-0_LAYER001
  6
CONTINUOUS
 62
    4
 10
1753.1534000000001
 20
1113.3605
 11
1779.6976
 21
1040.1962000000001
  0
LINE
  8
_0-0_LAYER001
  6
CONTINUOUS
 62
    4
 10
1301.98
 20
861.55999999999995
 11
1561.4322999999999
 21
955.69000000000005
  0
LINE
  8
_0-0_LAYER001
  6
CONTINUOUS
 62
    4
 10
1561.4322999999999
 20
955.69000000000005
 11
1565.5250000000001
 21
944.40949999999998
  0
LINE
  8
_0-0_LAYER001
  6
CONTINUOUS
 62
    4
 10
1565.5250000000001
 20
944.40949999999998
 11
1573.9854
 21
947.47900000000004
  0
LINE
  8
_0-0_LAYER001
  6
CONTINUOUS
 62
    4
 10
1368.2732000000001
 20
854.76170000000002
 11
1359.8127999999999
 21
851.69229999999993
  0
LINE
  8
_0-0_LAYER001
  6
CONTINUOUS
 62
    4
 10
1252.0281
 20
825.35300000000007
 11
1355.7201
 21
862.97280000000001
  0
LINE
  8
_0-0_LAYER001
  6
CONTINUOUS
 62
    4
 10
1355.7201
 20
862.97280000000001
 11
1359.8127999999999
 21
851.69229999999993
  0
LINE
  8
_0-0_LAYER001
  6
CONTINUOUS
 62
    4
 10
1230.0089
 20
887.39370000000008
 11
1275.9258
 21
904.05250000000001
  0
ARC
  8
_0-0_LAYER001
  6
CONTINUOUS
 62
    4
 10
1282.9389000000001
 20
914.04330000000004
 40
10
 50
109.94091000000002
 51
199.94091
  0
LINE
  8
_0-0_LAYER001
  6
CONTINUOUS
 62
    4
 10
1273.5383999999999
 20
910.63280000000009
 11
1292.5794999999998
 21
858.14949999999999
  0
LINE
  8
_0-0_LAYER001
  6
CONTINUOUS
 62
    4
 10
1273.5383999999999
 20
910.63280000000009
 11
1292.5794999999998
 21
858.14949999999999
  0
LINE
  8
_0-0_LAYER001
  6
CONTINUOUS
 62
    4
 10
1246.3418999999999
 20
841.37429999999995
 11
1358.3827000000001
 21
882.02299999999991
  0
LINE
  8
_0-0_LAYER001
  6
CONTINUOUS
 62
    4
 10
1358.3827000000001
 20
882.02299999999991
 11
1368.2732000000001
 21
854.76170000000002
  0
LINE
  8
_0-0_LAYER001
  6
CONTINUOUS
 62
    4
 10
1279.5283999999999
 20
923.44380000000001
 11
1481.6379999999999
 21
996.76970000000006
  0
LINE
  8
_0-0_LAYER001
  6
CONTINUOUS
 62
    4
 10
1485.0484999999999
 20
987.36930000000007
 11
1498.2917000000002
 21
950.86670000000004
  0
LINE
  8
_0-0_LAYER001
  6
CONTINUOUS
 62
    4
 10
1564.0949000000001
 20
974.74029999999993
 11
1573.9854
 21
947.47900000000004
  0
LINE
  8
_0-0_LAYER001
  6
CONTINUOUS
 62
    4
 10
1296.1821
 20
877.54079999999999
 11
1767.1446000000001
 21
1048.4073000000001
  0
LINE
  8
_0-0_LAYER001
  6
CONTINUOUS
 62
    4
 10
1479.2505999999998
 20
1003.3499999999999
 11
1498.2917000000002
 21
950.86670000000004
  0
ARC
  8
_0-0_LAYER001
  6
CONTINUOUS
 62
    4
 10
1488.6511
 20
1006.7605000000001
 40
10
 50
109.94091000000002
 51
199.94091
  0
LINE
  8
_0-0_LAYER001
  6
CONTINUOUS
 62
    3
 10
1751.1619999999998
 20
1168.1102000000001
 11
1751.1947
 21
1167.6456000000001
  0
LINE
  8
_0-0_LAYER001
  6
CONTINUOUS
 62
    3
 10
1751.1947
 20
1167.6456000000001
 11
1751.2837
 21
1166.3843999999999
  0
LINE
  8
_0-0_LAYER001
  6
CONTINUOUS
 62
    3
 10
1751.2837
 20
1166.3843999999999
 11
1751.4146999999998
 21
1164.5259000000001
  0
LINE
  8
_0-0_LAYER001
  6
CONTINUOUS
 62
    3
 10
1751.4146999999998
 20
1164.5259000000001
 11
1751.5738999999999
 21
1162.2692
  0
LINE
  8
_0-0_LAYER001
  6
CONTINUOUS
 62
    3
 10
1751.5738999999999
 20
1162.2692
 11
1751.7471
 21
1159.8133
  0
LINE
  8
_0-0_LAYER001
  6
CONTINUOUS
 62
    3
 10
1751.7471
 20
1159.8133
 11
1751.9203000000002
 21
1157.3574000000001
  0
LINE
  8
_0-0_LAYER001
  6
CONTINUOUS
 62
    3
 10
1751.9203000000002
 20
1157.3574000000001
 11
1752.0794000000001
 21
1155.1007
  0
LINE
  8
_0-0_LAYER001
  6
CONTINUOUS
 62
    3
 10
1752.0794000000001
 20
1155.1007
 11
1752.2105000000001
 21
1153.2421999999999
  0
LINE
  8
_0-0_LAYER001
  6
CONTINUOUS
 62
    3
 10
1752.2105000000001
 20
1153.2421999999999
 11
1752.2993999999999
 21
1151.981
  0
LINE
  8
_0-0_LAYER001
  6
CONTINUOUS
 62
    3
 10
1752.2993999999999
 20
1151.981
 11
1752.3321999999998
 21
1151.5164
  0
LINE
  8
_0-0_LAYER001
  6
CONTINUOUS
 62
    3
 10
1752.3321999999998
 20
1151.5164
 11
1751.1860999999999
 21
1151.4555
  0
LINE
  8
_0-0_LAYER001
  6
CONTINUOUS
 62
    3
 10
1751.1860999999999
 20
1151.4555
 11
1747.8265999999999
 21
1151.1228000000001
  0
LINE
  8
_0-0_LAYER001
  6
CONTINUOUS
 62
    3
 10
1747.8265999999999
 20
1151.1228000000001
 11
1742.3715000000002
 21
1150.2931000000001
  0
LINE
  8
_0-0_LAYER001
  6
CONTINUOUS
 62
    3
 10
1742.3715000000002
 20
1150.2931000000001
 11
1734.9387000000002
 21
1148.7411999999999
  0
LINE
  8
_0-0_LAYER001
  6
CONTINUOUS
 62
    3
 10
1734.9387000000002
 20
1148.7411999999999
 11
1725.6460999999999
 21
1146.2420999999999
  0
LINE
  8
_0-0_LAYER001
  6
CONTINUOUS
 62
    3
 10
1725.6460999999999
 20
1146.2420999999999
 11
1714.6116999999999
 21
1142.5704000000001
  0
LINE
  8
_0-0_LAYER001
  6
CONTINUOUS
 62
    3
 10
1714.6116999999999
 20
1142.5704000000001
 11
1701.9531999999999
 21
1137.5011
  0
LINE
  8
_0-0_LAYER001
  6
CONTINUOUS
 62
    3
 10
1701.9531999999999
 20
1137.5011
 11
1687.7885999999999
 21
1130.8090999999999
  0
LINE
  8
_0-0_LAYER001
  6
CONTINUOUS
 62
    3
 10
1687.7885999999999
 20
1130.8090999999999
 11
1672.2357999999999
 21
1122.2691
  0
LINE
  8
_0-0_LAYER001
  6
CONTINUOUS
 62
    3
 10
1672.2357999999999
 20
1122.2691
 11
1655.4128000000001
 21
1111.6560999999999
  0
LINE
  8
_0-0_LAYER001
  6
CONTINUOUS
 62
    3
 10
1655.4128000000001
 20
1111.6560999999999
 11
1655.3593999999998
 21
1112.4122
  0
LINE
  8
_0-0_LAYER001
  6
CONTINUOUS
 62
    3
 10
1655.3593999999998
 20
1112.4122
 11
1655.2147
 21
1114.4647
  0
LINE
  8
_0-0_LAYER001
  6
CONTINUOUS
 62
    3
 10
1655.2147
 20
1114.4647
 11
1655.0014000000001
 21
1117.4893
  0
LINE
  8
_0-0_LAYER001
  6
CONTINUOUS
 62
    3
 10
1655.0014000000001
 20
1117.4893
 11
1654.7424000000001
 21
1121.1621
  0
LINE
  8
_0-0_LAYER001
  6
CONTINUOUS
 62
    3
 10
1654.7424000000001
 20
1121.1621
 11
1654.4605000000001
 21
1125.1590000000001
  0
LINE
  8
_0-0_LAYER001
  6
CONTINUOUS
 62
    3
 10
1654.4605000000001
 20
1125.1590000000001
 11
1654.1786999999999
 21
1129.1559
  0
LINE
  8
_0-0_LAYER001
  6
CONTINUOUS
 62
    3
 10
1654.1786999999999
 20
1129.1559
 11
1653.9196999999999
 21
1132.8287
  0
LINE
  8
_0-0_LAYER001
  6
CONTINUOUS
 62
    3
 10
1653.9196999999999
 20
1132.8287
 11
1653.7064
 21
1135.8533
  0
LINE
  8
_0-0_LAYER001
  6
CONTINUOUS
 62
    3
 10
1653.7064
 20
1135.8533
 11
1653.5616
 21
1137.9058
  0
LINE
  8
_0-0_LAYER001
  6
CONTINUOUS
 62
    3
 10
1653.5616
 20
1137.9058
 11
1653.5083
 21
1138.6619000000001
  0
LINE
  8
_0-0_LAYER001
  6
CONTINUOUS
 62
    3
 10
1653.5083
 20
1138.6619000000001
 11
1655.1300000000001
 21
1139.3639000000001
  0
LINE
  8
_0-0_LAYER001
  6
CONTINUOUS
 62
    3
 10
1655.1300000000001
 20
1139.3639000000001
 11
1659.7084
 21
1141.2887000000001
  0
LINE
  8
_0-0_LAYER001
  6
CONTINUOUS
 62
    3
 10
1659.7084
 20
1141.2887000000001
 11
1666.8134
 21
1144.1646000000001
  0
LINE
  8
_0-0_LAYER001
  6
CONTINUOUS
 62
    3
 10
1666.8134
 20
1144.1646000000001
 11
1676.0147999999999
 21
1147.72
  0
LINE
  8
_0-0_LAYER001
  6
CONTINUOUS
 62
    3
 10
1676.0147999999999
 20
1147.72
 11
1686.8825999999999
 21
1151.6832999999999
  0
LINE
  8
_0-0_LAYER001
  6
CONTINUOUS
 62
    3
 10
1686.8825999999999
 20
1151.6832999999999
 11
1698.9865
 21
1155.7828999999999
  0
LINE
  8
_0-0_LAYER001
  6
CONTINUOUS
 62
    3
 10
1698.9865
 20
1155.7828999999999
 11
1711.8966
 21
1159.7469000000001
  0
LINE
  8
_0-0_LAYER001
  6
CONTINUOUS
 62
    3
 10
1711.8966
 20
1159.7469000000001
 11
1725.1826000000001
 21
1163.3040000000001
  0
LINE
  8
_0-0_LAYER001
  6
CONTINUOUS
 62
    3
 10
1725.1826000000001
 20
1163.3040000000001
 11
1738.4144000000001
 21
1166.1822999999999
  0
LINE
  8
_0-0_LAYER001
  6
CONTINUOUS
 62
    3
 10
1751.1619999999998
 20
1168.1102000000001
 11
1738.3035
 21
1166.1581000000001
  0
LINE
  8
_0-0_LAYER001
  6
CONTINUOUS
 62
    3
 10
1741.2098999999998
 20
1133.9434000000001
 11
1741.2426
 21
1133.4788000000001
  0
LINE
  8
_0-0_LAYER001
  6
CONTINUOUS
 62
    3
 10
1741.2426
 20
1133.4788000000001
 11
1741.3316
 21
1132.2175999999999
  0
LINE
  8
_0-0_LAYER001
  6
CONTINUOUS
 62
    3
 10
1741.3316
 20
1132.2175999999999
 11
1741.4625999999998
 21
1130.3590999999999
  0
LINE
  8
_0-0_LAYER001
  6
CONTINUOUS
 62
    3
 10
1741.4625999999998
 20
1130.3590999999999
 11
1741.6217999999999
 21
1128.1024
  0
LINE
  8
_0-0_LAYER001
  6
CONTINUOUS
 62
    3
 10
1741.6217999999999
 20
1128.1024
 11
1741.7950000000001
 21
1125.6465000000001
  0
LINE
  8
_0-0_LAYER001
  6
CONTINUOUS
 62
    3
 10
1741.7950000000001
 20
1125.6465000000001
 11
1741.9681999999998
 21
1123.1905999999999
  0
LINE
  8
_0-0_LAYER001
  6
CONTINUOUS
 62
    3
 10
1741.9681999999998
 20
1123.1905999999999
 11
1742.1273000000001
 21
1120.9339
  0
LINE
  8
_0-0_LAYER001
  6
CONTINUOUS
 62
    3
 10
1742.1273000000001
 20
1120.9339
 11
1742.2584000000002
 21
1119.0753999999999
  0
LINE
  8
_0-0_LAYER001
  6
CONTINUOUS
 62
    3
 10
1742.2584000000002
 20
1119.0753999999999
 11
1742.3472999999999
 21
1117.8142
  0
LINE
  8
_0-0_LAYER001
  6
CONTINUOUS
 62
    3
 10
1742.3472999999999
 20
1117.8142
 11
1742.3800999999999
 21
1117.3496
  0
LINE
  8
_0-0_LAYER001
  6
CONTINUOUS
 62
    3
 10
1742.3800999999999
 20
1117.3496
 11
1741.2339999999999
 21
1117.2887000000001
  0
LINE
  8
_0-0_LAYER001
  6
CONTINUOUS
 62
    3
 10
1741.2339999999999
 20
1117.2887000000001
 11
1737.8744999999999
 21
1116.9559999999999
  0
LINE
  8
_0-0_LAYER001
  6
CONTINUOUS
 62
    3
 10
1737.8744999999999
 20
1116.9559999999999
 11
1732.4194000000002
 21
1116.1262999999999
  0
LINE
  8
_0-0_LAYER001
  6
CONTINUOUS
 62
    3
 10
1732.4194000000002
 20
1116.1262999999999
 11
1724.9866000000002
 21
1114.5744
  0
LINE
  8
_0-0_LAYER001
  6
CONTINUOUS
 62
    3
 10
1724.9866000000002
 20
1114.5744
 11
1715.694
 21
1112.0752
  0
LINE
  8
_0-0_LAYER001
  6
CONTINUOUS
 62
    3
 10
1715.694
 20
1112.0752
 11
1704.6596
 21
1108.4036000000001
  0
LINE
  8
_0-0_LAYER001
  6
CONTINUOUS
 62
    3
 10
1704.6596
 20
1108.4036000000001
 11
1692.0011
 21
1103.3343
  0
LINE
  8
_0-0_LAYER001
  6
CONTINUOUS
 62
    3
 10
1692.0011
 20
1103.3343
 11
1677.8364999999999
 21
1096.6423
  0
LINE
  8
_0-0_LAYER001
  6
CONTINUOUS
 62
    3
 10
1677.8364999999999
 20
1096.6423
 11
1662.2837
 21
1088.1023
  0
LINE
  8
_0-0_LAYER001
  6
CONTINUOUS
 62
    3
 10
1662.2837
 20
1088.1023
 11
1645.4607000000001
 21
1077.4892
  0
LINE
  8
_0-0_LAYER001
  6
CONTINUOUS
 62
    3
 10
1645.4607000000001
 20
1077.4892
 11
1645.4072999999999
 21
1078.2454
  0
LINE
  8
_0-0_LAYER001
  6
CONTINUOUS
 62
    3
 10
1645.4072999999999
 20
1078.2454
 11
1645.2626
 21
1080.2979
  0
LINE
  8
_0-0_LAYER001
  6
CONTINUOUS
 62
    3
 10
1645.2626
 20
1080.2979
 11
1645.0493000000001
 21
1083.3225
  0
LINE
  8
_0-0_LAYER001
  6
CONTINUOUS
 62
    3
 10
1645.0493000000001
 20
1083.3225
 11
1644.7903000000001
 21
1086.9953
  0
LINE
  8
_0-0_LAYER001
  6
CONTINUOUS
 62
    3
 10
1644.7903000000001
 20
1086.9953
 11
1644.5084000000002
 21
1090.9921999999999
  0
LINE
  8
_0-0_LAYER001
  6
CONTINUOUS
 62
    3
 10
1644.5084000000002
 20
1090.9921999999999
 11
1644.2266
 21
1094.9891
  0
LINE
  8
_0-0_LAYER001
  6
CONTINUOUS
 62
    3
 10
1644.2266
 20
1094.9891
 11
1643.9675999999999
 21
1098.6619000000001
  0
LINE
  8
_0-0_LAYER001
  6
CONTINUOUS
 62
    3
 10
1643.9675999999999
 20
1098.6619000000001
 11
1643.7543000000001
 21
1101.6865
  0
LINE
  8
_0-0_LAYER001
  6
CONTINUOUS
 62
    3
 10
1643.7543000000001
 20
1101.6865
 11
1643.6095
 21
1103.739
  0
LINE
  8
_0-0_LAYER001
  6
CONTINUOUS
 62
    3
 10
1643.6095
 20
1103.739
 11
1643.5562
 21
1104.4951000000001
  0
LINE
  8
_0-0_LAYER001
  6
CONTINUOUS
 62
    3
 10
1643.5562
 20
1104.4951000000001
 11
1645.1779000000001
 21
1105.1971000000001
  0
LINE
  8
_0-0_LAYER001
  6
CONTINUOUS
 62
    3
 10
1645.1779000000001
 20
1105.1971000000001
 11
1649.7563
 21
1107.1217999999999
  0
LINE
  8
_0-0_LAYER001
  6
CONTINUOUS
 62
    3
 10
1649.7563
 20
1107.1217999999999
 11
1656.8613
 21
1109.9978000000001
  0
LINE
  8
_0-0_LAYER001
  6
CONTINUOUS
 62
    3
 10
1656.8613
 20
1109.9978000000001
 11
1666.0626999999999
 21
1113.5532000000001
  0
LINE
  8
_0-0_LAYER001
  6
CONTINUOUS
 62
    3
 10
1666.0626999999999
 20
1113.5532000000001
 11
1676.9304999999999
 21
1117.5165
  0
LINE
  8
_0-0_LAYER001
  6
CONTINUOUS
 62
    3
 10
1676.9304999999999
 20
1117.5165
 11
1689.0344
 21
1121.616
  0
LINE
  8
_0-0_LAYER001
  6
CONTINUOUS
 62
    3
 10
1689.0344
 20
1121.616
 11
1701.9445000000001
 21
1125.5800999999999
  0
LINE
  8
_0-0_LAYER001
  6
CONTINUOUS
 62
    3
 10
1701.9445000000001
 20
1125.5800999999999
 11
1715.2305000000001
 21
1129.1371999999999
  0
LINE
  8
_0-0_LAYER001
  6
CONTINUOUS
 62
    3
 10
1715.2305000000001
 20
1129.1371999999999
 11
1728.4623000000001
 21
1132.0155
  0
LINE
  8
_0-0_LAYER001
  6
CONTINUOUS
 62
    3
 10
1741.2098999999998
 20
1133.9434000000001
 11
1728.3514
 21
1131.9912999999999
  0
ARC
  8
_0-0_LAYER001
  6
CONTINUOUS
 62
    2
 10
1516.2901000000002
 20
1069.6670999999999
 40
160.10042000000001
 50
346.36619000000002
 51
9.0178680000000355
  0
ARC
  8
_0-0_LAYER001
  6
CONTINUOUS
 62
    2
 10
1643.5286000000001
 20
1123.8959
 40
32.517400000000002
 50
347.60806000000002
 51
0.8169229999999736
  0
LINE
  8
_0-0_LAYER001
  6
CONTINUOUS
 62
    2
 10
1677.4690999999998
 20
1073.8623
 11
1684.7136
 21
1075.8034
  0
LINE
  8
_0-0_LAYER001
  6
CONTINUOUS
 62
    2
 10
1684.7136
 20
1075.8034
 11
1679.4103
 21
1070.5001
  0
LINE
  8
_0-0_LAYER001
  6
CONTINUOUS
 62
    2
 10
1684.7136
 20
1075.8034
 11
1583.6089000000002
 21
1017.4305999999999
  0
CIRCLE
  8
_0-0_LAYER001
  6
CONTINUOUS
 62
    2
 10
1429.2817
 20
1141.0802000000001
 40
1.6999999999999997
  0
LINE
  8
_0-0_LAYER001
  6
CONTINUOUS
 62
    2
 10
1429.2817
 20
1141.0802000000001
 11
1706.5949999999998
 21
1241.6903
  0
CIRCLE
  8
_0-0_LAYER001
  6
CONTINUOUS
 62
    2
 10
1706.5949999999998
 20
1241.6903
 40
1.6999999999999997
  0
LINE
  8
_0-0_LAYER001
  6
CONTINUOUS
 62
    2
 10
1705.7422999999999
 20
1244.0404000000001
 11
1723.6475
 21
1194.6880000000001
  0
CIRCLE
  8
_0-0_LAYER001
  6
CONTINUOUS
 62
    2
 10
1439.7975000000001
 20
1112.0953999999999
 40
1.6999999999999997
  0
LINE
  8
_0-0_LAYER001
  6
CONTINUOUS
 62
    2
 10
1439.7975000000001
 20
1112.0953999999999
 11
1228.2873999999999
 21
1035.3589999999999
  0
CIRCLE
  8
_0-0_LAYER001
  6
CONTINUOUS
 62
    2
 10
1228.2873999999999
 20
1035.3589999999999
 40
1.6999999999999997
  0
LINE
  8
_0-0_LAYER001
  6
CONTINUOUS
 62
    2
 10
1429.2817
 20
1141.0802000000001
 11
1456.8501000000001
 21
1065.0932
  0
LINE
  8
_0-0_LAYER001
  6
CONTINUOUS
 62
    2
 10
1227.4348
 20
1037.7091
 11
1245.3399999999999
 21
988.35670000000005
  0
LINE
  8
_0-0_LAYER001
  6
CONTINUOUS
 62
    2
 10
1651.9227999999998
 20
1108.7773
 11
1651.9227999999998
 21
1101.2773
  0
LINE
  8
_0-0_LAYER001
  6
CONTINUOUS
 62
    2
 10
1651.9227999999998
 20
1101.2773
 11
1648.1727999999998
 21
1107.7725
  0
LINE
  8
_0-0_LAYER001
  6
CONTINUOUS
 62
    2
 10
1651.9227999999998
 20
1101.2773
 11
1600.6124
 21
1292.7703999999999
  0
LINE
  8
_0-0_LAYER001
  6
CONTINUOUS
 62
    2
 10
1457.7725
 20
938.21229999999991
 11
1457.7725
 21
930.71229999999991
  0
LINE
  8
_0-0_LAYER001
  6
CONTINUOUS
 62
    2
 10
1457.7725
 20
930.71229999999991
 11
1454.0225
 21
937.20749999999998
  0
LINE
  8
_0-0_LAYER001
  6
CONTINUOUS
 62
    2
 10
1457.7725
 20
930.71229999999991
 11
1430.2294000000002
 21
1033.5045
  0
LINE
  8
_0-0_LAYER001
  6
CONTINUOUS
 62
    2
 10
1583.6089000000002
 20
1017.4305999999999
 11
1524.4641000000001
 21
1238.1619000000001
  0
LINE
  8
_0-0_LAYER001
  6
CONTINUOUS
 62
    2
 10
1524.4641000000001
 20
1238.1619000000001
 11
1447.6876000000002
 21
1238.1619000000001
  0
LINE
  8
_0-0_LAYER001
  6
CONTINUOUS
 62
    2
 10
1797.3011999999999
 20
1296.9354000000001
 11
1791.9978999999998
 21
1291.6320999999998
  0
LINE
  8
_0-0_LAYER001
  6
CONTINUOUS
 62
    2
 10
1791.9978999999998
 20
1291.6320999999998
 11
1793.9389999999999
 21
1298.8766000000001
  0
LINE
  8
_0-0_LAYER001
  6
CONTINUOUS
 62
    2
 10
1791.9978999999998
 20
1291.6320999999998
 11
1864.451
 21
1417.1246000000001
  0
LINE
  8
_0-0_LAYER001
  6
CONTINUOUS
 62
    2
 10
1749.0654
 20
1182.4938999999999
 11
1749.0654
 21
1174.9938999999999
  0
LINE
  8
_0-0_LAYER001
  6
CONTINUOUS
 62
    2
 10
1749.0654
 20
1174.9938999999999
 11
1745.3154
 21
1181.4891
  0
LINE
  8
_0-0_LAYER001
  6
CONTINUOUS
 62
    2
 10
1749.0654
 20
1174.9938999999999
 11
1696.2716999999998
 21
1372.0224000000003
  0
LINE
  8
_0-0_LAYER001
  6
CONTINUOUS
 62
    2
 10
1696.2716999999998
 20
1372.0224000000003
 11
1549.2716999999998
 21
1372.0224000000003
  0
LINE
  8
_0-0_LAYER001
  6
CONTINUOUS
 62
    2
 10
1634.7302
 20
1193.9350999999999
 11
1662.2302
 21
1193.9350999999999
  0
CIRCLE
  8
_0-0_LAYER001
  6
CONTINUOUS
 62
    2
 10
1637.2302
 20
1193.9350999999999
 40
1.6999999999999997
  0
LINE
  8
_0-0_LAYER001
  6
CONTINUOUS
 62
    2
 10
1637.2302
 20
1193.9350999999999
 11
1637.2302
 21
1283.9350999999999
  0
CIRCLE
  8
_0-0_LAYER001
  6
CONTINUOUS
 62
    2
 10
1637.2302
 20
1283.9350999999999
 40
1.6999999999999997
  0
LINE
  8
_0-0_LAYER001
  6
CONTINUOUS
 62
    2
 10
1634.7302
 20
1283.9350999999999
 11
1662.2302
 21
1283.9350999999999
  0
CIRCLE
  8
_0-0_LAYER001
  6
CONTINUOUS
 62
    2
 10
1637.2302
 20
1283.9350999999999
 40
1.6999999999999997
  0
LINE
  8
_0-0_LAYER001
  6
CONTINUOUS
 62
    2
 10
1637.2302
 20
1283.9350999999999
 11
1637.2302
 21
1298.9350999999999
  0
CIRCLE
  8
_0-0_LAYER001
  6
CONTINUOUS
 62
    2
 10
1637.2302
 20
1298.9350999999999
 40
1.6999999999999997
  0
LINE
  8
_0-0_LAYER001
  6
CONTINUOUS
 62
    2
 10
1634.7302
 20
1298.9350999999999
 11
1662.2302
 21
1298.9350999999999
  0
LINE
  8
_0-0_LAYER001
  6
CONTINUOUS
 62
    2
 10
1744.3825000000002
 20
1168.3431
 11
1744.3825000000002
 21
1149.5241000000001
  0
LINE
  8
_0-0_LAYER001
  6
CONTINUOUS
 62
    2
 10
1744.3825000000002
 20
1168.3431
 11
1761.5585999999998
 21
1168.3431
  0
LINE
  8
_0-0_LAYER001
  6
CONTINUOUS
 62
    2
 10
1735.1224000000002
 20
1135.1858
 11
1735.1224000000002
 21
1115.0226
  0
LINE
  8
_0-0_LAYER001
  6
CONTINUOUS
 62
    2
 10
1735.1224000000002
 20
1115.0226
 11
1742.3800999999999
 21
1117.3496
  0
LINE
  8
_0-0_LAYER001
  6
CONTINUOUS
 62
    2
 10
1742.3800999999999
 20
1117.3496
 11
1762.4546999999998
 21
1139.2184999999999
  0
LINE
  8
_0-0_LAYER001
  6
CONTINUOUS
 62
    2
 10
1735.1224000000002
 20
1135.1858
 11
1758.2727
 21
1142.5043000000001
  0
LINE
  8
_0-0_LAYER001
  6
CONTINUOUS
 62
    2
 10
1758.2727
 20
1142.5043000000001
 11
1762.4546999999998
 21
1139.2184999999999
  0
LINE
  8
_0-0_LAYER001
  6
CONTINUOUS
 62
    2
 10
1863.3391999999999
 20
1167.0646999999999
 11
1858.0358999999999
 21
1161.7614000000001
  0
LINE
  8
_0-0_LAYER001
  6
CONTINUOUS
 62
    2
 10
1858.0358999999999
 20
1161.7614000000001
 11
1859.9769999999999
 21
1169.0059000000001
  0
LINE
  8
_0-0_LAYER001
  6
CONTINUOUS
 62
    2
 10
1858.0358999999999
 20
1161.7614000000001
 11
1919.1981999999998
 21
1267.6977999999999
  0
LINE
  8
_0-0_LAYER001
  6
CONTINUOUS
 62
    2
 10
1919.1981999999998
 20
1267.6977999999999
 11
2104.6559999999999
 21
1267.6977999999999
  0
LINE
  8
_0-0_LAYER001
  6
CONTINUOUS
 62
    2
 10
1697.2680999999998
 20
1161.3973000000001
 11
1785.9007999999999
 21
1177.0255999999999
  0
LINE
  8
_0-0_LAYER001
  6
CONTINUOUS
 62
    2
 10
1694.6635000000001
 20
1176.1694
 11
1783.2961
 21
1191.7977000000001
  0
LINE
  8
_0-0_LAYER001
  6
CONTINUOUS
 62
    2
 10
1694.6635000000001
 20
1176.1694
 11
1697.2680999999998
 21
1161.3973000000001
  0
LINE
  8
_0-0_LAYER001
  6
CONTINUOUS
 62
    2
 10
1783.2961
 20
1191.7977000000001
 11
1785.9007999999999
 21
1177.0255999999999
  0
LINE
  8
_0-0_LAYER001
  6
CONTINUOUS
 62
    2
 10
1785.9007999999999
 20
1177.0255999999999
 11
1694.6635000000001
 21
1176.1694
  0
LINE
  8
_0-0_LAYER001
  6
CONTINUOUS
 62
    2
 10
1692.3465999999999
 20
1177.7916
 11
1694.9512
 21
1163.0195000000001
  0
LINE
  8
_0-0_LAYER001
  6
CONTINUOUS
 62
    2
 10
1833.9007999999999
 20
1157.0255999999999
 11
1828.9007000000001
 21
1160.0255999999999
  0
LINE
  8
_0-0_LAYER001
  6
CONTINUOUS
 62
    2
 10
1828.9007000000001
 20
1154.0256999999999
 11
1833.9007999999999
 21
1157.0255999999999
  0
LINE
  8
_0-0_LAYER001
  6
CONTINUOUS
 62
    2
 10
1827.8258000000001
 20
1154.0256999999999
 11
1830.6747999999998
 21
1158.9617000000001
  0
LINE
  8
_0-0_LAYER001
  6
CONTINUOUS
 62
    2
 10
1761.9007000000001
 20
1154.0256999999999
 11
1761.9007000000001
 21
1160.0255999999999
  0
LINE
  8
_0-0_LAYER001
  6
CONTINUOUS
 62
    2
 10
1755.9007999999999
 20
1151.0255999999999
 11
1755.9007999999999
 21
1163.0256999999999
  0
LINE
  8
_0-0_LAYER001
  6
CONTINUOUS
 62
    2
 10
1764.7876999999999
 20
1154.0256999999999
 11
1768.2507999999998
 21
1160.0255999999999
  0
LINE
  8
_0-0_LAYER001
  6
CONTINUOUS
 62
    2
 10
1755.9007999999999
 20
1151.0255999999999
 11
1761.9007000000001
 21
1154.0256999999999
  0
LINE
  8
_0-0_LAYER001
  6
CONTINUOUS
 62
    2
 10
1761.9007000000001
 20
1160.0255999999999
 11
1755.9007999999999
 21
1163.0256999999999
  0
LINE
  8
_0-0_LAYER001
  6
CONTINUOUS
 62
    2
 10
1828.9007000000001
 20
1160.0255999999999
 11
1818.8856999999998
 21
1160.0255999999999
  0
LINE
  8
_0-0_LAYER001
  6
CONTINUOUS
 62
    2
 10
1810.2338
 20
1155.5527
 11
1812.1278000000002
 21
1158.8336999999999
  0
LINE
  8
_0-0_LAYER001
  6
CONTINUOUS
 62
    2
 10
1818.6178
 20
1154.0745999999999
 11
1822.0527000000002
 21
1160.0255999999999
  0
LINE
  8
_0-0_LAYER001
  6
CONTINUOUS
 62
    2
 10
1828.9007000000001
 20
1154.0256999999999
 11
1818.8937999999998
 21
1154.0256999999999
  0
LINE
  8
_0-0_LAYER001
  6
CONTINUOUS
 62
    2
 10
1826.7496999999998
 20
1163.7487000000001
 11
1827.1498000000001
 21
1161.4826
  0
LINE
  8
_0-0_LAYER001
  6
CONTINUOUS
 62
    2
 10
1826.5767999999998
 20
1150.3358000000001
 11
1826.9747000000002
 21
1152.6007
  0
LINE
  8
_0-0_LAYER001
  6
CONTINUOUS
 62
    2
 10
1822.1565999999998
 20
1162.7347
 11
1823.8308000000002
 21
1163.0296000000001
  0
LINE
  8
_0-0_LAYER001
  6
CONTINUOUS
 62
    2
 10
1817.8236999999999
 20
1161.9707000000001
 11
1819.4967000000001
 21
1162.2655999999999
  0
LINE
  8
_0-0_LAYER001
  6
CONTINUOUS
 62
    2
 10
1813.4906999999998
 20
1161.2066
 11
1815.1637000000001
 21
1161.5017
  0
LINE
  8
_0-0_LAYER001
  6
CONTINUOUS
 62
    2
 10
1813.1945999999998
 20
1162.8797
 11
1804.1007
 21
1161.2768000000001
  0
LINE
  8
_0-0_LAYER001
  6
CONTINUOUS
 62
    2
 10
1817.5277000000001
 20
1163.6436000000001
 11
1814.8687
 21
1163.1746000000001
  0
LINE
  8
_0-0_LAYER001
  6
CONTINUOUS
 62
    2
 10
1821.8607000000002
 20
1164.4078
 11
1819.2017999999998
 21
1163.9386999999999
  0
LINE
  8
_0-0_LAYER001
  6
CONTINUOUS
 62
    2
 10
1825.0126
 20
1164.9636
 11
1823.5347999999999
 21
1164.7026000000001
  0
LINE
  8
_0-0_LAYER001
  6
CONTINUOUS
 62
    2
 10
1823.8308000000002
 20
1163.0296000000001
 11
1823.5347999999999
 21
1164.7037
  0
LINE
  8
_0-0_LAYER001
  6
CONTINUOUS
 62
    2
 10
1822.1565999999998
 20
1162.7347
 11
1821.8607000000002
 21
1164.4087
  0
LINE
  8
_0-0_LAYER001
  6
CONTINUOUS
 62
    2
 10
1819.4978000000001
 20
1162.2655999999999
 11
1819.2017999999998
 21
1163.9396999999999
  0
LINE
  8
_0-0_LAYER001
  6
CONTINUOUS
 62
    2
 10
1817.8236999999999
 20
1161.9707000000001
 11
1817.5277000000001
 21
1163.6446000000001
  0
LINE
  8
_0-0_LAYER001
  6
CONTINUOUS
 62
    2
 10
1815.1648
 20
1161.5017
 11
1814.8687
 21
1163.1756
  0
LINE
  8
_0-0_LAYER001
  6
CONTINUOUS
 62
    2
 10
1813.4906999999998
 20
1161.2066
 11
1813.1945999999998
 21
1162.8806
  0
LINE
  8
_0-0_LAYER001
  6
CONTINUOUS
 62
    2
 10
1821.9818
 20
1151.3486
 11
1823.6558
 21
1151.0536
  0
LINE
  8
_0-0_LAYER001
  6
CONTINUOUS
 62
    2
 10
1817.6487999999999
 20
1152.1126999999999
 11
1819.3227999999999
 21
1151.8177000000001
  0
LINE
  8
_0-0_LAYER001
  6
CONTINUOUS
 62
    2
 10
1813.3157999999999
 20
1152.8767
 11
1814.9897000000001
 21
1152.5816
  0
LINE
  8
_0-0_LAYER001
  6
CONTINUOUS
 62
    2
 10
1813.3168000000001
 20
1152.8767
 11
1813.0207
 21
1151.2037
  0
LINE
  8
_0-0_LAYER001
  6
CONTINUOUS
 62
    2
 10
1814.9906999999998
 20
1152.5816
 11
1814.6945999999998
 21
1150.9087
  0
LINE
  8
_0-0_LAYER001
  6
CONTINUOUS
 62
    2
 10
1817.6498000000001
 20
1152.1126999999999
 11
1817.3537999999999
 21
1150.4395999999999
  0
LINE
  8
_0-0_LAYER001
  6
CONTINUOUS
 62
    2
 10
1819.3238000000001
 20
1151.8177000000001
 11
1819.0277000000001
 21
1150.1447000000001
  0
LINE
  8
_0-0_LAYER001
  6
CONTINUOUS
 62
    2
 10
1821.9827
 20
1151.3486
 11
1821.6867999999999
 21
1149.6757
  0
LINE
  8
_0-0_LAYER001
  6
CONTINUOUS
 62
    2
 10
1823.6568000000002
 20
1151.0536
 11
1823.3607000000002
 21
1149.3806999999999
  0
LINE
  8
_0-0_LAYER001
  6
CONTINUOUS
 62
    2
 10
1813.0207
 20
1151.2037
 11
1804.1007
 21
1152.7755999999999
  0
LINE
  8
_0-0_LAYER001
  6
CONTINUOUS
 62
    2
 10
1817.3537999999999
 20
1150.4395999999999
 11
1814.6945999999998
 21
1150.9087
  0
LINE
  8
_0-0_LAYER001
  6
CONTINUOUS
 62
    2
 10
1821.6867999999999
 20
1149.6757
 11
1819.0277000000001
 21
1150.1447000000001
  0
LINE
  8
_0-0_LAYER001
  6
CONTINUOUS
 62
    2
 10
1824.8377999999998
 20
1149.1197
 11
1823.3607000000002
 21
1149.3797
  0
LINE
  8
_0-0_LAYER001
  6
CONTINUOUS
 62
    2
 10
1801.8768
 20
1157.0266999999999
 11
1827.1498000000001
 21
1161.4826
  0
LINE
  8
_0-0_LAYER001
  6
CONTINUOUS
 62
    2
 10
1801.8768
 20
1157.0266999999999
 11
1826.9747000000002
 21
1152.6007
  0
LINE
  8
_0-0_LAYER001
  6
CONTINUOUS
 62
    2
 10
1785.9007999999999
 20
1161.2755999999999
 11
1804.1007
 21
1161.2755999999999
  0
LINE
  8
_0-0_LAYER001
  6
CONTINUOUS
 62
    2
 10
1785.9007999999999
 20
1152.7755999999999
 11
1804.1007
 21
1152.7755999999999
  0
LINE
  8
_0-0_LAYER001
  6
CONTINUOUS
 62
    2
 10
1785.9007999999999
 20
1152.7755999999999
 11
1785.9007999999999
 21
1161.2755999999999
  0
LINE
  8
_0-0_LAYER001
  6
CONTINUOUS
 62
    2
 10
1793.3551000000002
 20
921.2177999999999
 11
1795.4522999999999
 21
922.16149999999993
  0
LINE
  8
_0-0_LAYER001
  6
CONTINUOUS
 62
    2
 10
1768.7314000000001
 20
975.93249999999989
 11
1770.8292999999999
 21
976.87609999999995
  0
LINE
  8
_0-0_LAYER001
  6
CONTINUOUS
 62
    2
 10
1762.576
 20
989.61200000000008
 11
1768.7314000000001
 21
975.93249999999989
  0
LINE
  8
_0-0_LAYER001
  6
CONTINUOUS
 62
    2
 10
1722.5295000000001
 20
974.55189999999993
 11
1759.0052000000001
 21
990.96589999999992
  0
LINE
  8
_0-0_LAYER001
  6
CONTINUOUS
 62
    2
 10
1758.0626999999999
 20
993.0628999999999
 11
1721.585
 21
976.64779999999996
  0
LINE
  8
_0-0_LAYER001
  6
CONTINUOUS
 62
    2
 10
1764.6736999999998
 20
990.55559999999991
 11
1770.8292999999999
 21
976.87609999999995
  0
LINE
  8
_0-0_LAYER001
  6
CONTINUOUS
 62
    2
 10
1756.0108
 20
887.96280000000002
 11
1719.0776000000001
 21
970.03659999999991
  0
LINE
  8
_0-0_LAYER001
  6
CONTINUOUS
 62
    2
 10
1799.1005
 20
901.87079999999992
 11
1762.6217999999999
 21
885.45540000000005
  0
LINE
  8
_0-0_LAYER001
  6
CONTINUOUS
 62
    2
 10
1801.6079
 20
908.48180000000002
 11
1795.4522999999999
 21
922.16149999999993
  0
LINE
  8
_0-0_LAYER001
  6
CONTINUOUS
 62
    2
 10
1799.5111000000002
 20
907.53829999999994
 11
1793.3551000000002
 21
921.2177999999999
  0
LINE
  8
_0-0_LAYER001
  6
CONTINUOUS
 62
    2
 10
1761.6794
 20
887.55250000000001
 11
1798.1569
 21
903.96769999999992
  0
LINE
  8
_0-0_LAYER001
  6
CONTINUOUS
 62
    2
 10
1758.1088
 20
888.90650000000005
 11
1721.1756999999998
 21
970.98129999999992
  0
LINE
  8
_0-0_LAYER001
  6
CONTINUOUS
 62
    2
 10
1762.1669999999999
 20
874.28590000000008
 11
1725.2330999999999
 21
956.35860000000002
  0
LINE
  8
_0-0_LAYER001
  6
CONTINUOUS
 62
    2
 10
1720.9016999999999
 20
948.92650000000003
 11
1748.8072999999999
 21
886.91640000000007
  0
LINE
  8
_0-0_LAYER001
  6
CONTINUOUS
 62
    2
 10
1723.4090999999999
 20
955.53860000000009
 11
1725.2330999999999
 21
956.35860000000002
  0
LINE
  8
_0-0_LAYER001
  6
CONTINUOUS
 62
    2
 10
1681.7804999999998
 20
845.78770000000009
 11
1743.7917000000002
 21
873.69329999999991
  0
LINE
  8
_0-0_LAYER001
  6
CONTINUOUS
 62
    2
 10
1739.6412999999998
 20
929.94499999999994
 11
1742.3777
 21
931.17589999999996
  0
LINE
  8
_0-0_LAYER001
  6
CONTINUOUS
 62
    2
 10
1733.0754999999999
 20
944.53510000000006
 11
1735.8117000000002
 21
945.76610000000005
  0
LINE
  8
_0-0_LAYER001
  6
CONTINUOUS
 62
    2
 10
1748.9431
 20
916.58690000000001
 11
1735.8117000000002
 21
945.76610000000005
  0
LINE
  8
_0-0_LAYER001
  6
CONTINUOUS
 62
    2
 10
1746.2067999999999
 20
915.35490000000004
 11
1748.9431
 21
916.58690000000001
  0
LINE
  8
_0-0_LAYER001
  6
CONTINUOUS
 62
    2
 10
1748.2143000000001
 20
942.57439999999997
 11
1758.8834999999999
 21
947.3764000000001
  0
LINE
  8
_0-0_LAYER001
  6
CONTINUOUS
 62
    2
 10
1754.7797
 20
927.98530000000005
 11
1765.4490000000001
 21
932.78610000000003
  0
LINE
  8
_0-0_LAYER001
  6
CONTINUOUS
 62
    2
 10
1753.3618000000001
 20
928.52379999999994
 11
1745.2204000000002
 21
924.86069999999995
  0
LINE
  8
_0-0_LAYER001
  6
CONTINUOUS
 62
    2
 10
1747.6756999999998
 20
941.15830000000005
 11
1739.5355
 21
937.49440000000004
  0
LINE
  8
_0-0_LAYER001
  6
CONTINUOUS
 62
    2
 10
1744.8337000000001
 20
947.47669999999994
 11
1736.6914000000002
 21
943.8125
  0
LINE
  8
_0-0_LAYER001
  6
CONTINUOUS
 62
    2
 10
1746.5711000000001
 20
946.22499999999991
 11
1744.8337000000001
 21
947.47669999999994
  0
LINE
  8
_0-0_LAYER001
  6
CONTINUOUS
 62
    2
 10
1756.4207000000001
 20
924.33850000000007
 11
1746.5711000000001
 21
946.22499999999991
  0
LINE
  8
_0-0_LAYER001
  6
CONTINUOUS
 62
    2
 10
1756.2048
 20
922.20530000000008
 11
1748.0636
 21
918.54140000000007
  0
LINE
  8
_0-0_LAYER001
  6
CONTINUOUS
 62
    2
 10
1756.4207000000001
 20
924.33850000000007
 11
1756.2048
 21
922.20530000000008
  0
LINE
  8
_0-0_LAYER001
  6
CONTINUOUS
 62
    2
 10
1766.453
 20
935.43110000000001
 11
1765.4490000000001
 21
932.78610000000003
  0
LINE
  8
_0-0_LAYER001
  6
CONTINUOUS
 62
    2
 10
1761.5282000000002
 20
946.37329999999997
 11
1766.453
 21
935.43110000000001
  0
LINE
  8
_0-0_LAYER001
  6
CONTINUOUS
 62
    2
 10
1758.8834999999999
 20
947.3764000000001
 11
1761.5282000000002
 21
946.37329999999997
  0
LINE
  8
_0-0_LAYER001
  6
CONTINUOUS
 62
    2
 10
1758.8834999999999
 20
947.3764000000001
 11
1765.4490000000001
 21
932.78610000000003
  0
LINE
  8
_0-0_LAYER001
  6
CONTINUOUS
 62
    2
 10
1758.8834999999999
 20
947.3764000000001
 11
1762.8757999999998
 21
931.62820000000011
  0
LINE
  8
_0-0_LAYER001
  6
CONTINUOUS
 62
    2
 10
1753.3272999999999
 20
944.87580000000003
 11
1757.3207000000002
 21
929.1277
  0
LINE
  8
_0-0_LAYER001
  6
CONTINUOUS
 62
    2
 10
1720.1761999999999
 20
928.78179999999998
 11
1728.3173000000002
 21
932.44479999999999
  0
LINE
  8
_0-0_LAYER001
  6
CONTINUOUS
 62
    2
 10
1725.8618999999999
 20
916.14709999999991
 11
1734.0032999999999
 21
919.8112000000001
  0
LINE
  8
_0-0_LAYER001
  6
CONTINUOUS
 62
    2
 10
1728.7042999999999
 20
909.82889999999998
 11
1736.8463000000002
 21
913.49279999999999
  0
LINE
  8
_0-0_LAYER001
  6
CONTINUOUS
 62
    2
 10
1726.9666999999999
 20
911.08040000000005
 11
1728.7042999999999
 21
909.82889999999998
  0
LINE
  8
_0-0_LAYER001
  6
CONTINUOUS
 62
    2
 10
1717.1172000000001
 20
932.96710000000007
 11
1726.9666999999999
 21
911.08040000000005
  0
LINE
  8
_0-0_LAYER001
  6
CONTINUOUS
 62
    2
 10
1717.3328999999999
 20
935.09999999999991
 11
1725.4740999999999
 21
938.7639999999999
  0
LINE
  8
_0-0_LAYER001
  6
CONTINUOUS
 62
    2
 10
1717.1172000000001
 20
932.96710000000007
 11
1717.3328999999999
 21
935.09999999999991
  0
LINE
  8
_0-0_LAYER001
  6
CONTINUOUS
 62
    2
 10
1679.2732999999998
 20
839.17660000000001
 11
1680.0940999999998
 21
837.35269999999991
  0
LINE
  8
_0-0_LAYER001
  6
CONTINUOUS
 62
    2
 10
1680.0940999999998
 20
837.35269999999991
 11
1762.1671999999999
 21
874.28549999999996
  0
LINE
  8
_0-0_LAYER001
  6
CONTINUOUS
 62
    2
 10
1734.1248000000001
 20
1009.7052000000001
 11
1725.0045
 21
1005.6011000000001
  0
LINE
  8
_0-0_LAYER001
  6
CONTINUOUS
 62
    2
 10
1735.3548000000001
 20
1006.9686999999999
 11
1726.2363
 21
1002.866
  0
LINE
  8
_0-0_LAYER001
  6
CONTINUOUS
 62
    2
 10
1725.0045
 20
1005.6011000000001
 11
1726.2363
 21
1002.866
  0
LINE
  8
_0-0_LAYER001
  6
CONTINUOUS
 62
    2
 10
1734.1248000000001
 20
1009.7052000000001
 11
1735.3548000000001
 21
1006.9686999999999
  0
LINE
  8
_0-0_LAYER001
  6
CONTINUOUS
 62
    2
 10
1729.5648000000001
 20
1007.6532
 11
1730.7955000000002
 21
1004.9168
  0
LINE
  8
_0-0_LAYER001
  6
CONTINUOUS
 62
    2
 10
1748.0311999999999
 20
966.61740000000009
 11
1743.9090000000001
 21
970.90349999999989
  0
LINE
  8
_0-0_LAYER001
  6
CONTINUOUS
 62
    2
 10
1748.0311999999999
 20
966.61740000000009
 11
1747.5567000000001
 21
972.5444
  0
LINE
  8
_0-0_LAYER001
  6
CONTINUOUS
 62
    2
 10
1734.4508000000001
 20
988.9052999999999
 11
1740.0785999999998
 21
992.59680000000003
  0
LINE
  8
_0-0_LAYER001
  6
CONTINUOUS
 62
    2
 10
1736.5027
 20
984.34609999999998
 11
1742.1316000000002
 21
988.03659999999991
  0
LINE
  8
_0-0_LAYER001
  6
CONTINUOUS
 62
    2
 10
1738.5556999999999
 20
979.78580000000011
 11
1744.1833000000001
 21
983.47739999999999
  0
LINE
  8
_0-0_LAYER001
  6
CONTINUOUS
 62
    2
 10
1740.6066000000001
 20
975.22559999999999
 11
1746.2341999999999
 21
978.91820000000007
  0
LINE
  8
_0-0_LAYER001
  6
CONTINUOUS
 62
    2
 10
1734.4513999999999
 20
988.9063000000001
 11
1740.0790999999999
 21
992.59780000000001
  0
LINE
  8
_0-0_LAYER001
  6
CONTINUOUS
 62
    2
 10
1736.5032000000001
 20
984.346
 11
1742.1320999999998
 21
988.03780000000006
  0
LINE
  8
_0-0_LAYER001
  6
CONTINUOUS
 62
    2
 10
1738.5560999999998
 20
979.78690000000006
 11
1744.1828999999998
 21
983.47739999999999
  0
LINE
  8
_0-0_LAYER001
  6
CONTINUOUS
 62
    2
 10
1740.6071000000002
 20
975.22659999999996
 11
1746.2348000000002
 21
978.91840000000002
  0
LINE
  8
_0-0_LAYER001
  6
CONTINUOUS
 62
    2
 10
1742.143
 20
971.81459999999993
 11
1747.7703999999999
 21
975.50630000000001
  0
LINE
  8
_0-0_LAYER001
  6
CONTINUOUS
 62
    2
 10
1733.8505
 20
1003.0044
 11
1747.5567000000001
 21
972.5444
  0
LINE
  8
_0-0_LAYER001
  6
CONTINUOUS
 62
    2
 10
1735.3548000000001
 20
1006.9686999999999
 11
1733.8505
 21
1003.0044
  0
LINE
  8
_0-0_LAYER001
  6
CONTINUOUS
 62
    2
 10
1730.2039
 20
1001.3604
 11
1743.9090000000001
 21
970.90349999999989
  0
LINE
  8
_0-0_LAYER001
  6
CONTINUOUS
 62
    2
 10
1726.2363
 20
1002.866
 11
1730.2039
 21
1001.3604
  0
LINE
  8
_0-0_LAYER001
  6
CONTINUOUS
 62
    2
 10
1885.9007999999999
 20
1005.5897
 11
1885.9007999999999
 21
1318.0045999999998
  0
LINE
  8
_0-0_LAYER001
  6
CONTINUOUS
 62
    2
 10
1898.9549000000002
 20
935.83960000000002
 11
1297.9218000000001
 21
665.37529999999992
  0
LINE
  8
_0-0_LAYER001
  6
CONTINUOUS
 62
    2
 10
1885.9007999999999
 20
1059.9531999999999
 11
1785.9007999999999
 21
1159.953
  0
LINE
  8
_0-0_LAYER001
  6
CONTINUOUS
 62
    2
 10
1885.9007999999999
 20
1055.7104999999999
 11
1785.9007999999999
 21
1155.7104999999999
  0
LINE
  8
_0-0_LAYER001
  6
CONTINUOUS
 62
    2
 10
1885.9007999999999
 20
1271.9531999999999
 11
1785.9007999999999
 21
1371.9529
  0
LINE
  8
_0-0_LAYER001
  6
CONTINUOUS
 62
    2
 10
1885.9007999999999
 20
1267.7106000000001
 11
1785.9007999999999
 21
1367.7105000000001
  0
LINE
  8
_0-0_LAYER001
  6
CONTINUOUS
 62
    2
 10
1785.9007999999999
 20
1005.5897
 11
1775.6417000000001
 21
1028.3878
  0
LINE
  8
_0-0_LAYER001
  6
CONTINUOUS
 62
    2
 10
1785.9007999999999
 20
1005.5897
 11
1252.7818
 21
765.68669999999997
  0
LINE
  8
_0-0_LAYER001
  6
CONTINUOUS
 62
    2
 10
1755.9007999999999
 20
1137.0255999999999
 11
1785.9007999999999
 21
1137.0255999999999
  0
LINE
  8
_0-0_LAYER001
  6
CONTINUOUS
 62
    2
 10
1785.9007999999999
 20
1160.0255999999999
 11
1761.9007000000001
 21
1160.0255999999999
  0
LINE
  8
_0-0_LAYER001
  6
CONTINUOUS
 62
    2
 10
1785.9007999999999
 20
1154.0256999999999
 11
1761.9007000000001
 21
1154.0256999999999
  0
LINE
  8
_0-0_LAYER001
  6
CONTINUOUS
 62
    2
 10
1770.5109000000002
 20
1154.0256999999999
 11
1773.9739
 21
1160.0255999999999
  0
LINE
  8
_0-0_LAYER001
  6
CONTINUOUS
 62
    2
 10
1776.2339999999999
 20
1154.0256999999999
 11
1779.6970999999999
 21
1160.0255999999999
  0
LINE
  8
_0-0_LAYER001
  6
CONTINUOUS
 62
    2
 10
1781.9571000000001
 20
1154.0256999999999
 11
1785.4202
 21
1160.0255999999999
  0
LINE
  8
_0-0_LAYER001
  6
CONTINUOUS
 62
    2
 10
1755.9007999999999
 20
1137.0255999999999
 11
1755.9007999999999
 21
1171.7357999999999
  0
LINE
  8
_0-0_LAYER001
  6
CONTINUOUS
 62
    2
 10
1785.9007999999999
 20
1137.0255999999999
 11
1759.4047999999998
 21
1172.3536999999999
  0
LINE
  8
_0-0_LAYER001
  6
DASHED3
 62
    2
 10
1783.9007999999999
 20
1034.2974999999999
 11
1783.9007999999999
 21
1185.2094999999999
  0
LINE
  8
_0-0_LAYER001
  6
CONTINUOUS
 62
    2
 10
1783.3008
 20
1282.3351
 11
1780.5212999999999
 21
1266.9848
  0
LINE
  8
_0-0_LAYER001
  6
CONTINUOUS
 62
    2
 10
1801.5007999999998
 20
1282.3351
 11
1801.5007999999998
 21
1303.1351
  0
LINE
  8
_0-0_LAYER001
  6
CONTINUOUS
 62
    2
 10
1799.4207999999999
 20
1284.4150999999999
 11
1799.4207999999999
 21
1300.0152
  0
LINE
  8
_0-0_LAYER001
  6
CONTINUOUS
 62
    2
 10
1799.4207999999999
 20
1284.4150999999999
 11
1788.3258999999998
 21
1295.5099999999998
  0
LINE
  8
_0-0_LAYER001
  6
CONTINUOUS
 62
    2
 10
1795.0084000000002
 20
1284.4150999999999
 11
1788.4319999999998
 21
1290.9916000000001
  0
LINE
  8
_0-0_LAYER001
  6
CONTINUOUS
 62
    2
 10
1790.5961000000002
 20
1284.4150999999999
 11
1787.7995000000001
 21
1287.2118
  0
LINE
  8
_0-0_LAYER001
  6
CONTINUOUS
 62
    2
 10
1788.1347000000001
 20
1288.7291
 11
1799.4207999999999
 21
1300.0151000000001
  0
LINE
  8
_0-0_LAYER001
  6
CONTINUOUS
 62
    2
 10
1788.4877999999999
 20
1293.4944999999998
 11
1798.1284999999998
 21
1303.1351
  0
LINE
  8
_0-0_LAYER001
  6
CONTINUOUS
 62
    2
 10
1787.9989999999998
 20
1297.4181000000001
 11
1793.7159999999999
 21
1303.1351
  0
LINE
  8
_0-0_LAYER001
  6
CONTINUOUS
 62
    2
 10
1792.6455000000001
 20
1284.4150999999999
 11
1797.7725
 21
1289.5420999999999
  0
LINE
  8
_0-0_LAYER001
  6
CONTINUOUS
 62
    2
 10
1797.0578999999998
 20
1284.4150999999999
 11
1799.1060000000002
 21
1286.4632000000001
  0
LINE
  8
_0-0_LAYER001
  6
CONTINUOUS
 62
    2
 10
1797.5073000000002
 20
1290.7409000000002
 11
1786.6423
 21
1301.6059999999998
  0
LINE
  8
_0-0_LAYER001
  6
CONTINUOUS
 62
    2
 10
1797.5731000000001
 20
1295.0875000000001
 11
1789.5255999999999
 21
1303.1351
  0
LINE
  8
_0-0_LAYER001
  6
CONTINUOUS
 62
    2
 10
1788.2332000000001
 20
1284.4150999999999
 11
1797.3685
 21
1293.5505000000001
  0
LINE
  8
_0-0_LAYER001
  6
CONTINUOUS
 62
    2
 10
1786.9744000000001
 20
1300.806
 11
1789.3035
 21
1303.1351
  0
LINE
  8
_0-0_LAYER001
  6
CONTINUOUS
 62
    2
 10
1798.7291
 20
1298.3440999999998
 11
1793.9380999999998
 21
1303.1351
  0
LINE
  8
_0-0_LAYER001
  6
CONTINUOUS
 62
    2
 10
1799.4207999999999
 20
1302.0646999999999
 11
1798.3505
 21
1303.1351
  0
LINE
  8
_0-0_LAYER001
  6
CONTINUOUS
 62
    2
 10
1799.4207999999999
 20
1300.0151000000001
 11
1799.4207999999999
 21
1303.1351
  0
LINE
  8
_0-0_LAYER001
  6
CONTINUOUS
 62
    2
 10
1801.5007999999998
 20
1282.3351
 11
1785.9007999999999
 21
1282.3351
  0
LINE
  8
_0-0_LAYER001
  6
CONTINUOUS
 62
    2
 10
1783.9007999999999
 20
1193.9350999999999
 11
1783.9007999999999
 21
1282.3351
  0
LINE
  8
_0-0_LAYER001
  6
CONTINUOUS
 62
    2
 10
1692.3465999999999
 20
1177.7916
 11
1783.9007999999999
 21
1193.9350999999999
  0
LINE
  8
_0-0_LAYER001
  6
CONTINUOUS
 62
    2
 10
1785.9007999999999
 20
1005.5897
 11
1785.9007999999999
 21
1282.3351
  0
LINE
  8
_0-0_LAYER001
  6
CONTINUOUS
 62
    2
 10
1801.5007999999998
 20
1303.1351
 11
1785.9007999999999
 21
1303.1351
  0
LINE
  8
_0-0_LAYER001
  6
CONTINUOUS
 62
    2
 10
1785.9007999999999
 20
1303.1351
 11
1785.9007999999999
 21
1391.0546999999999
  0
LINE
  8
_0-0_LAYER001
  6
CONTINUOUS
 62
    2
 10
1799.4207999999999
 20
1284.4150999999999
 11
1781.5007999999998
 21
1284.4150999999999
  0
LINE
  8
_0-0_LAYER001
  6
CONTINUOUS
 62
    2
 10
1781.5007999999998
 20
1251.9351999999999
 11
1781.5007999999998
 21
1284.4150999999999
  0
LINE
  8
_0-0_LAYER001
  6
CONTINUOUS
 62
    2
 10
1765.0789
 20
1188.5854999999999
 11
1773.8483999999999
 21
1190.1318000000001
  0
LINE
  8
_0-0_LAYER001
  6
CONTINUOUS
 62
    2
 10
1772.6046000000001
 20
1160.8735999999999
 11
1776.0463
 21
1152.6346000000001
  0
LINE
  8
_0-0_LAYER001
  6
CONTINUOUS
 62
    2
 10
1771.5648000000001
 20
1188.1092000000001
 11
1776.2547
 21
1161.5174
  0
LINE
  8
_0-0_LAYER001
  6
CONTINUOUS
 62
    2
 10
1776.0463
 20
1152.6346000000001
 11
1776.2547
 21
1161.5174
  0
LINE
  8
_0-0_LAYER001
  6
CONTINUOUS
 62
    2
 10
1767.9149000000002
 20
1187.4668999999999
 11
1765.0789
 21
1188.5854999999999
  0
LINE
  8
_0-0_LAYER001
  6
CONTINUOUS
 62
    2
 10
1771.5648000000001
 20
1188.1092000000001
 11
1773.8483999999999
 21
1190.1318000000001
  0
LINE
  8
_0-0_LAYER001
  6
CONTINUOUS
 62
    2
 10
1767.9149000000002
 20
1187.4668999999999
 11
1772.6046000000001
 21
1160.8735999999999
  0
LINE
  8
_0-0_LAYER001
  6
CONTINUOUS
 62
    2
 10
1671.3692000000001
 20
1154.4363000000001
 11
1694.9512
 21
1163.0195000000001
  0
LINE
  8
_0-0_LAYER001
  6
CONTINUOUS
 62
    2
 10
1671.3692000000001
 20
1154.4363000000001
 11
1677.2818000000002
 21
1155.4566
  0
ARC
  8
_0-0_LAYER001
  6
CONTINUOUS
 62
    2
 10
1825.2647999999999
 20
1163.4817
 40
1.5049999999999999
 50
10.451269999999999
 51
99.637527999999989
  0
ARC
  8
_0-0_LAYER001
  6
CONTINUOUS
 62
    2
 10
1825.0967999999998
 20
1150.5986
 40
1.4969999999999999
 50
259.83899000000008
 51
350.14733000000001
  0
CIRCLE
  8
_0-0_LAYER001
  6
CONTINUOUS
 62
    2
 10
1771.0643
 20
1111.9357
 40
0.8999999999999999
  0
CIRCLE
  8
_0-0_LAYER001
  6
CONTINUOUS
 62
    2
 10
1780.4683
 20
1091.5604000000001
 40
0.8999999999999999
  0
CIRCLE
  8
_0-0_LAYER001
  6
CONTINUOUS
 62
    2
 10
1775.7662999999998
 20
1076.6708000000001
 40
0.8999999999999999
  0
CIRCLE
  8
_0-0_LAYER001
  6
CONTINUOUS
 62
    2
 10
1771.848
 20
1097.0461
 40
0.8999999999999999
  0
CIRCLE
  8
_0-0_LAYER001
  6
CONTINUOUS
 62
    2
 10
1690.3469
 20
1087.6421
 40
0.8999999999999999
  0
CIRCLE
  8
_0-0_LAYER001
  6
CONTINUOUS
 62
    2
 10
1709.9385000000002
 20
1092.3441
 40
0.8999999999999999
  0
CIRCLE
  8
_0-0_LAYER001
  6
CONTINUOUS
 62
    2
 10
1736.5830999999998
 20
1102.5317
 40
0.8999999999999999
  0
CIRCLE
  8
_0-0_LAYER001
  6
CONTINUOUS
 62
    2
 10
1736.5830999999998
 20
1088.4258
 40
0.8999999999999999
  0
CIRCLE
  8
_0-0_LAYER001
  6
CONTINUOUS
 62
    2
 10
1722.4771000000001
 20
1080.5890999999999
 40
0.8999999999999999
  0
CIRCLE
  8
_0-0_LAYER001
  6
CONTINUOUS
 62
    2
 10
1691.9142000000002
 20
1079.0218
 40
0.8999999999999999
  0
CIRCLE
  8
_0-0_LAYER001
  6
CONTINUOUS
 62
    2
 10
1689.3987000000002
 20
1062.1310000000001
 40
0.8999999999999999
  0
CIRCLE
  8
_0-0_LAYER001
  6
CONTINUOUS
 62
    2
 10
1698.8027000000002
 20
1059.78
 40
0.8999999999999999
  0
CIRCLE
  8
_0-0_LAYER001
  6
CONTINUOUS
 62
    2
 10
1703.6691999999998
 20
1075.8870999999999
 40
0.8999999999999999
  0
CIRCLE
  8
_0-0_LAYER001
  6
CONTINUOUS
 62
    2
 10
1749.1217000000001
 20
1104.0989999999999
 40
0.8999999999999999
  0
CIRCLE
  8
_0-0_LAYER001
  6
CONTINUOUS
 62
    2
 10
1758.5257000000001
 20
1118.9885999999999
 40
0.8999999999999999
  0
ARC
  8
_0-0_LAYER001
  6
CONTINUOUS
 62
    2
 10
1760.1136000000001
 20
988.50360000000001
 40
2.7000000000000002
 50
24.240372000000001
 51
114.23248000000001
  0
ARC
  8
_0-0_LAYER001
  6
CONTINUOUS
 62
    2
 10
1723.6378
 20
972.08960000000002
 40
2.7000000000000002
 50
114.23248000000001
 51
204.21279999999999
  0
ARC
  8
_0-0_LAYER001
  6
CONTINUOUS
 62
    2
 10
1723.6358
 20
972.08860000000004
 40
4.9989999999999997
 50
114.22009000000001
 51
204.23074000000003
  0
ARC
  8
_0-0_LAYER001
  6
CONTINUOUS
 62
    2
 10
1760.1145999999999
 20
988.50489999999991
 40
4.9989999999999997
 50
24.224352
 51
114.24136000000001
  0
ARC
  8
_0-0_LAYER001
  6
CONTINUOUS
 62
    2
 10
1760.5699
 20
890.0136
 40
4.9989999999999997
 50
204.20946000000004
 51
294.23500000000001
  0
ARC
  8
_0-0_LAYER001
  6
CONTINUOUS
 62
    2
 10
1797.0495999999998
 20
906.42990000000009
 40
4.9989999999999997
 50
294.21370999999999
 51
24.245641999999961
  0
ARC
  8
_0-0_LAYER001
  6
CONTINUOUS
 62
    2
 10
1797.0484000000001
 20
906.42990000000009
 40
2.7000000000000002
 50
294.22066999999998
 51
24.240371999999976
  0
ARC
  8
_0-0_LAYER001
  6
CONTINUOUS
 62
    2
 10
1760.5707000000002
 20
890.01459999999997
 40
2.7000000000000002
 50
204.21279999999999
 51
294.22066999999998
  0
ARC
  8
_0-0_LAYER001
  6
CONTINUOUS
 62
    2
 10
1739.6858999999999
 20
882.81359999999995
 40
10.001999
 50
294.23665999999992
 51
24.223891999999939
  0
ARC
  8
_0-0_LAYER001
  6
CONTINUOUS
 62
    2
 10
1725.4598999999998
 20
950.97839999999997
 40
4.9989999999999997
 50
114.22009000000001
 51
204.23074000000003
  0
ARC
  8
_0-0_LAYER001
  6
CONTINUOUS
 62
    2
 10
1683.8312999999998
 20
841.22829999999999
 40
4.9989999999999997
 50
114.22009000000001
 51
204.23074000000003
  0
ARC
  8
_0-0_LAYER001
  6
CONTINUOUS
 62
    2
 10
1741.6224000000002
 20
942.24170000000004
 40
6.1470010000000013
 50
349.86246
 51
23.869741999999949
  0
ARC
  8
_0-0_LAYER001
  6
CONTINUOUS
 62
    2
 10
1750.1484
 20
923.26890000000003
 40
6.1580000000000004
 50
24.600922000000004
 51
58.555572000000005
  0
ARC
  8
_0-0_LAYER001
  6
CONTINUOUS
 62
    2
 10
1730.6142
 20
925.88509999999997
 40
22.898997999999999
 50
6.6164920000000009
 51
41.832002000000003
  0
ARC
  8
_0-0_LAYER001
  6
CONTINUOUS
 62
    2
 10
1731.9162999999999
 20
915.06649999999991
 40
6.1479999999999997
 50
169.87799999999999
 51
203.89275000000001
  0
ARC
  8
_0-0_LAYER001
  6
CONTINUOUS
 62
    2
 10
1723.3827000000001
 20
934.02819999999997
 40
6.1479999999999997
 50
204.55376000000004
 51
238.55601999999999
  0
ARC
  8
_0-0_LAYER001
  6
CONTINUOUS
 62
    2
 10
1742.9591
 20
931.4378999999999
 40
22.936000999999997
 50
186.64732000000004
 51
221.80409000000003
  0
ARC
  8
_0-0_LAYER001
  6
CONTINUOUS
 62
    2
 10
1766.4009999999998
 20
1292.7351000000001
 40
22.099885999999998
 50
337.88465000000002
 51
28.072639999999978
  0
CIRCLE
  8
_0-0_LAYER001
  6
CONTINUOUS
 62
    2
 10
1771.5724
 20
1057.9952000000001
 40
0.8999999999999999
  0
CIRCLE
  8
_0-0_LAYER001
  6
CONTINUOUS
 62
    2
 10
1759.8582999999999
 20
1086.2156
 40
0.8999999999999999
  0
CIRCLE
  8
_0-0_LAYER001
  6
CONTINUOUS
 62
    2
 10
1777.5338000000002
 20
1129.3439000000001
 40
0.8999999999999999
  0
CIRCLE
  8
_0-0_LAYER001
  6
CONTINUOUS
 62
    2
 10
1761.6259
 20
1129.3439000000001
 40
0.8999999999999999
  0
CIRCLE
  8
_0-0_LAYER001
  6
CONTINUOUS
 62
    2
 10
1732.6379999999999
 20
1113.7893999999999
 40
0.8999999999999999
  0
CIRCLE
  8
_0-0_LAYER001
  6
CONTINUOUS
 62
    2
 10
1701.5291000000002
 20
1104.2446
 40
0.8999999999999999
  0
CIRCLE
  8
_0-0_LAYER001
  6
CONTINUOUS
 62
    2
 10
1684.2552000000001
 20
1054.4601
 40
0.8999999999999999
  0
CIRCLE
  8
_0-0_LAYER001
  6
CONTINUOUS
 62
    2
 10
1724.5073000000002
 20
1093.2858000000001
 40
0.8999999999999999
  0
CIRCLE
  8
_0-0_LAYER001
  6
CONTINUOUS
 62
    2
 10
1716.73
 20
1108.4867999999999
 40
0.8999999999999999
  0
CIRCLE
  8
_0-0_LAYER001
  6
CONTINUOUS
 62
    2
 10
1739.0012000000002
 20
1145.9589000000001
 40
0.8999999999999999
  0
CIRCLE
  8
_0-0_LAYER001
  6
CONTINUOUS
 62
    2
 10
1716.6237000000001
 20
1134.0356999999999
 40
0.8999999999999999
  0
CIRCLE
  8
_0-0_LAYER001
  6
CONTINUOUS
 62
    2
 10
1724.5073000000002
 20
1140.3027
 40
0.8999999999999999
  0
CIRCLE
  8
_0-0_LAYER001
  6
CONTINUOUS
 62
    2
 10
1698.7366000000002
 20
1130.2686000000001
 40
0.8999999999999999
  0
CIRCLE
  8
_0-0_LAYER001
  6
CONTINUOUS
 62
    2
 10
1706.7815999999998
 20
1135.4037000000001
 40
0.8999999999999999
  0
CIRCLE
  8
_0-0_LAYER001
  6
CONTINUOUS
 62
    2
 10
1688.2703999999999
 20
1124.4141999999999
 40
0.8999999999999999
  0
CIRCLE
  8
_0-0_LAYER001
  6
CONTINUOUS
 62
    2
 10
1752.5862000000002
 20
1148.9432999999999
 40
0.8999999999999999
  0
CIRCLE
  8
_0-0_LAYER001
  6
CONTINUOUS
 62
    2
 10
1758.6298000000002
 20
1105.4300000000001
 40
0.8999999999999999
  0
CIRCLE
  8
_0-0_LAYER001
  6
CONTINUOUS
 62
    2
 10
1767.6950999999999
 20
1083.069
 40
0.8999999999999999
  0
CIRCLE
  8
_0-0_LAYER001
  6
CONTINUOUS
 62
    2
 10
1766.5088999999998
 20
1061.7505000000001
 40
0.8999999999999999
  0
CIRCLE
  8
_0-0_LAYER001
  6
CONTINUOUS
 62
    2
 10
1754.3993
 20
1077.6297999999999
 40
0.8999999999999999
  0
CIRCLE
  8
_0-0_LAYER001
  6
CONTINUOUS
 62
    2
 10
1725.3905
 20
1111.4735000000001
 40
0.8999999999999999
  0
CIRCLE
  8
_0-0_LAYER001
  6
CONTINUOUS
 62
    2
 10
1689.2536
 20
1093.8295000000001
 40
0.8999999999999999
  0
LINE
  8
_0-0_LAYER001
  6
CONTINUOUS
 62
    2
 10
1344.6821
 20
855.39699999999993
 11
1344.6821
 21
847.89699999999993
  0
LINE
  8
_0-0_LAYER001
  6
CONTINUOUS
 62
    2
 10
1344.6821
 20
847.89699999999993
 11
1340.9321
 21
854.3922
  0
LINE
  8
_0-0_LAYER001
  6
CONTINUOUS
 62
    2
 10
1344.6821
 20
847.89699999999993
 11
1240.2956999999999
 21
1237.4724000000001
  0
LINE
  8
_0-1_LAYER003
  6
CONTINUOUS
 62
   18
 10
1447.6876000000002
 20
1238.1619000000001
 11
1524.4641000000001
 21
1238.1619000000001
  0
LINE
  8
_0-1_LAYER003
  6
CONTINUOUS
 62
   18
 10
1549.2716999999998
 20
1372.0224000000003
 11
1696.2716999999998
 21
1372.0224000000003
  0
LINE
  8
_0-1_LAYER003
  6
CONTINUOUS
 62
   18
 10
1878.7417
 20
1332.9057
 11
2009.2417
 21
1332.9057
  0
LINE
  8
_0-1_LAYER003
  6
CONTINUOUS
 62
   18
 10
1919.1981999999998
 20
1267.6977999999999
 11
2104.6559999999999
 21
1267.6977999999999
  0
LINE
  8
_0-1_LAYER003
  6
CONTINUOUS
 62
   18
 10
1931.0722000000001
 20
1185.2094999999999
 11
1983.5722000000001
 21
1185.2094999999999
  0
LINE
  8
_0-1_LAYER003
  6
CONTINUOUS
 62
   18
 10
1981.0722000000001
 20
1185.2094999999999
 11
1981.0722000000001
 21
1034.2974999999999
  0
LINE
  8
_0-1_LAYER003
  6
CONTINUOUS
 62
   18
 10
1981.0722000000001
 20
1034.2974999999999
 11
1931.0722000000001
 21
1034.2974999999999
  0
LINE
  8
_0-1_LAYER003
  6
CONTINUOUS
 62
   18
 10
1979.3722
 20
1034.2974999999999
 11
1982.7721999999999
 21
1034.2974999999999
  0
LINE
  8
_0-1_LAYER003
  6
CONTINUOUS
 62
   18
 10
1900.9007999999999
 20
706.87779999999998
 11
1900.9007999999999
 21
1318.0045999999998
  0
LINE
  8
_0-1_LAYER003
  6
CONTINUOUS
 62
   18
 10
1885.9007999999999
 20
1318.0045999999998
 11
1885.9007999999999
 21
1005.5897
  0
LINE
  8
_0-1_LAYER003
  6
CONTINUOUS
 62
   18
 10
1885.9007999999999
 20
1005.5897
 11
1785.9007999999999
 21
1005.5897
  0
LINE
  8
_0-1_LAYER003
  6
CONTINUOUS
 62
   18
 10
1785.9007999999999
 20
1005.5897
 11
1785.9007999999999
 21
1282.3351
  0
LINE
  8
_0-1_LAYER003
  6
CONTINUOUS
 62
   18
 10
1785.9007999999999
 20
1282.3351
 11
1801.5007999999998
 21
1282.3351
  0
LINE
  8
_0-1_LAYER003
  6
CONTINUOUS
 62
   18
 10
1801.5007999999998
 20
1282.3351
 11
1801.5007999999998
 21
1303.1351
  0
LINE
  8
_0-1_LAYER003
  6
CONTINUOUS
 62
   18
 10
1801.5007999999998
 20
1303.1351
 11
1785.9008716285155
 21
1303.1351
  0
LINE
  8
_0-1_LAYER003
  6
CONTINUOUS
 62
   18
 10
1785.9008716285155
 20
1303.1350984463654
 11
1785.9008716285155
 21
1391.0546999999999
  0
LINE
  8
_0-1_LAYER003
  6
CONTINUOUS
 62
   18
 10
1783.9007999999999
 20
1313.154
 11
1783.9007999999999
 21
1340.654
  0
LINE
  8
_0-1_LAYER003
  6
CONTINUOUS
 62
   18
 10
1783.9007999999999
 20
1338.154
 11
1692.3465999999999
 21
1338.154
  0
LINE
  8
_0-1_LAYER003
  6
CONTINUOUS
 62
   18
 10
1692.3465999999999
 20
1339.854
 11
1692.3465999999999
 21
1313.154
  0
LINE
  8
_0-1_LAYER003
  6
CONTINUOUS
 62
   18
 10
1637.2302
 20
1298.9350999999999
 11
1662.2302
 21
1298.9350999999999
  0
LINE
  8
_0-1_LAYER003
  6
CONTINUOUS
 62
   18
 10
1637.2302
 20
1298.9350999999999
 11
1637.2302
 21
1193.9350999999999
  0
LINE
  8
_0-1_LAYER003
  6
CONTINUOUS
 62
   18
 10
1635.5302000000001
 20
1193.9350999999999
 11
1662.2302
 21
1193.9350999999999
  0
LINE
  8
_0-1_LAYER003
  6
CONTINUOUS
 62
   18
 10
1662.2302
 20
1193.9350999999999
 11
1637.2302
 21
1193.9350999999999
  0
LINE
  8
_0-1_LAYER003
  6
CONTINUOUS
 62
   18
 10
1635.5302000000001
 20
1283.9350999999999
 11
1662.2302
 21
1283.9350999999999
  0
LINE
  8
_0-1_LAYER003
  6
CONTINUOUS
 62
   18
 10
1662.2302
 20
1283.9350999999999
 11
1637.2302
 21
1283.9350999999999
  0
LINE
  8
_0-1_LAYER003
  6
CONTINUOUS
 62
   18
 10
1635.5302000000001
 20
1298.9350999999999
 11
1637.2302
 21
1298.9350999999999
  0
LINE
  8
_0-1_LAYER003
  6
CONTINUOUS
 62
   18
 10
1744.3825000000002
 20
1168.3431
 11
1761.5585999999998
 21
1168.3431
  0
LINE
  8
_0-1_LAYER003
  6
CONTINUOUS
 62
   18
 10
1744.3825000000002
 20
1149.5241000000001
 11
1744.3825000000002
 21
1168.3431
  0
LINE
  8
_0-1_LAYER003
  6
CONTINUOUS
 62
   18
 10
1735.1224000000002
 20
1135.1858
 11
1735.1224000000002
 21
1115.0226
  0
LINE
  8
_0-1_LAYER003
  6
CONTINUOUS
 62
   18
 10
1755.9007999999999
 20
1171.7357999999999
 11
1755.9007999999999
 21
1137.0255999999999
  0
LINE
  8
_0-1_LAYER003
  6
CONTINUOUS
 62
   18
 10
1755.9007999999999
 20
1137.0255999999999
 11
1785.9007999999999
 21
1137.0255999999999
  0
LINE
  8
_0-1_LAYER003
  6
CONTINUOUS
 62
   18
 10
1785.9007999999999
 20
1161.2755999999999
 11
1804.1007
 21
1161.2755999999999
  0
LINE
  8
_0-1_LAYER003
  6
CONTINUOUS
 62
   18
 10
1804.1007
 20
1152.7755999999999
 11
1785.9007999999999
 21
1152.7755999999999
  0
LINE
  8
_0-1_LAYER003
  6
CONTINUOUS
 62
   18
 10
1785.9007999999999
 20
1154.0256999999999
 11
1761.9007000000001
 21
1154.0256999999999
  0
LINE
  8
_0-1_LAYER003
  6
CONTINUOUS
 62
   18
 10
1761.9007000000001
 20
1154.0256999999999
 11
1761.9007000000001
 21
1160.0255999999999
  0
LINE
  8
_0-1_LAYER003
  6
CONTINUOUS
 62
   18
 10
1761.9007000000001
 20
1160.0255999999999
 11
1785.9007999999999
 21
1160.0255999999999
  0
LINE
  8
_0-1_LAYER003
  6
CONTINUOUS
 62
   18
 10
1781.5007999999998
 20
1251.9351999999999
 11
1781.5007999999998
 21
1284.4150999999999
  0
LINE
  8
_0-1_LAYER003
  6
CONTINUOUS
 62
   18
 10
1781.5007999999998
 20
1284.4150999999999
 11
1799.4207999999999
 21
1284.4150999999999
  0
LINE
  8
_0-1_LAYER003
  6
CONTINUOUS
 62
   18
 10
1799.4207999999999
 20
1284.4150999999999
 11
1799.4207999999999
 21
1303.1351
  0
LINE
  8
_0-1_LAYER003
  6
CONTINUOUS
 62
   18
 10
1783.9007999999999
 20
1282.3351
 11
1783.9007999999999
 21
1034.2974999999999
  0
LINE
  8
_0-1_LAYER003
  6
CONTINUOUS
 62
   18
 10
1783.9007999999999
 20
1034.2974999999999
 11
1241.702
 21
790.30860000000007
  0
LINE
  8
_0-1_LAYER003
  6
CONTINUOUS
 62
   18
 10
1242.5227
 20
788.48469999999998
 11
1775.6417000000001
 21
1028.3878
  0
LINE
  8
_0-1_LAYER003
  6
CONTINUOUS
 62
   18
 10
1775.6417000000001
 20
1028.3878
 11
1785.9007999999999
 21
1005.5897
  0
LINE
  8
_0-1_LAYER003
  6
CONTINUOUS
 62
   18
 10
1785.9007999999999
 20
1005.5897
 11
1252.7818
 21
765.68669999999997
  0
LINE
  8
_0-1_LAYER003
  6
CONTINUOUS
 62
   18
 10
1297.9218000000001
 20
665.37529999999992
 11
1898.9549000000002
 21
935.83960000000002
  0
LINE
  8
_0-1_LAYER003
  6
CONTINUOUS
 62
   18
 10
1327.1370999999999
 20
849.58879999999999
 11
1333.2925
 21
835.91000000000008
  0
LINE
  8
_0-1_LAYER003
  6
CONTINUOUS
 62
   18
 10
1333.2925
 20
835.91000000000008
 11
1354.4947
 21
861.89969999999994
  0
LINE
  8
_0-1_LAYER003
  6
CONTINUOUS
 62
   18
 10
1354.4947
 20
861.89969999999994
 11
1360.6502
 21
848.22090000000003
  0
LINE
  8
_0-1_LAYER003
  6
CONTINUOUS
 62
   18
 10
1360.6502
 20
848.22090000000003
 11
1333.2925
 21
835.91000000000008
  0
LINE
  8
_0-1_LAYER003
  6
CONTINUOUS
 62
   18
 10
1327.1370999999999
 20
849.58879999999999
 11
1354.4947
 21
861.89969999999994
  0
LINE
  8
_0-1_LAYER003
  6
CONTINUOUS
 62
   18
 10
1340.9321
 20
854.3922
 11
1344.6821
 21
847.89699999999993
  0
LINE
  8
_0-1_LAYER003
  6
CONTINUOUS
 62
   18
 10
1344.6821
 20
847.89699999999993
 11
1344.6821
 21
855.39699999999993
  0
LINE
  8
_0-1_LAYER003
  6
CONTINUOUS
 62
   18
 10
1344.6821
 20
847.89699999999993
 11
1240.2956999999999
 21
1237.4724000000001
  0
LINE
  8
_0-1_LAYER003
  6
CONTINUOUS
 62
   18
 10
1430.2294000000002
 20
1033.5045
 11
1457.7725
 21
930.71229999999991
  0
LINE
  8
_0-1_LAYER003
  6
CONTINUOUS
 62
   18
 10
1457.7725
 20
930.71229999999991
 11
1457.7725
 21
938.21229999999991
  0
LINE
  8
_0-1_LAYER003
  6
CONTINUOUS
 62
   18
 10
1454.0225
 20
937.20749999999998
 11
1457.7725
 21
930.71229999999991
  0
LINE
  8
_0-1_LAYER003
  6
CONTINUOUS
 62
   18
 10
1227.7076338256777
 20
1036.9570835970349
 11
1245.3399999999999
 21
988.35670000000005
  0
LINE
  8
_0-1_LAYER003
  6
CONTINUOUS
 62
   18
 10
1228.2873999999999
 20
1035.3589999999999
 11
1439.7975000000001
 21
1112.0953999999999
  0
LINE
  8
_0-1_LAYER003
  6
CONTINUOUS
 62
   18
 10
1456.8501000000001
 20
1065.0932
 11
1429.2817
 21
1141.0802000000001
  0
LINE
  8
_0-1_LAYER003
  6
CONTINUOUS
 62
   18
 10
1429.2817
 20
1141.0802000000001
 11
1706.5949999999998
 21
1241.6903
  0
LINE
  8
_0-1_LAYER003
  6
CONTINUOUS
 62
   18
 10
1723.6475
 20
1194.6880000000001
 11
1705.7422999999999
 21
1244.0404000000001
  0
LINE
  8
_0-1_LAYER003
  6
CONTINUOUS
 62
   18
 10
1745.3154
 20
1181.4891
 11
1749.0654
 21
1174.9938999999999
  0
LINE
  8
_0-1_LAYER003
  6
CONTINUOUS
 62
   18
 10
1749.0654
 20
1174.9938999999999
 11
1749.0654
 21
1182.4938999999999
  0
LINE
  8
_0-1_LAYER003
  6
CONTINUOUS
 62
   18
 10
1748.6147635249006
 20
1176.6756959100062
 11
1696.2716999999998
 21
1372.0224000000003
  0
LINE
  8
_0-1_LAYER003
  6
CONTINUOUS
 62
   18
 10
1672.2130999999999
 20
1334.5309
 11
1713.1678999999999
 21
1181.6856
  0
LINE
  8
_0-1_LAYER003
  6
CONTINUOUS
 62
   18
 10
1713.1678999999999
 20
1181.6856
 11
1713.1678999999999
 21
1189.1856
  0
LINE
  8
_0-1_LAYER003
  6
CONTINUOUS
 62
   18
 10
1713.1678999999999
 20
1181.6856
 11
1709.4178999999999
 21
1188.1808000000001
  0
LINE
  8
_0-1_LAYER003
  6
CONTINUOUS
 62
   18
 10
1783.9007999999999
 20
1193.9350999999999
 11
1692.3465999999999
 21
1177.7916
  0
LINE
  8
_0-1_LAYER003
  6
CONTINUOUS
 62
   18
 10
1692.3465999999999
 20
1177.7916
 11
1694.9512
 21
1163.0195000000001
  0
LINE
  8
_0-1_LAYER003
  6
CONTINUOUS
 62
   18
 10
1694.9512
 20
1163.0195000000001
 11
1671.3692000000001
 21
1154.4363000000001
  0
LINE
  8
_0-1_LAYER003
  6
CONTINUOUS
 62
   18
 10
1671.3692000000001
 20
1154.4363000000001
 11
1677.2818000000002
 21
1155.4566
  0
LINE
  8
_0-1_LAYER003
  6
CONTINUOUS
 62
   18
 10
1694.6635000000001
 20
1176.1694
 11
1697.2680999999998
 21
1161.3973000000001
  0
LINE
  8
_0-1_LAYER003
  6
CONTINUOUS
 62
   18
 10
1697.2680999999998
 20
1161.3973000000001
 11
1785.9007999999999
 21
1177.0255999999999
  0
LINE
  8
_0-1_LAYER003
  6
CONTINUOUS
 62
   18
 10
1785.9007999999999
 20
1177.0255999999999
 11
1783.2961
 21
1191.7977000000001
  0
LINE
  8
_0-1_LAYER003
  6
CONTINUOUS
 62
   18
 10
1783.2961
 20
1191.7977000000001
 11
1694.6635000000001
 21
1176.1694
  0
LINE
  8
_0-1_LAYER003
  6
CONTINUOUS
 62
   18
 10
1694.6635000000001
 20
1176.1694
 11
1785.9007999999999
 21
1177.0255999999999
  0
LINE
  8
_0-1_LAYER003
  6
CONTINUOUS
 62
   18
 10
1755.9007999999999
 20
1163.0256999999999
 11
1761.3040358882777
 21
1160.3239469727125
  0
LINE
  8
_0-1_LAYER003
  6
CONTINUOUS
 62
   18
 10
1761.9007000000001
 20
1154.0256999999999
 11
1755.9007999999999
 21
1151.0255999999999
  0
LINE
  8
_0-1_LAYER003
  6
CONTINUOUS
 62
   18
 10
1761.9007000000001
 20
1160.0255999999999
 11
1755.9007999999999
 21
1163.0256999999999
  0
LINE
  8
_0-1_LAYER003
  6
CONTINUOUS
 62
   18
 10
1765.0789
 20
1188.5854999999999
 11
1767.9149000000002
 21
1187.4668999999999
  0
LINE
  8
_0-1_LAYER003
  6
CONTINUOUS
 62
   18
 10
1767.9149000000002
 20
1187.4668999999999
 11
1772.6046000000001
 21
1160.8735999999999
  0
LINE
  8
_0-1_LAYER003
  6
CONTINUOUS
 62
   18
 10
1776.0463
 20
1152.6346000000001
 11
1772.6046000000001
 21
1160.8735999999999
  0
LINE
  8
_0-1_LAYER003
  6
CONTINUOUS
 62
   18
 10
1776.0463
 20
1152.6346000000001
 11
1776.2547
 21
1161.5174
  0
LINE
  8
_0-1_LAYER003
  6
CONTINUOUS
 62
   18
 10
1776.2547
 20
1161.5174
 11
1771.5648000000001
 21
1188.1092000000001
  0
LINE
  8
_0-1_LAYER003
  6
CONTINUOUS
 62
   18
 10
1771.5648000000001
 20
1188.1092000000001
 11
1773.8483999999999
 21
1190.1318000000001
  0
LINE
  8
_0-1_LAYER003
  6
CONTINUOUS
 62
   18
 10
1785.9007999999999
 20
1137.0255999999999
 11
1759.4047999999998
 21
1172.3536999999999
  0
LINE
  8
_0-0_LAYER001
  6
CONTINUOUS
 62
    2
 10
1744.3825000000002
 20
1149.5241000000001
 11
1761.5585999999998
 21
1149.5241000000001
  0
LINE
  8
_0-1_LAYER003
  6
CONTINUOUS
 62
   18
 10
1761.5585999999998
 20
1149.5241000000001
 11
1744.3825000000002
 21
1149.5241000000001
  0
LINE
  8
_0-1_LAYER003
  6
CONTINUOUS
 62
   18
 10
1761.5585999999998
 20
1168.3431
 11
1761.5585999999998
 21
1149.5241000000001
  0
LINE
  8
_0-1_LAYER003
  6
CONTINUOUS
 62
   18
 10
1777.4063999999998
 20
1161.2701
 11
1775.4652000000001
 21
1154.0256999999999
  0
LINE
  8
_0-1_LAYER003
  6
CONTINUOUS
 62
   18
 10
1775.4652000000001
 20
1154.0256999999999
 11
1780.7685000000001
 21
1159.329
  0
LINE
  8
_0-1_LAYER003
  6
CONTINUOUS
 62
   18
 10
1775.4652000000001
 20
1154.0256999999999
 11
1878.7417
 21
1332.9057
  0
LINE
  8
_0-1_LAYER003
  6
CONTINUOUS
 62
   18
 10
1791.9978999999998
 20
1291.6320999999998
 11
1793.9389999999999
 21
1298.8766000000001
  0
LINE
  8
_0-1_LAYER003
  6
CONTINUOUS
 62
   18
 10
1797.3011999999999
 20
1296.9354000000001
 11
1791.9978999999998
 21
1291.6320999999998
  0
LINE
  8
_0-1_LAYER003
  6
CONTINUOUS
 62
   18
 10
1791.9978999999998
 20
1291.6320999999998
 11
1864.451
 21
1417.1246000000001
  0
LINE
  8
_0-1_LAYER003
  6
CONTINUOUS
 62
   18
 10
1785.9007999999999
 20
1371.9529
 11
1885.9007999999999
 21
1271.9531999999999
  0
LINE
  8
_0-1_LAYER003
  6
CONTINUOUS
 62
   18
 10
1885.9007999999999
 20
1267.7106000000001
 11
1785.9007999999999
 21
1367.7105000000001
  0
LINE
  8
_0-1_LAYER003
  6
CONTINUOUS
 62
   18
 10
1783.3008
 20
1282.3351
 11
1780.5212999999999
 21
1266.9848
  0
LINE
  8
_0-1_LAYER003
  6
CONTINUOUS
 62
   18
 10
1919.1981999999998
 20
1267.6977999999999
 11
1858.0358999999999
 21
1161.7614000000001
  0
LINE
  8
_0-1_LAYER003
  6
CONTINUOUS
 62
   18
 10
1858.0358999999999
 20
1161.7614000000001
 11
1859.9769999999999
 21
1169.0059000000001
  0
LINE
  8
_0-1_LAYER003
  6
CONTINUOUS
 62
   18
 10
1858.0358999999999
 20
1161.7614000000001
 11
1863.3391999999999
 21
1167.0646999999999
  0
LINE
  8
_0-1_LAYER003
  6
CONTINUOUS
 62
   18
 10
1804.1007
 20
1161.2768000000001
 11
1813.1945999999998
 21
1162.8797
  0
LINE
  8
_0-1_LAYER003
  6
CONTINUOUS
 62
   18
 10
1813.1945999999998
 20
1162.8797
 11
1813.4906999999998
 21
1161.2066
  0
LINE
  8
_0-1_LAYER003
  6
CONTINUOUS
 62
   18
 10
1813.4906999999998
 20
1161.2066
 11
1815.1637000000001
 21
1161.5017
  0
LINE
  8
_0-1_LAYER003
  6
CONTINUOUS
 62
   18
 10
1815.1637000000001
 20
1161.5017
 11
1814.8687
 21
1163.1756
  0
LINE
  8
_0-1_LAYER003
  6
CONTINUOUS
 62
   18
 10
1814.8687
 20
1163.1756
 11
1817.5277000000001
 21
1163.6446000000001
  0
LINE
  8
_0-1_LAYER003
  6
CONTINUOUS
 62
   18
 10
1817.5277000000001
 20
1163.6446000000001
 11
1817.8236999999999
 21
1161.9707000000001
  0
LINE
  8
_0-1_LAYER003
  6
CONTINUOUS
 62
   18
 10
1817.8236999999999
 20
1161.9707000000001
 11
1819.4967000000001
 21
1162.2655999999999
  0
LINE
  8
_0-1_LAYER003
  6
CONTINUOUS
 62
   18
 10
1819.4967000000001
 20
1162.2655999999999
 11
1819.2017999999998
 21
1163.9396999999999
  0
LINE
  8
_0-1_LAYER003
  6
CONTINUOUS
 62
   18
 10
1819.2017999999998
 20
1163.9396999999999
 11
1821.8607000000002
 21
1164.4087
  0
LINE
  8
_0-1_LAYER003
  6
CONTINUOUS
 62
   18
 10
1821.8607000000002
 20
1164.4087
 11
1822.1565999999998
 21
1162.7347
  0
LINE
  8
_0-1_LAYER003
  6
CONTINUOUS
 62
   18
 10
1822.1565999999998
 20
1162.7347
 11
1823.8308000000002
 21
1163.0296000000001
  0
LINE
  8
_0-1_LAYER003
  6
CONTINUOUS
 62
   18
 10
1823.8308000000002
 20
1163.0296000000001
 11
1823.5347999999999
 21
1164.7037
  0
LINE
  8
_0-1_LAYER003
  6
CONTINUOUS
 62
   18
 10
1823.5347999999999
 20
1164.7037
 11
1825.0128411389071
 21
1164.965459324256
  0
LINE
  8
_0-1_LAYER003
  6
CONTINUOUS
 62
   18
 10
1825.0128411389071
 20
1164.965459324256
 11
1826.7448313622892
 21
1163.7547057996451
  0
LINE
  8
_0-1_LAYER003
  6
CONTINUOUS
 62
   18
 10
1826.7496999999998
 20
1163.7487000000001
 11
1827.1498000000001
 21
1161.4826
  0
LINE
  8
_0-1_LAYER003
  6
CONTINUOUS
 62
   18
 10
1827.1498000000001
 20
1161.4826
 11
1801.8768
 21
1157.0266999999999
  0
LINE
  8
_0-1_LAYER003
  6
CONTINUOUS
 62
   18
 10
1801.8768
 20
1157.0266999999999
 11
1826.9747000000002
 21
1152.6007
  0
LINE
  8
_0-1_LAYER003
  6
CONTINUOUS
 62
   18
 10
1826.9747000000002
 20
1152.6007
 11
1826.5767999999998
 21
1150.3358000000001
  0
LINE
  8
_0-1_LAYER003
  6
CONTINUOUS
 62
   18
 10
1826.5767999999998
 20
1150.3358000000001
 11
1824.8327068191861
 21
1149.1250791172679
  0
LINE
  8
_0-1_LAYER003
  6
CONTINUOUS
 62
   18
 10
1824.8327068191861
 20
1149.1250791172679
 11
1823.3607000000002
 21
1149.3806999999999
  0
LINE
  8
_0-1_LAYER003
  6
CONTINUOUS
 62
   18
 10
1823.6568000000002
 20
1151.0536
 11
1823.3607000000002
 21
1149.3797
  0
LINE
  8
_0-1_LAYER003
  6
CONTINUOUS
 62
   18
 10
1823.6568000000002
 20
1151.0536
 11
1821.9827
 21
1151.3486
  0
LINE
  8
_0-1_LAYER003
  6
CONTINUOUS
 62
   18
 10
1821.9827
 20
1151.3486
 11
1821.6867999999999
 21
1149.6757
  0
LINE
  8
_0-1_LAYER003
  6
CONTINUOUS
 62
   18
 10
1821.6867999999999
 20
1149.6757
 11
1819.0277000000001
 21
1150.1447000000001
  0
LINE
  8
_0-1_LAYER003
  6
CONTINUOUS
 62
   18
 10
1819.0277000000001
 20
1150.1447000000001
 11
1819.3238000000001
 21
1151.8177000000001
  0
LINE
  8
_0-1_LAYER003
  6
CONTINUOUS
 62
   18
 10
1819.3238000000001
 20
1151.8177000000001
 11
1817.6498000000001
 21
1152.1126999999999
  0
LINE
  8
_0-1_LAYER003
  6
CONTINUOUS
 62
   18
 10
1819.3227999999999
 20
1151.8177000000001
 11
1817.6498000000001
 21
1152.1126999999999
  0
LINE
  8
_0-1_LAYER003
  6
CONTINUOUS
 62
   18
 10
1817.6487999999999
 20
1152.1126999999999
 11
1817.3537999999999
 21
1150.4395999999999
  0
LINE
  8
_0-1_LAYER003
  6
CONTINUOUS
 62
   18
 10
1817.3537999999999
 20
1150.4395999999999
 11
1814.6945999999998
 21
1150.9087
  0
LINE
  8
_0-1_LAYER003
  6
CONTINUOUS
 62
   18
 10
1814.6945999999998
 20
1150.9087
 11
1814.9897000000001
 21
1152.5816
  0
LINE
  8
_0-1_LAYER003
  6
CONTINUOUS
 62
   18
 10
1814.9897000000001
 20
1152.5816
 11
1813.316769742125
 21
1152.8765290394283
  0
LINE
  8
_0-1_LAYER003
  6
CONTINUOUS
 62
   18
 10
1813.316769742125
 20
1152.8765290394283
 11
1813.0207
 21
1151.2037
  0
LINE
  8
_0-1_LAYER003
  6
CONTINUOUS
 62
   18
 10
1813.0207
 20
1151.2037
 11
1804.1007
 21
1152.7755999999999
  0
LINE
  8
_0-1_LAYER003
  6
CONTINUOUS
 62
   18
 10
1785.9007999999999
 20
1160.0255999999999
 11
1885.9007999999999
 21
1059.9531999999999
  0
LINE
  8
_0-1_LAYER003
  6
CONTINUOUS
 62
   18
 10
1885.9007999999999
 20
1055.7104999999999
 11
1785.9007999999999
 21
1155.7104999999999
  0
LINE
  8
_0-1_LAYER003
  6
CONTINUOUS
 62
   18
 10
1735.1224000000002
 20
1135.1858
 11
1758.2727
 21
1142.5043000000001
  0
LINE
  8
_0-1_LAYER003
  6
CONTINUOUS
 62
   18
 10
1758.2727
 20
1142.5043000000001
 11
1762.4546999999998
 21
1139.2184999999999
  0
LINE
  8
_0-1_LAYER003
  6
CONTINUOUS
 62
   18
 10
1762.4546999999998
 20
1139.2184999999999
 11
1742.3800999999999
 21
1117.3496
  0
LINE
  8
_0-1_LAYER003
  6
CONTINUOUS
 62
   18
 10
1742.3800999999999
 20
1117.3496
 11
1735.1224000000002
 21
1115.0226
  0
LINE
  8
_0-1_LAYER003
  6
CONTINUOUS
 62
   18
 10
1765.9396999999999
 20
1047.0501999999999
 11
1738.5821000000001
 21
1034.7393
  0
LINE
  8
_0-1_LAYER003
  6
CONTINUOUS
 62
   18
 10
1738.5821000000001
 20
1034.7393
 11
1744.7375999999999
 21
1021.0604000000001
  0
LINE
  8
_0-1_LAYER003
  6
CONTINUOUS
 62
   18
 10
1744.7375999999999
 20
1021.0604000000001
 11
1765.9396999999999
 21
1047.0501999999999
  0
LINE
  8
_0-1_LAYER003
  6
CONTINUOUS
 62
   18
 10
1765.9396999999999
 20
1047.0501999999999
 11
1772.0952000000002
 21
1033.3714
  0
LINE
  8
_0-1_LAYER003
  6
CONTINUOUS
 62
   18
 10
1772.0952000000002
 20
1033.3714
 11
1744.7375999999999
 21
1021.0604000000001
  0
LINE
  8
_0-1_LAYER003
  6
CONTINUOUS
 62
   18
 10
1560.2402000000002
 20
954.51299999999992
 11
1532.893
 21
942.17900000000009
  0
LINE
  8
_0-1_LAYER003
  6
CONTINUOUS
 62
   18
 10
1532.893
 20
942.17900000000009
 11
1539.0599999999999
 21
928.50540000000001
  0
LINE
  8
_0-1_LAYER003
  6
CONTINUOUS
 62
   18
 10
1539.0599999999999
 20
928.50540000000001
 11
1560.2402000000002
 21
954.51299999999992
  0
LINE
  8
_0-1_LAYER003
  6
CONTINUOUS
 62
   18
 10
1560.2402000000002
 20
954.51299999999992
 11
1566.4072000000001
 21
940.83940000000007
  0
LINE
  8
_0-1_LAYER003
  6
CONTINUOUS
 62
   18
 10
1566.4072000000001
 20
940.83940000000007
 11
1539.0599999999999
 21
928.50540000000001
  0
LINE
  8
_0-1_LAYER003
  6
CONTINUOUS
 62
   18
 10
1677.4690999999998
 20
1073.8623
 11
1684.7136
 21
1075.8034
  0
LINE
  8
_0-1_LAYER003
  6
CONTINUOUS
 62
   18
 10
1684.7136
 20
1075.8034
 11
1679.4103
 21
1070.5001
  0
LINE
  8
_0-1_LAYER003
  6
CONTINUOUS
 62
   18
 10
1684.7136
 20
1075.8034
 11
1679.4103
 21
1070.5001
  0
LINE
  8
_0-1_LAYER003
  6
CONTINUOUS
 62
   18
 10
1679.4103
 20
1070.5001
 11
1684.7136
 21
1075.8034
  0
LINE
  8
_0-1_LAYER003
  6
CONTINUOUS
 62
   18
 10
1684.7136
 20
1075.8034
 11
1583.6089000000002
 21
1017.4305999999999
  0
LINE
  8
_0-1_LAYER003
  6
CONTINUOUS
 62
   18
 10
1583.6089000000002
 20
1017.4305999999999
 11
1524.4641000000001
 21
1238.1619000000001
  0
LINE
  8
_0-1_LAYER003
  6
CONTINUOUS
 62
   18
 10
1600.6124
 20
1292.7703999999999
 11
1651.9227999999998
 21
1101.2773
  0
LINE
  8
_0-1_LAYER003
  6
CONTINUOUS
 62
   18
 10
1651.9227999999998
 20
1101.2773
 11
1651.9227999999998
 21
1108.7773
  0
LINE
  8
_0-1_LAYER003
  6
CONTINUOUS
 62
   18
 10
1651.9227999999998
 20
1101.2773
 11
1648.1727999999998
 21
1107.7725
  0
ARC
  8
_0-1_LAYER003
  6
CONTINUOUS
 62
   18
 10
1662.3576183952482
 20
1121.9874653819588
 40
13.88913052584498
 50
338.59153301488482
 51
9.8334499851151076
  0
ARC
  8
_0-1_LAYER003
  6
CONTINUOUS
 62
   18
 10
1514.6640977051625
 20
1069.7326335743262
 40
161.69636803804048
 50
346.47943316116204
 51
8.9046248388380516
  0
ARC
  8
_0-1_LAYER003
  6
CONTINUOUS
 62
   18
 10
1766.4006273210994
 20
1292.7350814711403
 40
22.100224285050693
 50
337.88505824513402
 51
28.072231261341102
  0
TEXT
  8
_0-0_LAYER001
 62
    7
 10
1447.8357222441148
 20
1243.9371447963099
 40
20
 41
1
 50
0
  1
葺　土　
  0
TEXT
  8
_0-0_LAYER001
 62
    7
 10
1864.2029907531517
 20
1418.8606718030655
 40
20
 41
1
 50
0
  1
シーリング
  0
TEXT
  8
_0-0_LAYER001
 62
    7
 10
1070.6564622009132
 20
1240.8132190301974
 40
20
 41
1
 50
0
  1
瓦桟：15x30以上　
  0
TEXT
  8
_0-0_LAYER001
 62
    7
 10
835.42343743535776
 20
1181.625554734348
 40
20
 41
1
 50
0
  1
　野地板：硬質木片セメントパネルt＝25　
  0
TEXT
  8
_0-0_LAYER001
 62
    7
 10
1022.0922248299597
 20
1210.4605706733516
 40
20
 41
1
 50
0
  1
下葺材：ルーフィング　
  0
TEXT
  8
_0-0_LAYER001
 62
    7
 10
920.41085283452617
 20
1149.7552739596599
 40
20
 41
1
 50
0
  1
　鋼製：C－100x50x20x2.3　@606　
  0
TEXT
  8
_0-0_LAYER001
 62
    7
 10
1352.9360919195792
 20
1337.9416937721041
 40
20
 41
1
 50
0
  1
雨押水切カラー鋼板0.35ｍｍ以上
  0
TEXT
  8
_0-0_LAYER001
 62
    7
 10
1328.6539732341025
 20
1089.0499772459682
 40
20
 41
1
 50
19.940916999999995
  1
225
  0
TEXT
  8
_0-0_LAYER001
 62
    7
 10
1550.2283062390775
 20
1193.7666140770864
 40
20
 41
1
 50
19.940917000000013
  1
295
  0
TEXT
  8
_0-0_LAYER001
 62
    7
 10
1629.1451919668766
 20
1286.3421915654662
 40
20
 41
1
 50
90
  1
20
  0
TEXT
  8
_0-0_LAYER001
 62
    7
 10
1661.0154727415645
 20
1233.225056940986
 40
20
 41
1
 50
90
  1
90
  0
TEXT
  8
_0-0_LAYER001
 62
    7
 10
1724.7560342909405
 20
1348.5651206970001
 40
20
 41
1
 50
0
  1
100
  0
TEXT
  8
_0-0_LAYER001
 62
    7
 10
1878.0369084930123
 20
1347.0474882791577
 40
20
 41
1
 50
0
  1
下地：40x30
  0
TEXT
  8
_0-0_LAYER001
 62
    7
 10
1917.4953513569119
 20
1269.648234969201
 40
20
 41
1
 50
0
  1
ALCパネルt＝100
  0
TEXT
  8
_0-0_LAYER001
 62
    7
 10
2025.2472530237146
 20
1014.685988771696
 40
20
 41
1
 50
90
  1
下葺き材立上がり寸法
  0
TEXT
  8
_0-0_LAYER001
 62
    7
 10
1973.6477508170765
 20
1098.155771753022
 40
20
 41
1
 50
90
  1
150
  0
TEXT
  8
_0-0_LAYER001
 62
    7
 10
1371.1476809336866
 20
1035.9328426214881
 40
20
 41
1
 50
0
  1
桟　瓦
  0
LINE
  8
_0-0_LAYER001
  6
CONTINUOUS
 62
    2
 10
1263.2715000000001
 20
1147.644
 11
959.86929569842573
 21
1147.644
  0
LINE
  8
_0-1_LAYER003
  6
CONTINUOUS
 62
   18
 10
938.62244184863357
 20
1147.644
 11
1263.2715000000001
 21
1147.644
  0
LINE
  8
_0-0_LAYER001
  6
CONTINUOUS
 62
    2
 10
1254.9630999999999
 20
1177.6249
 11
846.04686436025395
 21
1177.6249
  0
LINE
  8
_0-1_LAYER003
  6
CONTINUOUS
 62
   18
 10
843.01159952456931
 20
1177.6249
 11
1254.9630999999999
 21
1177.6249
  0
LINE
  8
_0-0_LAYER001
  6
CONTINUOUS
 62
    2
 10
1247.4689000000001
 20
1207.6059
 11
1019.0569599942751
 21
1207.6059
  0
LINE
  8
_0-1_LAYER003
  6
CONTINUOUS
 62
   18
 10
1017.5393275764328
 20
1207.6059
 11
1247.4689000000001
 21
1207.6059
  0
LINE
  8
_0-0_LAYER001
  6
CONTINUOUS
 62
    2
 10
1240.2956999999999
 20
1237.4724000000001
 11
1064.5859325295439
 21
1237.4724000000001
  0
LINE
  8
_0-1_LAYER003
  6
CONTINUOUS
 62
   18
 10
1064.5859325295439
 20
1237.4724000000001
 11
1240.2956999999999
 21
1237.4724000000001
  0
LINE
  8
_0-0_LAYER001
  6
CONTINUOUS
 62
    2
 10
1672.2130999999999
 20
1334.5309
 11
1346.8655622482102
 21
1334.5309
  0
LINE
  8
_0-1_LAYER003
  6
CONTINUOUS
 62
   18
 10
1343.8302974125256
 20
1334.5309
 11
1672.2130999999999
 21
1334.5309
  0
LINE
  8
_0-0_LAYER001
  6
CONTINUOUS
 62
    2
 10
1600.6124
 20
1292.7703999999999
 11
1454.6174639150129
 21
1292.7703999999999
  0
LINE
  8
_0-1_LAYER003
  6
CONTINUOUS
 62
   18
 10
1443.9940369901169
 20
1292.7703999999999
 11
1600.6124
 21
1292.7703999999999
  0
LINE
  8
_0-0_LAYER001
  6
CONTINUOUS
 62
    2
 10
1430.2294000000002
 20
1033.5045
 11
1369.6300485158445
 21
1033.5045
  0
LINE
  8
_0-1_LAYER003
  6
CONTINUOUS
 62
   18
 10
1366.5947836801597
 20
1033.5045
 11
1430.2294000000002
 21
1033.5045
  0
LINE
  8
_0-0_LAYER001
  6
CONTINUOUS
 62
    2
 10
1864.451
 20
1417.1246000000001
 11
1959.9890590564962
 21
1417.1246000000001
  0
LINE
  8
_0-1_LAYER003
  6
CONTINUOUS
 62
   18
 10
1864.451
 20
1417.1246000000001
 11
1956.9537942208115
 21
1417.1246000000001
  0
TEXT
  8
_0-0_LAYER001
 62
    7
 10
1562.3693655818156
 20
1380.4354014716885
 40
20
 41
1
 50
0
  1
笠木：15x90
  0
TEXT
  8
_0-0_LAYER001
 62
    7
 10
1448.5469342436436
 20
1295.4479860725201
 40
20
 41
1
 50
0
  1
熨斗瓦２段積み
  0
ENDSEC
  0
EOF
