  0
SECTION
  2
HEADER
  9
$ACADVER
  1
AC1009
  9
$INSBASE
 10
0
 20
0
 30
0
  9
$EXTMIN
 10
0
 20
0
  9
$EXTMAX
 10
2970
 20
2100
  9
$LIMMIN
 10
0
 20
0
  9
$LIMMAX
 10
2970
 20
2100
  9
$LTSCALE
 40
10
  0
ENDSEC
  0
SECTION
  2
TABLES
  0
TABLE
  2
LTYPE
 70
     9
  0
LTYPE
  2
CONTINUOUS
 70
    64
  3
実線
 72
    65
 73
     0
 40
0.0
  0
LTYPE
  2
DASHED1
 70
    64
  3
--  --  --  --  --  --  --  --  
 72
    65
 73
     2
 40
2.5
 49
1.25
 49
-1.25
  0
LTYPE
  2
DASHED2
 70
    64
  3
----    ----    ----    ----    
 72
    65
 73
     2
 40
5.0
 49
2.5
 49
-2.5
  0
LTYPE
  2
DASHED3
 70
    64
  3
------  ------  ------  ------  
 72
    65
 73
     2
 40
5.0
 49
3.75
 49
-1.25
  0
LTYPE
  2
CENTER1
 70
    64
  3
----- - ----- - ----- - ----- - 
 72
    65
 73
     4
 40
10.0
 49
6.25
 49
-1.25
 49
1.25
 49
-1.25
  0
LTYPE
  2
CENTER2
 70
    64
  3
----------  --  ----------  --  
 72
    65
 73
     4
 40
20.0
 49
12.5
 49
-2.5
 49
2.5
 49
-2.5
  0
LTYPE
  2
PHANTOM1
 70
    64
  3
--- - - --- - - --- - - --- - - 
 72
    65
 73
     6
 40
10.0
 49
3.25
 49
-1.25
 49
1.25
 49
-1.25
 49
1.25
 49
-1.25
  0
LTYPE
  2
PHANTOM2
 70
    64
  3
--------  -  -  --------  -  -  
 72
    65
 73
     6
 40
20.0
 49
10.0
 49
-2.5
 49
1.25
 49
-2.5
 49
1.25
 49
-2.5
  0
LTYPE
  2
DOT
 70
    64
  3
-   -   -   -   -   -   -   -   
 72
    65
 73
     2
 40
2.5
 49
0.625
 49
-1.875
  0
LTYPE
  2
DUMMY
 70
    64
  3
ダミー
 72
    65
 73
     0
 40
0.0
  0
LTYPE
  2
RAND1
 70
    64
  3
ランダム線1
 72
    65
 73
     4
 40
10.0
 49
1.0
 49
-2.0
 49
3.0
 49
-4.0
  0
LTYPE
  2
RAND2
 70
    64
  3
ランダム線2
 72
    65
 73
     4
 40
14.0
 49
2.0
 49
-3.0
 49
4.0
 49
-5.0
  0
LTYPE
  2
RAND3
 70
    64
  3
ランダム線3
 72
    65
 73
     4
 40
18.0
 49
3.0
 49
-4.0
 49
5.0
 49
-6.0
  0
LTYPE
  2
RAND4
 70
    64
  3
ランダム線4
 72
    65
 73
     4
 40
22.0
 49
4.0
 49
-5.0
 49
6.0
 49
-7.0
  0
LTYPE
  2
RAND5
 70
    64
  3
ランダム線5
 72
    65
 73
     4
 40
26.0
 49
5.0
 49
-6.0
 49
7.0
 49
-8.0
  0
LTYPE
  2
LONG1
 70
    64
  3
----------  --  ----------  --  
 72
    65
 73
     4
 40
40.0
 49
32.5
 49
-2.5
 49
2.5
 49
-2.5
  0
LTYPE
  2
LONG2
 70
    64
  3
--------  -  -  --------  -  -  
 72
    65
 73
     6
 40
40.0
 49
30.0
 49
-2.5
 49
1.25
 49
-2.5
 49
1.25
 49
-2.5
  0
LTYPE
  2
LONG3
 70
    64
  3
+++++++++++++++..+++++++++++++++
 72
    65
 73
     2
 40
40.0
 49
37.5
 49
-2.5
  0
LTYPE
  2
LONG4
 70
    64
  3
+++++++++++++++..+++++++++++++++
 72
    65
 73
     2
 40
80.0
 49
75.0
 49
-5.0
  0
LTYPE
  2
LONG5
 70
    64
  3
----------  --  ----------  --  
 72
    65
 73
     4
 40
60.0
 49
37.5
 49
-7.5
 49
7.5
 49
-7.5
  0
LTYPE
  2
dashed
 70
   64
  3
-------   -------------   ------
 72
   65
 73
    2
 40
7.5
 49
6
 49
-1.5
  0
LTYPE
  2
dashed_spaced
 70
   64
  3
----        --------        ----
 72
   65
 73
    2
 40
12
 49
6
 49
-6
  0
LTYPE
  2
long_dashed_dotted
 70
   64
  3
------------- --- --------------
 72
   65
 73
    4
 40
15.25
 49
12
 49
-1.5
 49
0.25
 49
-1.5
  0
LTYPE
  2
long_dashed_double-dotted
 70
   64
  3
----------- --- --- ------------
 72
   65
 73
    6
 40
17
 49
12
 49
-1.5
 49
0.25
 49
-1.5
 49
0.25
 49
-1.5
  0
LTYPE
  2
long_dashed_triplicate-dotted
 70
   64
  3
--------- --- --- --- ----------
 72
   65
 73
    8
 40
18.75
 49
12
 49
-1.5
 49
0.25
 49
-1.5
 49
0.25
 49
-1.5
 49
0.25
 49
-1.5
  0
LTYPE
  2
dotted
 70
   64
  3
   -       -       -       -    
 72
   65
 73
    2
 40
1.75
 49
0.25
 49
-1.5
  0
LTYPE
  2
chain
 70
   64
  3
-------------- -- --------------
 72
   65
 73
    4
 40
18.5
 49
12
 49
-1.5
 49
3.5
 49
-1.5
  0
LTYPE
  2
chain_double_dash
 70
   64
  3
------------ -- -- -------------
 72
   65
 73
    6
 40
23.5
 49
12
 49
-1.5
 49
3.5
 49
-1.5
 49
3.5
 49
-1.5
  0
LTYPE
  2
dashed_dotted
 70
   64
  3
-----------     -     ----------
 72
   65
 73
    4
 40
9.25
 49
6
 49
-1.5
 49
0.25
 49
-1.5
  0
LTYPE
  2
double-dashed_dotted
 70
   64
  3
------   -----------   -   -----
 72
   65
 73
    6
 40
16.75
 49
6
 49
-1.5
 49
6
 49
-1.5
 49
0.25
 49
-1.5
  0
LTYPE
  2
dashed_double-dotted
 70
   64
  3
---------    -    -    ---------
 72
   65
 73
    6
 40
11
 49
6
 49
-1.5
 49
0.25
 49
-1.5
 49
0.25
 49
-1.5
  0
LTYPE
  2
double-dashed_double-dotted
 70
   64
  3
-----   ---------   -   -   ----
 72
   65
 73
    8
 40
18.5
 49
6
 49
-1.5
 49
6
 49
-1.5
 49
0.25
 49
-1.5
 49
0.25
 49
-1.5
  0
LTYPE
  2
dashed_triplicate-dotted
 70
   64
  3
-------    -    -    -    ------
 72
   65
 73
    8
 40
12.75
 49
6
 49
-1.5
 49
0.25
 49
-1.5
 49
0.25
 49
-1.5
 49
0.25
 49
-1.5
  0
LTYPE
  2
double-dashed_triplicate-dotted
 70
   64
  3
-----  ---------  -  -  -  -----
 72
   65
 73
   10
 40
20.25
 49
6
 49
-1.5
 49
6
 49
-1.5
 49
0.25
 49
-1.5
 49
0.25
 49
-1.5
 49
0.25
 49
-1.5
  0
LTYPE
  2
undefined
 70
   64
  3
--------------------------------
 72
   65
 73
    0
 40
0
  0
ENDTAB
  0
TABLE
  2
STYLE
  5
3
100
AcDbSymbolTable
 70
     1
  0
STYLE
  5
10
100
AcDbSymbolTableRecord
100
AcDbTextStyleTableRecord
  2
STANDARD
 70
     0
 40
0.0
 41
1.0
 50
0.0
 71
     0
 42
0.2
  3
txt
  4
bigfont.shx
  0
STYLE
  5
26
100
AcDbSymbolTableRecord
100
AcDbTextStyleTableRecord
  2
TATEGAKI
 70
    68
 40
0.0
 41
1.0
 50
0.0
 71
     0
 42
1.0
  3
txt
  4
bigfont.shx
  0
ENDTAB
  0
TABLE
  2
LAYER
 70
    3
  0
LAYER
  2
_0-0_LAYER001
 70
   64
 62
    7
  6
CONTINUOUS
  0
LAYER
  2
_0-1_LAYER004
 70
   64
 62
    7
  6
CONTINUOUS
  0
LAYER
  2
ADD_LINE
 70
   64
 62
    7
  6
CONTINUOUS
  0
ENDTAB
  0
ENDSEC
  0
SECTION
  2
BLOCKS
  0
ENDSEC
  0
SECTION
  2
ENTITIES
  0
LINE
  8
_0-0_LAYER001
  6
CONTINUOUS
 62
    2
 10
2116.1495
 20
1040.837
 11
1289.1887999999999
 21
1040.837
  0
LINE
  8
_0-0_LAYER001
  6
CONTINUOUS
 62
    2
 10
1755.3896
 20
969.83699999999999
 11
1805.3895000000002
 21
1019.837
  0
LINE
  8
_0-0_LAYER001
  6
CONTINUOUS
 62
    2
 10
1751.1469999999999
 20
969.83699999999999
 11
1801.1468
 21
1019.837
  0
LINE
  8
_0-0_LAYER001
  6
CONTINUOUS
 62
    2
 10
1967.5218
 20
969.83699999999999
 11
2017.5216
 21
1019.837
  0
LINE
  8
_0-0_LAYER001
  6
CONTINUOUS
 62
    2
 10
1963.2791000000002
 20
969.83699999999999
 11
2013.2788999999998
 21
1019.837
  0
LINE
  8
_0-0_LAYER001
  6
CONTINUOUS
 62
    2
 10
1167.1886999999999
 20
784.60259999999994
 11
1167.1886999999999
 21
837.10259999999994
  0
CIRCLE
  8
_0-0_LAYER001
  6
CONTINUOUS
 62
    2
 10
1167.1886999999999
 20
787.10259999999994
 40
1.6999999999999997
  0
LINE
  8
_0-0_LAYER001
  6
CONTINUOUS
 62
    2
 10
1167.1886999999999
 20
787.10259999999994
 11
1287.1886999999997
 21
787.10259999999994
  0
CIRCLE
  8
_0-0_LAYER001
  6
CONTINUOUS
 62
    2
 10
1287.1886999999997
 20
787.10259999999994
 40
1.6999999999999997
  0
LINE
  8
_0-0_LAYER001
  6
CONTINUOUS
 62
    2
 10
1287.1886999999997
 20
784.60259999999994
 11
1287.1886999999997
 21
837.10259999999994
  0
LINE
  8
_0-0_LAYER001
  6
CONTINUOUS
 62
    2
 10
1251.6396
 20
1018.2899
 11
1251.6396
 21
1025.7899
  0
LINE
  8
_0-0_LAYER001
  6
CONTINUOUS
 62
    2
 10
1251.6396
 20
1025.7899
 11
1255.3896
 21
1019.2946999999999
  0
LINE
  8
_0-0_LAYER001
  6
CONTINUOUS
 62
    2
 10
1251.6396
 20
1025.7899
 11
1316.9622999999999
 21
782.00240000000008
  0
LINE
  8
_0-0_LAYER001
  6
CONTINUOUS
 62
    2
 10
1090.7079000000001
 20
1012.4954
 11
1096.0111999999999
 21
1017.7987000000001
  0
LINE
  8
_0-0_LAYER001
  6
CONTINUOUS
 62
    2
 10
1096.0111999999999
 20
1017.7987000000001
 11
1094.0700999999999
 21
1010.5542
  0
LINE
  8
_0-0_LAYER001
  6
CONTINUOUS
 62
    2
 10
1096.0111999999999
 20
1017.7987000000001
 11
1033.8504
 21
910.13290000000006
  0
LINE
  8
_0-0_LAYER001
  6
CONTINUOUS
 62
    2
 10
1033.8504
 20
910.13290000000006
 11
853.85040000000004
 21
910.13290000000006
  0
LINE
  8
_0-0_LAYER001
  6
CONTINUOUS
 62
    2
 10
869.55140000000006
 20
1019.837
 11
922.05140000000006
 21
1019.837
  0
CIRCLE
  8
_0-0_LAYER001
  6
CONTINUOUS
 62
    2
 10
872.05140000000006
 20
1019.837
 40
1.6999999999999997
  0
LINE
  8
_0-0_LAYER001
  6
CONTINUOUS
 62
    2
 10
872.05140000000006
 20
1019.837
 11
872.05140000000006
 21
1219.837
  0
CIRCLE
  8
_0-0_LAYER001
  6
CONTINUOUS
 62
    2
 10
872.05140000000006
 20
1219.837
 40
1.6999999999999997
  0
LINE
  8
_0-0_LAYER001
  6
CONTINUOUS
 62
    2
 10
869.55140000000006
 20
1219.837
 11
922.05140000000006
 21
1219.837
  0
CIRCLE
  8
_0-0_LAYER001
  6
CONTINUOUS
 62
    2
 10
1228.636
 20
1079.5887
 40
0.8999999999999999
  0
CIRCLE
  8
_0-0_LAYER001
  6
CONTINUOUS
 62
    2
 10
1244.7211
 20
1084.635
 40
0.8999999999999999
  0
CIRCLE
  8
_0-0_LAYER001
  6
CONTINUOUS
 62
    2
 10
1231.8864000000001
 20
1091.9906000000001
 40
0.8999999999999999
  0
CIRCLE
  8
_0-0_LAYER001
  6
CONTINUOUS
 62
    2
 10
1245.3965000000001
 20
1092.7209
 40
0.8999999999999999
  0
CIRCLE
  8
_0-0_LAYER001
  6
CONTINUOUS
 62
    2
 10
1238.4589000000001
 20
1073.7337
 40
0.8999999999999999
  0
LINE
  8
_0-0_LAYER001
  6
CONTINUOUS
 62
    2
 10
1169.1886999999999
 20
1441.4287999999999
 11
1169.1886999999999
 21
1423.9287999999999
  0
CIRCLE
  8
_0-0_LAYER001
  6
CONTINUOUS
 62
    2
 10
1169.1886999999999
 20
1438.9287999999999
 40
1.6999999999999997
  0
LINE
  8
_0-0_LAYER001
  6
CONTINUOUS
 62
    2
 10
1169.1886999999999
 20
1438.9287999999999
 11
1261.1886999999999
 21
1438.9287999999999
  0
CIRCLE
  8
_0-0_LAYER001
  6
CONTINUOUS
 62
    2
 10
1261.1886999999999
 20
1438.9287999999999
 40
1.6999999999999997
  0
LINE
  8
_0-0_LAYER001
  6
CONTINUOUS
 62
    2
 10
1261.1886999999999
 20
1441.4287999999999
 11
1261.1886999999999
 21
1423.9287999999999
  0
LINE
  8
_0-0_LAYER001
  6
CONTINUOUS
 62
    2
 10
2116.1495
 20
1025.837
 11
1289.1887999999999
 21
1025.837
  0
ARC
  8
_0-0_LAYER001
  6
CONTINUOUS
 62
    2
 10
1278.4002
 20
1142.0797
 40
30.723106000000001
 50
185.84963999999999
 51
210.05934999999999
  0
ARC
  8
_0-0_LAYER001
  6
CONTINUOUS
 62
    2
 10
1374.3534
 20
1116.3042
 40
127.95164
 50
182.67926
 51
206.16341
  0
LINE
  8
_0-0_LAYER001
  6
CONTINUOUS
 62
    2
 10
1281.7203
 20
1152.2476999999999
 11
1258.1383000000001
 21
1160.8308999999999
  0
LINE
  8
_0-0_LAYER001
  6
CONTINUOUS
 62
    2
 10
1281.7203
 20
1152.2476999999999
 11
1275.8077000000001
 21
1153.268
  0
LINE
  8
_0-0_LAYER001
  6
CONTINUOUS
 62
    2
 10
1255.8214
 20
1159.2085999999999
 11
1167.1886999999999
 21
1174.837
  0
LINE
  8
_0-0_LAYER001
  6
CONTINUOUS
 62
    2
 10
1258.4260999999999
 20
1173.9807000000001
 11
1169.7934
 21
1189.6090999999999
  0
LINE
  8
_0-0_LAYER001
  6
CONTINUOUS
 62
    2
 10
1258.4260999999999
 20
1173.9807000000001
 11
1255.8214
 21
1159.2085999999999
  0
LINE
  8
_0-0_LAYER001
  6
CONTINUOUS
 62
    2
 10
1169.7934
 20
1189.6090999999999
 11
1167.1886999999999
 21
1174.837
  0
LINE
  8
_0-0_LAYER001
  6
CONTINUOUS
 62
    2
 10
1167.1886999999999
 20
1174.837
 11
1258.4260999999999
 21
1173.9807000000001
  0
LINE
  8
_0-0_LAYER001
  6
CONTINUOUS
 62
    2
 10
1260.7429
 20
1175.6030000000001
 11
1258.1383000000001
 21
1160.8308999999999
  0
LINE
  8
_0-0_LAYER001
  6
CONTINUOUS
 62
    2
 10
1119.1886999999999
 20
1154.837
 11
1124.1887999999999
 21
1157.8369
  0
LINE
  8
_0-0_LAYER001
  6
CONTINUOUS
 62
    2
 10
1124.1887999999999
 20
1151.837
 11
1119.1886999999999
 21
1154.837
  0
LINE
  8
_0-0_LAYER001
  6
CONTINUOUS
 62
    2
 10
1125.2637999999999
 20
1151.837
 11
1122.4148
 21
1156.7731000000001
  0
LINE
  8
_0-0_LAYER001
  6
CONTINUOUS
 62
    2
 10
1191.1887999999999
 20
1151.837
 11
1191.1887999999999
 21
1157.8369
  0
LINE
  8
_0-0_LAYER001
  6
CONTINUOUS
 62
    2
 10
1197.1886999999999
 20
1148.8369
 11
1197.1886999999999
 21
1160.837
  0
LINE
  8
_0-0_LAYER001
  6
CONTINUOUS
 62
    2
 10
1188.3018
 20
1151.837
 11
1184.8387
 21
1157.8369
  0
LINE
  8
_0-0_LAYER001
  6
CONTINUOUS
 62
    2
 10
1197.1886999999999
 20
1148.8369
 11
1191.1887999999999
 21
1151.837
  0
LINE
  8
_0-0_LAYER001
  6
CONTINUOUS
 62
    2
 10
1191.1887999999999
 20
1157.8369
 11
1197.1886999999999
 21
1160.837
  0
LINE
  8
_0-0_LAYER001
  6
CONTINUOUS
 62
    2
 10
1124.1887999999999
 20
1157.8369
 11
1134.2038
 21
1157.8369
  0
LINE
  8
_0-0_LAYER001
  6
CONTINUOUS
 62
    2
 10
1142.8557000000001
 20
1153.3641
 11
1140.9617000000001
 21
1156.645
  0
LINE
  8
_0-0_LAYER001
  6
CONTINUOUS
 62
    2
 10
1134.4717000000001
 20
1151.886
 11
1131.0368000000001
 21
1157.8369
  0
LINE
  8
_0-0_LAYER001
  6
CONTINUOUS
 62
    2
 10
1124.1887999999999
 20
1151.837
 11
1134.1957
 21
1151.837
  0
LINE
  8
_0-0_LAYER001
  6
CONTINUOUS
 62
    2
 10
1126.3398
 20
1161.5599999999999
 11
1125.9398000000001
 21
1159.2940000000001
  0
LINE
  8
_0-0_LAYER001
  6
CONTINUOUS
 62
    2
 10
1126.5127
 20
1148.1470999999999
 11
1126.1148000000001
 21
1150.412
  0
LINE
  8
_0-0_LAYER001
  6
CONTINUOUS
 62
    2
 10
1130.9329
 20
1160.546
 11
1129.2588000000001
 21
1160.8409999999999
  0
LINE
  8
_0-0_LAYER001
  6
CONTINUOUS
 62
    2
 10
1135.2657999999999
 20
1159.7819999999999
 11
1133.5927999999999
 21
1160.077
  0
LINE
  8
_0-0_LAYER001
  6
CONTINUOUS
 62
    2
 10
1139.5988
 20
1159.018
 11
1137.9259
 21
1159.3130000000001
  0
LINE
  8
_0-0_LAYER001
  6
CONTINUOUS
 62
    2
 10
1139.8949
 20
1160.6911
 11
1148.9888000000001
 21
1159.0880999999999
  0
LINE
  8
_0-0_LAYER001
  6
CONTINUOUS
 62
    2
 10
1135.5617999999999
 20
1161.4549999999999
 11
1138.2208000000001
 21
1160.9860000000001
  0
LINE
  8
_0-0_LAYER001
  6
CONTINUOUS
 62
    2
 10
1131.2288000000001
 20
1162.2191
 11
1133.8878
 21
1161.7501
  0
LINE
  8
_0-0_LAYER001
  6
CONTINUOUS
 62
    2
 10
1128.0769
 20
1162.7750000000001
 11
1129.5546999999999
 21
1162.5138999999999
  0
LINE
  8
_0-0_LAYER001
  6
CONTINUOUS
 62
    2
 10
1129.2588000000001
 20
1160.8409999999999
 11
1129.5546999999999
 21
1162.5150000000001
  0
LINE
  8
_0-0_LAYER001
  6
CONTINUOUS
 62
    2
 10
1130.9329
 20
1160.546
 11
1131.2288000000001
 21
1162.2201
  0
LINE
  8
_0-0_LAYER001
  6
CONTINUOUS
 62
    2
 10
1133.5916999999999
 20
1160.077
 11
1133.8878
 21
1161.7511
  0
LINE
  8
_0-0_LAYER001
  6
CONTINUOUS
 62
    2
 10
1135.2657999999999
 20
1159.7819999999999
 11
1135.5617999999999
 21
1161.4559999999999
  0
LINE
  8
_0-0_LAYER001
  6
CONTINUOUS
 62
    2
 10
1137.9248
 20
1159.3130000000001
 11
1138.2208000000001
 21
1160.9870000000001
  0
LINE
  8
_0-0_LAYER001
  6
CONTINUOUS
 62
    2
 10
1139.5988
 20
1159.018
 11
1139.8949
 21
1160.692
  0
LINE
  8
_0-0_LAYER001
  6
CONTINUOUS
 62
    2
 10
1131.1078
 20
1149.1600000000001
 11
1129.4337
 21
1148.865
  0
LINE
  8
_0-0_LAYER001
  6
CONTINUOUS
 62
    2
 10
1135.4407000000001
 20
1149.924
 11
1133.7668000000001
 21
1149.6289999999999
  0
LINE
  8
_0-0_LAYER001
  6
CONTINUOUS
 62
    2
 10
1139.7737999999999
 20
1150.6880000000001
 11
1138.0998
 21
1150.393
  0
LINE
  8
_0-0_LAYER001
  6
CONTINUOUS
 62
    2
 10
1139.7728
 20
1150.6880000000001
 11
1140.0688
 21
1149.0151000000001
  0
LINE
  8
_0-0_LAYER001
  6
CONTINUOUS
 62
    2
 10
1138.0988
 20
1150.393
 11
1138.3949
 21
1148.72
  0
LINE
  8
_0-0_LAYER001
  6
CONTINUOUS
 62
    2
 10
1135.4396999999999
 20
1149.924
 11
1135.7357999999999
 21
1148.251
  0
LINE
  8
_0-0_LAYER001
  6
CONTINUOUS
 62
    2
 10
1133.7657999999999
 20
1149.6289999999999
 11
1134.0617999999999
 21
1147.9559999999999
  0
LINE
  8
_0-0_LAYER001
  6
CONTINUOUS
 62
    2
 10
1131.1068
 20
1149.1600000000001
 11
1131.4027000000001
 21
1147.4870000000001
  0
LINE
  8
_0-0_LAYER001
  6
CONTINUOUS
 62
    2
 10
1129.4328
 20
1148.865
 11
1129.7288000000001
 21
1147.1921
  0
LINE
  8
_0-0_LAYER001
  6
CONTINUOUS
 62
    2
 10
1140.0688
 20
1149.0151000000001
 11
1148.9888000000001
 21
1150.587
  0
LINE
  8
_0-0_LAYER001
  6
CONTINUOUS
 62
    2
 10
1135.7357999999999
 20
1148.251
 11
1138.3949
 21
1148.72
  0
LINE
  8
_0-0_LAYER001
  6
CONTINUOUS
 62
    2
 10
1131.4027000000001
 20
1147.4870000000001
 11
1134.0617999999999
 21
1147.9559999999999
  0
LINE
  8
_0-0_LAYER001
  6
CONTINUOUS
 62
    2
 10
1128.2517
 20
1146.931
 11
1129.7288000000001
 21
1147.191
  0
LINE
  8
_0-0_LAYER001
  6
CONTINUOUS
 62
    2
 10
1151.2127
 20
1154.8380999999999
 11
1125.9398000000001
 21
1159.2940000000001
  0
LINE
  8
_0-0_LAYER001
  6
CONTINUOUS
 62
    2
 10
1151.2127
 20
1154.8380999999999
 11
1126.1148000000001
 21
1150.412
  0
LINE
  8
_0-0_LAYER001
  6
CONTINUOUS
 62
    2
 10
1167.1886999999999
 20
1159.087
 11
1148.9888000000001
 21
1159.087
  0
LINE
  8
_0-0_LAYER001
  6
CONTINUOUS
 62
    2
 10
1167.1886999999999
 20
1150.587
 11
1148.9888000000001
 21
1150.587
  0
LINE
  8
_0-0_LAYER001
  6
CONTINUOUS
 62
    2
 10
1167.1886999999999
 20
1150.587
 11
1167.1886999999999
 21
1159.087
  0
LINE
  8
_0-0_LAYER001
  6
CONTINUOUS
 62
    2
 10
1197.1886999999999
 20
1134.837
 11
1167.1886999999999
 21
1134.837
  0
LINE
  8
_0-0_LAYER001
  6
CONTINUOUS
 62
    2
 10
1167.1886999999999
 20
1157.8369
 11
1191.1887999999999
 21
1157.8369
  0
LINE
  8
_0-0_LAYER001
  6
CONTINUOUS
 62
    2
 10
1167.1886999999999
 20
1151.837
 11
1191.1887999999999
 21
1151.837
  0
LINE
  8
_0-0_LAYER001
  6
CONTINUOUS
 62
    2
 10
1182.5787
 20
1151.837
 11
1179.1156000000001
 21
1157.8369
  0
LINE
  8
_0-0_LAYER001
  6
CONTINUOUS
 62
    2
 10
1176.8554999999999
 20
1151.837
 11
1173.3924999999999
 21
1157.8369
  0
LINE
  8
_0-0_LAYER001
  6
CONTINUOUS
 62
    2
 10
1171.1324
 20
1151.837
 11
1167.6693
 21
1157.8369
  0
LINE
  8
_0-0_LAYER001
  6
CONTINUOUS
 62
    2
 10
1197.1886999999999
 20
1134.837
 11
1197.1886999999999
 21
1169.5471
  0
LINE
  8
_0-0_LAYER001
  6
CONTINUOUS
 62
    2
 10
1167.1886999999999
 20
1134.837
 11
1193.6848
 21
1170.165
  0
LINE
  8
_0-0_LAYER001
  6
CONTINUOUS
 62
    2
 10
1260.7429
 20
1175.6030000000001
 11
1169.1886999999999
 21
1191.7465
  0
LINE
  8
_0-0_LAYER001
  6
CONTINUOUS
 62
    2
 10
1188.0106000000001
 20
1186.3969
 11
1179.2411999999999
 21
1187.9431999999999
  0
LINE
  8
_0-0_LAYER001
  6
CONTINUOUS
 62
    2
 10
1180.4848999999999
 20
1158.6849
 11
1177.0432000000001
 21
1150.4459999999999
  0
LINE
  8
_0-0_LAYER001
  6
CONTINUOUS
 62
    2
 10
1181.5246999999999
 20
1185.9205999999999
 11
1176.8348000000001
 21
1159.3287
  0
LINE
  8
_0-0_LAYER001
  6
CONTINUOUS
 62
    2
 10
1177.0432000000001
 20
1150.4459999999999
 11
1176.8348000000001
 21
1159.3287
  0
LINE
  8
_0-0_LAYER001
  6
CONTINUOUS
 62
    2
 10
1185.1746000000001
 20
1185.2782999999999
 11
1188.0106000000001
 21
1186.3969
  0
LINE
  8
_0-0_LAYER001
  6
CONTINUOUS
 62
    2
 10
1181.5246999999999
 20
1185.9205999999999
 11
1179.2411999999999
 21
1187.9431999999999
  0
LINE
  8
_0-0_LAYER001
  6
CONTINUOUS
 62
    2
 10
1185.1746000000001
 20
1185.2782999999999
 11
1180.4848999999999
 21
1158.6849
  0
ARC
  8
_0-0_LAYER001
  6
CONTINUOUS
 62
    2
 10
1127.8248000000001
 20
1161.2929999999999
 40
1.5049999999999999
 50
80.362472000000011
 51
169.54873000000001
  0
ARC
  8
_0-0_LAYER001
  6
CONTINUOUS
 62
    2
 10
1127.9927
 20
1148.4100000000001
 40
1.4969999999999999
 50
189.85266999999999
 51
280.16100999999998
  0
LINE
  8
_0-0_LAYER001
  6
CONTINUOUS
 62
    2
 10
1237.7671
 20
1186.2865999999999
 11
1234.0171
 21
1179.7914000000001
  0
LINE
  8
_0-0_LAYER001
  6
CONTINUOUS
 62
    2
 10
1234.0171
 20
1179.7914000000001
 11
1234.0171
 21
1187.2914000000001
  0
LINE
  8
_0-0_LAYER001
  6
CONTINUOUS
 62
    2
 10
1234.0171
 20
1179.7914000000001
 11
1280.1251
 21
1351.8689999999997
  0
LINE
  8
_0-0_LAYER001
  6
CONTINUOUS
 62
    2
 10
1290.1016
 20
1140.6352999999999
 11
1286.3516
 21
1134.1401000000001
  0
LINE
  8
_0-0_LAYER001
  6
CONTINUOUS
 62
    2
 10
1286.3516
 20
1134.1401000000001
 11
1286.3516
 21
1141.6401000000001
  0
LINE
  8
_0-0_LAYER001
  6
CONTINUOUS
 62
    2
 10
1286.3516
 20
1134.1401000000001
 11
1330.4709
 21
1298.7952999999998
  0
LINE
  8
_0-0_LAYER001
  6
CONTINUOUS
 62
    2
 10
1330.4709
 20
1298.7952999999998
 11
1444.4708999999998
 21
1298.7952999999998
  0
LINE
  8
_0-0_LAYER001
  6
CONTINUOUS
 62
    3
 10
1198.3882000000001
 20
1166.5709999999999
 11
1198.3771999999999
 21
1166.1053999999999
  0
LINE
  8
_0-0_LAYER001
  6
CONTINUOUS
 62
    3
 10
1198.3771999999999
 20
1166.1053999999999
 11
1198.3474000000001
 21
1164.8415
  0
LINE
  8
_0-0_LAYER001
  6
CONTINUOUS
 62
    3
 10
1198.3474000000001
 20
1164.8415
 11
1198.3035
 21
1162.9789000000001
  0
LINE
  8
_0-0_LAYER001
  6
CONTINUOUS
 62
    3
 10
1198.3035
 20
1162.9789000000001
 11
1198.2501999999999
 21
1160.7171000000001
  0
LINE
  8
_0-0_LAYER001
  6
CONTINUOUS
 62
    3
 10
1198.2501999999999
 20
1160.7171000000001
 11
1198.1922
 21
1158.2559000000001
  0
LINE
  8
_0-0_LAYER001
  6
CONTINUOUS
 62
    3
 10
1198.1922
 20
1158.2559000000001
 11
1198.1342
 21
1155.7945999999999
  0
LINE
  8
_0-0_LAYER001
  6
CONTINUOUS
 62
    3
 10
1198.1342
 20
1155.7945999999999
 11
1198.0808999999999
 21
1153.5328
  0
LINE
  8
_0-0_LAYER001
  6
CONTINUOUS
 62
    3
 10
1198.0808999999999
 20
1153.5328
 11
1198.037
 21
1151.6702
  0
LINE
  8
_0-0_LAYER001
  6
CONTINUOUS
 62
    3
 10
1198.037
 20
1151.6702
 11
1198.0072
 21
1150.4063000000001
  0
LINE
  8
_0-0_LAYER001
  6
CONTINUOUS
 62
    3
 10
1198.0072
 20
1150.4063000000001
 11
1197.9962
 21
1149.9407000000001
  0
LINE
  8
_0-0_LAYER001
  6
CONTINUOUS
 62
    3
 10
1197.9962
 20
1149.9407000000001
 11
1199.1439
 21
1149.9335000000001
  0
LINE
  8
_0-0_LAYER001
  6
CONTINUOUS
 62
    3
 10
1199.1439
 20
1149.9335000000001
 11
1202.5153
 21
1149.7584999999999
  0
LINE
  8
_0-0_LAYER001
  6
CONTINUOUS
 62
    3
 10
1202.5153
 20
1149.7584999999999
 11
1208.0033000000001
 21
1149.1850999999999
  0
LINE
  8
_0-0_LAYER001
  6
CONTINUOUS
 62
    3
 10
1208.0033000000001
 20
1149.1850999999999
 11
1215.5006000000001
 21
1147.9829999999999
  0
LINE
  8
_0-0_LAYER001
  6
CONTINUOUS
 62
    3
 10
1215.5006000000001
 20
1147.9829999999999
 11
1224.9000000000001
 21
1145.9217000000001
  0
LINE
  8
_0-0_LAYER001
  6
CONTINUOUS
 62
    3
 10
1224.9000000000001
 20
1145.9217000000001
 11
1236.0943
 21
1142.7707
  0
LINE
  8
_0-0_LAYER001
  6
CONTINUOUS
 62
    3
 10
1236.0943
 20
1142.7707
 11
1248.9762000000001
 21
1138.2998
  0
LINE
  8
_0-0_LAYER001
  6
CONTINUOUS
 62
    3
 10
1248.9762000000001
 20
1138.2998
 11
1263.4386
 21
1132.2782999999999
  0
LINE
  8
_0-0_LAYER001
  6
CONTINUOUS
 62
    3
 10
1263.4386
 20
1132.2782999999999
 11
1279.3742
 21
1124.4760000000001
  0
LINE
  8
_0-0_LAYER001
  6
CONTINUOUS
 62
    3
 10
1279.3742
 20
1124.4760000000001
 11
1296.6758
 21
1114.6623
  0
LINE
  8
_0-0_LAYER001
  6
CONTINUOUS
 62
    3
 10
1296.6758
 20
1114.6623
 11
1296.6937000000003
 21
1115.4201
  0
LINE
  8
_0-0_LAYER001
  6
CONTINUOUS
 62
    3
 10
1296.6937000000003
 20
1115.4201
 11
1296.7420999999999
 21
1117.4771000000001
  0
LINE
  8
_0-0_LAYER001
  6
CONTINUOUS
 62
    3
 10
1296.7420999999999
 20
1117.4771000000001
 11
1296.8136
 21
1120.5083999999999
  0
LINE
  8
_0-0_LAYER001
  6
CONTINUOUS
 62
    3
 10
1296.8136
 20
1120.5083999999999
 11
1296.9003
 21
1124.1893
  0
LINE
  8
_0-0_LAYER001
  6
CONTINUOUS
 62
    3
 10
1296.9003
 20
1124.1893
 11
1296.9947
 21
1128.1949999999999
  0
LINE
  8
_0-0_LAYER001
  6
CONTINUOUS
 62
    3
 10
1296.9947
 20
1128.1949999999999
 11
1297.0891000000001
 21
1132.2007000000001
  0
LINE
  8
_0-0_LAYER001
  6
CONTINUOUS
 62
    3
 10
1297.0891000000001
 20
1132.2007000000001
 11
1297.1759
 21
1135.8815999999999
  0
LINE
  8
_0-0_LAYER001
  6
CONTINUOUS
 62
    3
 10
1297.1759
 20
1135.8815999999999
 11
1297.2473
 21
1138.9129
  0
LINE
  8
_0-0_LAYER001
  6
CONTINUOUS
 62
    3
 10
1297.2473
 20
1138.9129
 11
1297.2957999999999
 21
1140.9699000000001
  0
LINE
  8
_0-0_LAYER001
  6
CONTINUOUS
 62
    3
 10
1297.2957999999999
 20
1140.9699000000001
 11
1297.3136
 21
1141.7276999999999
  0
LINE
  8
_0-0_LAYER001
  6
CONTINUOUS
 62
    3
 10
1297.3136
 20
1141.7276999999999
 11
1295.6608000000001
 21
1142.3529000000001
  0
LINE
  8
_0-0_LAYER001
  6
CONTINUOUS
 62
    3
 10
1295.6608000000001
 20
1142.3529000000001
 11
1290.9973
 21
1144.0612000000001
  0
LINE
  8
_0-0_LAYER001
  6
CONTINUOUS
 62
    3
 10
1290.9973
 20
1144.0612000000001
 11
1283.7655
 21
1146.6013
  0
LINE
  8
_0-0_LAYER001
  6
CONTINUOUS
 62
    3
 10
1283.7655
 20
1146.6013
 11
1274.4077
 21
1149.722
  0
LINE
  8
_0-0_LAYER001
  6
CONTINUOUS
 62
    3
 10
1274.4077
 20
1149.722
 11
1263.3662999999999
 21
1153.1721
  0
LINE
  8
_0-0_LAYER001
  6
CONTINUOUS
 62
    3
 10
1263.3662999999999
 20
1153.1721
 11
1251.0835999999999
 21
1156.7003
  0
LINE
  8
_0-0_LAYER001
  6
CONTINUOUS
 62
    3
 10
1251.0835999999999
 20
1156.7003
 11
1238.0020999999999
 21
1160.0555999999999
  0
LINE
  8
_0-0_LAYER001
  6
CONTINUOUS
 62
    3
 10
1238.0020999999999
 20
1160.0555999999999
 11
1224.5641000000001
 21
1162.9866
  0
LINE
  8
_0-0_LAYER001
  6
CONTINUOUS
 62
    3
 10
1224.5641000000001
 20
1162.9866
 11
1211.212
 21
1165.2420999999999
  0
LINE
  8
_0-0_LAYER001
  6
CONTINUOUS
 62
    3
 10
1198.3882000000001
 20
1166.5709999999999
 11
1211.3239000000001
 21
1165.2231999999999
  0
LINE
  8
_0-0_LAYER001
  6
CONTINUOUS
 62
    3
 10
1215.0913
 20
1132.2433000000001
 11
1215.0803000000001
 21
1131.7775999999999
  0
LINE
  8
_0-0_LAYER001
  6
CONTINUOUS
 62
    3
 10
1215.0803000000001
 20
1131.7775999999999
 11
1215.0505000000001
 21
1130.5137
  0
LINE
  8
_0-0_LAYER001
  6
CONTINUOUS
 62
    3
 10
1215.0505000000001
 20
1130.5137
 11
1215.0065999999999
 21
1128.6511
  0
LINE
  8
_0-0_LAYER001
  6
CONTINUOUS
 62
    3
 10
1215.0065999999999
 20
1128.6511
 11
1214.9532999999999
 21
1126.3894
  0
LINE
  8
_0-0_LAYER001
  6
CONTINUOUS
 62
    3
 10
1214.9532999999999
 20
1126.3894
 11
1214.8952999999999
 21
1123.9281000000001
  0
LINE
  8
_0-0_LAYER001
  6
CONTINUOUS
 62
    3
 10
1214.8952999999999
 20
1123.9281000000001
 11
1214.8372999999999
 21
1121.4667999999999
  0
LINE
  8
_0-0_LAYER001
  6
CONTINUOUS
 62
    3
 10
1214.8372999999999
 20
1121.4667999999999
 11
1214.7840000000001
 21
1119.2050999999999
  0
LINE
  8
_0-0_LAYER001
  6
CONTINUOUS
 62
    3
 10
1214.7840000000001
 20
1119.2050999999999
 11
1214.7401
 21
1117.3425
  0
LINE
  8
_0-0_LAYER001
  6
CONTINUOUS
 62
    3
 10
1214.7401
 20
1117.3425
 11
1214.7103999999999
 21
1116.0786000000001
  0
LINE
  8
_0-0_LAYER001
  6
CONTINUOUS
 62
    3
 10
1214.7103999999999
 20
1116.0786000000001
 11
1214.6994
 21
1115.6129000000001
  0
LINE
  8
_0-0_LAYER001
  6
CONTINUOUS
 62
    3
 10
1214.6994
 20
1115.6129000000001
 11
1215.847
 21
1115.6058
  0
LINE
  8
_0-0_LAYER001
  6
CONTINUOUS
 62
    3
 10
1215.847
 20
1115.6058
 11
1219.2184
 21
1115.4306999999999
  0
LINE
  8
_0-0_LAYER001
  6
CONTINUOUS
 62
    3
 10
1219.2184
 20
1115.4306999999999
 11
1224.7064
 21
1114.8574000000001
  0
LINE
  8
_0-0_LAYER001
  6
CONTINUOUS
 62
    3
 10
1224.7064
 20
1114.8574000000001
 11
1232.2037
 21
1113.6551999999999
  0
LINE
  8
_0-0_LAYER001
  6
CONTINUOUS
 62
    3
 10
1232.2037
 20
1113.6551999999999
 11
1241.6031
 21
1111.5939000000001
  0
LINE
  8
_0-0_LAYER001
  6
CONTINUOUS
 62
    3
 10
1241.6031
 20
1111.5939000000001
 11
1252.7973999999999
 21
1108.443
  0
LINE
  8
_0-0_LAYER001
  6
CONTINUOUS
 62
    3
 10
1252.7973999999999
 20
1108.443
 11
1265.6794
 21
1103.972
  0
LINE
  8
_0-0_LAYER001
  6
CONTINUOUS
 62
    3
 10
1265.6794
 20
1103.972
 11
1280.1418000000001
 21
1097.9504999999999
  0
LINE
  8
_0-0_LAYER001
  6
CONTINUOUS
 62
    3
 10
1280.1418000000001
 20
1097.9504999999999
 11
1296.0773999999997
 21
1090.1482000000001
  0
LINE
  8
_0-0_LAYER001
  6
CONTINUOUS
 62
    3
 10
1296.0773999999997
 20
1090.1482000000001
 11
1313.3788999999999
 21
1080.3344999999999
  0
LINE
  8
_0-0_LAYER001
  6
CONTINUOUS
 62
    3
 10
1313.3788999999999
 20
1080.3344999999999
 11
1313.3968
 21
1081.0923
  0
LINE
  8
_0-0_LAYER001
  6
CONTINUOUS
 62
    3
 10
1313.3968
 20
1081.0923
 11
1313.4453000000003
 21
1083.1493
  0
LINE
  8
_0-0_LAYER001
  6
CONTINUOUS
 62
    3
 10
1313.4453000000003
 20
1083.1493
 11
1313.5166999999999
 21
1086.1805999999999
  0
LINE
  8
_0-0_LAYER001
  6
CONTINUOUS
 62
    3
 10
1313.5166999999999
 20
1086.1805999999999
 11
1313.6034999999997
 21
1089.8615
  0
LINE
  8
_0-0_LAYER001
  6
CONTINUOUS
 62
    3
 10
1313.6034999999997
 20
1089.8615
 11
1313.6978999999999
 21
1093.8671999999999
  0
LINE
  8
_0-0_LAYER001
  6
CONTINUOUS
 62
    3
 10
1313.6978999999999
 20
1093.8671999999999
 11
1313.7923000000001
 21
1097.8729000000001
  0
LINE
  8
_0-0_LAYER001
  6
CONTINUOUS
 62
    3
 10
1313.7923000000001
 20
1097.8729000000001
 11
1313.8789999999999
 21
1101.5537999999999
  0
LINE
  8
_0-0_LAYER001
  6
CONTINUOUS
 62
    3
 10
1313.8789999999999
 20
1101.5537999999999
 11
1313.9503999999999
 21
1104.5851
  0
LINE
  8
_0-0_LAYER001
  6
CONTINUOUS
 62
    3
 10
1313.9503999999999
 20
1104.5851
 11
1313.9989
 21
1106.6421
  0
LINE
  8
_0-0_LAYER001
  6
CONTINUOUS
 62
    3
 10
1313.9989
 20
1106.6421
 11
1314.0167999999999
 21
1107.3998999999999
  0
LINE
  8
_0-0_LAYER001
  6
CONTINUOUS
 62
    3
 10
1314.0167999999999
 20
1107.3998999999999
 11
1312.364
 21
1108.0252
  0
LINE
  8
_0-0_LAYER001
  6
CONTINUOUS
 62
    3
 10
1312.364
 20
1108.0252
 11
1307.7004999999999
 21
1109.7334000000001
  0
LINE
  8
_0-0_LAYER001
  6
CONTINUOUS
 62
    3
 10
1307.7004999999999
 20
1109.7334000000001
 11
1300.4685999999997
 21
1112.2735
  0
LINE
  8
_0-0_LAYER001
  6
CONTINUOUS
 62
    3
 10
1300.4685999999997
 20
1112.2735
 11
1291.1107999999999
 21
1115.3942
  0
LINE
  8
_0-0_LAYER001
  6
CONTINUOUS
 62
    3
 10
1291.1107999999999
 20
1115.3942
 11
1280.0694000000001
 21
1118.8443
  0
LINE
  8
_0-0_LAYER001
  6
CONTINUOUS
 62
    3
 10
1280.0694000000001
 20
1118.8443
 11
1267.7867000000001
 21
1122.3725999999999
  0
LINE
  8
_0-0_LAYER001
  6
CONTINUOUS
 62
    3
 10
1267.7867000000001
 20
1122.3725999999999
 11
1254.7052000000001
 21
1125.7277999999999
  0
LINE
  8
_0-0_LAYER001
  6
CONTINUOUS
 62
    3
 10
1254.7052000000001
 20
1125.7277999999999
 11
1241.2673
 21
1128.6587999999999
  0
LINE
  8
_0-0_LAYER001
  6
CONTINUOUS
 62
    3
 10
1241.2673
 20
1128.6587999999999
 11
1227.9151999999999
 21
1130.9143999999999
  0
LINE
  8
_0-0_LAYER001
  6
CONTINUOUS
 62
    3
 10
1215.0913
 20
1132.2433000000001
 11
1228.0271
 21
1130.8955000000001
  0
CIRCLE
  8
_0-0_LAYER001
  6
CONTINUOUS
 62
    2
 10
1220.3281999999999
 20
1113.6516999999999
 40
0.8999999999999999
  0
CIRCLE
  8
_0-0_LAYER001
  6
CONTINUOUS
 62
    2
 10
1230.1053999999999
 20
1105.7669000000001
 40
0.8999999999999999
  0
CIRCLE
  8
_0-0_LAYER001
  6
CONTINUOUS
 62
    2
 10
1239.9282000000001
 20
1099.9119000000001
 40
0.8999999999999999
  0
CIRCLE
  8
_0-0_LAYER001
  6
CONTINUOUS
 62
    2
 10
1190.6557
 20
1105.2128
 40
0.8999999999999999
  0
CIRCLE
  8
_0-0_LAYER001
  6
CONTINUOUS
 62
    2
 10
1182.1400000000001
 20
1102.0588
 40
0.8999999999999999
  0
CIRCLE
  8
_0-0_LAYER001
  6
CONTINUOUS
 62
    2
 10
1200.4329
 20
1097.3279
 40
0.8999999999999999
  0
CIRCLE
  8
_0-0_LAYER001
  6
CONTINUOUS
 62
    2
 10
1216.518
 20
1102.3742
 40
0.8999999999999999
  0
CIRCLE
  8
_0-0_LAYER001
  6
CONTINUOUS
 62
    2
 10
1177.7583999999999
 20
1110.4601
 40
0.8999999999999999
  0
CIRCLE
  8
_0-0_LAYER001
  6
CONTINUOUS
 62
    2
 10
1203.6832999999999
 20
1109.7298000000001
 40
0.8999999999999999
  0
CIRCLE
  8
_0-0_LAYER001
  6
CONTINUOUS
 62
    2
 10
1217.1934000000001
 20
1110.4601
 40
0.8999999999999999
  0
CIRCLE
  8
_0-0_LAYER001
  6
CONTINUOUS
 62
    2
 10
1210.2557999999999
 20
1091.4729
 40
0.8999999999999999
  0
CIRCLE
  8
_0-0_LAYER001
  6
CONTINUOUS
 62
    2
 10
1209.0990999999999
 20
1083.2653
 40
0.8999999999999999
  0
CIRCLE
  8
_0-0_LAYER001
  6
CONTINUOUS
 62
    2
 10
1238.076
 20
1068.6242999999999
 40
0.8999999999999999
  0
LINE
  8
_0-0_LAYER001
  6
CONTINUOUS
 62
    2
 10
1160.4712
 20
1298.5304999999998
 11
1162.4123
 21
1291.2861
  0
LINE
  8
_0-0_LAYER001
  6
CONTINUOUS
 62
    2
 10
1162.4123
 20
1291.2861
 11
1157.1089999999999
 21
1296.5894000000001
  0
LINE
  8
_0-0_LAYER001
  6
CONTINUOUS
 62
    2
 10
1162.4123
 20
1291.2861
 11
1093.6605999999999
 21
1410.3676
  0
LINE
  8
_0-0_LAYER001
  6
CONTINUOUS
 62
    2
 10
1093.6605999999999
 20
1410.3676
 11
1012.6605999999999
 21
1410.3676
  0
LINE
  8
_0-0_LAYER001
  6
CONTINUOUS
 62
    2
 10
1200.652
 20
1184.3842999999999
 11
1196.902
 21
1177.8891000000001
  0
LINE
  8
_0-0_LAYER001
  6
CONTINUOUS
 62
    2
 10
1196.902
 20
1177.8891000000001
 11
1196.902
 21
1185.3891000000001
  0
LINE
  8
_0-0_LAYER001
  6
CONTINUOUS
 62
    2
 10
1196.902
 20
1177.8891000000001
 11
1253.2422999999999
 21
1388.1540999999997
  0
LINE
  8
_0-0_LAYER001
  6
CONTINUOUS
 62
    2
 10
1253.2422999999999
 20
1388.1540999999997
 11
1400.2422999999999
 21
1388.1540999999997
  0
LINE
  8
_0-0_LAYER001
  6
CONTINUOUS
 62
    2
 10
1191.4853000000001
 20
1120.9223999999999
 11
1196.7886000000001
 21
1126.2257
  0
LINE
  8
_0-0_LAYER001
  6
CONTINUOUS
 62
    2
 10
1196.7886000000001
 20
1126.2257
 11
1194.8475000000001
 21
1118.9811999999999
  0
LINE
  8
_0-0_LAYER001
  6
CONTINUOUS
 62
    2
 10
1196.7886000000001
 20
1126.2257
 11
1043.1604
 21
860.13390000000004
  0
LINE
  8
_0-0_LAYER001
  6
CONTINUOUS
 62
    2
 10
1043.1604
 20
860.13390000000004
 11
961.12950000000001
 21
860.13390000000004
  0
LINE
  8
_0-0_LAYER001
  6
CONTINUOUS
 62
    2
 10
1204.4322
 20
1166.9878000000001
 11
1204.4322
 21
1148.4467
  0
LINE
  8
_0-0_LAYER001
  6
CONTINUOUS
 62
    2
 10
1204.4322
 20
1148.4467
 11
1192.6333
 21
1148.4467
  0
LINE
  8
_0-0_LAYER001
  6
CONTINUOUS
 62
    2
 10
1192.6333
 20
1148.4467
 11
1192.6333
 21
1167.2126000000001
  0
LINE
  8
_0-0_LAYER001
  6
CONTINUOUS
 62
    2
 10
1192.6333
 20
1167.2126000000001
 11
1204.4322
 21
1166.9878000000001
  0
LINE
  8
_0-0_LAYER001
  6
CONTINUOUS
 62
    2
 10
1221.7372
 20
1132.9395999999999
 11
1221.7372
 21
1113.8929000000001
  0
LINE
  8
_0-0_LAYER001
  6
CONTINUOUS
 62
    2
 10
1221.7372
 20
1113.8929000000001
 11
1214.6994
 21
1115.6129000000001
  0
LINE
  8
_0-0_LAYER001
  6
CONTINUOUS
 62
    2
 10
1214.6994
 20
1115.6129000000001
 11
1190.9476999999999
 21
1137.3783000000001
  0
LINE
  8
_0-0_LAYER001
  6
CONTINUOUS
 62
    2
 10
1221.7372
 20
1132.9395999999999
 11
1193.6446000000001
 21
1141.8731
  0
LINE
  8
_0-0_LAYER001
  6
CONTINUOUS
 62
    2
 10
1193.6446000000001
 20
1141.8731
 11
1190.9476999999999
 21
1137.3783000000001
  0
LINE
  8
_0-0_LAYER001
  6
CONTINUOUS
 62
    2
 10
970.57169999999996
 20
1019.837
 11
1023.0717
 21
1019.837
  0
CIRCLE
  8
_0-0_LAYER001
  6
CONTINUOUS
 62
    2
 10
973.07169999999996
 20
1019.837
 40
1.6999999999999997
  0
LINE
  8
_0-0_LAYER001
  6
CONTINUOUS
 62
    2
 10
973.07169999999996
 20
1019.837
 11
973.07169999999996
 21
1139.837
  0
CIRCLE
  8
_0-0_LAYER001
  6
CONTINUOUS
 62
    2
 10
973.07169999999996
 20
1139.837
 40
1.6999999999999997
  0
LINE
  8
_0-0_LAYER001
  6
CONTINUOUS
 62
    2
 10
970.57169999999996
 20
1139.837
 11
1023.0717
 21
1139.837
  0
CIRCLE
  8
_0-0_LAYER001
  6
CONTINUOUS
 62
    2
 10
973.07169999999996
 20
1139.837
 40
1.6999999999999997
  0
LINE
  8
_0-0_LAYER001
  6
CONTINUOUS
 62
    2
 10
973.07169999999996
 20
1139.837
 11
973.07169999999996
 21
1196.837
  0
CIRCLE
  8
_0-0_LAYER001
  6
CONTINUOUS
 62
    2
 10
973.07169999999996
 20
1196.837
 40
1.6999999999999997
  0
LINE
  8
_0-0_LAYER001
  6
CONTINUOUS
 62
    2
 10
970.57169999999996
 20
1196.837
 11
1023.0717
 21
1196.837
  0
CIRCLE
  8
_0-0_LAYER001
  6
CONTINUOUS
 62
    2
 10
973.07169999999996
 20
1196.837
 40
1.6999999999999997
  0
LINE
  8
_0-0_LAYER001
  6
CONTINUOUS
 62
    2
 10
973.07169999999996
 20
1196.837
 11
973.07169999999996
 21
1286.837
  0
CIRCLE
  8
_0-0_LAYER001
  6
CONTINUOUS
 62
    2
 10
973.07169999999996
 20
1286.837
 40
1.6999999999999997
  0
LINE
  8
_0-0_LAYER001
  6
CONTINUOUS
 62
    2
 10
970.57169999999996
 20
1286.837
 11
1023.0717
 21
1286.837
  0
CIRCLE
  8
_0-0_LAYER001
  6
CONTINUOUS
 62
    2
 10
973.07169999999996
 20
1286.837
 40
1.6999999999999997
  0
LINE
  8
_0-0_LAYER001
  6
CONTINUOUS
 62
    2
 10
973.07169999999996
 20
1286.837
 11
973.07169999999996
 21
1301.837
  0
CIRCLE
  8
_0-0_LAYER001
  6
CONTINUOUS
 62
    2
 10
973.07169999999996
 20
1301.837
 40
1.6999999999999997
  0
LINE
  8
_0-0_LAYER001
  6
CONTINUOUS
 62
    2
 10
970.57169999999996
 20
1301.837
 11
1023.0717
 21
1301.837
  0
LINE
  8
_0-0_LAYER001
  6
CONTINUOUS
 62
    2
 10
1167.1886999999999
 20
1301.1012000000001
 11
1167.1886999999999
 21
1456.0505000000001
  0
LINE
  8
_0-0_LAYER001
  6
CONTINUOUS
 62
    2
 10
1543.2575000000002
 20
969.83699999999999
 11
1593.2573000000002
 21
1019.837
  0
LINE
  8
_0-0_LAYER001
  6
CONTINUOUS
 62
    2
 10
1539.0149000000001
 20
969.83699999999999
 11
1589.0147000000002
 21
1019.837
  0
LINE
  8
_0-0_LAYER001
  6
CONTINUOUS
 62
    2
 10
1331.1253999999999
 20
969.83699999999999
 11
1381.1253999999999
 21
1019.837
  0
LINE
  8
_0-0_LAYER001
  6
CONTINUOUS
 62
    2
 10
1326.8827000000001
 20
969.83699999999999
 11
1376.8828000000003
 21
1019.837
  0
LINE
  8
_0-0_LAYER001
  6
CONTINUOUS
 62
    2
 10
1289.1887999999999
 20
1040.837
 11
1289.1887999999999
 21
1025.837
  0
LINE
  8
_0-0_LAYER001
  6
CONTINUOUS
 62
    2
 10
1287.1886999999997
 20
1023.837
 11
1171.1886999999999
 21
1023.837
  0
LINE
  8
_0-0_LAYER001
  6
DASHED3
 62
    2
 10
2116.1495
 20
1021.837
 11
1169.1886999999999
 21
1021.837
  0
LINE
  8
_0-0_LAYER001
  6
CONTINUOUS
 62
    2
 10
1167.1886999999999
 20
969.83699999999999
 11
2116.1495
 21
969.83699999999999
  0
LINE
  8
_0-0_LAYER001
  6
CONTINUOUS
 62
    2
 10
1167.1886999999999
 20
1019.837
 11
2116.1495
 21
1019.837
  0
LINE
  8
_0-0_LAYER001
  6
CONTINUOUS
 62
    2
 10
1167.1886999999999
 20
1019.837
 11
1167.1886999999999
 21
969.83699999999999
  0
LINE
  8
_0-0_LAYER001
  6
CONTINUOUS
 62
    2
 10
1167.1886999999999
 20
969.83699999999999
 11
1067.1886999999999
 21
969.83699999999999
  0
LINE
  8
_0-0_LAYER001
  6
CONTINUOUS
 62
    2
 10
1177.1886999999999
 20
869.83699999999999
 11
2116.1495
 21
869.83699999999999
  0
LINE
  8
_0-0_LAYER001
  6
CONTINUOUS
 62
    2
 10
1177.1886999999999
 20
969.83699999999999
 11
1177.1886999999999
 21
869.83699999999999
  0
LINE
  8
_0-0_LAYER001
  6
DASHED1
 62
    1
 10
1177.1886999999999
 20
873.03700000000003
 11
2116.1495
 21
873.03700000000003
  0
LINE
  8
_0-0_LAYER001
  6
DASHED1
 62
    1
 10
1177.1886999999999
 20
966.63699999999994
 11
2116.1495
 21
966.63699999999994
  0
LINE
  8
_0-0_LAYER001
  6
DASHED1
 62
    1
 10
1177.1886999999999
 20
949.83699999999999
 11
2116.1495
 21
949.83699999999999
  0
LINE
  8
_0-0_LAYER001
  6
DASHED1
 62
    1
 10
1177.1886999999999
 20
889.83699999999999
 11
2116.1495
 21
889.83699999999999
  0
LINE
  8
_0-0_LAYER001
  6
CONTINUOUS
 62
    2
 10
1067.1886999999999
 20
1024.2003999999999
 11
1167.1886999999999
 21
1124.2003
  0
LINE
  8
_0-0_LAYER001
  6
CONTINUOUS
 62
    2
 10
1067.1886999999999
 20
1019.9576999999999
 11
1167.1886999999999
 21
1119.9577999999999
  0
LINE
  8
_0-0_LAYER001
  6
CONTINUOUS
 62
    2
 10
1067.1886999999999
 20
1236.2003999999999
 11
1167.1886999999999
 21
1336.2002000000002
  0
LINE
  8
_0-0_LAYER001
  6
CONTINUOUS
 62
    2
 10
1067.1886999999999
 20
1231.9577999999999
 11
1167.1886999999999
 21
1331.9576999999999
  0
LINE
  8
_0-0_LAYER001
  6
CONTINUOUS
 62
    2
 10
1067.1886999999999
 20
1363.0693999999999
 11
1067.1886999999999
 21
1095.9407000000001
  0
LINE
  8
_0-0_LAYER001
  6
CONTINUOUS
 62
    2
 10
1067.1886999999999
 20
1098.8358000000001
 11
1067.1886999999999
 21
969.83699999999999
  0
LINE
  8
_0-0_LAYER001
  6
CONTINUOUS
 62
    2
 10
1287.1886999999997
 20
1041.5798
 11
1287.1886999999997
 21
1023.837
  0
LINE
  8
_0-0_LAYER001
  6
CONTINUOUS
 62
    2
 10
1287.1886999999997
 20
1041.5798
 11
1302.1887999999999
 21
1041.5798
  0
LINE
  8
_0-0_LAYER001
  6
CONTINUOUS
 62
    2
 10
1293.1884
 20
1040.5798
 11
1291.5587
 21
1041.5798
  0
LINE
  8
_0-0_LAYER001
  6
CONTINUOUS
 62
    2
 10
1297.8187
 20
1041.5799
 11
1291.5587
 21
1041.5798
  0
LINE
  8
_0-0_LAYER001
  6
CONTINUOUS
 62
    2
 10
1296.1885000000002
 20
1040.5799
 11
1297.8187
 21
1041.5799
  0
LINE
  8
_0-0_LAYER001
  6
CONTINUOUS
 62
    2
 10
1296.1884
 20
1028.25
 11
1294.6887999999999
 21
1021.5798
  0
LINE
  8
_0-0_LAYER001
  6
CONTINUOUS
 62
    2
 10
1296.1885000000002
 20
1040.5799
 11
1296.1884
 21
1028.25
  0
LINE
  8
_0-0_LAYER001
  6
CONTINUOUS
 62
    2
 10
1294.6887999999999
 20
1021.5798
 11
1293.1882999999998
 21
1029.0588
  0
LINE
  8
_0-0_LAYER001
  6
CONTINUOUS
 62
    2
 10
1293.1884
 20
1040.5798
 11
1293.1882999999998
 21
1029.0588
  0
LINE
  8
_0-0_LAYER001
  6
CONTINUOUS
 62
    2
 10
1169.7887000000001
 20
1280.3012000000001
 11
1172.5681999999999
 21
1264.9509
  0
LINE
  8
_0-0_LAYER001
  6
CONTINUOUS
 62
    2
 10
1151.5887
 20
1280.3012000000001
 11
1151.5887
 21
1301.1012000000001
  0
LINE
  8
_0-0_LAYER001
  6
CONTINUOUS
 62
    2
 10
1153.6686999999999
 20
1282.3812
 11
1153.6686999999999
 21
1297.9812999999999
  0
LINE
  8
_0-0_LAYER001
  6
CONTINUOUS
 62
    2
 10
1153.6686999999999
 20
1282.3812
 11
1164.7636
 21
1293.4760000000001
  0
LINE
  8
_0-0_LAYER001
  6
CONTINUOUS
 62
    2
 10
1158.0811000000001
 20
1282.3812
 11
1164.6576
 21
1288.9576999999999
  0
LINE
  8
_0-0_LAYER001
  6
CONTINUOUS
 62
    2
 10
1162.4934000000001
 20
1282.3812
 11
1165.29
 21
1285.1778999999999
  0
LINE
  8
_0-0_LAYER001
  6
CONTINUOUS
 62
    2
 10
1164.9548
 20
1286.6950999999999
 11
1153.6686999999999
 21
1297.9811
  0
LINE
  8
_0-0_LAYER001
  6
CONTINUOUS
 62
    2
 10
1164.6016999999999
 20
1291.4606000000001
 11
1154.961
 21
1301.1012000000001
  0
LINE
  8
_0-0_LAYER001
  6
CONTINUOUS
 62
    2
 10
1165.0906
 20
1295.3842
 11
1159.3735999999999
 21
1301.1012000000001
  0
LINE
  8
_0-0_LAYER001
  6
CONTINUOUS
 62
    2
 10
1160.444
 20
1282.3812
 11
1155.3171
 21
1287.5082
  0
LINE
  8
_0-0_LAYER001
  6
CONTINUOUS
 62
    2
 10
1156.0317
 20
1282.3812
 11
1153.9835
 21
1284.4292999999998
  0
LINE
  8
_0-0_LAYER001
  6
CONTINUOUS
 62
    2
 10
1155.5822000000001
 20
1288.7069999999999
 11
1166.4472000000001
 21
1299.5720000000001
  0
LINE
  8
_0-0_LAYER001
  6
CONTINUOUS
 62
    2
 10
1155.5164
 20
1293.0536000000002
 11
1163.5639000000001
 21
1301.1012000000001
  0
LINE
  8
_0-0_LAYER001
  6
CONTINUOUS
 62
    2
 10
1164.8563999999999
 20
1282.3812
 11
1155.7211
 21
1291.5165
  0
LINE
  8
_0-0_LAYER001
  6
CONTINUOUS
 62
    2
 10
1166.1152
 20
1298.7720999999999
 11
1163.7861
 21
1301.1012000000001
  0
LINE
  8
_0-0_LAYER001
  6
CONTINUOUS
 62
    2
 10
1154.3605
 20
1296.3101999999999
 11
1159.1514
 21
1301.1012000000001
  0
LINE
  8
_0-0_LAYER001
  6
CONTINUOUS
 62
    2
 10
1153.6686999999999
 20
1300.0308
 11
1154.7391
 21
1301.1012000000001
  0
LINE
  8
_0-0_LAYER001
  6
CONTINUOUS
 62
    2
 10
1153.6686999999999
 20
1297.9811
 11
1153.6686999999999
 21
1301.1012000000001
  0
LINE
  8
_0-0_LAYER001
  6
CONTINUOUS
 62
    2
 10
1169.1886999999999
 20
1191.7465
 11
1169.1886999999999
 21
1280.3012000000001
  0
LINE
  8
_0-0_LAYER001
  6
CONTINUOUS
 62
    2
 10
1153.6686999999999
 20
1282.3812
 11
1171.5887
 21
1282.3812
  0
LINE
  8
_0-0_LAYER001
  6
CONTINUOUS
 62
    2
 10
1171.5887
 20
1249.9012
 11
1171.5887
 21
1282.3812
  0
LINE
  8
_0-0_LAYER001
  6
CONTINUOUS
 62
    2
 10
1171.1886999999999
 20
1134.837
 11
1171.1886999999999
 21
1023.837
  0
LINE
  8
_0-0_LAYER001
  6
CONTINUOUS
 62
    2
 10
1171.1886999999999
 20
1134.837
 11
1178.6886999999999
 21
1121.8466000000001
  0
LINE
  8
_0-0_LAYER001
  6
DASHED3
 62
    2
 10
1169.1886999999999
 20
1134.837
 11
1169.1886999999999
 21
1021.837
  0
LINE
  8
_0-0_LAYER001
  6
CONTINUOUS
 62
    2
 10
1167.1886999999999
 20
1280.3012000000001
 11
1167.1886999999999
 21
1019.837
  0
LINE
  8
_0-0_LAYER001
  6
CONTINUOUS
 62
    2
 10
1151.5887
 20
1280.3012000000001
 11
1167.1886999999999
 21
1280.3012000000001
  0
LINE
  8
_0-0_LAYER001
  6
CONTINUOUS
 62
    2
 10
1151.5887
 20
1301.1012000000001
 11
1167.1886999999999
 21
1301.1012000000001
  0
LINE
  8
_0-0_LAYER001
  6
CONTINUOUS
 62
    2
 10
1167.1886999999999
 20
1232.0277000000001
 11
1167.1886999999999
 21
1280.3012000000001
  0
CIRCLE
  8
_0-0_LAYER001
  6
CONTINUOUS
 62
    2
 10
1191.7446
 20
1133.7963999999999
 40
0.8999999999999999
  0
CIRCLE
  8
_0-0_LAYER001
  6
CONTINUOUS
 62
    2
 10
1183.2289000000001
 20
1130.6424
 40
0.8999999999999999
  0
CIRCLE
  8
_0-0_LAYER001
  6
CONTINUOUS
 62
    2
 10
1201.5218
 20
1125.9114999999999
 40
0.8999999999999999
  0
ARC
  8
_0-0_LAYER001
  6
CONTINUOUS
 62
    2
 10
1186.6886
 20
1290.7012
 40
22.099882999999998
 50
151.92736000000002
 51
202.11535000000006
  0
CIRCLE
  8
_0-0_LAYER001
  6
CONTINUOUS
 62
    2
 10
1178.8472999999999
 20
1124.0436999999999
 40
0.8999999999999999
  0
CIRCLE
  8
_0-0_LAYER001
  6
CONTINUOUS
 62
    2
 10
1188.7059999999999
 20
1117.8656000000001
 40
0.8999999999999999
  0
CIRCLE
  8
_0-0_LAYER001
  6
CONTINUOUS
 62
    2
 10
1204.7722000000001
 20
1138.3134
 40
0.8999999999999999
  0
CIRCLE
  8
_0-0_LAYER001
  6
CONTINUOUS
 62
    2
 10
1218.2823000000001
 20
1139.0436999999999
 40
0.8999999999999999
  0
CIRCLE
  8
_0-0_LAYER001
  6
CONTINUOUS
 62
    2
 10
1211.3447000000001
 20
1120.0564999999999
 40
0.8999999999999999
  0
LINE
  8
_0-0_LAYER001
  6
CONTINUOUS
 62
    2
 10
1173.8004000000001
 20
1172.5735999999999
 11
1175.7416000000001
 21
1165.3290999999999
  0
LINE
  8
_0-0_LAYER001
  6
CONTINUOUS
 62
    2
 10
1175.7416000000001
 20
1165.3290999999999
 11
1170.4383
 21
1170.6324
  0
LINE
  8
_0-0_LAYER001
  6
CONTINUOUS
 62
    2
 10
1175.7416000000001
 20
1165.3290999999999
 11
1066.5269000000001
 21
1354.4944
  0
LINE
  8
_0-0_LAYER001
  6
CONTINUOUS
 62
    2
 10
1066.5269000000001
 20
1354.4944
 11
919.52690000000007
 21
1354.4944
  0
ARC
  8
_0-0_LAYER001
  6
CONTINUOUS
 62
    4
 10
1324.7221999999999
 20
1256.4374
 40
214.38050999999999
 50
231.7756
 51
268.38173
  0
ARC
  8
_0-0_LAYER001
  6
CONTINUOUS
 62
    4
 10
1379.1913999999999
 20
1072.9349
 40
52.178303999999997
 50
215.53766999999999
 51
234.46232000000001
  0
ARC
  8
_0-0_LAYER001
  6
CONTINUOUS
 62
    4
 10
1352.8627000000001
 20
1035.2311
 40
6.2695089999999993
 50
234.10575000000003
 51
303.29033000000004
  0
ARC
  8
_0-0_LAYER001
  6
CONTINUOUS
 62
    4
 10
1321.4019000000003
 20
1079.2371000000001
 40
58.841383
 50
213.2508
 51
234.31144
  0
ARC
  8
_0-0_LAYER001
  6
CONTINUOUS
 62
    4
 10
1291.5263
 20
1038.0798
 40
7.947610000000001
 50
234.52014000000003
 51
301.23766000000001
  0
ARC
  8
_0-0_LAYER001
  6
CONTINUOUS
 62
    4
 10
1275.0247999999999
 20
1070.5491
 40
44.132803000000003
 50
297.62160999999998
 51
318.23129999999998
  0
ARC
  8
_0-0_LAYER001
  6
CONTINUOUS
 62
    4
 10
1324.7221999999999
 20
1256.4374
 40
199.38050999999999
 50
231.7756
 51
268.38173
  0
ARC
  8
_0-0_LAYER001
  6
CONTINUOUS
 62
    4
 10
1324.7221999999999
 20
1256.4374
 40
199.38050999999999
 50
231.7756
 51
268.38173
  0
ARC
  8
_0-0_LAYER001
  6
CONTINUOUS
 62
    4
 10
1324.7221999999999
 20
1256.4374
 40
197.38050999999999
 50
231.7756
 51
268.38173
  0
ARC
  8
_0-0_LAYER001
  6
CONTINUOUS
 62
    4
 10
1324.7221999999999
 20
1256.4374
 40
182.38050999999999
 50
231.7756
 51
268.38173
  0
ARC
  8
_0-0_LAYER001
  6
CONTINUOUS
 62
    4
 10
1324.7221999999999
 20
1256.4374
 40
214.38050999999999
 50
231.7756
 51
268.38173
  0
ARC
  8
_0-0_LAYER001
  6
CONTINUOUS
 62
    4
 10
1301.3336999999999
 20
1073.0521000000001
 40
69.674484000000007
 50
321.65733
 51
337.34946000000002
  0
ARC
  8
_0-0_LAYER001
  6
CONTINUOUS
 62
    4
 10
1315.1785999999997
 20
1349.3245999999999
 40
307.27562
 50
270.90795000000003
 51
293.21983
  0
ARC
  8
_0-0_LAYER001
  6
CONTINUOUS
 62
    4
 10
1315.1785999999997
 20
1349.3245999999999
 40
275.27562
 50
270.90795000000003
 51
287.11988000000002
  0
ARC
  8
_0-0_LAYER001
  6
CONTINUOUS
 62
    4
 10
1315.1785999999997
 20
1349.3245999999999
 40
292.27562
 50
270.90795000000003
 51
292.69346000000002
  0
LINE
  8
_0-0_LAYER001
  6
CONTINUOUS
 62
    4
 10
1427.9387999999999
 20
1082.1011000000001
 11
1427.9387999999999
 21
1079.6764000000001
  0
LINE
  8
_0-0_LAYER001
  6
CONTINUOUS
 62
    4
 10
1436.3251
 20
1066.9386999999999
 11
1436.3251
 21
1085.2460000000001
  0
LINE
  8
_0-0_LAYER001
  6
CONTINUOUS
 62
    4
 10
1427.9387999999999
 20
1082.1011000000001
 11
1436.3251
 21
1085.2460000000001
  0
ARC
  8
_0-0_LAYER001
  6
CONTINUOUS
 62
    4
 10
1315.1785999999997
 20
1349.3245999999999
 40
290.27562
 50
270.90795000000003
 51
286.23334
  0
LINE
  8
_0-0_LAYER001
  6
CONTINUOUS
 62
    4
 10
1396.3251
 20
1070.6220000000001
 11
1396.3251
 21
1086.2810999999999
  0
ARC
  8
_0-0_LAYER001
  6
CONTINUOUS
 62
    4
 10
1579.4769999999999
 20
1254.7991
 40
214.38050999999999
 50
231.7756
 51
268.38173
  0
LINE
  8
_0-0_LAYER001
  6
CONTINUOUS
 62
    4
 10
1400.0853000000002
 20
1070.3938000000001
 11
1436.2752999999998
 21
1086.5500999999999
  0
ARC
  8
_0-0_LAYER001
  6
CONTINUOUS
 62
    4
 10
1633.9461999999999
 20
1071.2965999999999
 40
52.178303999999997
 50
215.53766999999999
 51
234.46232000000001
  0
ARC
  8
_0-0_LAYER001
  6
CONTINUOUS
 62
    4
 10
1607.6174000000001
 20
1033.5927999999999
 40
6.2695089999999993
 50
234.10575000000003
 51
303.29033000000004
  0
ARC
  8
_0-0_LAYER001
  6
CONTINUOUS
 62
    4
 10
1576.1567
 20
1077.5988
 40
58.841383
 50
213.2508
 51
234.31144
  0
ARC
  8
_0-0_LAYER001
  6
CONTINUOUS
 62
    4
 10
1546.2809999999999
 20
1036.4414999999999
 40
7.947610000000001
 50
234.52014000000003
 51
301.23766000000001
  0
ARC
  8
_0-0_LAYER001
  6
CONTINUOUS
 62
    4
 10
1529.7795000000001
 20
1068.9108000000001
 40
44.132803000000003
 50
297.62160999999998
 51
318.23129999999998
  0
LINE
  8
_0-0_LAYER001
  6
CONTINUOUS
 62
    4
 10
1400.0853000000002
 20
1068.9739999999999
 11
1396.0799
 21
1067.0918999999999
  0
LINE
  8
_0-0_LAYER001
  6
CONTINUOUS
 62
    4
 10
1400.0853000000002
 20
1070.3938000000001
 11
1400.0853000000002
 21
1068.9739999999999
  0
LINE
  8
_0-0_LAYER001
  6
CONTINUOUS
 62
    4
 10
1399.5598
 20
1087.1378
 11
1396.1967999999999
 21
1085.8115
  0
LINE
  8
_0-0_LAYER001
  6
CONTINUOUS
 62
    4
 10
1399.5598
 20
1088.6264000000001
 11
1399.5598
 21
1087.1378
  0
ARC
  8
_0-0_LAYER001
  6
CONTINUOUS
 62
    4
 10
1579.4769999999999
 20
1254.7991
 40
199.38050999999999
 50
231.7756
 51
268.38173
  0
ARC
  8
_0-0_LAYER001
  6
CONTINUOUS
 62
    4
 10
1579.4769999999999
 20
1254.7991
 40
199.38050999999999
 50
231.7756
 51
268.38173
  0
ARC
  8
_0-0_LAYER001
  6
CONTINUOUS
 62
    4
 10
1579.4769999999999
 20
1254.7991
 40
197.38050999999999
 50
231.7756
 51
268.38173
  0
LINE
  8
_0-0_LAYER001
  6
CONTINUOUS
 62
    4
 10
1399.8148000000001
 20
1088.8508999999999
 11
1430.0947000000001
 21
1102.8983000000001
  0
LINE
  8
_0-0_LAYER001
  6
CONTINUOUS
 62
    4
 10
1431.3434000000002
 20
1101.3375000000001
 11
1396.6931
 21
1085.7292
  0
ARC
  8
_0-0_LAYER001
  6
CONTINUOUS
 62
    4
 10
1579.4769999999999
 20
1254.7991
 40
182.38050999999999
 50
231.7756
 51
268.38173
  0
LINE
  8
_0-0_LAYER001
  6
CONTINUOUS
 62
    4
 10
1396.0799
 20
1067.0918999999999
 11
1396.0799
 21
1103.6538
  0
LINE
  8
_0-0_LAYER001
  6
CONTINUOUS
 62
    4
 10
1396.0799
 20
1103.6538
 11
1423.7822000000001
 21
1116.5053
  0
ARC
  8
_0-0_LAYER001
  6
CONTINUOUS
 62
    4
 10
1579.4769999999999
 20
1254.7991
 40
214.38050999999999
 50
231.7756
 51
268.38173
  0
ARC
  8
_0-0_LAYER001
  6
CONTINUOUS
 62
    4
 10
1440.8910000000001
 20
1077.4060999999999
 40
27.732966999999999
 50
54.176177000000003
 51
112.93031000000001
  0
ARC
  8
_0-0_LAYER001
  6
CONTINUOUS
 62
    4
 10
1441.2388999999998
 20
1079.6795
 40
40.679594999999999
 50
51.535313000000002
 51
115.27963000000001
  0
ARC
  8
_0-0_LAYER001
  6
CONTINUOUS
 62
    4
 10
1440.8775000000001
 20
1076.9082000000001
 40
26.213477999999995
 50
54.56426900000001
 51
111.2666
  0
ARC
  8
_0-0_LAYER001
  6
CONTINUOUS
 62
    4
 10
1441.3883000000001
 20
1074.4467999999999
 40
13.076713
 50
65.553432000000001
 51
112.83269999999999
  0
ARC
  8
_0-0_LAYER001
  6
CONTINUOUS
 62
    4
 10
1556.0884000000001
 20
1071.4138
 40
69.674484000000007
 50
321.65733
 51
337.34946000000002
  0
ARC
  8
_0-0_LAYER001
  6
CONTINUOUS
 62
    4
 10
1569.9333999999999
 20
1347.6863000000001
 40
307.27562
 50
270.90795000000003
 51
293.21983
  0
ARC
  8
_0-0_LAYER001
  6
CONTINUOUS
 62
    4
 10
1569.9333999999999
 20
1347.6863000000001
 40
275.27562
 50
270.90795000000003
 51
287.11988000000002
  0
ARC
  8
_0-0_LAYER001
  6
CONTINUOUS
 62
    4
 10
1569.9333999999999
 20
1347.6863000000001
 40
292.27562
 50
270.90795000000003
 51
292.69346000000002
  0
LINE
  8
_0-0_LAYER001
  6
CONTINUOUS
 62
    4
 10
1682.6936000000001
 20
1080.4628
 11
1682.6936000000001
 21
1078.0381
  0
LINE
  8
_0-0_LAYER001
  6
CONTINUOUS
 62
    4
 10
1691.0799000000002
 20
1065.3004000000001
 11
1691.0799000000002
 21
1083.6077
  0
LINE
  8
_0-0_LAYER001
  6
CONTINUOUS
 62
    4
 10
1682.6936000000001
 20
1080.4628
 11
1691.0799000000002
 21
1083.6077
  0
ARC
  8
_0-0_LAYER001
  6
CONTINUOUS
 62
    4
 10
1569.9333999999999
 20
1347.6863000000001
 40
290.27562
 50
270.90795000000003
 51
286.23334
  0
ARC
  8
_0-0_LAYER001
  6
CONTINUOUS
 62
    4
 10
1835.0509000000002
 20
1254.7991
 40
214.38050999999999
 50
231.7756
 51
268.38173
  0
LINE
  8
_0-0_LAYER001
  6
CONTINUOUS
 62
    4
 10
1655.6592999999998
 20
1070.3938000000001
 11
1691.8492999999999
 21
1086.5500999999999
  0
ARC
  8
_0-0_LAYER001
  6
CONTINUOUS
 62
    4
 10
1889.5201000000002
 20
1071.2965999999999
 40
52.178303999999997
 50
215.53766999999999
 51
234.46232000000001
  0
ARC
  8
_0-0_LAYER001
  6
CONTINUOUS
 62
    4
 10
1863.1914000000002
 20
1033.5927999999999
 40
6.2695089999999993
 50
234.10575000000003
 51
303.29033000000004
  0
ARC
  8
_0-0_LAYER001
  6
CONTINUOUS
 62
    4
 10
1831.7305999999999
 20
1077.5988
 40
58.841383
 50
213.2508
 51
234.31144
  0
ARC
  8
_0-0_LAYER001
  6
CONTINUOUS
 62
    4
 10
1801.855
 20
1036.4414999999999
 40
7.947610000000001
 50
234.52014000000003
 51
301.23766000000001
  0
ARC
  8
_0-0_LAYER001
  6
CONTINUOUS
 62
    4
 10
1785.3535000000002
 20
1068.9108000000001
 40
44.132803000000003
 50
297.62160999999998
 51
318.23129999999998
  0
LINE
  8
_0-0_LAYER001
  6
CONTINUOUS
 62
    4
 10
1655.6592999999998
 20
1068.9739999999999
 11
1651.6538
 21
1067.0918999999999
  0
LINE
  8
_0-0_LAYER001
  6
CONTINUOUS
 62
    4
 10
1655.6592999999998
 20
1070.3938000000001
 11
1655.6592999999998
 21
1068.9739999999999
  0
LINE
  8
_0-0_LAYER001
  6
CONTINUOUS
 62
    4
 10
1655.1336999999999
 20
1087.1378
 11
1651.7707999999998
 21
1085.8115
  0
LINE
  8
_0-0_LAYER001
  6
CONTINUOUS
 62
    4
 10
1655.1336999999999
 20
1088.6264000000001
 11
1655.1336999999999
 21
1087.1378
  0
ARC
  8
_0-0_LAYER001
  6
CONTINUOUS
 62
    4
 10
1835.0509000000002
 20
1254.7991
 40
199.38050999999999
 50
231.7756
 51
268.38173
  0
ARC
  8
_0-0_LAYER001
  6
CONTINUOUS
 62
    4
 10
1835.0509000000002
 20
1254.7991
 40
199.38050999999999
 50
231.7756
 51
268.38173
  0
ARC
  8
_0-0_LAYER001
  6
CONTINUOUS
 62
    4
 10
1835.0509000000002
 20
1254.7991
 40
197.38050999999999
 50
231.7756
 51
268.38173
  0
LINE
  8
_0-0_LAYER001
  6
CONTINUOUS
 62
    4
 10
1655.3887
 20
1088.8508999999999
 11
1685.6687000000002
 21
1102.8983000000001
  0
LINE
  8
_0-0_LAYER001
  6
CONTINUOUS
 62
    4
 10
1686.9173000000001
 20
1101.3375000000001
 11
1652.2671
 21
1085.7292
  0
ARC
  8
_0-0_LAYER001
  6
CONTINUOUS
 62
    4
 10
1835.0509000000002
 20
1254.7991
 40
182.38050999999999
 50
231.7756
 51
268.38173
  0
LINE
  8
_0-0_LAYER001
  6
CONTINUOUS
 62
    4
 10
1651.6538
 20
1067.0918999999999
 11
1651.6538
 21
1103.6538
  0
LINE
  8
_0-0_LAYER001
  6
CONTINUOUS
 62
    4
 10
1651.6538
 20
1103.6538
 11
1679.3561
 21
1116.5053
  0
ARC
  8
_0-0_LAYER001
  6
CONTINUOUS
 62
    4
 10
1835.0509000000002
 20
1254.7991
 40
214.38050999999999
 50
231.7756
 51
268.38173
  0
ARC
  8
_0-0_LAYER001
  6
CONTINUOUS
 62
    4
 10
1696.4650000000001
 20
1077.4060999999999
 40
27.732966999999999
 50
54.176177000000003
 51
112.93031000000001
  0
ARC
  8
_0-0_LAYER001
  6
CONTINUOUS
 62
    4
 10
1696.8128999999999
 20
1079.6795
 40
40.679594999999999
 50
51.535313000000002
 51
115.27963000000001
  0
ARC
  8
_0-0_LAYER001
  6
CONTINUOUS
 62
    4
 10
1696.4513999999999
 20
1076.9082000000001
 40
26.213477999999995
 50
54.56426900000001
 51
111.2666
  0
ARC
  8
_0-0_LAYER001
  6
CONTINUOUS
 62
    4
 10
1696.9621999999999
 20
1074.4467999999999
 40
13.076713
 50
65.553432000000001
 51
112.83269999999999
  0
ARC
  8
_0-0_LAYER001
  6
CONTINUOUS
 62
    4
 10
1811.6624000000002
 20
1071.4138
 40
69.674484000000007
 50
321.65733
 51
337.34946000000002
  0
ARC
  8
_0-0_LAYER001
  6
CONTINUOUS
 62
    4
 10
1825.5073000000002
 20
1347.6863000000001
 40
307.27562
 50
270.90795000000003
 51
293.21983
  0
ARC
  8
_0-0_LAYER001
  6
CONTINUOUS
 62
    4
 10
1825.5073000000002
 20
1347.6863000000001
 40
275.27562
 50
270.90795000000003
 51
287.11988000000002
  0
ARC
  8
_0-0_LAYER001
  6
CONTINUOUS
 62
    4
 10
1825.5073000000002
 20
1347.6863000000001
 40
292.27562
 50
270.90795000000003
 51
292.69346000000002
  0
LINE
  8
_0-0_LAYER001
  6
CONTINUOUS
 62
    4
 10
1938.2674999999999
 20
1080.4628
 11
1938.2674999999999
 21
1078.0381
  0
LINE
  8
_0-0_LAYER001
  6
CONTINUOUS
 62
    4
 10
1946.6538
 20
1065.3004000000001
 11
1946.6538
 21
1083.6077
  0
LINE
  8
_0-0_LAYER001
  6
CONTINUOUS
 62
    4
 10
1938.2674999999999
 20
1080.4628
 11
1946.6538
 21
1083.6077
  0
ARC
  8
_0-0_LAYER001
  6
CONTINUOUS
 62
    4
 10
1825.5073000000002
 20
1347.6863000000001
 40
290.27562
 50
270.90795000000003
 51
286.23334
  0
LINE
  8
_0-0_LAYER001
  6
CONTINUOUS
 62
    4
 10
1906.6538
 20
1068.9837
 11
1906.6538
 21
1084.6428000000001
  0
ARC
  8
_0-0_LAYER001
  6
CONTINUOUS
 62
    4
 10
2089.9378000000002
 20
1254.4027000000001
 40
214.38050999999999
 50
231.7756
 51
268.38173
  0
LINE
  8
_0-0_LAYER001
  6
CONTINUOUS
 62
    4
 10
1910.5462000000002
 20
1069.9974999999999
 11
1946.7361999999998
 21
1086.1537000000001
  0
ARC
  8
_0-0_LAYER001
  6
CONTINUOUS
 62
    4
 10
2144.4070000000002
 20
1070.9002
 40
52.178303999999997
 50
215.53766999999999
 51
234.46232000000001
  0
ARC
  8
_0-0_LAYER001
  6
CONTINUOUS
 62
    4
 10
2118.0783000000001
 20
1033.1964
 40
6.2695089999999993
 50
234.10575000000003
 51
252.08294000000004
  0
ARC
  8
_0-0_LAYER001
  6
CONTINUOUS
 62
    4
 10
2086.6176
 20
1077.2025000000001
 40
58.841383
 50
213.2508
 51
234.31144
  0
ARC
  8
_0-0_LAYER001
  6
CONTINUOUS
 62
    4
 10
2056.7419
 20
1036.0451
 40
7.947610000000001
 50
234.52014000000003
 51
301.23766000000001
  0
ARC
  8
_0-0_LAYER001
  6
CONTINUOUS
 62
    4
 10
2040.2404000000001
 20
1068.5144
 40
44.132803000000003
 50
297.62160999999998
 51
318.23129999999998
  0
LINE
  8
_0-0_LAYER001
  6
CONTINUOUS
 62
    4
 10
1910.5462000000002
 20
1068.5776000000001
 11
1906.5408000000002
 21
1066.6956
  0
LINE
  8
_0-0_LAYER001
  6
CONTINUOUS
 62
    4
 10
1910.5462000000002
 20
1069.9974999999999
 11
1910.5462000000002
 21
1068.5776000000001
  0
LINE
  8
_0-0_LAYER001
  6
CONTINUOUS
 62
    4
 10
1910.0205999999998
 20
1086.7414000000001
 11
1906.6577000000002
 21
1085.4151999999999
  0
LINE
  8
_0-0_LAYER001
  6
CONTINUOUS
 62
    4
 10
1910.0205999999998
 20
1088.2301
 11
1910.0205999999998
 21
1086.7414000000001
  0
ARC
  8
_0-0_LAYER001
  6
CONTINUOUS
 62
    4
 10
2089.9378000000002
 20
1254.4027000000001
 40
199.38050999999999
 50
231.7756
 51
268.38173
  0
ARC
  8
_0-0_LAYER001
  6
CONTINUOUS
 62
    4
 10
2089.9378000000002
 20
1254.4027000000001
 40
199.38050999999999
 50
231.7756
 51
268.38173
  0
ARC
  8
_0-0_LAYER001
  6
CONTINUOUS
 62
    4
 10
2089.9378000000002
 20
1254.4027000000001
 40
197.38050999999999
 50
231.7756
 51
268.38173
  0
LINE
  8
_0-0_LAYER001
  6
CONTINUOUS
 62
    4
 10
1910.2755999999999
 20
1088.4545000000001
 11
1940.5556000000001
 21
1102.5019
  0
LINE
  8
_0-0_LAYER001
  6
CONTINUOUS
 62
    4
 10
1941.8042
 20
1100.9411
 11
1907.154
 21
1085.3329000000001
  0
ARC
  8
_0-0_LAYER001
  6
CONTINUOUS
 62
    4
 10
2089.9378000000002
 20
1254.4027000000001
 40
182.38050999999999
 50
231.7756
 51
268.38173
  0
LINE
  8
_0-0_LAYER001
  6
CONTINUOUS
 62
    4
 10
1906.5408000000002
 20
1066.6956
 11
1906.5408000000002
 21
1103.2574
  0
LINE
  8
_0-0_LAYER001
  6
CONTINUOUS
 62
    4
 10
1906.5408000000002
 20
1103.2574
 11
1934.2429999999999
 21
1116.1089999999999
  0
ARC
  8
_0-0_LAYER001
  6
CONTINUOUS
 62
    4
 10
2089.9378000000002
 20
1254.4027000000001
 40
214.38050999999999
 50
231.7756
 51
268.38173
  0
ARC
  8
_0-0_LAYER001
  6
CONTINUOUS
 62
    4
 10
1951.3519000000001
 20
1077.0097000000001
 40
27.732966999999999
 50
54.176177000000003
 51
112.93031000000001
  0
ARC
  8
_0-0_LAYER001
  6
CONTINUOUS
 62
    4
 10
1951.6997999999999
 20
1079.2831000000001
 40
40.679594999999999
 50
51.535313000000002
 51
115.27963000000001
  0
ARC
  8
_0-0_LAYER001
  6
CONTINUOUS
 62
    4
 10
1951.3384000000001
 20
1076.5118
 40
26.213477999999995
 50
54.56426900000001
 51
111.2666
  0
ARC
  8
_0-0_LAYER001
  6
CONTINUOUS
 62
    4
 10
1951.8492000000001
 20
1074.0504000000001
 40
13.076713
 50
65.553432000000001
 51
112.83269999999999
  0
ARC
  8
_0-0_LAYER001
  6
CONTINUOUS
 62
    4
 10
2080.3942000000002
 20
1347.29
 40
307.27562
 50
270.90795000000003
 51
276.68221
  0
ARC
  8
_0-0_LAYER001
  6
CONTINUOUS
 62
    4
 10
2080.3942000000002
 20
1347.29
 40
275.27562
 50
270.90795000000003
 51
277.46319
  0
ARC
  8
_0-0_LAYER001
  6
CONTINUOUS
 62
    4
 10
2080.3942000000002
 20
1347.29
 40
292.27562
 50
270.90795000000003
 51
277.02683999999999
  0
ARC
  8
_0-0_LAYER001
  6
CONTINUOUS
 62
    4
 10
2080.3942000000002
 20
1347.29
 40
290.27562
 50
270.90795000000003
 51
277.07549999999998
  0
ARC
  8
_0-0_LAYER001
  6
CONTINUOUS
 62
    4
 10
1186.6334999999999
 20
1076.0851
 40
13.076713
 50
65.553432000000001
 51
117.42375
  0
ARC
  8
_0-0_LAYER001
  6
CONTINUOUS
 62
    4
 10
1186.4842000000001
 20
1081.3178
 40
40.679594999999999
 50
51.535313000000002
 51
98.827657000000002
  0
ARC
  8
_0-0_LAYER001
  6
CONTINUOUS
 62
    4
 10
1186.1362999999999
 20
1079.0444
 40
27.732966999999999
 50
54.176177000000003
 51
102.20569
  0
ARC
  8
_0-0_LAYER001
  6
CONTINUOUS
 62
    4
 10
1186.1226999999999
 20
1078.5464999999999
 40
26.213477999999995
 50
54.56426900000001
 51
102.77263000000001
  0
LINE
  8
_0-0_LAYER001
  6
CONTINUOUS
 62
    4
 10
1180.6107999999999
 20
1121.3035
 11
1180.6107999999999
 21
1092.0126
  0
LINE
  8
_0-0_LAYER001
  6
CONTINUOUS
 62
    4
 10
1180.6107999999999
 20
1092.0126
 11
1180.6107999999999
 21
1087.6922999999999
  0
LINE
  8
_0-0_LAYER001
  6
CONTINUOUS
 62
    4
 10
1180.1604
 20
1087.5811000000001
 11
1181.5206000000001
 21
1088.1884
  0
LINE
  8
_0-0_LAYER001
  6
CONTINUOUS
 62
    2
 10
1396.2584999999999
 20
1240.4607000000001
 11
1396.2584999999999
 21
1187.9607000000001
  0
CIRCLE
  8
_0-0_LAYER001
  6
CONTINUOUS
 62
    2
 10
1396.2584999999999
 20
1237.9607000000001
 40
1.6999999999999997
  0
LINE
  8
_0-0_LAYER001
  6
CONTINUOUS
 62
    2
 10
1396.2584999999999
 20
1237.9607000000001
 11
1651.5414999999998
 21
1237.9607000000001
  0
CIRCLE
  8
_0-0_LAYER001
  6
CONTINUOUS
 62
    2
 10
1651.5414999999998
 20
1237.9607000000001
 40
1.6999999999999997
  0
LINE
  8
_0-0_LAYER001
  6
CONTINUOUS
 62
    2
 10
1651.5414999999998
 20
1240.4607000000001
 11
1651.5414999999998
 21
1187.9607000000001
  0
CIRCLE
  8
_0-0_LAYER001
  6
CONTINUOUS
 62
    2
 10
1651.5414999999998
 20
1237.9607000000001
 40
1.6999999999999997
  0
LINE
  8
_0-0_LAYER001
  6
CONTINUOUS
 62
    2
 10
1651.5414999999998
 20
1237.9607000000001
 11
1906.5414999999998
 21
1237.9607000000001
  0
CIRCLE
  8
_0-0_LAYER001
  6
CONTINUOUS
 62
    2
 10
1906.5414999999998
 20
1237.9607000000001
 40
1.6999999999999997
  0
LINE
  8
_0-0_LAYER001
  6
CONTINUOUS
 62
    2
 10
1906.5414999999998
 20
1240.4607000000001
 11
1906.5414999999998
 21
1187.9607000000001
  0
LINE
  8
_0-0_LAYER001
  6
CONTINUOUS
 62
    2
 10
1664.2660000000001
 20
733.77780000000007
 11
1869.0886999999998
 21
733.77780000000007
  0
LINE
  8
_0-0_LAYER001
  6
CONTINUOUS
 62
    2
 10
1584.5162999999998
 20
1022.2501999999999
 11
1584.5162999999998
 21
1029.7501999999999
  0
LINE
  8
_0-0_LAYER001
  6
CONTINUOUS
 62
    2
 10
1584.5162999999998
 20
1029.7501999999999
 11
1588.2662999999998
 21
1023.2550000000001
  0
LINE
  8
_0-0_LAYER001
  6
CONTINUOUS
 62
    2
 10
1584.5162999999998
 20
1029.7501999999999
 11
1687.8912999999998
 21
643.94939999999997
  0
LINE
  8
_0-0_LAYER001
  6
CONTINUOUS
 62
    2
 10
1680.7181999999998
 20
673.81590000000006
 11
1892.3685
 21
673.81590000000006
  0
LINE
  8
_0-1_LAYER004
  6
CONTINUOUS
 62
   18
 10
1012.6605999999999
 20
1410.3676
 11
1093.6605999999999
 21
1410.3676
  0
LINE
  8
_0-1_LAYER004
  6
CONTINUOUS
 62
   18
 10
1169.1886999999999
 20
1438.9287999999999
 11
1261.1886999999999
 21
1438.9287999999999
  0
LINE
  8
_0-1_LAYER004
  6
CONTINUOUS
 62
   18
 10
1261.1886999999999
 20
1440.6288
 11
1261.1886999999999
 21
1423.9287999999999
  0
LINE
  8
_0-1_LAYER004
  6
CONTINUOUS
 62
   18
 10
919.52690000000007
 20
1354.4944
 11
1066.5269000000001
 21
1354.4944
  0
LINE
  8
_0-1_LAYER004
  6
CONTINUOUS
 62
   18
 10
872.05140000000006
 20
1219.837
 11
922.05140000000006
 21
1219.837
  0
LINE
  8
_0-1_LAYER004
  6
CONTINUOUS
 62
   18
 10
922.05140000000006
 20
1219.837
 11
873.7514000000001
 21
1219.837
  0
LINE
  8
_0-1_LAYER004
  6
CONTINUOUS
 62
   18
 10
971.37169999999992
 20
1301.837
 11
1023.0717
 21
1301.837
  0
LINE
  8
_0-1_LAYER004
  6
CONTINUOUS
 62
   18
 10
1023.0717
 20
1301.837
 11
973.07169999999996
 21
1301.837
  0
LINE
  8
_0-1_LAYER004
  6
CONTINUOUS
 62
   18
 10
971.37169999999992
 20
1286.837
 11
1023.0717
 21
1286.837
  0
LINE
  8
_0-1_LAYER004
  6
CONTINUOUS
 62
   18
 10
973.07169999999996
 20
1301.837
 11
973.07169999999996
 21
1139.837
  0
LINE
  8
_0-1_LAYER004
  6
CONTINUOUS
 62
   18
 10
971.37169999999992
 20
1139.837
 11
1023.0717
 21
1139.837
  0
LINE
  8
_0-1_LAYER004
  6
CONTINUOUS
 62
   18
 10
971.37169999999992
 20
1196.837
 11
1023.0717
 21
1196.837
  0
LINE
  8
_0-1_LAYER004
  6
CONTINUOUS
 62
   18
 10
973.07169999999996
 20
1141.537
 11
973.07169999999996
 21
1019.837
  0
LINE
  8
_0-1_LAYER004
  6
CONTINUOUS
 62
   18
 10
971.37169999999992
 20
1019.837
 11
1023.0717
 21
1019.837
  0
LINE
  8
_0-1_LAYER004
  6
CONTINUOUS
 62
   18
 10
922.05140000000006
 20
1019.837
 11
870.35140000000013
 21
1019.837
  0
LINE
  8
_0-1_LAYER004
  6
CONTINUOUS
 62
   18
 10
872.05140000000006
 20
1019.837
 11
872.05140000000006
 21
1219.837
  0
LINE
  8
_0-1_LAYER004
  6
CONTINUOUS
 62
   18
 10
872.05140000000006
 20
1219.837
 11
870.35140000000013
 21
1219.837
  0
LINE
  8
_0-1_LAYER004
  6
CONTINUOUS
 62
   18
 10
1253.2422999999999
 20
1388.1540999999997
 11
1400.2422999999999
 21
1388.1540999999997
  0
LINE
  8
_0-1_LAYER004
  6
CONTINUOUS
 62
   18
 10
1400.2422999999999
 20
1388.1540999999997
 11
1253.2422999999999
 21
1388.1540999999997
  0
LINE
  8
_0-1_LAYER004
  6
CONTINUOUS
 62
   18
 10
1330.4709
 20
1298.7952999999998
 11
1444.4708999999998
 21
1298.7952999999998
  0
LINE
  8
_0-1_LAYER004
  6
CONTINUOUS
 62
   18
 10
1396.2584999999999
 20
1240.4607000000001
 11
1396.2584999999999
 21
1187.9607000000001
  0
LINE
  8
_0-1_LAYER004
  6
CONTINUOUS
 62
   18
 10
1397.9585
 20
1237.9607000000001
 11
1906.5414999999998
 21
1237.9607000000001
  0
LINE
  8
_0-1_LAYER004
  6
CONTINUOUS
 62
   18
 10
1906.5414999999998
 20
1240.4607000000001
 11
1906.5414999999998
 21
1187.9607000000001
  0
LINE
  8
_0-1_LAYER004
  6
CONTINUOUS
 62
   18
 10
1651.5414999999998
 20
1240.4607000000001
 11
1651.5414999999998
 21
1187.9607000000001
  0
LINE
  8
_0-1_LAYER004
  6
CONTINUOUS
 62
   18
 10
1167.1886999999999
 20
1456.0505000000001
 11
1167.1886999999999
 21
1301.1012000000001
  0
LINE
  8
_0-1_LAYER004
  6
CONTINUOUS
 62
   18
 10
1167.1886999999999
 20
1301.1012000000001
 11
1151.5887
 21
1301.1012000000001
  0
LINE
  8
_0-1_LAYER004
  6
CONTINUOUS
 62
   18
 10
1151.5887
 20
1301.1012000000001
 11
1151.5887
 21
1280.3012000000001
  0
LINE
  8
_0-1_LAYER004
  6
CONTINUOUS
 62
   18
 10
1151.5887
 20
1280.3012000000001
 11
1167.1886999999999
 21
1280.3012000000001
  0
LINE
  8
_0-1_LAYER004
  6
CONTINUOUS
 62
   18
 10
1167.1886999999999
 20
1280.3012000000001
 11
1167.1886999999999
 21
969.83699999999999
  0
LINE
  8
_0-1_LAYER004
  6
CONTINUOUS
 62
   18
 10
1167.1886999999999
 20
969.83699999999999
 11
1067.1886999999999
 21
969.83699999999999
  0
LINE
  8
_0-1_LAYER004
  6
CONTINUOUS
 62
   18
 10
1067.1886999999999
 20
969.83699999999999
 11
1067.1886999999999
 21
1364.3452554086925
  0
LINE
  8
_0-1_LAYER004
  6
CONTINUOUS
 62
   18
 10
1153.6686999999999
 20
1300.0308
 11
1153.6686999999999
 21
1301.1012000000001
  0
LINE
  8
_0-1_LAYER004
  6
CONTINUOUS
 62
   18
 10
1153.6686999999999
 20
1301.1012000000001
 11
1153.6686999999999
 21
1282.3812
  0
LINE
  8
_0-1_LAYER004
  6
CONTINUOUS
 62
   18
 10
1153.6686999999999
 20
1282.3812
 11
1171.5887
 21
1282.3812
  0
LINE
  8
_0-1_LAYER004
  6
CONTINUOUS
 62
   18
 10
1171.5887
 20
1282.3812
 11
1171.5887
 21
1266.1412
  0
LINE
  8
_0-1_LAYER004
  6
CONTINUOUS
 62
   18
 10
1171.5887
 20
1266.1412
 11
1171.5887
 21
1249.9012
  0
LINE
  8
_0-1_LAYER004
  6
CONTINUOUS
 62
   18
 10
1169.1886999999999
 20
1280.3012000000001
 11
1169.1886999999999
 21
1191.7465
  0
LINE
  8
_0-1_LAYER004
  6
CONTINUOUS
 62
   18
 10
1148.9888000000001
 20
1159.087
 11
1167.1886999999999
 21
1159.087
  0
LINE
  8
_0-1_LAYER004
  6
CONTINUOUS
 62
   18
 10
1148.9888000000001
 20
1150.587
 11
1167.1886999999999
 21
1150.587
  0
LINE
  8
_0-1_LAYER004
  6
CONTINUOUS
 62
   18
 10
1167.1886999999999
 20
1150.587
 11
1167.1886999999999
 21
1157.8369
  0
LINE
  8
_0-1_LAYER004
  6
CONTINUOUS
 62
   18
 10
1167.1886999999999
 20
1157.8369
 11
1191.1887999999999
 21
1157.8369
  0
LINE
  8
_0-1_LAYER004
  6
CONTINUOUS
 62
   18
 10
1167.1886999999999
 20
1151.837
 11
1191.1887999999999
 21
1151.837
  0
LINE
  8
_0-1_LAYER004
  6
CONTINUOUS
 62
   18
 10
1191.1887999999999
 20
1151.837
 11
1191.1887999999999
 21
1157.8369
  0
LINE
  8
_0-1_LAYER004
  6
CONTINUOUS
 62
   18
 10
1204.4322
 20
1166.9878000000001
 11
1204.4322
 21
1149.5582174817785
  0
LINE
  8
_0-1_LAYER004
  6
CONTINUOUS
 62
   18
 10
1204.4322
 20
1148.4467
 11
1192.6333
 21
1148.4467
  0
LINE
  8
_0-1_LAYER004
  6
CONTINUOUS
 62
   18
 10
1192.6333
 20
1148.4467
 11
1192.6333
 21
1167.2126000000001
  0
LINE
  8
_0-1_LAYER004
  6
CONTINUOUS
 62
   18
 10
1192.6333
 20
1167.2126000000001
 11
1197.1886999999999
 21
1167.2126000000001
  0
LINE
  8
_0-1_LAYER004
  6
CONTINUOUS
 62
   18
 10
1197.1886999999999
 20
1167.2126000000001
 11
1197.1886999999999
 21
1134.837
  0
LINE
  8
_0-1_LAYER004
  6
CONTINUOUS
 62
   18
 10
1197.1886999999999
 20
1134.837
 11
1167.1886999999999
 21
1134.837
  0
LINE
  8
_0-1_LAYER004
  6
CONTINUOUS
 62
   18
 10
1221.7372
 20
1132.9395999999999
 11
1221.7372
 21
1113.8929000000001
  0
LINE
  8
_0-1_LAYER004
  6
CONTINUOUS
 62
   18
 10
1221.7372
 20
1113.8929000000001
 11
1221.7372
 21
1132.9395999999999
  0
LINE
  8
_0-1_LAYER004
  6
CONTINUOUS
 62
   18
 10
1171.1886999999999
 20
1134.837
 11
1171.1886999999999
 21
1023.837
  0
LINE
  8
_0-1_LAYER004
  6
CONTINUOUS
 62
   18
 10
1171.1886999999999
 20
1023.837
 11
1287.1886999999997
 21
1023.837
  0
LINE
  8
_0-1_LAYER004
  6
CONTINUOUS
 62
   18
 10
1287.1886999999997
 20
1023.837
 11
1287.1886999999997
 21
1041.5798
  0
LINE
  8
_0-1_LAYER004
  6
CONTINUOUS
 62
   18
 10
1287.1886999999997
 20
1041.5798
 11
1276.3866559807418
 21
1041.5798
  0
LINE
  8
_0-1_LAYER004
  6
CONTINUOUS
 62
   18
 10
1289.1887999999999
 20
1040.837
 11
1289.1887999999999
 21
1025.837
  0
LINE
  8
_0-1_LAYER004
  6
CONTINUOUS
 62
   18
 10
1289.1887999999999
 20
1025.837
 11
2116.1495485996893
 21
1025.837
  0
LINE
  8
_0-1_LAYER004
  6
CONTINUOUS
 62
   18
 10
2116.1495
 20
1040.837
 11
1291.5587
 21
1040.837
  0
LINE
  8
_0-1_LAYER004
  6
CONTINUOUS
 62
   18
 10
1169.1886999999999
 20
1021.837
 11
2116.1495
 21
1021.837
  0
LINE
  8
_0-1_LAYER004
  6
CONTINUOUS
 62
   18
 10
2116.1495
 20
1019.837
 11
1167.1886999999999
 21
1019.837
  0
LINE
  8
_0-1_LAYER004
  6
CONTINUOUS
 62
   18
 10
1169.1886999999999
 20
1021.837
 11
1169.1886999999999
 21
1134.7479622265741
  0
LINE
  8
_0-1_LAYER004
  6
CONTINUOUS
 62
   18
 10
1177.1886999999999
 20
969.83699999999999
 11
1177.1886999999999
 21
869.83699999999999
  0
LINE
  8
_0-1_LAYER004
  6
CONTINUOUS
 62
   18
 10
1177.1886999999999
 20
869.83699999999999
 11
2116.1495
 21
869.83699999999999
  0
LINE
  8
_0-1_LAYER004
  6
CONTINUOUS
 62
   18
 10
2116.1495
 20
969.83699999999999
 11
1167.1886999999999
 21
969.83699999999999
  0
LINE
  8
_0-1_LAYER004
  6
CONTINUOUS
 62
   18
 10
2116.1495
 20
859.83699999999999
 11
1067.1886999999999
 21
859.83699999999999
  0
LINE
  8
_0-1_LAYER004
  6
CONTINUOUS
 62
   18
 10
1043.1604
 20
860.13390000000004
 11
961.12950000000001
 21
860.13390000000004
  0
LINE
  8
_0-1_LAYER004
  6
CONTINUOUS
 62
   18
 10
1033.8504
 20
910.13290000000006
 11
853.85040000000004
 21
910.13290000000006
  0
LINE
  8
_0-1_LAYER004
  6
CONTINUOUS
 62
   18
 10
1664.2660000000001
 20
733.77780000000007
 11
1844.2660000000001
 21
733.77780000000007
  0
LINE
  8
_0-1_LAYER004
  6
CONTINUOUS
 62
   18
 10
1680.7181999999998
 20
673.81590000000006
 11
1892.3685
 21
673.81590000000006
  0
LINE
  8
_0-1_LAYER004
  6
CONTINUOUS
 62
   18
 10
1844.2660000000001
 20
733.77780000000007
 11
1869.0886999999998
 21
733.77780000000007
  0
LINE
  8
_0-1_LAYER004
  6
CONTINUOUS
 62
   18
 10
1093.6605999999999
 20
1410.3676
 11
1162.4123
 21
1291.2861
  0
LINE
  8
_0-1_LAYER004
  6
CONTINUOUS
 62
   18
 10
1162.4123
 20
1291.2861
 11
1160.5815180160739
 21
1298.1187809563412
  0
LINE
  8
_0-1_LAYER004
  6
CONTINUOUS
 62
   18
 10
1162.4123
 20
1291.2861
 11
1157.1089999999999
 21
1296.5894000000001
  0
LINE
  8
_0-1_LAYER004
  6
CONTINUOUS
 62
   18
 10
1167.1886999999999
 20
1331.9576999999999
 11
1067.1886999999999
 21
1231.9577999999999
  0
LINE
  8
_0-1_LAYER004
  6
CONTINUOUS
 62
   18
 10
1067.1886999999999
 20
1236.2003999999999
 11
1167.1886999999999
 21
1336.2002000000002
  0
LINE
  8
_0-1_LAYER004
  6
CONTINUOUS
 62
   18
 10
1067.1886999999999
 20
1353.3481294380704
 11
1175.7416000000001
 21
1165.3290999999999
  0
LINE
  8
_0-1_LAYER004
  6
CONTINUOUS
 62
   18
 10
1175.7416000000001
 20
1165.3290999999999
 11
1173.8004000000001
 21
1172.5735999999999
  0
LINE
  8
_0-1_LAYER004
  6
CONTINUOUS
 62
   18
 10
1175.7416000000001
 20
1165.3290999999999
 11
1170.4383
 21
1170.6324
  0
LINE
  8
_0-1_LAYER004
  6
CONTINUOUS
 62
   18
 10
1179.2411999999999
 20
1187.9431999999999
 11
1181.5246999999999
 21
1185.9205999999999
  0
LINE
  8
_0-1_LAYER004
  6
CONTINUOUS
 62
   18
 10
1181.5246999999999
 20
1185.9205999999999
 11
1176.8348000000001
 21
1159.3287
  0
LINE
  8
_0-1_LAYER004
  6
CONTINUOUS
 62
   18
 10
1176.8348000000001
 20
1159.3287
 11
1177.0432000000001
 21
1150.4459999999999
  0
LINE
  8
_0-1_LAYER004
  6
CONTINUOUS
 62
   18
 10
1177.0432000000001
 20
1150.4459999999999
 11
1180.4848999999999
 21
1158.6849
  0
LINE
  8
_0-1_LAYER004
  6
CONTINUOUS
 62
   18
 10
1180.4848999999999
 20
1158.6849
 11
1185.1746000000001
 21
1185.2782999999999
  0
LINE
  8
_0-1_LAYER004
  6
CONTINUOUS
 62
   18
 10
1185.1746000000001
 20
1185.2782999999999
 11
1188.0106000000001
 21
1186.3969
  0
LINE
  8
_0-1_LAYER004
  6
CONTINUOUS
 62
   18
 10
1196.902
 20
1185.3891000000001
 11
1196.902
 21
1177.8891000000001
  0
LINE
  8
_0-1_LAYER004
  6
CONTINUOUS
 62
   18
 10
1196.902
 20
1177.8891000000001
 11
1200.5385918742973
 21
1184.1878710778496
  0
LINE
  8
_0-1_LAYER004
  6
CONTINUOUS
 62
   18
 10
1196.902
 20
1177.8891000000001
 11
1253.2422999999999
 21
1388.1540999999997
  0
LINE
  8
_0-1_LAYER004
  6
CONTINUOUS
 62
   18
 10
1280.1251
 20
1351.8689999999997
 11
1234.0171
 21
1179.7914000000001
  0
LINE
  8
_0-1_LAYER004
  6
CONTINUOUS
 62
   18
 10
1234.0171
 20
1179.7914000000001
 11
1234.0171
 21
1187.2914000000001
  0
LINE
  8
_0-1_LAYER004
  6
CONTINUOUS
 62
   18
 10
1234.0171
 20
1187.2914000000001
 11
1234.0171
 21
1179.7914000000001
  0
LINE
  8
_0-1_LAYER004
  6
CONTINUOUS
 62
   18
 10
1234.0171
 20
1179.7914000000001
 11
1237.7671
 21
1186.2865999999999
  0
LINE
  8
_0-1_LAYER004
  6
CONTINUOUS
 62
   18
 10
1169.1886999999999
 20
1191.7465
 11
1260.7429
 21
1175.6030000000001
  0
LINE
  8
_0-1_LAYER004
  6
CONTINUOUS
 62
   18
 10
1260.7429
 20
1175.6030000000001
 11
1258.1383000000001
 21
1160.8308999999999
  0
LINE
  8
_0-1_LAYER004
  6
CONTINUOUS
 62
   18
 10
1258.1383000000001
 20
1160.8308999999999
 11
1281.7203
 21
1152.2476999999999
  0
LINE
  8
_0-1_LAYER004
  6
CONTINUOUS
 62
   18
 10
1281.7203
 20
1152.2476999999999
 11
1275.8077000000001
 21
1153.268
  0
LINE
  8
_0-1_LAYER004
  6
CONTINUOUS
 62
   18
 10
1258.4260999999999
 20
1173.9807000000001
 11
1255.8214
 21
1159.2085999999999
  0
LINE
  8
_0-1_LAYER004
  6
CONTINUOUS
 62
   18
 10
1255.8214
 20
1159.2085999999999
 11
1167.1886999999999
 21
1174.837
  0
LINE
  8
_0-1_LAYER004
  6
CONTINUOUS
 62
   18
 10
1167.1886999999999
 20
1174.837
 11
1169.7934
 21
1189.6090999999999
  0
LINE
  8
_0-1_LAYER004
  6
CONTINUOUS
 62
   18
 10
1169.7934
 20
1189.6090999999999
 11
1258.4260999999999
 21
1173.9807000000001
  0
LINE
  8
_0-1_LAYER004
  6
CONTINUOUS
 62
   18
 10
1258.4260999999999
 20
1173.9807000000001
 11
1167.1886999999999
 21
1174.837
  0
LINE
  8
_0-1_LAYER004
  6
CONTINUOUS
 62
   18
 10
1286.3516
 20
1141.6401000000001
 11
1286.3516
 21
1134.1401000000001
  0
LINE
  8
_0-1_LAYER004
  6
CONTINUOUS
 62
   18
 10
1286.3516
 20
1134.1401000000001
 11
1290.1016
 21
1140.6352999999999
  0
LINE
  8
_0-1_LAYER004
  6
CONTINUOUS
 62
   18
 10
1286.3516
 20
1134.1401000000001
 11
1330.4709
 21
1298.7952999999998
  0
LINE
  8
_0-1_LAYER004
  6
CONTINUOUS
 62
   18
 10
1397.9585
 20
1237.9607000000001
 11
1396.2584999999999
 21
1237.9607000000001
  0
LINE
  8
_0-1_LAYER004
  6
CONTINUOUS
 62
   18
 10
1193.6848
 20
1170.165
 11
1167.1886999999999
 21
1134.837
  0
LINE
  8
_0-1_LAYER004
  6
CONTINUOUS
 62
   18
 10
1190.9476999999999
 20
1137.3783000000001
 11
1193.6446000000001
 21
1141.8731
  0
LINE
  8
_0-1_LAYER004
  6
CONTINUOUS
 62
   18
 10
1193.6446000000001
 20
1141.8731
 11
1221.7372
 21
1132.9395999999999
  0
LINE
  8
_0-1_LAYER004
  6
CONTINUOUS
 62
   18
 10
1221.7372
 20
1113.8929000000001
 11
1214.7103999999999
 21
1116.0786000000001
  0
LINE
  8
_0-1_LAYER004
  6
CONTINUOUS
 62
   18
 10
1214.7103999999999
 20
1116.0786000000001
 11
1190.9476999999999
 21
1137.3783000000001
  0
LINE
  8
_0-1_LAYER004
  6
CONTINUOUS
 62
   18
 10
1197.1886999999999
 20
1148.8369
 11
1191.1887999999999
 21
1151.837
  0
LINE
  8
_0-1_LAYER004
  6
CONTINUOUS
 62
   18
 10
1197.1886999999999
 20
1160.837
 11
1191.1887999999999
 21
1157.8369
  0
LINE
  8
_0-1_LAYER004
  6
CONTINUOUS
 62
   18
 10
1204.4322
 20
1166.9878000000001
 11
1192.6333
 21
1167.2126000000001
  0
LINE
  8
_0-1_LAYER004
  6
CONTINUOUS
 62
   18
 10
1204.4322
 20
1149.5582174817785
 11
1204.4322
 21
1148.4467
  0
LINE
  8
_0-1_LAYER004
  6
CONTINUOUS
 62
   18
 10
1167.1886999999999
 20
1124.2003
 11
1067.1886999999999
 21
1024.2003999999999
  0
LINE
  8
_0-1_LAYER004
  6
CONTINUOUS
 62
   18
 10
1067.1886999999999
 20
1019.9576999999999
 11
1167.1886999999999
 21
1119.9577999999999
  0
LINE
  8
_0-1_LAYER004
  6
CONTINUOUS
 62
   18
 10
1191.4853000000001
 20
1120.9223999999999
 11
1196.7886000000001
 21
1126.2257
  0
LINE
  8
_0-1_LAYER004
  6
CONTINUOUS
 62
   18
 10
1196.7886000000001
 20
1126.2257
 11
1194.8475000000001
 21
1118.9811999999999
  0
LINE
  8
_0-1_LAYER004
  6
CONTINUOUS
 62
   18
 10
1221.7372
 20
1113.8929000000001
 11
1214.6994
 21
1115.6129000000001
  0
LINE
  8
_0-1_LAYER004
  6
CONTINUOUS
 62
   18
 10
1214.6994
 20
1115.6129000000001
 11
1190.9476999999999
 21
1137.3783000000001
  0
LINE
  8
_0-1_LAYER004
  6
CONTINUOUS
 62
   18
 10
1171.1886999999999
 20
1134.837
 11
1178.6886999999999
 21
1121.8466000000001
  0
LINE
  8
_0-1_LAYER004
  6
CONTINUOUS
 62
   18
 10
1196.7886000000001
 20
1126.2257
 11
1043.1604
 21
860.13390000000004
  0
LINE
  8
_0-1_LAYER004
  6
CONTINUOUS
 62
   18
 10
1033.8504
 20
910.13290000000006
 11
1096.0111999999999
 21
1017.7987000000001
  0
LINE
  8
_0-1_LAYER004
  6
CONTINUOUS
 62
   18
 10
1096.0111999999999
 20
1017.7987000000001
 11
1090.7079000000001
 21
1012.4954
  0
LINE
  8
_0-1_LAYER004
  6
CONTINUOUS
 62
   18
 10
1096.0111999999999
 20
1017.7987000000001
 11
1094.0700999999999
 21
1010.5542
  0
LINE
  8
_0-1_LAYER004
  6
CONTINUOUS
 62
   18
 10
1376.8828000000003
 20
1019.837
 11
1326.8827000000001
 21
969.83699999999999
  0
LINE
  8
_0-1_LAYER004
  6
CONTINUOUS
 62
   18
 10
1331.1253999999999
 20
969.83699999999999
 11
1381.1253999999999
 21
1019.837
  0
LINE
  8
_0-1_LAYER004
  6
CONTINUOUS
 62
   18
 10
1251.6396
 20
1025.7899
 11
1251.6396
 21
1018.2899
  0
LINE
  8
_0-1_LAYER004
  6
CONTINUOUS
 62
   18
 10
1251.6396
 20
1025.7899
 11
1255.3896
 21
1019.2946999999999
  0
LINE
  8
_0-1_LAYER004
  6
CONTINUOUS
 62
   18
 10
1255.3896
 20
1019.2946999999999
 11
1251.6396
 21
1025.7899
  0
LINE
  8
_0-1_LAYER004
  6
CONTINUOUS
 62
   18
 10
1251.6396
 20
1025.7899
 11
1316.9622999999999
 21
782.00240000000008
  0
LINE
  8
_0-1_LAYER004
  6
CONTINUOUS
 62
   18
 10
1287.1886999999997
 20
837.10259999999994
 11
1287.1886999999997
 21
784.60259999999994
  0
LINE
  8
_0-1_LAYER004
  6
CONTINUOUS
 62
   18
 10
1287.1886999999997
 20
787.10259999999994
 11
1167.1886999999999
 21
787.10259999999994
  0
LINE
  8
_0-1_LAYER004
  6
CONTINUOUS
 62
   18
 10
1167.1886999999999
 20
785.40259999999989
 11
1167.1886999999999
 21
837.10259999999994
  0
LINE
  8
_0-1_LAYER004
  6
CONTINUOUS
 62
   18
 10
1148.9888000000001
 20
1159.087
 11
1139.8949
 21
1160.6911
  0
LINE
  8
_0-1_LAYER004
  6
CONTINUOUS
 62
   18
 10
1139.8949
 20
1160.6911
 11
1139.5988
 21
1159.018
  0
LINE
  8
_0-1_LAYER004
  6
CONTINUOUS
 62
   18
 10
1139.5988
 20
1159.018
 11
1137.9259
 21
1159.3130000000001
  0
LINE
  8
_0-1_LAYER004
  6
CONTINUOUS
 62
   18
 10
1137.9259
 20
1159.3130000000001
 11
1138.2208000000001
 21
1160.9860000000001
  0
LINE
  8
_0-1_LAYER004
  6
CONTINUOUS
 62
   18
 10
1138.2208000000001
 20
1160.9860000000001
 11
1135.5617999999999
 21
1161.4559999999999
  0
LINE
  8
_0-1_LAYER004
  6
CONTINUOUS
 62
   18
 10
1135.5617999999999
 20
1161.4559999999999
 11
1135.2657999999999
 21
1159.7819999999999
  0
LINE
  8
_0-1_LAYER004
  6
CONTINUOUS
 62
   18
 10
1135.2657999999999
 20
1159.7819999999999
 11
1133.5927999999999
 21
1160.077
  0
LINE
  8
_0-1_LAYER004
  6
CONTINUOUS
 62
   18
 10
1133.5927999999999
 20
1160.077
 11
1133.8878
 21
1161.7511
  0
LINE
  8
_0-1_LAYER004
  6
CONTINUOUS
 62
   18
 10
1133.8878
 20
1161.7511
 11
1131.2288000000001
 21
1162.2191
  0
LINE
  8
_0-1_LAYER004
  6
CONTINUOUS
 62
   18
 10
1131.2288000000001
 20
1162.2201
 11
1130.9329
 21
1160.546
  0
LINE
  8
_0-1_LAYER004
  6
CONTINUOUS
 62
   18
 10
1130.9329
 20
1160.546
 11
1129.2588000000001
 21
1160.8409999999999
  0
LINE
  8
_0-1_LAYER004
  6
CONTINUOUS
 62
   18
 10
1129.2588000000001
 20
1160.8409999999999
 11
1129.5545114500621
 21
1162.5139333132959
  0
LINE
  8
_0-1_LAYER004
  6
CONTINUOUS
 62
   18
 10
1129.5545114500621
 20
1162.5139333132959
 11
1128.0769
 21
1162.7750000000001
  0
LINE
  8
_0-1_LAYER004
  6
CONTINUOUS
 62
   18
 10
1128.0769
 20
1162.7750000000001
 11
1126.3447686377108
 21
1161.5660057996452
  0
LINE
  8
_0-1_LAYER004
  6
CONTINUOUS
 62
   18
 10
1126.3447686377108
 20
1161.5660057996452
 11
1125.9398000000001
 21
1159.2940000000001
  0
LINE
  8
_0-1_LAYER004
  6
CONTINUOUS
 62
   18
 10
1125.9398000000001
 20
1159.2940000000001
 11
1151.2127
 21
1154.8380999999999
  0
LINE
  8
_0-1_LAYER004
  6
CONTINUOUS
 62
   18
 10
1151.2127
 20
1154.8380999999999
 11
1126.1148000000001
 21
1150.412
  0
LINE
  8
_0-1_LAYER004
  6
CONTINUOUS
 62
   18
 10
1126.1148000000001
 20
1150.412
 11
1126.5127
 21
1148.1470999999999
  0
LINE
  8
_0-1_LAYER004
  6
CONTINUOUS
 62
   18
 10
1126.5127
 20
1148.1470999999999
 11
1128.2567931808135
 21
1146.9364791172679
  0
LINE
  8
_0-1_LAYER004
  6
CONTINUOUS
 62
   18
 10
1128.2567931808135
 20
1146.9364791172679
 11
1129.7288000000001
 21
1147.1921
  0
LINE
  8
_0-1_LAYER004
  6
CONTINUOUS
 62
   18
 10
1129.7288000000001
 20
1147.1921
 11
1129.4328
 21
1148.865
  0
LINE
  8
_0-1_LAYER004
  6
CONTINUOUS
 62
   18
 10
1129.4328
 20
1148.865
 11
1131.1078
 21
1149.1600000000001
  0
LINE
  8
_0-1_LAYER004
  6
CONTINUOUS
 62
   18
 10
1131.1078
 20
1149.1600000000001
 11
1131.4027000000001
 21
1147.4870000000001
  0
LINE
  8
_0-1_LAYER004
  6
CONTINUOUS
 62
   18
 10
1131.4027000000001
 20
1147.4870000000001
 11
1134.0617999999999
 21
1147.9559999999999
  0
LINE
  8
_0-1_LAYER004
  6
CONTINUOUS
 62
   18
 10
1134.0617999999999
 20
1147.9559999999999
 11
1133.7668000000001
 21
1149.6289999999999
  0
LINE
  8
_0-1_LAYER004
  6
CONTINUOUS
 62
   18
 10
1133.7668000000001
 20
1149.6289999999999
 11
1135.4407000000001
 21
1149.924
  0
LINE
  8
_0-1_LAYER004
  6
CONTINUOUS
 62
   18
 10
1135.4407000000001
 20
1149.924
 11
1135.7357999999999
 21
1148.251
  0
LINE
  8
_0-1_LAYER004
  6
CONTINUOUS
 62
   18
 10
1135.7357999999999
 20
1148.251
 11
1138.3949
 21
1148.72
  0
LINE
  8
_0-1_LAYER004
  6
CONTINUOUS
 62
   18
 10
1138.3949
 20
1148.72
 11
1138.0988
 21
1150.393
  0
LINE
  8
_0-1_LAYER004
  6
CONTINUOUS
 62
   18
 10
1138.0988
 20
1150.393
 11
1139.7728
 21
1150.6880000000001
  0
LINE
  8
_0-1_LAYER004
  6
CONTINUOUS
 62
   18
 10
1139.7728
 20
1150.6880000000001
 11
1140.0688
 21
1149.0151000000001
  0
LINE
  8
_0-1_LAYER004
  6
CONTINUOUS
 62
   18
 10
1140.0688
 20
1149.0151000000001
 11
1148.9888000000001
 21
1150.587
  0
ARC
  8
_0-1_LAYER004
  6
CONTINUOUS
 62
   18
 10
1176.5446719585452
 20
1293.4231425021869
 40
12.10314637916472
 50
140.62561392010502
 51
245.827953316285
  0
ARC
  8
_0-1_LAYER004
  6
CONTINUOUS
 62
   18
 10
1252.2637152471912
 20
1132.1511081650087
 40
7.8768140424479363
 50
123.94636946112399
 51
221.30728091255412
  0
ARC
  8
_0-1_LAYER004
  6
CONTINUOUS
 62
   18
 10
1277.5521933042601
 20
1101.3239248701414
 40
37.387293276811398
 50
164.05636406106424
 51
231.5418836976144
  0
LINE
  8
_0-1_LAYER004
  6
CONTINUOUS
 62
   18
 10
1584.5162999999998
 20
1029.7501999999999
 11
1584.5162999999998
 21
1022.2501999999999
  0
LINE
  8
_0-1_LAYER004
  6
CONTINUOUS
 62
   18
 10
1584.5162999999998
 20
1029.7501999999999
 11
1588.2662999999998
 21
1023.2550000000001
  0
LINE
  8
_0-1_LAYER004
  6
CONTINUOUS
 62
   18
 10
1584.5162999999998
 20
1029.7501999999999
 11
1687.8912999999998
 21
643.94939999999997
  0
LINE
  8
_0-1_LAYER004
  6
CONTINUOUS
 62
   18
 10
1589.0147000000002
 20
1019.837
 11
1539.0149000000001
 21
969.83699999999999
  0
LINE
  8
_0-1_LAYER004
  6
CONTINUOUS
 62
   18
 10
1543.2575000000002
 20
969.83699999999999
 11
1593.2573000000002
 21
1019.837
  0
LINE
  8
_0-1_LAYER004
  6
CONTINUOUS
 62
   18
 10
1801.1468
 20
1019.837
 11
1751.1469999999999
 21
969.83699999999999
  0
LINE
  8
_0-1_LAYER004
  6
CONTINUOUS
 62
   18
 10
1751.1469999999999
 20
969.83699999999999
 11
1755.3896
 21
969.83699999999999
  0
LINE
  8
_0-1_LAYER004
  6
CONTINUOUS
 62
   18
 10
1755.3896
 20
969.83699999999999
 11
1805.3895000000002
 21
1019.837
  0
LINE
  8
_0-1_LAYER004
  6
CONTINUOUS
 62
   18
 10
2013.2788999999998
 20
1019.837
 11
1963.2791000000002
 21
969.83699999999999
  0
LINE
  8
_0-1_LAYER004
  6
CONTINUOUS
 62
   18
 10
1967.5218
 20
969.83699999999999
 11
2017.5216
 21
1019.837
  0
TEXT
  8
_0-0_LAYER001
 62
    7
 10
1330.4709
 20
1301.2953000000005
 40
20
 41
1
 50
0
  1
熨斗瓦２段積み
  0
TEXT
  8
_0-0_LAYER001
 62
    7
 10
957.20596703516662
 20
1126.074230695692
 40
20
 41
1
 50
90
  1
水切り立上がり寸法
  0
TEXT
  8
_0-0_LAYER001
 62
    7
 10
851.74213700051564
 20
1052.0921409698919
 40
20
 41
1
 50
90
  1
下葺き材立上がり寸法
  0
TEXT
  8
_0-0_LAYER001
 62
    7
 10
976.09501122047675
 20
867.92396016311341
 40
20
 41
1
 50
0
  1
葺　土　
  0
TEXT
  8
_0-0_LAYER001
 62
    7
 10
922.82542370384647
 20
1359.1730272498489
 40
20
 41
1
 50
0
  1
下地材：40x30
  0
TEXT
  8
_0-0_LAYER001
 62
    7
 10
903.68700851011965
 20
1111.907447556709
 40
20
 41
1
 50
90
  1
200
  0
TEXT
  8
_0-0_LAYER001
 62
    7
 10
1004.4285774984427
 20
1159.1300580199854
 40
20
 41
1
 50
90
  1
57
  0
TEXT
  8
_0-0_LAYER001
 62
    7
 10
1007.5767515293276
 20
1075.7034462015301
 40
20
 41
1
 50
90
  1
120
  0
TEXT
  8
_0-0_LAYER001
 62
    7
 10
1331.8386767104937
 20
790.79369640642858
 40
20
 41
1
 50
0
  1
捨谷カラー鋼板0.35ｍｍ以上
  0
TEXT
  8
_0-0_LAYER001
 62
    7
 10
1674.153938386555
 20
708.93234908808665
 40
20
 41
1
 50
0
  1
下葺材：ルーフィング
  0
TEXT
  8
_0-0_LAYER001
 62
    7
 10
1693.2786642148421
 20
646.09396422371447
 40
20
 41
1
 50
0
  1
鋼製：C－100x50x20x2.3　
  0
TEXT
  8
_0-0_LAYER001
 62
    7
 10
1685.0823531455762
 20
677.5131566559005
 40
20
 41
1
 50
0
  1
野地板：ＡＬＣｔ＝５０
  0
TEXT
  8
_0-0_LAYER001
 62
    7
 10
1670.055782851922
 20
741.71759336515026
 40
20
 41
1
 50
0
  1
瓦桟：１５ｘ３０以上
  0
TEXT
  8
_0-0_LAYER001
 62
    7
 10
1492.4690430178273
 20
1248.522827814759
 40
20
 41
1
 50
0
  1
255
  0
TEXT
  8
_0-0_LAYER001
 62
    7
 10
1743.8225824753154
 20
1251.2549315045144
 40
20
 41
1
 50
0
  1
255
  0
TEXT
  8
_0-0_LAYER001
 62
    7
 10
1261.606281233504
 20
1393.3243233717899
 40
20
 41
1
 50
0
  1
笠木：15x90
  0
TEXT
  8
_0-0_LAYER001
 62
    7
 10
1200.1339482140097
 20
1449.3324490117739
 40
20
 41
1
 50
0
  1
100
  0
TEXT
  8
_0-0_LAYER001
 62
    7
 10
1003.4224825516278
 20
1238.9604649006153
 40
20
 41
1
 50
90
  1
90
  0
TEXT
  8
_0-0_LAYER001
 62
    7
 10
1049.8682452774681
 20
1286.7722794713334
 40
20
 41
1
 50
90
  1
20
  0
TEXT
  8
_0-0_LAYER001
 62
    7
 10
1216.5265703525417
 20
800.45782269488927
 40
20
 41
1
 50
0
  1
120
  0
LINE
  8
_0-0_LAYER001
  6
CONTINUOUS
 62
    2
 10
1671.1750999999999
 20
703.91129999999998
 11
1905.016700170878
 21
703.91129999999998
  0
LINE
  8
_0-1_LAYER004
  6
CONTINUOUS
 62
   18
 10
1671.8245593076529
 20
703.91129999999998
 11
1896.8203891016124
 21
703.91129999999998
  0
LINE
  8
_0-0_LAYER001
  6
CONTINUOUS
 62
    2
 10
1687.8912999999998
 20
643.94939999999997
 11
1917.3111667747771
 21
643.94939999999997
  0
LINE
  8
_0-1_LAYER004
  6
CONTINUOUS
 62
   18
 10
1687.8912999999998
 20
643.94939999999997
 11
1929.605633378676
 21
643.94939999999997
  0
LINE
  8
_0-0_LAYER001
  6
CONTINUOUS
 62
    2
 10
1316.9622999999999
 20
782.00240000000008
 11
1604.4852942977946
 21
782.00240000000008
  0
LINE
  8
_0-1_LAYER004
  6
CONTINUOUS
 62
   18
 10
1316.9622999999999
 20
782.00240000000008
 11
1605.8513461426724
 21
782.00240000000008
  0
LINE
  8
_0-0_LAYER001
  6
CONTINUOUS
 62
    2
 10
1280.1251
 20
1351.8689999999997
 11
1609.9495016773053
 21
1351.8689999999997
  0
LINE
  8
_0-1_LAYER004
  6
CONTINUOUS
 62
   18
 10
1280.1251
 20
1351.8689999999997
 11
1615.4137090568158
 21
1351.8689999999997
  0
TEXT
  8
_0-0_LAYER001
 62
    7
 10
1288.9273181310571
 20
1357.8069754049711
 40
20
 41
1
 50
0
  1
雨押水切カラー鋼板0.35ｍｍ以上
  0
TEXT
  8
_0-0_LAYER001
 62
    7
 10
996.59222332723971
 20
1416.54720473471
 40
20
 41
1
 50
0
  1
シーリング
  0
TEXT
  8
_0-0_LAYER001
 62
    7
 10
862.71914252922988
 20
916.5722295094896
 40
20
 41
1
 50
0
  1
外壁：ALCt＝100
  0
ENDSEC
  0
EOF
