  0
SECTION
  2
HEADER
  9
$ACADVER
  1
AC1009
  9
$INSBASE
 10
0
 20
0
 30
0
  9
$EXTMIN
 10
0
 20
0
  9
$EXTMAX
 10
2970
 20
2100
  9
$LIMMIN
 10
0
 20
0
  9
$LIMMAX
 10
2970
 20
2100
  9
$LTSCALE
 40
10
  0
ENDSEC
  0
SECTION
  2
TABLES
  0
TABLE
  2
LTYPE
 70
     9
  0
LTYPE
  2
CONTINUOUS
 70
    64
  3
実線
 72
    65
 73
     0
 40
0.0
  0
LTYPE
  2
DASHED1
 70
    64
  3
--  --  --  --  --  --  --  --  
 72
    65
 73
     2
 40
2.5
 49
1.25
 49
-1.25
  0
LTYPE
  2
DASHED2
 70
    64
  3
----    ----    ----    ----    
 72
    65
 73
     2
 40
5.0
 49
2.5
 49
-2.5
  0
LTYPE
  2
DASHED3
 70
    64
  3
------  ------  ------  ------  
 72
    65
 73
     2
 40
5.0
 49
3.75
 49
-1.25
  0
LTYPE
  2
CENTER1
 70
    64
  3
----- - ----- - ----- - ----- - 
 72
    65
 73
     4
 40
10.0
 49
6.25
 49
-1.25
 49
1.25
 49
-1.25
  0
LTYPE
  2
CENTER2
 70
    64
  3
----------  --  ----------  --  
 72
    65
 73
     4
 40
20.0
 49
12.5
 49
-2.5
 49
2.5
 49
-2.5
  0
LTYPE
  2
PHANTOM1
 70
    64
  3
--- - - --- - - --- - - --- - - 
 72
    65
 73
     6
 40
10.0
 49
3.25
 49
-1.25
 49
1.25
 49
-1.25
 49
1.25
 49
-1.25
  0
LTYPE
  2
PHANTOM2
 70
    64
  3
--------  -  -  --------  -  -  
 72
    65
 73
     6
 40
20.0
 49
10.0
 49
-2.5
 49
1.25
 49
-2.5
 49
1.25
 49
-2.5
  0
LTYPE
  2
DOT
 70
    64
  3
-   -   -   -   -   -   -   -   
 72
    65
 73
     2
 40
2.5
 49
0.625
 49
-1.875
  0
LTYPE
  2
DUMMY
 70
    64
  3
ダミー
 72
    65
 73
     0
 40
0.0
  0
LTYPE
  2
RAND1
 70
    64
  3
ランダム線1
 72
    65
 73
     4
 40
10.0
 49
1.0
 49
-2.0
 49
3.0
 49
-4.0
  0
LTYPE
  2
RAND2
 70
    64
  3
ランダム線2
 72
    65
 73
     4
 40
14.0
 49
2.0
 49
-3.0
 49
4.0
 49
-5.0
  0
LTYPE
  2
RAND3
 70
    64
  3
ランダム線3
 72
    65
 73
     4
 40
18.0
 49
3.0
 49
-4.0
 49
5.0
 49
-6.0
  0
LTYPE
  2
RAND4
 70
    64
  3
ランダム線4
 72
    65
 73
     4
 40
22.0
 49
4.0
 49
-5.0
 49
6.0
 49
-7.0
  0
LTYPE
  2
RAND5
 70
    64
  3
ランダム線5
 72
    65
 73
     4
 40
26.0
 49
5.0
 49
-6.0
 49
7.0
 49
-8.0
  0
LTYPE
  2
LONG1
 70
    64
  3
----------  --  ----------  --  
 72
    65
 73
     4
 40
40.0
 49
32.5
 49
-2.5
 49
2.5
 49
-2.5
  0
LTYPE
  2
LONG2
 70
    64
  3
--------  -  -  --------  -  -  
 72
    65
 73
     6
 40
40.0
 49
30.0
 49
-2.5
 49
1.25
 49
-2.5
 49
1.25
 49
-2.5
  0
LTYPE
  2
LONG3
 70
    64
  3
+++++++++++++++..+++++++++++++++
 72
    65
 73
     2
 40
40.0
 49
37.5
 49
-2.5
  0
LTYPE
  2
LONG4
 70
    64
  3
+++++++++++++++..+++++++++++++++
 72
    65
 73
     2
 40
80.0
 49
75.0
 49
-5.0
  0
LTYPE
  2
LONG5
 70
    64
  3
----------  --  ----------  --  
 72
    65
 73
     4
 40
60.0
 49
37.5
 49
-7.5
 49
7.5
 49
-7.5
  0
LTYPE
  2
dashed
 70
   64
  3
-------   -------------   ------
 72
   65
 73
    2
 40
7.5
 49
6
 49
-1.5
  0
LTYPE
  2
dashed_spaced
 70
   64
  3
----        --------        ----
 72
   65
 73
    2
 40
12
 49
6
 49
-6
  0
LTYPE
  2
long_dashed_dotted
 70
   64
  3
------------- --- --------------
 72
   65
 73
    4
 40
15.25
 49
12
 49
-1.5
 49
0.25
 49
-1.5
  0
LTYPE
  2
long_dashed_double-dotted
 70
   64
  3
----------- --- --- ------------
 72
   65
 73
    6
 40
17
 49
12
 49
-1.5
 49
0.25
 49
-1.5
 49
0.25
 49
-1.5
  0
LTYPE
  2
long_dashed_triplicate-dotted
 70
   64
  3
--------- --- --- --- ----------
 72
   65
 73
    8
 40
18.75
 49
12
 49
-1.5
 49
0.25
 49
-1.5
 49
0.25
 49
-1.5
 49
0.25
 49
-1.5
  0
LTYPE
  2
dotted
 70
   64
  3
   -       -       -       -    
 72
   65
 73
    2
 40
1.75
 49
0.25
 49
-1.5
  0
LTYPE
  2
chain
 70
   64
  3
-------------- -- --------------
 72
   65
 73
    4
 40
18.5
 49
12
 49
-1.5
 49
3.5
 49
-1.5
  0
LTYPE
  2
chain_double_dash
 70
   64
  3
------------ -- -- -------------
 72
   65
 73
    6
 40
23.5
 49
12
 49
-1.5
 49
3.5
 49
-1.5
 49
3.5
 49
-1.5
  0
LTYPE
  2
dashed_dotted
 70
   64
  3
-----------     -     ----------
 72
   65
 73
    4
 40
9.25
 49
6
 49
-1.5
 49
0.25
 49
-1.5
  0
LTYPE
  2
double-dashed_dotted
 70
   64
  3
------   -----------   -   -----
 72
   65
 73
    6
 40
16.75
 49
6
 49
-1.5
 49
6
 49
-1.5
 49
0.25
 49
-1.5
  0
LTYPE
  2
dashed_double-dotted
 70
   64
  3
---------    -    -    ---------
 72
   65
 73
    6
 40
11
 49
6
 49
-1.5
 49
0.25
 49
-1.5
 49
0.25
 49
-1.5
  0
LTYPE
  2
double-dashed_double-dotted
 70
   64
  3
-----   ---------   -   -   ----
 72
   65
 73
    8
 40
18.5
 49
6
 49
-1.5
 49
6
 49
-1.5
 49
0.25
 49
-1.5
 49
0.25
 49
-1.5
  0
LTYPE
  2
dashed_triplicate-dotted
 70
   64
  3
-------    -    -    -    ------
 72
   65
 73
    8
 40
12.75
 49
6
 49
-1.5
 49
0.25
 49
-1.5
 49
0.25
 49
-1.5
 49
0.25
 49
-1.5
  0
LTYPE
  2
double-dashed_triplicate-dotted
 70
   64
  3
-----  ---------  -  -  -  -----
 72
   65
 73
   10
 40
20.25
 49
6
 49
-1.5
 49
6
 49
-1.5
 49
0.25
 49
-1.5
 49
0.25
 49
-1.5
 49
0.25
 49
-1.5
  0
LTYPE
  2
undefined
 70
   64
  3
--------------------------------
 72
   65
 73
    0
 40
0
  0
ENDTAB
  0
TABLE
  2
STYLE
  5
3
100
AcDbSymbolTable
 70
     1
  0
STYLE
  5
10
100
AcDbSymbolTableRecord
100
AcDbTextStyleTableRecord
  2
STANDARD
 70
     0
 40
0.0
 41
1.0
 50
0.0
 71
     0
 42
0.2
  3
txt
  4
bigfont.shx
  0
STYLE
  5
26
100
AcDbSymbolTableRecord
100
AcDbTextStyleTableRecord
  2
TATEGAKI
 70
    68
 40
0.0
 41
1.0
 50
0.0
 71
     0
 42
1.0
  3
txt
  4
bigfont.shx
  0
ENDTAB
  0
TABLE
  2
LAYER
 70
    4
  0
LAYER
  2
_0-0_1
 70
   64
 62
    7
  6
CONTINUOUS
  0
LAYER
  2
_0-1_2
 70
   64
 62
    7
  6
CONTINUOUS
  0
LAYER
  2
_0-2_3
 70
   64
 62
    7
  6
CONTINUOUS
  0
LAYER
  2
ADD_LINE
 70
   64
 62
    7
  6
CONTINUOUS
  0
ENDTAB
  0
ENDSEC
  0
SECTION
  2
BLOCKS
  0
ENDSEC
  0
SECTION
  2
ENTITIES
  0
LINE
  8
_0-0_1
  6
CONTINUOUS
 62
    3
 10
1277.2999
 20
743.70939999999996
 11
1286.3278
 21
741.38599999999997
  0
LINE
  8
_0-0_1
  6
CONTINUOUS
 62
    3
 10
1278.1875
 20
738.55929999999989
 11
1277.2999
 21
743.70939999999996
  0
LINE
  8
_0-0_1
  6
CONTINUOUS
 62
    3
 10
1286.3278
 20
741.38599999999997
 11
1285.7719
 21
746.25620000000004
  0
LINE
  8
_0-0_1
  6
CONTINUOUS
 62
    3
 10
1256.5315000000001
 20
716.58210000000008
 11
1278.1875
 21
738.55929999999989
  0
LINE
  8
_0-0_1
  6
CONTINUOUS
 62
    3
 10
1285.7719
 20
746.25620000000004
 11
1310.2345
 21
771.08159999999998
  0
LINE
  8
_0-0_1
  6
CONTINUOUS
 62
    3
 10
1793.2368999999999
 20
1122.3034
 11
1727.1226000000001
 21
1147.3813
  0
LINE
  8
_0-0_1
  6
CONTINUOUS
 62
    3
 10
1797.1059
 20
1124.0445
 11
1730.9915000000001
 21
1149.1223
  0
LINE
  8
_0-2_3
  6
CONTINUOUS
 62
    3
 10
1248.3277
 20
1029.6355000000001
 11
1250.2689
 21
1022.3911000000001
  0
LINE
  8
_0-2_3
  6
CONTINUOUS
 62
    3
 10
1250.2689
 20
1022.3911000000001
 11
1244.9656
 21
1027.6944000000001
  0
LINE
  8
_0-2_3
  6
CONTINUOUS
 62
    3
 10
1250.2689
 20
1022.3911000000001
 11
1201.8844999999999
 21
1106.1953000000001
  0
LINE
  8
_0-2_3
  6
CONTINUOUS
 62
    3
 10
1201.8844999999999
 20
1106.1953000000001
 11
1137.3844999999999
 21
1106.1953000000001
  0
LINE
  8
_0-1_2
  6
CONTINUOUS
 62
    3
 10
1224.7738999999999
 20
628.97970000000009
 11
1203.2299
 21
676.85570000000007
  0
CIRCLE
  8
_0-1_2
  6
CONTINUOUS
 62
    3
 10
1223.748
 20
631.25949999999989
 40
1.6999999999999997
  0
LINE
  8
_0-1_2
  6
CONTINUOUS
 62
    3
 10
1223.748
 20
631.25949999999989
 11
1292.1422000000002
 21
662.03670000000011
  0
CIRCLE
  8
_0-1_2
  6
CONTINUOUS
 62
    3
 10
1292.1422000000002
 20
662.03670000000011
 40
1.6999999999999997
  0
LINE
  8
_0-1_2
  6
CONTINUOUS
 62
    3
 10
1293.1681000000001
 20
659.75690000000009
 11
1271.6241
 21
707.63280000000009
  0
LINE
  8
_0-1_2
  6
CONTINUOUS
 62
    3
 10
1220.2084
 20
953.93319999999994
 11
1177.7877000000001
 21
938.54289999999992
  0
LINE
  8
_0-1_2
  6
CONTINUOUS
 62
    3
 10
1191.2986000000001
 20
908.51860000000011
 11
1177.7877000000001
 21
938.54289999999992
  0
LINE
  8
_0-0_1
  6
CONTINUOUS
 62
    3
 10
1232.335
 20
926.9849999999999
 11
1220.2084
 21
953.93319999999994
  0
LINE
  8
_0-0_1
  6
CONTINUOUS
 62
    3
 10
1220.2084
 20
953.93319999999994
 11
1191.2986000000001
 21
908.51860000000011
  0
LINE
  8
_0-0_1
  6
CONTINUOUS
 62
    3
 10
1177.7877000000001
 20
938.54289999999992
 11
1232.335
 21
926.9849999999999
  0
LINE
  8
_0-2_3
  6
CONTINUOUS
 62
    3
 10
1194.8706
 20
941.05539999999996
 11
1196.8117
 21
933.81089999999995
  0
LINE
  8
_0-2_3
  6
CONTINUOUS
 62
    3
 10
1196.8117
 20
933.81089999999995
 11
1191.5083999999999
 21
939.11419999999998
  0
LINE
  8
_0-2_3
  6
CONTINUOUS
 62
    3
 10
1196.8117
 20
933.81089999999995
 11
1136.8361
 21
1037.6919
  0
LINE
  8
_0-2_3
  6
CONTINUOUS
 62
    3
 10
1136.8361
 20
1037.6919
 11
997.33609999999999
 21
1037.6919
  0
LINE
  8
_0-1_2
  6
CONTINUOUS
 62
    3
 10
1691.9337999999998
 20
1177.8589999999999
 11
1693.875
 21
1170.6146000000001
  0
LINE
  8
_0-1_2
  6
CONTINUOUS
 62
    3
 10
1693.875
 20
1170.6146000000001
 11
1688.5717
 21
1175.9178999999999
  0
LINE
  8
_0-1_2
  6
CONTINUOUS
 62
    3
 10
1693.875
 20
1170.6146000000001
 11
1629.2867000000001
 21
1282.4847
  0
LINE
  8
_0-1_2
  6
CONTINUOUS
 62
    3
 10
1629.2867000000001
 20
1282.4847
 11
1588.7867000000001
 21
1282.4847
  0
LINE
  8
_0-0_1
  6
CONTINUOUS
 62
    3
 10
1012.0754999999999
 20
1154.05
 11
1030.0835999999999
 21
1104.7352000000001
  0
CIRCLE
  8
_0-0_1
  6
CONTINUOUS
 62
    3
 10
1012.933
 20
1151.7017000000001
 40
1.6999999999999997
  0
LINE
  8
_0-0_1
  6
CONTINUOUS
 62
    3
 10
1012.933
 20
1151.7017000000001
 11
1233.6758
 21
1232.3096
  0
CIRCLE
  8
_0-0_1
  6
CONTINUOUS
 62
    3
 10
1233.6758
 20
1232.3096
 40
1.6999999999999997
  0
LINE
  8
_0-0_1
  6
CONTINUOUS
 62
    3
 10
1232.8181999999999
 20
1234.6578999999999
 11
1250.8263999999999
 21
1185.3430000000001
  0
LINE
  8
_0-0_1
  6
CONTINUOUS
 62
    3
 10
1219.0978
 20
1272.2311999999999
 11
1237.1059
 21
1222.9163000000001
  0
CIRCLE
  8
_0-0_1
  6
CONTINUOUS
 62
    3
 10
1219.9553000000001
 20
1269.8828000000001
 40
1.6999999999999997
  0
LINE
  8
_0-0_1
  6
CONTINUOUS
 62
    3
 10
1219.9553000000001
 20
1269.8828000000001
 11
1440.6979999999999
 21
1350.4907000000001
  0
CIRCLE
  8
_0-0_1
  6
CONTINUOUS
 62
    3
 10
1440.6979999999999
 20
1350.4907000000001
 40
1.6999999999999997
  0
LINE
  8
_0-0_1
  6
CONTINUOUS
 62
    3
 10
1439.8404999999998
 20
1352.8389999999999
 11
1457.8487
 21
1303.5241999999998
  0
LINE
  8
_0-0_1
  6
CONTINUOUS
 62
    3
 10
1426.1199999999999
 20
1390.4123
 11
1444.1282000000001
 21
1341.0974000000001
  0
CIRCLE
  8
_0-0_1
  6
CONTINUOUS
 62
    3
 10
1426.9775999999999
 20
1388.0639999999999
 40
1.6999999999999997
  0
LINE
  8
_0-0_1
  6
CONTINUOUS
 62
    3
 10
1426.9775999999999
 20
1388.0639999999999
 11
1647.7203
 21
1468.6718999999998
  0
CIRCLE
  8
_0-0_1
  6
CONTINUOUS
 62
    3
 10
1647.7203
 20
1468.6718999999998
 40
1.6999999999999997
  0
LINE
  8
_0-0_1
  6
CONTINUOUS
 62
    3
 10
1646.8627999999999
 20
1471.0201999999999
 11
1664.8708999999999
 21
1421.7053000000001
  0
LINE
  8
_0-0_1
  6
CONTINUOUS
 62
    3
 10
1356.2727
 20
985.14069999999992
 11
1383.6297
 21
997.45309999999995
  0
LINE
  8
_0-0_1
  6
CONTINUOUS
 62
    3
 10
1383.6297
 20
997.45309999999995
 11
1377.4735000000001
 21
1011.1315999999999
  0
LINE
  8
_0-0_1
  6
CONTINUOUS
 62
    3
 10
1377.4735000000001
 20
1011.1315999999999
 11
1350.1165000000001
 21
998.81919999999991
  0
LINE
  8
_0-0_1
  6
CONTINUOUS
 62
    3
 10
1350.1165000000001
 20
998.81919999999991
 11
1356.2727
 21
985.14069999999992
  0
LINE
  8
_0-0_1
  6
CONTINUOUS
 62
    3
 10
1377.4735000000001
 20
1011.1315999999999
 11
1356.2727
 21
985.14069999999992
  0
LINE
  8
_0-0_1
  6
CONTINUOUS
 62
    5
 10
1392.0626999999999
 20
1003.5129999999999
 11
1381.7174
 21
1031.8432
  0
LINE
  8
_0-0_1
  6
CONTINUOUS
 62
    3
 10
1571.4811
 20
1081.9981
 11
1598.8380999999999
 21
1094.3104000000001
  0
LINE
  8
_0-0_1
  6
CONTINUOUS
 62
    3
 10
1598.8380999999999
 20
1094.3104000000001
 11
1592.6819
 21
1107.9889000000001
  0
LINE
  8
_0-0_1
  6
CONTINUOUS
 62
    3
 10
1592.6819
 20
1107.9889000000001
 11
1565.3249000000001
 21
1095.6766
  0
LINE
  8
_0-0_1
  6
CONTINUOUS
 62
    3
 10
1565.3249000000001
 20
1095.6766
 11
1571.4811
 21
1081.9981
  0
LINE
  8
_0-0_1
  6
CONTINUOUS
 62
    3
 10
1592.6819
 20
1107.9889000000001
 11
1571.4811
 21
1081.9981
  0
LINE
  8
_0-0_1
  6
CONTINUOUS
 62
    5
 10
1606.9092000000001
 20
1100.2674999999999
 11
1596.5639999999999
 21
1128.5978
  0
LINE
  8
_0-0_1
  6
CONTINUOUS
 62
    3
 10
1786.6894000000002
 20
1178.8553999999999
 11
1814.0464000000002
 21
1191.1677999999999
  0
LINE
  8
_0-0_1
  6
CONTINUOUS
 62
    3
 10
1814.0464000000002
 20
1191.1677999999999
 11
1807.8903
 21
1204.8462999999999
  0
LINE
  8
_0-0_1
  6
CONTINUOUS
 62
    3
 10
1807.8903
 20
1204.8462999999999
 11
1780.5333000000001
 21
1192.5338999999999
  0
LINE
  8
_0-0_1
  6
CONTINUOUS
 62
    3
 10
1780.5333000000001
 20
1192.5338999999999
 11
1786.6894000000002
 21
1178.8553999999999
  0
LINE
  8
_0-0_1
  6
CONTINUOUS
 62
    3
 10
1807.8903
 20
1204.8462999999999
 11
1786.6894000000002
 21
1178.8553999999999
  0
LINE
  8
_0-0_1
  6
CONTINUOUS
 62
    5
 10
1821.7557999999999
 20
1197.0220999999999
 11
1811.4105
 21
1225.3523
  0
LINE
  8
_0-0_1
  6
CONTINUOUS
 62
    5
 10
1821.7557999999999
 20
1197.0220999999999
 11
1813.6032
 21
1194.0643
  0
LINE
  8
_0-0_1
  6
CONTINUOUS
 62
    5
 10
1809.3469
 20
1205.7961
 11
1813.6032
 21
1194.0643
  0
LINE
  8
_0-0_1
  6
CONTINUOUS
 62
    5
 10
1606.9092000000001
 20
1100.2674999999999
 11
1598.4038999999998
 21
1097.1818000000001
  0
LINE
  8
_0-0_1
  6
CONTINUOUS
 62
    5
 10
1594.1475999999998
 20
1108.9135000000001
 11
1598.4038999999998
 21
1097.1818000000001
  0
LINE
  8
_0-0_1
  6
CONTINUOUS
 62
    5
 10
1138.5745999999999
 20
924.82269999999994
 11
1378.9483999999998
 21
1012.0309999999999
  0
LINE
  8
_0-0_1
  6
CONTINUOUS
 62
    5
 10
1392.0626999999999
 20
1003.5129999999999
 11
1383.2047
 21
1000.2991999999999
  0
LINE
  8
_0-0_1
  6
CONTINUOUS
 62
    5
 10
1378.9483999999998
 20
1012.0309999999999
 11
1383.2047
 21
1000.2991999999999
  0
ARC
  8
_0-0_1
  6
CONTINUOUS
 62
    5
 10
1538.0542999999998
 20
1115.1146000000001
 40
10.4
 50
109.94091000000002
 51
199.94091
  0
ARC
  8
_0-0_1
  6
CONTINUOUS
 62
    5
 10
1752.9007999999999
 20
1211.8692000000001
 40
10.4
 50
109.94091000000002
 51
199.94091
  0
ARC
  8
_0-0_1
  6
CONTINUOUS
 62
    5
 10
1323.2076999999999
 20
1018.3601000000001
 40
10.4
 50
109.94091000000002
 51
199.94091
  0
ARC
  8
_0-0_1
  6
CONTINUOUS
 62
    5
 10
1072.4768999999999
 20
1089.1264000000001
 40
108.38132
 50
268.69240000000002
 51
288.42793999999998
  0
LINE
  8
_0-0_1
  6
CONTINUOUS
 62
    5
 10
1125.4601
 20
900.34390000000008
 11
1130.9540999999999
 21
877.80479999999989
  0
ARC
  8
_0-0_1
  6
CONTINUOUS
 62
    5
 10
1145.6684
 20
905.26980000000003
 40
20.800000000000001
 50
109.94091000000002
 51
193.69899000000001
  0
LINE
  8
_0-0_1
  6
CONTINUOUS
 62
    5
 10
1299.6583000000001
 20
1052.7757999999999
 11
1315.9141
 21
1007.9695999999999
  0
ARC
  8
_0-0_1
  6
CONTINUOUS
 62
    5
 10
1319.2112
 20
1059.8697
 40
20.800000000000001
 50
109.94091000000002
 51
199.94091
  0
LINE
  8
_0-0_1
  6
CONTINUOUS
 62
    5
 10
1811.4105
 20
1225.3523
 11
1918.2087999999999
 21
1264.0990999999999
  0
LINE
  8
_0-0_1
  6
CONTINUOUS
 62
    5
 10
1106.8049000000001
 20
986.11689999999999
 11
1298.4979000000001
 21
1055.6636000000001
  0
LINE
  8
_0-0_1
  6
CONTINUOUS
 62
    5
 10
1312.1174000000001
 20
1079.4226000000001
 11
1513.3411000000001
 21
1152.4272000000001
  0
ARC
  8
_0-0_1
  6
CONTINUOUS
 62
    5
 10
1520.7343999999998
 20
1162.8538000000001
 40
10.4
 50
109.94091000000002
 51
199.94091
  0
LINE
  8
_0-0_1
  6
CONTINUOUS
 62
    5
 10
1510.9578999999999
 20
1159.3068000000001
 11
1530.7606999999998
 21
1104.7242000000001
  0
LINE
  8
_0-0_1
  6
CONTINUOUS
 62
    5
 10
1520.5346
 20
1132.9104
 11
1530.7606999999998
 21
1104.7242000000001
  0
LINE
  8
_0-0_1
  6
CONTINUOUS
 62
    5
 10
1319.6608000000001
 20
1028.1365000000001
 11
1809.3469
 21
1205.7961
  0
LINE
  8
_0-0_1
  6
CONTINUOUS
 62
    5
 10
1517.1875
 20
1172.6302000000001
 11
1728.1876999999999
 21
1249.1817000000001
  0
ARC
  8
_0-0_1
  6
CONTINUOUS
 62
    5
 10
1735.5808999999999
 20
1259.6083000000001
 40
10.4
 50
109.94091000000002
 51
199.94091
  0
LINE
  8
_0-0_1
  6
CONTINUOUS
 62
    5
 10
1725.8045000000002
 20
1256.0614
 11
1745.6071999999999
 21
1201.4786999999999
  0
LINE
  8
_0-0_1
  6
CONTINUOUS
 62
    5
 10
1725.8045000000002
 20
1256.0614
 11
1745.6071999999999
 21
1201.4786999999999
  0
LINE
  8
_0-0_1
  6
CONTINUOUS
 62
    5
 10
1534.5074
 20
1124.8911000000001
 11
1811.4105
 21
1225.3523
  0
LINE
  8
_0-0_1
  6
CONTINUOUS
 62
    5
 10
1732.9652000000001
 20
1269.7226000000001
 11
1889.1383999999998
 21
1326.3827000000001
  0
LINE
  8
_0-0_1
  6
CONTINUOUS
 62
    5
 10
1749.3539000000001
 20
1221.6456000000001
 11
1910.7017000000001
 21
1280.1830999999997
  0
LINE
  8
_0-0_1
  6
CONTINUOUS
 62
    5
 10
1070.1890000000001
 20
980.5947000000001
 11
1100.2596000000001
 21
884.18270000000007
  0
ARC
  8
_0-0_1
  6
CONTINUOUS
 62
    5
 10
1257.8693000000001
 20
987.01350000000002
 40
188.27051
 50
181.81043
 51
212.85045999999997
  0
LINE
  8
_0-0_1
  6
CONTINUOUS
 62
    5
 10
1098.8347000000001
 20
929.27759999999989
 11
1098.7565
 21
928.60390000000007
  0
LINE
  8
_0-0_1
  6
CONTINUOUS
 62
    5
 10
1594.1475999999998
 20
1108.9135000000001
 11
1098.6205
 21
929.13490000000002
  0
LINE
  8
_0-0_1
  6
CONTINUOUS
 62
    5
 10
1100.2596000000001
 20
884.18270000000007
 11
1110.6943000000001
 21
887.96839999999997
  0
LINE
  8
_0-0_1
  6
CONTINUOUS
 62
    5
 10
1098.6205
 20
929.13490000000002
 11
1115.3369
 21
872.13879999999995
  0
LINE
  8
_0-0_1
  6
CONTINUOUS
 62
    5
 10
1130.9540999999999
 20
877.80479999999989
 11
1115.3369
 21
872.13879999999995
  0
LINE
  8
_0-0_1
  6
CONTINUOUS
 62
    3
 10
1911.6963000000001
 20
974.16669999999999
 11
1890.1523000000002
 21
1022.0426
  0
CIRCLE
  8
_0-0_1
  6
CONTINUOUS
 62
    3
 10
1910.6704
 20
976.44650000000001
 40
1.6999999999999997
  0
LINE
  8
_0-0_1
  6
CONTINUOUS
 62
    3
 10
1910.6704
 20
976.44650000000001
 11
1695.4567000000002
 21
879.60089999999991
  0
CIRCLE
  8
_0-0_1
  6
CONTINUOUS
 62
    3
 10
1695.4567000000002
 20
879.60089999999991
 40
1.6999999999999997
  0
LINE
  8
_0-0_1
  6
CONTINUOUS
 62
    3
 10
1696.4825999999998
 20
877.32109999999989
 11
1674.9386
 21
925.19710000000009
  0
CIRCLE
  8
_0-0_1
  6
CONTINUOUS
 62
    3
 10
1695.4567000000002
 20
879.60089999999991
 40
1.6999999999999997
  0
LINE
  8
_0-0_1
  6
CONTINUOUS
 62
    3
 10
1695.4567000000002
 20
879.60089999999991
 11
1480.2429999999999
 21
782.75540000000001
  0
CIRCLE
  8
_0-0_1
  6
CONTINUOUS
 62
    3
 10
1480.2429999999999
 20
782.75540000000001
 40
1.6999999999999997
  0
LINE
  8
_0-0_1
  6
CONTINUOUS
 62
    3
 10
1481.2689
 20
780.47559999999999
 11
1459.7249000000002
 21
828.35149999999999
  0
CIRCLE
  8
_0-0_1
  6
CONTINUOUS
 62
    3
 10
1480.2429999999999
 20
782.75540000000001
 40
1.6999999999999997
  0
LINE
  8
_0-0_1
  6
CONTINUOUS
 62
    3
 10
1480.2429999999999
 20
782.75540000000001
 11
1278.6427000000001
 21
692.03580000000011
  0
CIRCLE
  8
_0-0_1
  6
CONTINUOUS
 62
    3
 10
1278.6427000000001
 20
692.03580000000011
 40
1.6999999999999997
  0
LINE
  8
_0-0_1
  6
CONTINUOUS
 62
    3
 10
1279.6686
 20
689.75600000000009
 11
1258.1246000000001
 21
737.63190000000009
  0
LINE
  8
_0-0_1
  6
CONTINUOUS
 62
    3
 10
1971.9870000000001
 20
1089.7931000000001
 11
1909.9756000000002
 21
1061.8883000000001
  0
LINE
  8
_0-0_1
  6
CONTINUOUS
 62
    3
 10
1978.5979000000002
 20
1087.2851000000001
 11
1979.4186
 21
1085.4611
  0
LINE
  8
_0-0_1
  6
CONTINUOUS
 62
    3
 10
1979.4186
 20
1085.4611
 11
1897.3458000000001
 21
1048.528
  0
ARC
  8
_0-0_1
  6
CONTINUOUS
 62
    3
 10
1905.8724999999999
 20
1071.0098
 40
10.001999
 50
204.2319
 51
294.21913000000001
  0
ARC
  8
_0-0_1
  6
CONTINUOUS
 62
    3
 10
1974.0394000000001
 20
1085.2344000000001
 40
4.9989999999999997
 50
24.224954
 51
114.23559000000002
  0
LINE
  8
_0-0_1
  6
CONTINUOUS
 62
    3
 10
1862.8998000000001
 20
1085.6659999999999
 11
1864.6397000000002
 21
1084.4128000000001
  0
LINE
  8
_0-0_1
  6
CONTINUOUS
 62
    3
 10
1846.0313999999998
 20
1100.0047999999999
 11
1855.1705000000002
 21
1086.5726
  0
LINE
  8
_0-0_1
  6
CONTINUOUS
 62
    3
 10
1851.5880000000002
 20
1102.5048999999999
 11
1860.7260000000001
 21
1089.0718999999999
  0
LINE
  8
_0-0_1
  6
CONTINUOUS
 62
    3
 10
1846.0313999999998
 20
1100.0047999999999
 11
1845.0282000000002
 21
1097.3601000000001
  0
LINE
  8
_0-0_1
  6
CONTINUOUS
 62
    3
 10
1861.259
 20
1089.3126999999999
 11
1852.5972000000002
 21
1085.4146000000001
  0
LINE
  8
_0-0_1
  6
CONTINUOUS
 62
    3
 10
1846.0313999999998
 20
1100.0047999999999
 11
1852.5972000000002
 21
1085.4146000000001
  0
LINE
  8
_0-0_1
  6
CONTINUOUS
 62
    3
 10
1849.9517999999998
 20
1086.4173000000001
 11
1852.5972000000002
 21
1085.4146000000001
  0
LINE
  8
_0-0_1
  6
CONTINUOUS
 62
    3
 10
1845.0282000000002
 20
1097.3601000000001
 11
1849.9517999999998
 21
1086.4173000000001
  0
ARC
  8
_0-0_1
  6
CONTINUOUS
 62
    3
 10
1867.8602000000001
 20
1089.6511
 40
6.1580000000000004
 50
169.90002999999999
 51
203.85469000000001
  0
LINE
  8
_0-0_1
  6
CONTINUOUS
 62
    3
 10
1862.2366999999999
 20
1131.4232
 11
1860.4133999999999
 21
1130.6020000000001
  0
LINE
  8
_0-0_1
  6
CONTINUOUS
 62
    3
 10
1897.3456000000001
 20
1048.5283999999999
 11
1860.4133999999999
 21
1130.6020000000001
  0
LINE
  8
_0-0_1
  6
CONTINUOUS
 62
    3
 10
1868.8485000000001
 20
1128.9147
 11
1896.7525000000001
 21
1066.904
  0
LINE
  8
_0-0_1
  6
CONTINUOUS
 62
    3
 10
1869.8319000000001
 20
1101.9426000000001
 11
1867.0958999999998
 21
1100.711
  0
LINE
  8
_0-0_1
  6
CONTINUOUS
 62
    3
 10
1863.2662999999998
 20
1116.5328999999999
 11
1860.5304999999998
 21
1115.3013000000001
  0
LINE
  8
_0-0_1
  6
CONTINUOUS
 62
    3
 10
1873.6606000000002
 20
1086.1215999999999
 11
1860.5304999999998
 21
1115.3013000000001
  0
LINE
  8
_0-0_1
  6
CONTINUOUS
 62
    3
 10
1876.3975
 20
1087.3525
 11
1873.6606000000002
 21
1086.1215999999999
  0
LINE
  8
_0-0_1
  6
CONTINUOUS
 62
    3
 10
1861.7962000000002
 20
1090.7311
 11
1869.9371000000001
 21
1094.395
  0
LINE
  8
_0-0_1
  6
CONTINUOUS
 62
    3
 10
1856.1109999999999
 20
1103.3659
 11
1864.2518
 21
1107.0286000000001
  0
LINE
  8
_0-0_1
  6
CONTINUOUS
 62
    3
 10
1853.2669000000001
 20
1109.6833999999999
 11
1861.4092000000001
 21
1113.3474000000001
  0
LINE
  8
_0-0_1
  6
CONTINUOUS
 62
    3
 10
1853.0513999999998
 20
1107.5528999999999
 11
1853.2669000000001
 21
1109.6833999999999
  0
LINE
  8
_0-0_1
  6
CONTINUOUS
 62
    3
 10
1862.8998000000001
 20
1085.6659999999999
 11
1853.0513999999998
 21
1107.5528999999999
  0
LINE
  8
_0-0_1
  6
CONTINUOUS
 62
    3
 10
1864.6397000000002
 20
1084.4128000000001
 11
1872.7811000000002
 21
1088.0762
  0
LINE
  8
_0-0_1
  6
CONTINUOUS
 62
    3
 10
1884.4068000000002
 20
1116.0979
 11
1876.2660000000001
 21
1112.434
  0
LINE
  8
_0-0_1
  6
CONTINUOUS
 62
    3
 10
1890.0922999999998
 20
1103.463
 11
1881.9506000000001
 21
1099.7997
  0
LINE
  8
_0-0_1
  6
CONTINUOUS
 62
    3
 10
1892.9360999999999
 20
1097.1455000000001
 11
1884.7941000000001
 21
1093.4815000000001
  0
LINE
  8
_0-0_1
  6
CONTINUOUS
 62
    3
 10
1893.1518000000001
 20
1099.2760000000001
 11
1892.9360999999999
 21
1097.1455000000001
  0
LINE
  8
_0-0_1
  6
CONTINUOUS
 62
    3
 10
1883.3031000000001
 20
1121.163
 11
1893.1518000000001
 21
1099.2760000000001
  0
LINE
  8
_0-0_1
  6
CONTINUOUS
 62
    3
 10
1881.5637000000002
 20
1122.4160999999999
 11
1873.4222
 21
1118.7529
  0
LINE
  8
_0-0_1
  6
CONTINUOUS
 62
    3
 10
1883.3031000000001
 20
1121.163
 11
1881.5637000000002
 21
1122.4160999999999
  0
LINE
  8
_0-0_1
  6
CONTINUOUS
 62
    3
 10
1854.6941000000002
 20
1103.9023
 11
1846.0313999999998
 21
1100.0047999999999
  0
ARC
  8
_0-0_1
  6
CONTINUOUS
 62
    3
 10
1864.2896999999998
 20
1126.8641
 40
4.9989999999999997
 50
24.224954
 51
114.23559000000002
  0
ARC
  8
_0-0_1
  6
CONTINUOUS
 62
    3
 10
1859.3146000000002
 20
1108.6151
 40
6.1470010000000013
 50
204.58611000000002
 51
238.59338000000002
  0
ARC
  8
_0-0_1
  6
CONTINUOUS
 62
    3
 10
1878.8573000000001
 20
1106.0064
 40
22.898997999999999
 50
186.62354999999999
 51
221.83906999999999
  0
ARC
  8
_0-0_1
  6
CONTINUOUS
 62
    3
 10
1886.8858
 20
1098.2149999999999
 40
6.1479999999999997
 50
24.562933999999998
 51
58.577674000000009
  0
ARC
  8
_0-0_1
  6
CONTINUOUS
 62
    3
 10
1878.3535999999999
 20
1117.1774
 40
6.1479999999999997
 50
349.89965999999998
 51
23.901924000000019
  0
ARC
  8
_0-0_1
  6
CONTINUOUS
 62
    3
 10
1867.3092999999999
 20
1100.8076000000001
 40
22.936000999999997
 50
6.651644000000001
 51
41.808413999999999
  0
LINE
  8
_0-0_1
  6
CONTINUOUS
 62
    3
 10
1816.5093000000002
 20
1110.8447000000001
 11
1814.4119000000001
 21
1109.9007999999999
  0
LINE
  8
_0-0_1
  6
CONTINUOUS
 62
    3
 10
1841.1313
 20
1056.1294
 11
1839.0338999999999
 21
1055.1855
  0
LINE
  8
_0-0_1
  6
CONTINUOUS
 62
    3
 10
1848.8231999999998
 20
1144.7955999999999
 11
1811.0697
 21
1127.8063999999999
  0
LINE
  8
_0-0_1
  6
CONTINUOUS
 62
    3
 10
1816.5093000000002
 20
1110.8447000000001
 11
1810.0666000000001
 21
1125.1618000000001
  0
LINE
  8
_0-0_1
  6
CONTINUOUS
 62
    3
 10
1847.5740999999998
 20
1041.8123000000001
 11
1841.1313
 21
1056.1294
  0
LINE
  8
_0-0_1
  6
CONTINUOUS
 62
    3
 10
1887.9722999999999
 20
1057.7982
 11
1850.2188000000001
 21
1040.8090999999999
  0
LINE
  8
_0-0_1
  6
CONTINUOUS
 62
    3
 10
1814.4119000000001
 20
1109.9007999999999
 11
1807.9693000000002
 21
1124.2179000000001
  0
LINE
  8
_0-0_1
  6
CONTINUOUS
 62
    3
 10
1847.8796000000002
 20
1146.893
 11
1810.1260000000002
 21
1129.9038
  0
LINE
  8
_0-0_1
  6
CONTINUOUS
 62
    3
 10
1845.4766
 20
1040.8683000000001
 11
1839.0338999999999
 21
1055.1855
  0
LINE
  8
_0-0_1
  6
CONTINUOUS
 62
    3
 10
1888.9160000000002
 20
1055.7008000000001
 11
1851.1626000000001
 21
1038.7118
  0
LINE
  8
_0-0_1
  6
CONTINUOUS
 62
    3
 10
1888.9753000000001
 20
1060.4429
 11
1851.4677999999999
 21
1143.7925
  0
LINE
  8
_0-0_1
  6
CONTINUOUS
 62
    3
 10
1853.5652
 20
1144.7361000000001
 11
1891.0727000000002
 21
1061.3865000000001
  0
ARC
  8
_0-0_1
  6
CONTINUOUS
 62
    3
 10
1811.8905
 20
1125.9825000000001
 40
2.000003
 50
114.22777000000002
 51
204.22776000000002
  0
ARC
  8
_0-0_1
  6
CONTINUOUS
 62
    3
 10
1849.3980000000001
 20
1042.633
 40
2.000003
 50
204.22776000000002
 51
294.22775999999999
  0
ARC
  8
_0-0_1
  6
CONTINUOUS
 62
    3
 10
1849.3980000000001
 20
1042.633
 40
4.2999999999999998
 50
204.22776000000002
 51
294.22775999999999
  0
ARC
  8
_0-0_1
  6
CONTINUOUS
 62
    3
 10
1811.8905
 20
1125.9825000000001
 40
4.2999999999999998
 50
114.22777000000002
 51
204.22776000000002
  0
ARC
  8
_0-0_1
  6
CONTINUOUS
 62
    3
 10
1849.6439
 20
1142.9716000000001
 40
2.000003
 50
24.227764000000004
 51
114.22777000000002
  0
ARC
  8
_0-0_1
  6
CONTINUOUS
 62
    3
 10
1887.1514999999999
 20
1059.6220000000001
 40
2.000003
 50
294.22775999999999
 51
24.227764000000008
  0
ARC
  8
_0-0_1
  6
CONTINUOUS
 62
    3
 10
1887.1514999999999
 20
1059.6220000000001
 40
4.2999999999999998
 50
294.22775999999999
 51
24.227764000000008
  0
ARC
  8
_0-0_1
  6
CONTINUOUS
 62
    3
 10
1849.6439
 20
1142.9716000000001
 40
4.2999999999999998
 50
24.227764000000004
 51
114.22777000000002
  0
LINE
  8
_0-0_1
  6
CONTINUOUS
 62
    3
 10
1813.0448000000001
 20
1186.0463999999999
 11
1803.9245000000001
 21
1181.9423999999999
  0
LINE
  8
_0-0_1
  6
CONTINUOUS
 62
    3
 10
1814.2746999999999
 20
1183.3099999999999
 11
1805.1563000000001
 21
1179.2073
  0
LINE
  8
_0-0_1
  6
CONTINUOUS
 62
    3
 10
1803.9245000000001
 20
1181.9423999999999
 11
1805.1563000000001
 21
1179.2073
  0
LINE
  8
_0-0_1
  6
CONTINUOUS
 62
    3
 10
1813.0448000000001
 20
1186.0463999999999
 11
1814.2746999999999
 21
1183.3099999999999
  0
LINE
  8
_0-0_1
  6
CONTINUOUS
 62
    3
 10
1808.4847
 20
1183.9945
 11
1809.7154999999998
 21
1181.258
  0
LINE
  8
_0-0_1
  6
CONTINUOUS
 62
    3
 10
1835.1581999999999
 20
1124.7197000000001
 11
1831.0360000000001
 21
1129.0059000000001
  0
LINE
  8
_0-0_1
  6
CONTINUOUS
 62
    3
 10
1835.1581999999999
 20
1124.7197000000001
 11
1834.6837999999998
 21
1130.6467
  0
LINE
  8
_0-0_1
  6
CONTINUOUS
 62
    3
 10
1813.3708000000001
 20
1165.2465999999999
 11
1818.9985999999999
 21
1168.9380000000001
  0
LINE
  8
_0-0_1
  6
CONTINUOUS
 62
    3
 10
1815.4227000000001
 20
1160.6873000000001
 11
1821.0515999999998
 21
1164.3779
  0
LINE
  8
_0-0_1
  6
CONTINUOUS
 62
    3
 10
1817.4757
 20
1156.127
 11
1823.1032
 21
1159.8187
  0
LINE
  8
_0-0_1
  6
CONTINUOUS
 62
    3
 10
1819.5264999999999
 20
1151.5668000000001
 11
1825.1541999999999
 21
1155.2593999999999
  0
LINE
  8
_0-0_1
  6
CONTINUOUS
 62
    3
 10
1821.5783999999999
 20
1147.0085999999999
 11
1827.2060999999999
 21
1150.7001
  0
LINE
  8
_0-0_1
  6
CONTINUOUS
 62
    3
 10
1823.6302999999998
 20
1142.4483
 11
1829.2591000000002
 21
1146.1401000000001
  0
LINE
  8
_0-0_1
  6
CONTINUOUS
 62
    3
 10
1825.6831000000002
 20
1137.8892000000001
 11
1831.3099999999999
 21
1141.5798
  0
LINE
  8
_0-0_1
  6
CONTINUOUS
 62
    3
 10
1827.7341000000001
 20
1133.3289
 11
1833.3618000000001
 21
1137.0207
  0
LINE
  8
_0-0_1
  6
CONTINUOUS
 62
    3
 10
1829.2701000000002
 20
1129.9168999999999
 11
1834.8975
 21
1133.6086
  0
LINE
  8
_0-0_1
  6
CONTINUOUS
 62
    3
 10
1812.7705000000001
 20
1179.3457000000001
 11
1834.6837999999998
 21
1130.6467
  0
LINE
  8
_0-0_1
  6
CONTINUOUS
 62
    3
 10
1814.2746999999999
 20
1183.3099999999999
 11
1812.7705000000001
 21
1179.3457000000001
  0
LINE
  8
_0-0_1
  6
CONTINUOUS
 62
    3
 10
1809.1237000000001
 20
1177.7018
 11
1831.0360000000001
 21
1129.0059000000001
  0
LINE
  8
_0-0_1
  6
CONTINUOUS
 62
    3
 10
1805.1563000000001
 20
1179.2073
 11
1809.1237000000001
 21
1177.7018
  0
ARC
  8
_0-0_1
  6
CONTINUOUS
 62
    3
 10
1811.8906000000002
 20
1125.9825000000001
 40
2.000003
 50
114.22759000000001
 51
204.2276
  0
ARC
  8
_0-0_1
  6
CONTINUOUS
 62
    3
 10
1811.8906000000002
 20
1125.9825000000001
 40
4.2999999999999998
 50
114.22759000000001
 51
204.2276
  0
LINE
  8
_0-2_3
  6
CONTINUOUS
 62
    3
 10
1251.3453999999999
 20
764.34210000000007
 11
1256.6487
 21
769.64540000000011
  0
LINE
  8
_0-2_3
  6
CONTINUOUS
 62
    3
 10
1256.6487
 20
769.64540000000011
 11
1254.7075
 21
762.40100000000007
  0
LINE
  8
_0-2_3
  6
CONTINUOUS
 62
    3
 10
1256.6487
 20
769.64540000000011
 11
1186.1398999999999
 21
647.52060000000006
  0
LINE
  8
_0-2_3
  6
CONTINUOUS
 62
    3
 10
1186.1398999999999
 20
647.52060000000006
 11
968.34099999999989
 21
647.52060000000006
  0
LINE
  8
_0-0_1
  6
DASHED3
 62
    3
 10
1172.4541999999999
 20
902.42769999999996
 11
1925.2372999999998
 21
1241.1795999999999
  0
LINE
  8
_0-0_1
  6
CONTINUOUS
 62
    3
 10
1401.3924999999999
 20
945.97379999999998
 11
1335.2782
 21
971.05169999999998
  0
LINE
  8
_0-0_1
  6
CONTINUOUS
 62
    3
 10
1405.2615000000001
 20
947.71479999999997
 11
1339.1472000000001
 21
972.79279999999994
  0
LINE
  8
_0-0_1
  6
CONTINUOUS
 62
    3
 10
1594.8402999999998
 20
1033.0252
 11
1528.7260000000001
 21
1058.1031
  0
LINE
  8
_0-0_1
  6
CONTINUOUS
 62
    3
 10
1598.7093
 20
1034.7662
 11
1532.5949000000001
 21
1059.8441
  0
LINE
  8
_0-0_1
  6
CONTINUOUS
 62
    3
 10
1301.5872999999999
 20
879.12989999999991
 11
1303.6848
 21
880.07369999999992
  0
LINE
  8
_0-0_1
  6
CONTINUOUS
 62
    3
 10
1326.2090000000001
 20
824.41450000000009
 11
1328.3064999999999
 21
825.3583000000001
  0
LINE
  8
_0-0_1
  6
CONTINUOUS
 62
    3
 10
1254.7464
 20
877.46129999999994
 11
1292.5001
 21
894.4502
  0
LINE
  8
_0-0_1
  6
CONTINUOUS
 62
    3
 10
1301.5872999999999
 20
879.12989999999991
 11
1295.1447000000003
 21
893.44710000000009
  0
LINE
  8
_0-0_1
  6
CONTINUOUS
 62
    3
 10
1332.6515999999997
 20
810.09740000000011
 11
1326.2090000000001
 21
824.41450000000009
  0
LINE
  8
_0-0_1
  6
CONTINUOUS
 62
    3
 10
1293.895
 20
790.46370000000002
 11
1331.6485
 21
807.45260000000007
  0
LINE
  8
_0-0_1
  6
CONTINUOUS
 62
    3
 10
1303.6848
 20
880.07369999999992
 11
1297.2420999999999
 21
894.3907999999999
  0
LINE
  8
_0-0_1
  6
CONTINUOUS
 62
    3
 10
1253.8025
 20
879.55850000000009
 11
1291.5562
 21
896.5474999999999
  0
LINE
  8
_0-0_1
  6
CONTINUOUS
 62
    3
 10
1334.7492
 20
811.04109999999991
 11
1328.3064999999999
 21
825.3583000000001
  0
LINE
  8
_0-0_1
  6
CONTINUOUS
 62
    3
 10
1294.8389
 20
788.36629999999991
 11
1332.5923
 21
805.35529999999994
  0
LINE
  8
_0-0_1
  6
CONTINUOUS
 62
    3
 10
1291.2503999999999
 20
791.4668999999999
 11
1253.7433000000001
 21
874.81680000000006
  0
LINE
  8
_0-0_1
  6
CONTINUOUS
 62
    3
 10
1251.6460999999999
 20
873.8726999999999
 11
1289.1531
 21
790.52299999999991
  0
LINE
  8
_0-0_1
  6
CONTINUOUS
 62
    3
 10
1256.7216000000001
 20
935.70129999999995
 11
1247.6013
 21
931.5972999999999
  0
LINE
  8
_0-0_1
  6
CONTINUOUS
 62
    3
 10
1257.9514999999999
 20
932.96489999999994
 11
1248.8331000000001
 21
928.86220000000003
  0
LINE
  8
_0-0_1
  6
CONTINUOUS
 62
    3
 10
1247.6013
 20
931.5972999999999
 11
1248.8331000000001
 21
928.86220000000003
  0
LINE
  8
_0-0_1
  6
CONTINUOUS
 62
    3
 10
1256.7216000000001
 20
935.70129999999995
 11
1257.9514999999999
 21
932.96489999999994
  0
LINE
  8
_0-0_1
  6
CONTINUOUS
 62
    3
 10
1252.1614999999999
 20
933.64940000000001
 11
1253.3924
 21
930.91290000000004
  0
LINE
  8
_0-0_1
  6
CONTINUOUS
 62
    3
 10
1278.8351
 20
874.3746000000001
 11
1274.7128
 21
878.66080000000011
  0
LINE
  8
_0-0_1
  6
CONTINUOUS
 62
    3
 10
1278.8351
 20
874.3746000000001
 11
1278.3606
 21
880.30160000000001
  0
LINE
  8
_0-0_1
  6
CONTINUOUS
 62
    3
 10
1257.0476000000001
 20
914.90149999999994
 11
1262.6754000000001
 21
918.5929000000001
  0
LINE
  8
_0-0_1
  6
CONTINUOUS
 62
    3
 10
1259.0995
 20
910.34220000000005
 11
1264.7284
 21
914.03279999999995
  0
LINE
  8
_0-0_1
  6
CONTINUOUS
 62
    3
 10
1261.1524999999999
 20
905.78189999999995
 11
1266.7800999999999
 21
909.47360000000003
  0
LINE
  8
_0-0_1
  6
CONTINUOUS
 62
    3
 10
1263.2032999999999
 20
901.22170000000006
 11
1268.8311000000001
 21
904.91429999999991
  0
LINE
  8
_0-0_1
  6
CONTINUOUS
 62
    3
 10
1265.2553
 20
896.66350000000011
 11
1270.8829000000001
 21
900.35500000000002
  0
LINE
  8
_0-0_1
  6
CONTINUOUS
 62
    3
 10
1267.3071
 20
892.10320000000002
 11
1272.9359999999999
 21
895.79500000000007
  0
LINE
  8
_0-0_1
  6
CONTINUOUS
 62
    3
 10
1269.3598999999999
 20
887.54410000000007
 11
1274.9867999999999
 21
891.23469999999998
  0
LINE
  8
_0-0_1
  6
CONTINUOUS
 62
    3
 10
1271.4109000000001
 20
882.98379999999997
 11
1277.0387000000001
 21
886.67560000000003
  0
LINE
  8
_0-0_1
  6
CONTINUOUS
 62
    3
 10
1272.9468999999999
 20
879.57179999999994
 11
1278.5743
 21
883.26350000000002
  0
LINE
  8
_0-0_1
  6
CONTINUOUS
 62
    3
 10
1256.4473
 20
929.00060000000008
 11
1278.3606
 21
880.30160000000001
  0
LINE
  8
_0-0_1
  6
CONTINUOUS
 62
    3
 10
1257.9514999999999
 20
932.96489999999994
 11
1256.4473
 21
929.00060000000008
  0
LINE
  8
_0-0_1
  6
CONTINUOUS
 62
    3
 10
1252.8005000000001
 20
927.35670000000005
 11
1274.7128
 21
878.66080000000011
  0
LINE
  8
_0-0_1
  6
CONTINUOUS
 62
    3
 10
1248.8331000000001
 20
928.86220000000003
 11
1252.8005000000001
 21
927.35670000000005
  0
LINE
  8
_0-0_1
  6
CONTINUOUS
 62
    3
 10
1297.2420999999999
 20
894.3907999999999
 11
1334.7492999999999
 21
811.04119999999989
  0
LINE
  8
_0-0_1
  6
CONTINUOUS
 62
    3
 10
1301.3456999999999
 20
896.23749999999995
 11
1338.8530000000001
 21
812.88779999999997
  0
LINE
  8
_0-0_1
  6
CONTINUOUS
 62
    3
 10
1297.2420999999999
 20
894.3907999999999
 11
1301.3456999999999
 21
896.23739999999998
  0
LINE
  8
_0-0_1
  6
CONTINUOUS
 62
    3
 10
1338.8530000000001
 20
812.88779999999997
 11
1334.7489999999998
 21
811.04099999999994
  0
LINE
  8
_0-0_1
  6
CONTINUOUS
 62
    3
 10
1344.7210999999998
 20
799.84740000000011
 11
1307.7893999999997
 21
881.92129999999997
  0
LINE
  8
_0-0_1
  6
CONTINUOUS
 62
    3
 10
1316.2244000000001
 20
880.23389999999995
 11
1344.1280999999999
 21
818.22299999999996
  0
LINE
  8
_0-0_1
  6
CONTINUOUS
 62
    3
 10
1309.6125999999999
 20
882.74240000000009
 11
1307.7893999999997
 21
881.92129999999997
  0
LINE
  8
_0-0_1
  6
CONTINUOUS
 62
    3
 10
1419.3628000000001
 20
841.1117999999999
 11
1357.3512000000001
 21
813.20730000000003
  0
LINE
  8
_0-0_1
  6
CONTINUOUS
 62
    3
 10
1315.9953
 20
852.7165
 11
1313.2592999999999
 21
851.48489999999993
  0
LINE
  8
_0-0_1
  6
CONTINUOUS
 62
    3
 10
1309.4297999999999
 20
867.30680000000007
 11
1306.694
 21
866.07529999999997
  0
LINE
  8
_0-0_1
  6
CONTINUOUS
 62
    3
 10
1319.8240000000001
 20
836.89550000000008
 11
1306.694
 21
866.07529999999997
  0
LINE
  8
_0-0_1
  6
CONTINUOUS
 62
    3
 10
1322.5608
 20
838.1264000000001
 11
1319.8240000000001
 21
836.89550000000008
  0
LINE
  8
_0-0_1
  6
CONTINUOUS
 62
    3
 10
1307.9594999999999
 20
841.50500000000011
 11
1316.1005
 21
845.16889999999989
  0
LINE
  8
_0-0_1
  6
CONTINUOUS
 62
    3
 10
1302.2744
 20
854.1398999999999
 11
1310.4151999999999
 21
857.80250000000001
  0
LINE
  8
_0-0_1
  6
CONTINUOUS
 62
    3
 10
1299.4303
 20
860.45740000000001
 11
1307.5727000000002
 21
864.12130000000002
  0
LINE
  8
_0-0_1
  6
CONTINUOUS
 62
    3
 10
1299.2148999999999
 20
858.32690000000002
 11
1299.4303
 21
860.45740000000001
  0
LINE
  8
_0-0_1
  6
CONTINUOUS
 62
    3
 10
1309.0632000000001
 20
836.43990000000008
 11
1299.2148999999999
 21
858.32690000000002
  0
LINE
  8
_0-0_1
  6
CONTINUOUS
 62
    3
 10
1310.8030000000003
 20
835.18669999999997
 11
1318.9444000000001
 21
838.85010000000011
  0
LINE
  8
_0-0_1
  6
CONTINUOUS
 62
    3
 10
1309.0632000000001
 20
836.43990000000008
 11
1310.8030000000003
 21
835.18669999999997
  0
LINE
  8
_0-0_1
  6
CONTINUOUS
 62
    3
 10
1292.1948
 20
850.77880000000005
 11
1301.3338000000001
 21
837.34660000000008
  0
LINE
  8
_0-0_1
  6
CONTINUOUS
 62
    3
 10
1297.7514000000001
 20
853.27890000000002
 11
1306.8894
 21
839.84590000000003
  0
LINE
  8
_0-0_1
  6
CONTINUOUS
 62
    3
 10
1331.7827
 20
867.41699999999992
 11
1323.6419000000001
 21
863.75320000000011
  0
LINE
  8
_0-0_1
  6
CONTINUOUS
 62
    3
 10
1337.4682000000003
 20
854.7820999999999
 11
1329.3263999999999
 21
851.11879999999996
  0
LINE
  8
_0-0_1
  6
CONTINUOUS
 62
    3
 10
1340.3118999999997
 20
848.46460000000002
 11
1332.1699000000001
 21
844.80060000000003
  0
LINE
  8
_0-0_1
  6
CONTINUOUS
 62
    3
 10
1340.5275999999999
 20
850.59500000000003
 11
1340.3118999999997
 21
848.46460000000002
  0
LINE
  8
_0-0_1
  6
CONTINUOUS
 62
    3
 10
1330.6790000000001
 20
872.48209999999995
 11
1340.5275999999999
 21
850.59500000000003
  0
LINE
  8
_0-0_1
  6
CONTINUOUS
 62
    3
 10
1328.9395999999999
 20
873.73520000000008
 11
1320.798
 21
870.07199999999989
  0
LINE
  8
_0-0_1
  6
CONTINUOUS
 62
    3
 10
1330.6790000000001
 20
872.48209999999995
 11
1328.9395999999999
 21
873.73520000000008
  0
LINE
  8
_0-0_1
  6
CONTINUOUS
 62
    3
 10
1425.9737
 20
838.60380000000009
 11
1426.7943
 21
836.77980000000002
  0
LINE
  8
_0-0_1
  6
CONTINUOUS
 62
    3
 10
1426.7943
 20
836.77980000000002
 11
1344.7212999999999
 21
799.84699999999998
  0
LINE
  8
_0-0_1
  6
CONTINUOUS
 62
    3
 10
1300.8575000000001
 20
854.67630000000008
 11
1292.1948
 21
850.77880000000005
  0
LINE
  8
_0-0_1
  6
CONTINUOUS
 62
    3
 10
1292.1948
 20
850.77880000000005
 11
1291.1916000000001
 21
848.13409999999999
  0
LINE
  8
_0-0_1
  6
CONTINUOUS
 62
    3
 10
1307.4223999999999
 20
840.08660000000009
 11
1298.7605000000003
 21
836.18859999999995
  0
LINE
  8
_0-0_1
  6
CONTINUOUS
 62
    3
 10
1292.1948
 20
850.77880000000005
 11
1298.7605000000003
 21
836.18859999999995
  0
LINE
  8
_0-0_1
  6
CONTINUOUS
 62
    3
 10
1296.1151
 20
837.19129999999996
 11
1298.7605000000003
 21
836.18859999999995
  0
LINE
  8
_0-0_1
  6
CONTINUOUS
 62
    3
 10
1291.1916000000001
 20
848.13409999999999
 11
1296.1151
 21
837.19129999999996
  0
LINE
  8
_0-0_1
  6
CONTINUOUS
 62
    3
 10
1222.7511999999999
 20
816.23970000000008
 11
1226.8553999999999
 21
807.11950000000002
  0
LINE
  8
_0-0_1
  6
CONTINUOUS
 62
    3
 10
1225.4876999999999
 20
817.4697000000001
 11
1229.5905
 21
808.35130000000004
  0
LINE
  8
_0-0_1
  6
CONTINUOUS
 62
    3
 10
1226.8553999999999
 20
807.11950000000002
 11
1229.5905
 21
808.35130000000004
  0
LINE
  8
_0-0_1
  6
CONTINUOUS
 62
    3
 10
1222.7511999999999
 20
816.23970000000008
 11
1225.4876999999999
 21
817.4697000000001
  0
LINE
  8
_0-0_1
  6
CONTINUOUS
 62
    3
 10
1224.8033
 20
811.67969999999991
 11
1227.5397
 21
812.91049999999996
  0
LINE
  8
_0-0_1
  6
CONTINUOUS
 62
    3
 10
1284.0776000000001
 20
838.35419999999999
 11
1279.7915
 21
834.23180000000002
  0
LINE
  8
_0-0_1
  6
CONTINUOUS
 62
    3
 10
1284.0776000000001
 20
838.35419999999999
 11
1278.1505999999999
 21
837.87959999999998
  0
LINE
  8
_0-0_1
  6
CONTINUOUS
 62
    3
 10
1243.5510999999999
 20
816.56600000000003
 11
1239.8595
 21
822.19380000000001
  0
LINE
  8
_0-0_1
  6
CONTINUOUS
 62
    3
 10
1248.1103000000001
 20
818.61799999999994
 11
1244.4196999999999
 21
824.2469000000001
  0
LINE
  8
_0-0_1
  6
CONTINUOUS
 62
    3
 10
1252.6705999999999
 20
820.67110000000002
 11
1248.9788000000001
 21
826.2985000000001
  0
LINE
  8
_0-0_1
  6
CONTINUOUS
 62
    3
 10
1257.2307000000001
 20
822.72199999999998
 11
1253.5381
 21
828.34960000000001
  0
LINE
  8
_0-0_1
  6
CONTINUOUS
 62
    3
 10
1261.7889
 20
824.77399999999989
 11
1258.0972999999999
 21
830.40159999999992
  0
LINE
  8
_0-0_1
  6
CONTINUOUS
 62
    3
 10
1266.3492000000001
 20
826.82600000000002
 11
1262.6572000000001
 21
832.4547
  0
LINE
  8
_0-0_1
  6
CONTINUOUS
 62
    3
 10
1270.9082000000001
 20
828.87879999999996
 11
1267.2175999999999
 21
834.50569999999993
  0
LINE
  8
_0-0_1
  6
CONTINUOUS
 62
    3
 10
1275.4684999999999
 20
830.93000000000006
 11
1271.7766999999999
 21
836.55760000000009
  0
LINE
  8
_0-0_1
  6
CONTINUOUS
 62
    3
 10
1278.8804
 20
832.46599999999989
 11
1275.1887999999999
 21
838.09320000000002
  0
LINE
  8
_0-0_1
  6
CONTINUOUS
 62
    3
 10
1229.452
 20
815.96550000000002
 11
1278.1505999999999
 21
837.87959999999998
  0
LINE
  8
_0-0_1
  6
CONTINUOUS
 62
    3
 10
1225.4876999999999
 20
817.4697000000001
 11
1229.452
 21
815.96550000000002
  0
LINE
  8
_0-0_1
  6
CONTINUOUS
 62
    3
 10
1231.0959
 20
812.31880000000001
 11
1279.7915
 21
834.23180000000002
  0
LINE
  8
_0-0_1
  6
CONTINUOUS
 62
    3
 10
1229.5905
 20
808.35130000000004
 11
1231.0959
 21
812.31880000000001
  0
LINE
  8
_0-0_1
  6
CONTINUOUS
 62
    3
 10
1295.0211999999999
 20
777.48250000000007
 11
1997.739
 21
1093.7048
  0
LINE
  8
_0-0_1
  6
CONTINUOUS
 62
    3
 10
1249.8814
 20
877.79379999999992
 11
1301.768
 21
762.48949999999991
  0
LINE
  8
_0-0_1
  6
CONTINUOUS
 62
    3
 10
1204.2852
 20
857.27569999999992
 11
1264.1279
 21
724.29119999999989
  0
LINE
  8
_0-0_1
  6
CONTINUOUS
 62
    3
 10
1277.385
 20
816.67440000000011
 11
1211.2706000000001
 21
841.75240000000008
  0
LINE
  8
_0-0_1
  6
CONTINUOUS
 62
    3
 10
1279.1261
 20
812.80549999999994
 11
1213.0117
 21
837.88339999999994
  0
LINE
  8
_0-0_1
  6
CONTINUOUS
 62
    3
 10
1190.6063999999999
 20
851.12030000000004
 11
1952.5990000000002
 21
1194.0162
  0
LINE
  8
_0-0_1
  6
CONTINUOUS
 62
    3
 10
1170.0881999999999
 20
896.71640000000002
 11
1932.0808000000002
 21
1239.6124
  0
LINE
  8
_0-0_1
  6
CONTINUOUS
 62
    3
 10
1170.0881999999999
 20
896.71640000000002
 11
1190.6063999999999
 21
851.12030000000004
  0
ARC
  8
_0-0_1
  6
CONTINUOUS
 62
    3
 10
1293.3208
 20
892.6262999999999
 40
2.000003
 50
24.227606000000002
 51
114.22759000000003
  0
ARC
  8
_0-0_1
  6
CONTINUOUS
 62
    3
 10
1330.8277
 20
809.27649999999994
 40
2.000003
 50
294.2276
 51
24.227605999999994
  0
ARC
  8
_0-0_1
  6
CONTINUOUS
 62
    3
 10
1330.8277
 20
809.27649999999994
 40
4.2999999999999998
 50
294.2276
 51
24.227605999999994
  0
ARC
  8
_0-0_1
  6
CONTINUOUS
 62
    3
 10
1293.3208
 20
892.6262999999999
 40
4.2999999999999998
 50
24.227606000000002
 51
114.22759000000003
  0
ARC
  8
_0-0_1
  6
CONTINUOUS
 62
    3
 10
1255.5673999999999
 20
875.63740000000007
 40
2.000003
 50
114.22759000000001
 51
204.2276
  0
ARC
  8
_0-0_1
  6
CONTINUOUS
 62
    3
 10
1293.0743000000002
 20
792.28749999999991
 40
2.000003
 50
204.22760000000002
 51
294.22760000000005
  0
ARC
  8
_0-0_1
  6
CONTINUOUS
 62
    3
 10
1293.0743000000002
 20
792.28749999999991
 40
4.2999999999999998
 50
204.22760000000002
 51
294.22760000000005
  0
ARC
  8
_0-0_1
  6
CONTINUOUS
 62
    3
 10
1255.5673999999999
 20
875.63740000000007
 40
4.2999999999999998
 50
114.22759000000001
 51
204.2276
  0
ARC
  8
_0-0_1
  6
CONTINUOUS
 62
    3
 10
1353.2482
 20
822.3288
 40
10.001999
 50
204.23162000000002
 51
294.21884999999997
  0
ARC
  8
_0-0_1
  6
CONTINUOUS
 62
    3
 10
1311.6656
 20
878.18329999999992
 40
4.9989999999999997
 50
24.224675999999999
 51
114.23530999999998
  0
ARC
  8
_0-0_1
  6
CONTINUOUS
 62
    3
 10
1421.4150999999997
 20
836.55310000000009
 40
4.9989999999999997
 50
24.224675999999999
 51
114.23530999999998
  0
ARC
  8
_0-0_1
  6
CONTINUOUS
 62
    3
 10
1305.4781
 20
859.3889999999999
 40
6.1470010000000013
 50
204.58582999999999
 51
238.59309999999999
  0
ARC
  8
_0-0_1
  6
CONTINUOUS
 62
    3
 10
1314.0236
 20
840.42499999999995
 40
6.1580000000000004
 50
169.89975999999999
 51
203.85441
  0
ARC
  8
_0-0_1
  6
CONTINUOUS
 62
    3
 10
1325.0207
 20
856.78019999999992
 40
22.898997999999999
 50
186.62326999999999
 51
221.83878999999999
  0
ARC
  8
_0-0_1
  6
CONTINUOUS
 62
    3
 10
1334.2616
 20
849.53410000000008
 40
6.1479999999999997
 50
24.562656
 51
58.577396
  0
ARC
  8
_0-0_1
  6
CONTINUOUS
 62
    3
 10
1325.7294999999999
 20
868.49649999999997
 40
6.1479999999999997
 50
349.89938000000006
 51
23.901646000000021
  0
ARC
  8
_0-0_1
  6
CONTINUOUS
 62
    3
 10
1314.6850999999997
 20
852.1268
 40
22.936000999999997
 50
6.6513660000000003
 51
41.808135999999998
  0
LINE
  8
_0-0_1
  6
CONTINUOUS
 62
    3
 10
1651.9852000000001
 20
813.33089999999993
 11
1856.8078999999998
 21
813.33089999999993
  0
LINE
  8
_0-0_1
  6
CONTINUOUS
 62
    3
 10
1577.9859999999999
 20
1080.3418999999999
 11
1577.9859999999999
 21
1087.8418999999999
  0
LINE
  8
_0-0_1
  6
CONTINUOUS
 62
    3
 10
1577.9859999999999
 20
1087.8418999999999
 11
1581.7359999999999
 21
1081.3467000000001
  0
LINE
  8
_0-0_1
  6
CONTINUOUS
 62
    3
 10
1577.9859999999999
 20
1087.8418999999999
 11
1675.6104999999998
 21
723.50250000000005
  0
LINE
  8
_0-0_1
  6
CONTINUOUS
 62
    3
 10
1675.6104999999998
 20
723.50250000000005
 11
1998.4845999999998
 21
723.50250000000005
  0
LINE
  8
_0-0_1
  6
CONTINUOUS
 62
    3
 10
1668.4373000000001
 20
753.36899999999991
 11
1877.3292999999999
 21
753.36899999999991
  0
LINE
  8
_0-0_1
  6
CONTINUOUS
 62
    3
 10
1658.8942000000002
 20
783.46430000000009
 11
2001.6588999999999
 21
783.46430000000009
  0
LINE
  8
_0-1_2
  6
CONTINUOUS
 62
   18
 10
997.33609999999999
 20
1037.6919
 11
1136.8361
 21
1037.6919
  0
LINE
  8
_0-1_2
  6
CONTINUOUS
 62
   18
 10
1196.8117
 20
933.81089999999995
 11
1194.8706
 21
941.05539999999996
  0
LINE
  8
_0-1_2
  6
CONTINUOUS
 62
   18
 10
1196.8117
 20
933.81089999999995
 11
1191.5083999999999
 21
939.11419999999998
  0
LINE
  8
_0-1_2
  6
CONTINUOUS
 62
   18
 10
1196.8117
 20
933.81089999999995
 11
1136.8361
 21
1037.6919
  0
LINE
  8
_0-1_2
  6
CONTINUOUS
 62
   18
 10
1248.3277
 20
1029.6355000000001
 11
1250.2689
 21
1022.3911000000001
  0
LINE
  8
_0-1_2
  6
CONTINUOUS
 62
   18
 10
1250.2689
 20
1022.3911000000001
 11
1244.9656
 21
1027.6944000000001
  0
LINE
  8
_0-1_2
  6
CONTINUOUS
 62
   18
 10
1244.9656
 20
1027.6944000000001
 11
1250.2689
 21
1022.3911000000001
  0
LINE
  8
_0-1_2
  6
CONTINUOUS
 62
   18
 10
1250.2689
 20
1022.3911000000001
 11
1201.8844999999999
 21
1106.1953000000001
  0
LINE
  8
_0-1_2
  6
CONTINUOUS
 62
   18
 10
1201.8844999999999
 20
1106.1953000000001
 11
1137.3844999999999
 21
1106.1953000000001
  0
LINE
  8
_0-1_2
  6
CONTINUOUS
 62
   18
 10
1012.349897175169
 20
1153.2985691542121
 11
1030.0835999999999
 21
1104.7352000000001
  0
LINE
  8
_0-1_2
  6
CONTINUOUS
 62
   18
 10
1012.9330175383202
 20
1151.7017064044089
 11
1233.6758
 21
1232.3096
  0
LINE
  8
_0-1_2
  6
CONTINUOUS
 62
   18
 10
1250.8263999999999
 20
1185.3430000000001
 11
1219.3722289045813
 21
1271.4796807399703
  0
LINE
  8
_0-1_2
  6
CONTINUOUS
 62
   18
 10
1219.9553000000001
 20
1269.8828000000001
 11
1440.6979999999999
 21
1350.4907000000001
  0
LINE
  8
_0-1_2
  6
CONTINUOUS
 62
   18
 10
1457.8487
 20
1303.5241999999998
 11
1426.1199999999999
 21
1390.4123
  0
LINE
  8
_0-1_2
  6
CONTINUOUS
 62
   18
 10
1428.5744624733602
 20
1388.6471211205007
 11
1647.7203
 21
1468.6718999999998
  0
LINE
  8
_0-1_2
  6
CONTINUOUS
 62
   18
 10
1647.1371966842153
 20
1470.2687689749384
 11
1664.8708999999999
 21
1421.7053000000001
  0
LINE
  8
_0-1_2
  6
CONTINUOUS
 62
   18
 10
1588.7867000000001
 20
1282.4847
 11
1629.2867000000001
 21
1282.4847
  0
LINE
  8
_0-1_2
  6
CONTINUOUS
 62
   18
 10
1629.2867000000001
 20
1282.4847
 11
1693.875
 21
1170.6146000000001
  0
LINE
  8
_0-1_2
  6
CONTINUOUS
 62
   18
 10
1693.875
 20
1170.6146000000001
 11
1691.9337999999998
 21
1177.8589999999999
  0
LINE
  8
_0-1_2
  6
CONTINUOUS
 62
   18
 10
1693.875
 20
1170.6146000000001
 11
1688.5717
 21
1175.9178999999999
  0
LINE
  8
_0-1_2
  6
CONTINUOUS
 62
   18
 10
1177.7877000000001
 20
938.54289999999992
 11
1191.2986000000001
 21
908.51860000000011
  0
LINE
  8
_0-1_2
  6
CONTINUOUS
 62
   18
 10
1191.2986000000001
 20
908.51860000000011
 11
1232.335
 21
926.9849999999999
  0
LINE
  8
_0-1_2
  6
CONTINUOUS
 62
   18
 10
1232.335
 20
926.9849999999999
 11
1220.2084
 21
953.93319999999994
  0
LINE
  8
_0-1_2
  6
CONTINUOUS
 62
   18
 10
1220.2084
 20
953.93319999999994
 11
1177.7877000000001
 21
938.54289999999992
  0
LINE
  8
_0-1_2
  6
CONTINUOUS
 62
   18
 10
1177.7877000000001
 20
938.54289999999992
 11
1232.335
 21
926.9849999999999
  0
LINE
  8
_0-1_2
  6
CONTINUOUS
 62
   18
 10
1220.2084
 20
953.93319999999994
 11
1191.2986000000001
 21
908.51860000000011
  0
LINE
  8
_0-1_2
  6
CONTINUOUS
 62
   18
 10
1170.0881999999999
 20
896.71640000000002
 11
1190.6063999999999
 21
851.12030000000004
  0
LINE
  8
_0-1_2
  6
CONTINUOUS
 62
   18
 10
1190.6063999999999
 20
851.12030000000004
 11
1952.5990000000002
 21
1194.0162
  0
LINE
  8
_0-1_2
  6
CONTINUOUS
 62
   18
 10
1932.0808000000002
 20
1239.6124
 11
1170.0881999999999
 21
896.71640000000002
  0
LINE
  8
_0-1_2
  6
CONTINUOUS
 62
   18
 10
1172.4541999999999
 20
902.42769999999996
 11
1925.2372999999998
 21
1241.1795999999999
  0
LINE
  8
_0-1_2
  6
CONTINUOUS
 62
   18
 10
1204.2852
 20
857.27569999999992
 11
1264.1278901690882
 21
724.29115919948686
  0
LINE
  8
_0-1_2
  6
CONTINUOUS
 62
   18
 10
1264.1278901690882
 20
724.29115919948686
 11
1292.8398135995883
 21
660.4864305828761
  0
LINE
  8
_0-1_2
  6
CONTINUOUS
 62
   18
 10
1292.1422000000002
 20
662.03670000000011
 11
1223.748
 21
631.25949999999989
  0
LINE
  8
_0-1_2
  6
CONTINUOUS
 62
   18
 10
1223.748
 20
631.25949999999989
 11
1203.2299
 21
676.85570000000007
  0
LINE
  8
_0-1_2
  6
CONTINUOUS
 62
   18
 10
1224.4456141698199
 20
629.70923083947753
 11
1223.748
 21
631.25949999999989
  0
LINE
  8
_0-1_2
  6
CONTINUOUS
 62
   18
 10
1223.748
 20
631.25949999999989
 11
1224.4456141679516
 21
629.70923084362948
  0
LINE
  8
_0-1_2
  6
CONTINUOUS
 62
   18
 10
968.34099999999989
 20
647.52060000000006
 11
1186.1398999999999
 21
647.52060000000006
  0
LINE
  8
_0-1_2
  6
CONTINUOUS
 62
   18
 10
1186.1398999999999
 20
647.52060000000006
 11
1256.6487
 21
769.64540000000011
  0
LINE
  8
_0-1_2
  6
CONTINUOUS
 62
   18
 10
1256.6487
 20
769.64540000000011
 11
1251.3453999999999
 21
764.34210000000007
  0
LINE
  8
_0-1_2
  6
CONTINUOUS
 62
   18
 10
1256.6487
 20
769.64540000000011
 11
1254.7075
 21
762.40100000000007
  0
LINE
  8
_0-1_2
  6
CONTINUOUS
 62
   18
 10
1310.2345
 20
771.08159999999998
 11
1285.7719
 21
746.25620000000004
  0
LINE
  8
_0-1_2
  6
CONTINUOUS
 62
   18
 10
1285.7719
 20
746.25620000000004
 11
1286.3278
 21
741.38599999999997
  0
LINE
  8
_0-1_2
  6
CONTINUOUS
 62
   18
 10
1286.3278
 20
741.38599999999997
 11
1277.2999
 21
743.70939999999996
  0
LINE
  8
_0-1_2
  6
CONTINUOUS
 62
   18
 10
1277.2999
 20
743.70939999999996
 11
1278.1875
 21
738.55929999999989
  0
LINE
  8
_0-1_2
  6
CONTINUOUS
 62
   18
 10
1278.1875
 20
738.55929999999989
 11
1256.5315000000001
 21
716.58210000000008
  0
LINE
  8
_0-1_2
  6
CONTINUOUS
 62
   18
 10
1278.6427000000001
 20
692.03580000000011
 11
1910.6704
 21
976.44650000000001
  0
LINE
  8
_0-1_2
  6
CONTINUOUS
 62
   18
 10
1911.368013599588
 20
974.89623058287611
 11
1890.1523000000002
 21
1022.0426
  0
LINE
  8
_0-1_2
  6
CONTINUOUS
 62
   18
 10
1696.4825999999998
 20
877.32109999999989
 11
1674.9386
 21
925.19710000000009
  0
LINE
  8
_0-1_2
  6
CONTINUOUS
 62
   18
 10
1480.940613599588
 20
781.20513058287611
 11
1459.7249000000002
 21
828.35149999999999
  0
LINE
  8
_0-1_2
  6
CONTINUOUS
 62
   18
 10
1651.9852000000001
 20
813.33089999999993
 11
1856.8078999999998
 21
813.33089999999993
  0
LINE
  8
_0-1_2
  6
CONTINUOUS
 62
   18
 10
1659.5437755554299
 20
783.46430000000009
 11
2001.6588999999999
 21
783.46430000000009
  0
LINE
  8
_0-1_2
  6
CONTINUOUS
 62
   18
 10
1668.4373000000001
 20
753.36899999999991
 11
1877.3292999999999
 21
753.36899999999991
  0
LINE
  8
_0-1_2
  6
CONTINUOUS
 62
   18
 10
1675.6104999999998
 20
723.50250000000005
 11
1998.4845999999998
 21
723.50250000000005
  0
LINE
  8
_0-1_2
  6
CONTINUOUS
 62
   18
 10
1675.6104999999998
 20
723.50250000000005
 11
1577.9859999999999
 21
1087.8418999999999
  0
LINE
  8
_0-1_2
  6
CONTINUOUS
 62
   18
 10
1577.9859999999999
 20
1087.8418999999999
 11
1577.9859999999999
 21
1080.3418999999999
  0
LINE
  8
_0-1_2
  6
CONTINUOUS
 62
   18
 10
1577.9859999999999
 20
1087.8418999999999
 11
1581.7359999999999
 21
1081.3467000000001
  0
LINE
  8
_0-1_2
  6
CONTINUOUS
 62
   18
 10
1565.3249000000001
 20
1095.6766
 11
1571.4811
 21
1081.9981
  0
LINE
  8
_0-1_2
  6
CONTINUOUS
 62
   18
 10
1571.4811
 20
1081.9981
 11
1592.6819
 21
1107.9889000000001
  0
LINE
  8
_0-1_2
  6
CONTINUOUS
 62
   18
 10
1592.6819
 20
1107.9889000000001
 11
1565.3249000000001
 21
1095.6766
  0
LINE
  8
_0-1_2
  6
CONTINUOUS
 62
   18
 10
1592.6819
 20
1107.9889000000001
 11
1598.8380999999999
 21
1094.3104000000001
  0
LINE
  8
_0-1_2
  6
CONTINUOUS
 62
   18
 10
1598.8380999999999
 20
1094.3104000000001
 11
1571.4811
 21
1081.9981
  0
LINE
  8
_0-1_2
  6
CONTINUOUS
 62
   18
 10
1780.5333000000001
 20
1192.5338999999999
 11
1786.6894000000002
 21
1178.8553999999999
  0
LINE
  8
_0-1_2
  6
CONTINUOUS
 62
   18
 10
1786.6894000000002
 20
1178.8553999999999
 11
1807.8903
 21
1204.8462999999999
  0
LINE
  8
_0-1_2
  6
CONTINUOUS
 62
   18
 10
1807.8903
 20
1204.8462999999999
 11
1780.5333000000001
 21
1192.5338999999999
  0
LINE
  8
_0-1_2
  6
CONTINUOUS
 62
   18
 10
1807.8903
 20
1204.8462999999999
 11
1814.0464000000002
 21
1191.1677999999999
  0
LINE
  8
_0-1_2
  6
CONTINUOUS
 62
   18
 10
1814.0464000000002
 20
1191.1677999999999
 11
1786.6894000000002
 21
1178.8553999999999
  0
LINE
  8
_0-1_2
  6
CONTINUOUS
 62
   18
 10
1730.9915000000001
 20
1149.1223
 11
1797.1059
 21
1124.0445
  0
LINE
  8
_0-1_2
  6
CONTINUOUS
 62
   18
 10
1793.2368806625368
 20
1122.3034073349179
 11
1727.1226000000001
 21
1147.3813
  0
LINE
  8
_0-1_2
  6
CONTINUOUS
 62
   18
 10
1997.739
 20
1093.7048
 11
1295.0211999999999
 21
777.48250000000007
  0
LINE
  8
_0-1_2
  6
CONTINUOUS
 62
   18
 10
1301.7679891856101
 20
762.48952403213252
 11
1249.8814
 21
877.79379999999992
  0
LINE
  8
_0-1_2
  6
CONTINUOUS
 62
   18
 10
1335.2782
 20
971.05169999999998
 11
1401.3924614150997
 21
945.97381463568797
  0
LINE
  8
_0-1_2
  6
CONTINUOUS
 62
   18
 10
1405.2614058385541
 20
947.71483571664123
 11
1339.1472000000001
 21
972.79279999999994
  0
LINE
  8
_0-1_2
  6
CONTINUOUS
 62
   18
 10
1350.1165000000001
 20
998.81919999999991
 11
1377.4735000000001
 21
1011.1315999999999
  0
LINE
  8
_0-1_2
  6
CONTINUOUS
 62
   18
 10
1377.4735000000001
 20
1011.1315999999999
 11
1383.6297
 21
997.45309999999995
  0
LINE
  8
_0-1_2
  6
CONTINUOUS
 62
   18
 10
1377.4735000000001
 20
1011.1315999999999
 11
1356.2707522784563
 21
985.1450276549067
  0
LINE
  8
_0-1_2
  6
CONTINUOUS
 62
   18
 10
1356.2707522784563
 20
985.1450276549067
 11
1350.1165000000001
 21
998.81919999999991
  0
LINE
  8
_0-1_2
  6
CONTINUOUS
 62
   18
 10
1369.949583126371
 20
991.30049254181722
 11
1356.2707522784563
 21
985.1450276549067
  0
LINE
  8
_0-1_2
  6
CONTINUOUS
 62
   18
 10
1532.594904512888
 20
1059.8440982882132
 11
1598.7093
 21
1034.7662
  0
LINE
  8
_0-1_2
  6
CONTINUOUS
 62
   18
 10
1528.7260000000001
 20
1058.1031
 11
1594.8402999999998
 21
1033.0252
  0
LINE
  8
_0-1_2
  6
CONTINUOUS
 62
   18
 10
1211.2706000000001
 20
841.75240000000008
 11
1277.385
 21
816.67440000000011
  0
LINE
  8
_0-1_2
  6
CONTINUOUS
 62
   18
 10
1279.1259145278761
 20
812.80557035156289
 11
1213.0117
 21
837.88339999999994
  0
TEXT
  8
_0-0_1
 62
    7
 10
1668.4373000000001
 20
755.86900000000014
 40
20
 41
1
 50
0
  1
　野地板：ＡＬＣｔ＝５０
  0
TEXT
  8
_0-1_2
 62
    7
 10
1585.434676530366
 20
1286.6348925637062
 40
20
 41
1
 50
0
  1
桟　瓦
  0
TEXT
  8
_0-0_1
 62
    7
 10
1123.7370673798873
 20
1206.080358071308
 40
20
 41
1
 50
20.060507000000005
  1
235
  0
TEXT
  8
_0-0_1
 62
    7
 10
1313.5141785011856
 20
1323.7715897744388
 40
20
 41
1
 50
20.060506999999973
  1
235
  0
TEXT
  8
_0-0_1
 62
    7
 10
1519.4738339816649
 20
1439.9916810812806
 40
20
 41
1
 50
20.060507000000033
  1
235
  0
TEXT
  8
_0-2_3
 62
    7
 10
1129.6216289650438
 20
1113.3985131050922
 40
20
 41
1
 50
0
  1
万十軒瓦
  0
TEXT
  8
_0-0_1
 62
    7
 10
1787.2213861062878
 20
936.86166555039586
 40
20
 41
1
 50
24.227609000000012
  1
236
  0
TEXT
  8
_0-0_1
 62
    7
 10
1570.9637478517845
 20
841.2375397916021
 40
20
 41
1
 50
24.227609000000026
  1
236
  0
TEXT
  8
_0-0_1
 62
    7
 10
1366.4752327675947
 20
745.61341403280835
 40
20
 41
1
 50
24.227599999999981
  1
214
  0
TEXT
  8
_0-2_3
 62
    7
 10
958.96934299550389
 20
652.93156906659283
 40
20
 41
1
 50
0
  1
破風板：薄型ALCパネル　
  0
TEXT
  8
_0-1_2
 62
    7
 10
1266.4376858199334
 20
614.68191876307515
 40
20
 41
1
 50
24.227608999999983
  1
75
  0
TEXT
  8
_0-0_1
 62
    7
 10
1653.3476100439761
 20
820.64157424355415
 40
20
 41
1
 50
0
  1
瓦桟：１５ｘ３０以上
  0
TEXT
  8
_0-0_1
 62
    7
 10
1666.5878736105785
 20
757.38253720312127
 40
20
 41
1
 50
0
  1
下葺材：ルーフィング
  0
TEXT
  8
_0-0_1
 62
    7
 10
1676.8858563846024
 20
727.95972927733851
 40
20
 41
1
 50
0
  1
鋼製：C－100x50x20x2.3　
  0
TEXT
  8
_0-2_3
 62
    7
 10
997.21899329902146
 20
1044.254914479503
 40
20
 41
1
 50
0
  1
瓦　座：36x45
  0
ENDSEC
  0
EOF
