  0
SECTION
  2
HEADER
  9
$ACADVER
  1
AC1009
  9
$INSBASE
 10
0
 20
0
 30
0
  9
$EXTMIN
 10
0
 20
0
  9
$EXTMAX
 10
2970
 20
2100
  9
$LIMMIN
 10
0
 20
0
  9
$LIMMAX
 10
2970
 20
2100
  9
$LTSCALE
 40
10
  0
ENDSEC
  0
SECTION
  2
TABLES
  0
TABLE
  2
LTYPE
 70
     9
  0
LTYPE
  2
CONTINUOUS
 70
    64
  3
実線
 72
    65
 73
     0
 40
0.0
  0
LTYPE
  2
DASHED1
 70
    64
  3
--  --  --  --  --  --  --  --  
 72
    65
 73
     2
 40
2.5
 49
1.25
 49
-1.25
  0
LTYPE
  2
DASHED2
 70
    64
  3
----    ----    ----    ----    
 72
    65
 73
     2
 40
5.0
 49
2.5
 49
-2.5
  0
LTYPE
  2
DASHED3
 70
    64
  3
------  ------  ------  ------  
 72
    65
 73
     2
 40
5.0
 49
3.75
 49
-1.25
  0
LTYPE
  2
CENTER1
 70
    64
  3
----- - ----- - ----- - ----- - 
 72
    65
 73
     4
 40
10.0
 49
6.25
 49
-1.25
 49
1.25
 49
-1.25
  0
LTYPE
  2
CENTER2
 70
    64
  3
----------  --  ----------  --  
 72
    65
 73
     4
 40
20.0
 49
12.5
 49
-2.5
 49
2.5
 49
-2.5
  0
LTYPE
  2
PHANTOM1
 70
    64
  3
--- - - --- - - --- - - --- - - 
 72
    65
 73
     6
 40
10.0
 49
3.25
 49
-1.25
 49
1.25
 49
-1.25
 49
1.25
 49
-1.25
  0
LTYPE
  2
PHANTOM2
 70
    64
  3
--------  -  -  --------  -  -  
 72
    65
 73
     6
 40
20.0
 49
10.0
 49
-2.5
 49
1.25
 49
-2.5
 49
1.25
 49
-2.5
  0
LTYPE
  2
DOT
 70
    64
  3
-   -   -   -   -   -   -   -   
 72
    65
 73
     2
 40
2.5
 49
0.625
 49
-1.875
  0
LTYPE
  2
DUMMY
 70
    64
  3
ダミー
 72
    65
 73
     0
 40
0.0
  0
LTYPE
  2
RAND1
 70
    64
  3
ランダム線1
 72
    65
 73
     4
 40
10.0
 49
1.0
 49
-2.0
 49
3.0
 49
-4.0
  0
LTYPE
  2
RAND2
 70
    64
  3
ランダム線2
 72
    65
 73
     4
 40
14.0
 49
2.0
 49
-3.0
 49
4.0
 49
-5.0
  0
LTYPE
  2
RAND3
 70
    64
  3
ランダム線3
 72
    65
 73
     4
 40
18.0
 49
3.0
 49
-4.0
 49
5.0
 49
-6.0
  0
LTYPE
  2
RAND4
 70
    64
  3
ランダム線4
 72
    65
 73
     4
 40
22.0
 49
4.0
 49
-5.0
 49
6.0
 49
-7.0
  0
LTYPE
  2
RAND5
 70
    64
  3
ランダム線5
 72
    65
 73
     4
 40
26.0
 49
5.0
 49
-6.0
 49
7.0
 49
-8.0
  0
LTYPE
  2
LONG1
 70
    64
  3
----------  --  ----------  --  
 72
    65
 73
     4
 40
40.0
 49
32.5
 49
-2.5
 49
2.5
 49
-2.5
  0
LTYPE
  2
LONG2
 70
    64
  3
--------  -  -  --------  -  -  
 72
    65
 73
     6
 40
40.0
 49
30.0
 49
-2.5
 49
1.25
 49
-2.5
 49
1.25
 49
-2.5
  0
LTYPE
  2
LONG3
 70
    64
  3
+++++++++++++++..+++++++++++++++
 72
    65
 73
     2
 40
40.0
 49
37.5
 49
-2.5
  0
LTYPE
  2
LONG4
 70
    64
  3
+++++++++++++++..+++++++++++++++
 72
    65
 73
     2
 40
80.0
 49
75.0
 49
-5.0
  0
LTYPE
  2
LONG5
 70
    64
  3
----------  --  ----------  --  
 72
    65
 73
     4
 40
60.0
 49
37.5
 49
-7.5
 49
7.5
 49
-7.5
  0
LTYPE
  2
dashed
 70
   64
  3
-------   -------------   ------
 72
   65
 73
    2
 40
7.5
 49
6
 49
-1.5
  0
LTYPE
  2
dashed_spaced
 70
   64
  3
----        --------        ----
 72
   65
 73
    2
 40
12
 49
6
 49
-6
  0
LTYPE
  2
long_dashed_dotted
 70
   64
  3
------------- --- --------------
 72
   65
 73
    4
 40
15.25
 49
12
 49
-1.5
 49
0.25
 49
-1.5
  0
LTYPE
  2
long_dashed_double-dotted
 70
   64
  3
----------- --- --- ------------
 72
   65
 73
    6
 40
17
 49
12
 49
-1.5
 49
0.25
 49
-1.5
 49
0.25
 49
-1.5
  0
LTYPE
  2
long_dashed_triplicate-dotted
 70
   64
  3
--------- --- --- --- ----------
 72
   65
 73
    8
 40
18.75
 49
12
 49
-1.5
 49
0.25
 49
-1.5
 49
0.25
 49
-1.5
 49
0.25
 49
-1.5
  0
LTYPE
  2
dotted
 70
   64
  3
   -       -       -       -    
 72
   65
 73
    2
 40
1.75
 49
0.25
 49
-1.5
  0
LTYPE
  2
chain
 70
   64
  3
-------------- -- --------------
 72
   65
 73
    4
 40
18.5
 49
12
 49
-1.5
 49
3.5
 49
-1.5
  0
LTYPE
  2
chain_double_dash
 70
   64
  3
------------ -- -- -------------
 72
   65
 73
    6
 40
23.5
 49
12
 49
-1.5
 49
3.5
 49
-1.5
 49
3.5
 49
-1.5
  0
LTYPE
  2
dashed_dotted
 70
   64
  3
-----------     -     ----------
 72
   65
 73
    4
 40
9.25
 49
6
 49
-1.5
 49
0.25
 49
-1.5
  0
LTYPE
  2
double-dashed_dotted
 70
   64
  3
------   -----------   -   -----
 72
   65
 73
    6
 40
16.75
 49
6
 49
-1.5
 49
6
 49
-1.5
 49
0.25
 49
-1.5
  0
LTYPE
  2
dashed_double-dotted
 70
   64
  3
---------    -    -    ---------
 72
   65
 73
    6
 40
11
 49
6
 49
-1.5
 49
0.25
 49
-1.5
 49
0.25
 49
-1.5
  0
LTYPE
  2
double-dashed_double-dotted
 70
   64
  3
-----   ---------   -   -   ----
 72
   65
 73
    8
 40
18.5
 49
6
 49
-1.5
 49
6
 49
-1.5
 49
0.25
 49
-1.5
 49
0.25
 49
-1.5
  0
LTYPE
  2
dashed_triplicate-dotted
 70
   64
  3
-------    -    -    -    ------
 72
   65
 73
    8
 40
12.75
 49
6
 49
-1.5
 49
0.25
 49
-1.5
 49
0.25
 49
-1.5
 49
0.25
 49
-1.5
  0
LTYPE
  2
double-dashed_triplicate-dotted
 70
   64
  3
-----  ---------  -  -  -  -----
 72
   65
 73
   10
 40
20.25
 49
6
 49
-1.5
 49
6
 49
-1.5
 49
0.25
 49
-1.5
 49
0.25
 49
-1.5
 49
0.25
 49
-1.5
  0
LTYPE
  2
undefined
 70
   64
  3
--------------------------------
 72
   65
 73
    0
 40
0
  0
ENDTAB
  0
TABLE
  2
STYLE
  5
3
100
AcDbSymbolTable
 70
     1
  0
STYLE
  5
10
100
AcDbSymbolTableRecord
100
AcDbTextStyleTableRecord
  2
STANDARD
 70
     0
 40
0.0
 41
1.0
 50
0.0
 71
     0
 42
0.2
  3
txt
  4
bigfont.shx
  0
STYLE
  5
26
100
AcDbSymbolTableRecord
100
AcDbTextStyleTableRecord
  2
TATEGAKI
 70
    68
 40
0.0
 41
1.0
 50
0.0
 71
     0
 42
1.0
  3
txt
  4
bigfont.shx
  0
ENDTAB
  0
TABLE
  2
LAYER
 70
    4
  0
LAYER
  2
_0-0_1
 70
   64
 62
    7
  6
CONTINUOUS
  0
LAYER
  2
_0-1_2
 70
   64
 62
    7
  6
CONTINUOUS
  0
LAYER
  2
_0-2_3
 70
   64
 62
    7
  6
CONTINUOUS
  0
LAYER
  2
ADD_LINE
 70
   64
 62
    7
  6
CONTINUOUS
  0
ENDTAB
  0
ENDSEC
  0
SECTION
  2
BLOCKS
  0
ENDSEC
  0
SECTION
  2
ENTITIES
  0
LINE
  8
_0-0_1
  6
CONTINUOUS
 62
    3
 10
1245.5144
 20
765.7650000000001
 11
1254.5423000000001
 21
763.44170000000008
  0
LINE
  8
_0-0_1
  6
CONTINUOUS
 62
    3
 10
1246.402
 20
760.61490000000003
 11
1245.5144
 21
765.7650000000001
  0
LINE
  8
_0-0_1
  6
CONTINUOUS
 62
    3
 10
1254.5423000000001
 20
763.44170000000008
 11
1253.9864
 21
768.31189999999992
  0
LINE
  8
_0-0_1
  6
CONTINUOUS
 62
    3
 10
1224.7460000000001
 20
738.6377
 11
1246.402
 21
760.61490000000003
  0
LINE
  8
_0-0_1
  6
CONTINUOUS
 62
    3
 10
1253.9864
 20
768.31189999999992
 11
1278.4490000000001
 21
793.1373000000001
  0
LINE
  8
_0-1_2
  6
CONTINUOUS
 62
    3
 10
1172.4997000000001
 20
879.33140000000003
 11
1162.2406000000001
 21
902.12940000000003
  0
LINE
  8
_0-0_1
  6
CONTINUOUS
 62
    3
 10
1234.8493000000001
 20
934.80320000000006
 11
1225.729
 21
930.69920000000002
  0
LINE
  8
_0-0_1
  6
CONTINUOUS
 62
    3
 10
1236.0791999999999
 20
932.06670000000008
 11
1226.9608000000001
 21
927.96399999999994
  0
LINE
  8
_0-0_1
  6
CONTINUOUS
 62
    3
 10
1225.729
 20
930.69920000000002
 11
1226.9608000000001
 21
927.96399999999994
  0
LINE
  8
_0-0_1
  6
CONTINUOUS
 62
    3
 10
1234.8493000000001
 20
934.80320000000006
 11
1236.0791999999999
 21
932.06670000000008
  0
LINE
  8
_0-0_1
  6
CONTINUOUS
 62
    3
 10
1230.2891999999999
 20
932.75119999999993
 11
1231.52
 21
930.01479999999992
  0
LINE
  8
_0-0_1
  6
CONTINUOUS
 62
    3
 10
1248.6911
 20
891.85899999999992
 11
1244.5688
 21
896.14519999999993
  0
LINE
  8
_0-0_1
  6
CONTINUOUS
 62
    3
 10
1248.6911
 20
891.85899999999992
 11
1248.2166
 21
897.78600000000006
  0
LINE
  8
_0-0_1
  6
CONTINUOUS
 62
    3
 10
1235.1113
 20
914.14789999999994
 11
1240.7389000000001
 21
917.83940000000007
  0
LINE
  8
_0-0_1
  6
CONTINUOUS
 62
    3
 10
1237.1631
 20
909.58760000000007
 11
1242.7919999999999
 21
913.2793999999999
  0
LINE
  8
_0-0_1
  6
CONTINUOUS
 62
    3
 10
1239.2158999999999
 20
905.02849999999989
 11
1244.8427999999999
 21
908.71910000000003
  0
LINE
  8
_0-0_1
  6
CONTINUOUS
 62
    3
 10
1241.2669000000001
 20
900.46820000000002
 11
1246.8947000000001
 21
904.16000000000008
  0
LINE
  8
_0-0_1
  6
CONTINUOUS
 62
    3
 10
1242.8028999999999
 20
897.05619999999999
 11
1248.4303
 21
900.74790000000007
  0
LINE
  8
_0-0_1
  6
CONTINUOUS
 62
    3
 10
1234.575
 20
928.10239999999999
 11
1248.2166
 21
897.78600000000006
  0
LINE
  8
_0-0_1
  6
CONTINUOUS
 62
    3
 10
1236.0791999999999
 20
932.06670000000008
 11
1234.575
 21
928.10239999999999
  0
LINE
  8
_0-0_1
  6
CONTINUOUS
 62
    3
 10
1230.9284
 20
926.45849999999996
 11
1244.5688
 21
896.14519999999993
  0
LINE
  8
_0-0_1
  6
CONTINUOUS
 62
    3
 10
1226.9608000000001
 20
927.96399999999994
 11
1230.9284
 21
926.45849999999996
  0
LINE
  8
_0-1_2
  6
CONTINUOUS
 62
    3
 10
1162.2406000000001
 20
902.12940000000003
 11
1917.4960999999998
 21
1241.9936
  0
LINE
  8
_0-2_3
  6
CONTINUOUS
 62
    3
 10
1205.8599999999999
 20
1008.4773
 11
1207.8012000000001
 21
1001.2329
  0
LINE
  8
_0-2_3
  6
CONTINUOUS
 62
    3
 10
1207.8012000000001
 20
1001.2329
 11
1202.4979000000001
 21
1006.5362
  0
LINE
  8
_0-2_3
  6
CONTINUOUS
 62
    3
 10
1207.8012000000001
 20
1001.2329
 11
1159.4168
 21
1085.0371
  0
LINE
  8
_0-2_3
  6
CONTINUOUS
 62
    3
 10
1159.4168
 20
1085.0371
 11
1094.9168
 21
1085.0371
  0
LINE
  8
_0-1_2
  6
CONTINUOUS
 62
    3
 10
1202.3587
 20
630.22260000000006
 11
1180.8145999999999
 21
678.09860000000003
  0
CIRCLE
  8
_0-1_2
  6
CONTINUOUS
 62
    3
 10
1201.3327999999999
 20
632.50240000000008
 40
1.6999999999999997
  0
LINE
  8
_0-1_2
  6
CONTINUOUS
 62
    3
 10
1201.3327999999999
 20
632.50240000000008
 11
1269.7230999999999
 21
663.27790000000005
  0
CIRCLE
  8
_0-1_2
  6
CONTINUOUS
 62
    3
 10
1269.7230999999999
 20
663.27790000000005
 40
1.6999999999999997
  0
LINE
  8
_0-1_2
  6
CONTINUOUS
 62
    3
 10
1270.7491
 20
660.99810000000002
 11
1249.2049999999999
 21
708.87400000000002
  0
LINE
  8
_0-0_1
  6
DASHED3
 62
    3
 10
1165.9992999999999
 20
905.94039999999995
 11
1917.4076
 21
1244.0736999999999
  0
LINE
  8
_0-0_1
  6
CONTINUOUS
 62
    3
 10
1269.8018
 20
901.18560000000002
 11
1271.8993
 21
902.12930000000006
  0
LINE
  8
_0-0_1
  6
CONTINUOUS
 62
    3
 10
1294.4235000000001
 20
846.4701
 11
1296.521
 21
847.41390000000001
  0
LINE
  8
_0-0_1
  6
CONTINUOUS
 62
    3
 10
1222.9609
 20
899.51690000000008
 11
1260.7146
 21
916.50579999999991
  0
LINE
  8
_0-0_1
  6
CONTINUOUS
 62
    3
 10
1269.8018
 20
901.18560000000002
 11
1263.3592000000001
 21
915.5027
  0
LINE
  8
_0-0_1
  6
CONTINUOUS
 62
    3
 10
1300.8661000000002
 20
832.15300000000002
 11
1294.4235000000001
 21
846.4701
  0
LINE
  8
_0-0_1
  6
CONTINUOUS
 62
    3
 10
1262.1094000000001
 20
812.51929999999993
 11
1299.8629000000001
 21
829.50819999999999
  0
LINE
  8
_0-0_1
  6
CONTINUOUS
 62
    3
 10
1271.8993
 20
902.12930000000006
 11
1265.4566
 21
916.44640000000004
  0
LINE
  8
_0-0_1
  6
CONTINUOUS
 62
    3
 10
1222.0170000000001
 20
901.61419999999998
 11
1259.7707
 21
918.60310000000004
  0
LINE
  8
_0-0_1
  6
CONTINUOUS
 62
    3
 10
1302.9637
 20
833.09670000000006
 11
1296.521
 21
847.41390000000001
  0
LINE
  8
_0-0_1
  6
CONTINUOUS
 62
    3
 10
1263.0534
 20
810.42190000000005
 11
1300.8068000000001
 21
827.41090000000008
  0
LINE
  8
_0-0_1
  6
CONTINUOUS
 62
    3
 10
1259.4648999999999
 20
813.52250000000004
 11
1221.9577999999999
 21
896.87239999999997
  0
LINE
  8
_0-0_1
  6
CONTINUOUS
 62
    3
 10
1219.8606
 20
895.92840000000001
 11
1257.3676
 21
812.57860000000005
  0
LINE
  8
_0-0_1
  6
CONTINUOUS
 62
    3
 10
1265.4566
 20
916.44650000000001
 11
1302.9638
 21
833.09680000000003
  0
LINE
  8
_0-0_1
  6
CONTINUOUS
 62
    3
 10
1269.5601999999999
 20
918.29310000000009
 11
1307.0675000000001
 21
834.94340000000011
  0
LINE
  8
_0-0_1
  6
CONTINUOUS
 62
    3
 10
1265.4566
 20
916.44640000000004
 11
1269.5601999999999
 21
918.29310000000009
  0
LINE
  8
_0-0_1
  6
CONTINUOUS
 62
    3
 10
1307.0675000000001
 20
834.94340000000011
 11
1302.9635000000003
 21
833.09660000000008
  0
LINE
  8
_0-0_1
  6
CONTINUOUS
 62
    3
 10
1312.9356000000002
 20
821.90300000000002
 11
1276.0038999999999
 21
903.97689999999989
  0
LINE
  8
_0-0_1
  6
CONTINUOUS
 62
    3
 10
1284.4389000000001
 20
902.28950000000009
 11
1312.3425999999999
 21
840.2786000000001
  0
LINE
  8
_0-0_1
  6
CONTINUOUS
 62
    3
 10
1277.8271
 20
904.79809999999998
 11
1276.0038999999999
 21
903.97689999999989
  0
LINE
  8
_0-0_1
  6
CONTINUOUS
 62
    3
 10
1387.5772999999999
 20
863.16740000000004
 11
1325.5657000000001
 21
835.26289999999995
  0
LINE
  8
_0-0_1
  6
CONTINUOUS
 62
    3
 10
1284.2098000000001
 20
874.77209999999991
 11
1281.4738
 21
873.54050000000007
  0
LINE
  8
_0-0_1
  6
CONTINUOUS
 62
    3
 10
1277.6442999999999
 20
889.36239999999998
 11
1274.9085
 21
888.13090000000011
  0
LINE
  8
_0-0_1
  6
CONTINUOUS
 62
    3
 10
1288.0385000000001
 20
858.95119999999997
 11
1274.9085
 21
888.13090000000011
  0
LINE
  8
_0-0_1
  6
CONTINUOUS
 62
    3
 10
1290.7753
 20
860.18200000000002
 11
1288.0385000000001
 21
858.95119999999997
  0
LINE
  8
_0-0_1
  6
CONTINUOUS
 62
    3
 10
1276.174
 20
863.56060000000002
 11
1284.3150000000001
 21
867.22450000000003
  0
LINE
  8
_0-0_1
  6
CONTINUOUS
 62
    3
 10
1270.4889000000001
 20
876.19550000000004
 11
1278.6297
 21
879.85809999999992
  0
LINE
  8
_0-0_1
  6
CONTINUOUS
 62
    3
 10
1267.6448
 20
882.51299999999992
 11
1275.7872
 21
886.17699999999991
  0
LINE
  8
_0-0_1
  6
CONTINUOUS
 62
    3
 10
1267.4293
 20
880.38249999999994
 11
1267.6448
 21
882.51299999999992
  0
LINE
  8
_0-0_1
  6
CONTINUOUS
 62
    3
 10
1277.2777000000001
 20
858.49559999999997
 11
1267.4293
 21
880.38249999999994
  0
LINE
  8
_0-0_1
  6
CONTINUOUS
 62
    3
 10
1279.0174999999999
 20
857.24229999999989
 11
1287.1588999999999
 21
860.90570000000002
  0
LINE
  8
_0-0_1
  6
CONTINUOUS
 62
    3
 10
1277.2777000000001
 20
858.49559999999997
 11
1279.0174999999999
 21
857.24229999999989
  0
LINE
  8
_0-0_1
  6
CONTINUOUS
 62
    3
 10
1260.4093
 20
872.83439999999996
 11
1269.5482999999999
 21
859.40219999999999
  0
LINE
  8
_0-0_1
  6
CONTINUOUS
 62
    3
 10
1265.9658999999999
 20
875.33449999999993
 11
1275.1038000000001
 21
861.90149999999994
  0
LINE
  8
_0-0_1
  6
CONTINUOUS
 62
    3
 10
1299.9972
 20
889.47260000000006
 11
1291.8562999999999
 21
885.80880000000002
  0
LINE
  8
_0-0_1
  6
CONTINUOUS
 62
    3
 10
1305.6826000000001
 20
876.83770000000004
 11
1297.5409
 21
873.17440000000011
  0
LINE
  8
_0-0_1
  6
CONTINUOUS
 62
    3
 10
1308.5264000000002
 20
870.52019999999993
 11
1300.3843999999999
 21
866.85629999999992
  0
LINE
  8
_0-0_1
  6
CONTINUOUS
 62
    3
 10
1308.7420999999999
 20
872.65059999999994
 11
1308.5264000000002
 21
870.52019999999993
  0
LINE
  8
_0-0_1
  6
CONTINUOUS
 62
    3
 10
1298.8934999999997
 20
894.53770000000009
 11
1308.7420999999999
 21
872.65059999999994
  0
LINE
  8
_0-0_1
  6
CONTINUOUS
 62
    3
 10
1297.1541
 20
895.79079999999999
 11
1289.0125
 21
892.1277
  0
LINE
  8
_0-0_1
  6
CONTINUOUS
 62
    3
 10
1298.8934999999997
 20
894.53770000000009
 11
1297.1541
 21
895.79079999999999
  0
LINE
  8
_0-0_1
  6
CONTINUOUS
 62
    3
 10
1394.1881000000001
 20
860.65940000000001
 11
1395.0088000000001
 21
858.83539999999994
  0
LINE
  8
_0-0_1
  6
CONTINUOUS
 62
    3
 10
1395.0088000000001
 20
858.83539999999994
 11
1312.9358
 21
821.90259999999989
  0
LINE
  8
_0-0_1
  6
CONTINUOUS
 62
    3
 10
1269.0719999999999
 20
876.7319
 11
1260.4093
 21
872.83439999999996
  0
LINE
  8
_0-0_1
  6
CONTINUOUS
 62
    3
 10
1260.4093
 20
872.83439999999996
 11
1259.4060999999999
 21
870.1898000000001
  0
LINE
  8
_0-0_1
  6
CONTINUOUS
 62
    3
 10
1275.6368
 20
862.1422
 11
1266.9749999999999
 21
858.24420000000009
  0
LINE
  8
_0-0_1
  6
CONTINUOUS
 62
    3
 10
1260.4093
 20
872.83439999999996
 11
1266.9749999999999
 21
858.24420000000009
  0
LINE
  8
_0-0_1
  6
CONTINUOUS
 62
    3
 10
1264.3296
 20
859.24700000000007
 11
1266.9749999999999
 21
858.24420000000009
  0
LINE
  8
_0-0_1
  6
CONTINUOUS
 62
    3
 10
1259.4060999999999
 20
870.1898000000001
 11
1264.3296
 21
859.24700000000007
  0
LINE
  8
_0-0_1
  6
CONTINUOUS
 62
    3
 10
1190.9657
 20
838.2953
 11
1195.0699
 21
829.17509999999993
  0
LINE
  8
_0-0_1
  6
CONTINUOUS
 62
    3
 10
1193.7021999999999
 20
839.52530000000002
 11
1197.8050000000001
 21
830.40689999999995
  0
LINE
  8
_0-0_1
  6
CONTINUOUS
 62
    3
 10
1195.0699
 20
829.17509999999993
 11
1197.8050000000001
 21
830.40689999999995
  0
LINE
  8
_0-0_1
  6
CONTINUOUS
 62
    3
 10
1190.9657
 20
838.2953
 11
1193.7021999999999
 21
839.52530000000002
  0
LINE
  8
_0-0_1
  6
CONTINUOUS
 62
    3
 10
1193.0177000000001
 20
833.73530000000005
 11
1195.7542000000001
 21
834.96620000000007
  0
LINE
  8
_0-0_1
  6
CONTINUOUS
 62
    3
 10
1252.2920999999999
 20
860.4097999999999
 11
1248.0060000000001
 21
856.28749999999991
  0
LINE
  8
_0-0_1
  6
CONTINUOUS
 62
    3
 10
1252.2920999999999
 20
860.4097999999999
 11
1246.3651
 21
859.9351999999999
  0
LINE
  8
_0-0_1
  6
CONTINUOUS
 62
    3
 10
1211.7655999999999
 20
838.62159999999994
 11
1208.0740000000001
 21
844.24939999999992
  0
LINE
  8
_0-0_1
  6
CONTINUOUS
 62
    3
 10
1216.3248000000001
 20
840.67370000000005
 11
1212.6342
 21
846.30250000000001
  0
LINE
  8
_0-0_1
  6
CONTINUOUS
 62
    3
 10
1220.8851
 20
842.72669999999994
 11
1217.1932999999999
 21
848.35410000000002
  0
LINE
  8
_0-0_1
  6
CONTINUOUS
 62
    3
 10
1225.4452000000001
 20
844.77759999999989
 11
1221.7525000000001
 21
850.40519999999992
  0
LINE
  8
_0-0_1
  6
CONTINUOUS
 62
    3
 10
1230.0034000000001
 20
846.8297
 11
1226.3117999999999
 21
852.45720000000006
  0
LINE
  8
_0-0_1
  6
CONTINUOUS
 62
    3
 10
1234.5636999999999
 20
848.88159999999993
 11
1230.8716999999999
 21
854.51029999999992
  0
LINE
  8
_0-0_1
  6
CONTINUOUS
 62
    3
 10
1239.1226999999999
 20
850.9344000000001
 11
1235.4321
 21
856.56130000000007
  0
LINE
  8
_0-0_1
  6
CONTINUOUS
 62
    3
 10
1243.683
 20
852.98559999999998
 11
1239.9911
 21
858.61320000000001
  0
LINE
  8
_0-0_1
  6
CONTINUOUS
 62
    3
 10
1247.0949000000001
 20
854.52160000000003
 11
1243.4032999999999
 21
860.14889999999991
  0
LINE
  8
_0-0_1
  6
CONTINUOUS
 62
    3
 10
1197.6665
 20
838.02109999999993
 11
1246.3651
 21
859.9351999999999
  0
LINE
  8
_0-0_1
  6
CONTINUOUS
 62
    3
 10
1193.7021999999999
 20
839.52530000000002
 11
1197.6665
 21
838.02109999999993
  0
LINE
  8
_0-0_1
  6
CONTINUOUS
 62
    3
 10
1199.3104000000001
 20
834.37439999999992
 11
1248.0060000000001
 21
856.28749999999991
  0
LINE
  8
_0-0_1
  6
CONTINUOUS
 62
    3
 10
1197.8050000000001
 20
830.40689999999995
 11
1199.3104000000001
 21
834.37439999999992
  0
LINE
  8
_0-0_1
  6
CONTINUOUS
 62
    3
 10
1263.2357
 20
799.53809999999999
 11
1972.8951999999999
 21
1118.8842
  0
LINE
  8
_0-0_1
  6
CONTINUOUS
 62
    3
 10
1218.0958000000001
 20
899.84950000000003
 11
1269.9824000000001
 21
784.54520000000002
  0
LINE
  8
_0-0_1
  6
CONTINUOUS
 62
    3
 10
1172.4997000000001
 20
879.33130000000006
 11
1232.3424
 21
746.34680000000003
  0
LINE
  8
_0-0_1
  6
CONTINUOUS
 62
    3
 10
1245.5995
 20
838.73009999999999
 11
1179.4851000000001
 21
863.80799999999999
  0
LINE
  8
_0-0_1
  6
CONTINUOUS
 62
    3
 10
1247.3406
 20
834.86110000000008
 11
1181.2262000000001
 21
859.93900000000008
  0
LINE
  8
_0-0_1
  6
CONTINUOUS
 62
    3
 10
1172.4997000000001
 20
879.33140000000003
 11
1927.7552000000001
 21
1219.1956
  0
ARC
  8
_0-0_1
  6
CONTINUOUS
 62
    3
 10
1261.5353
 20
914.68190000000004
 40
2.000003
 50
24.227606000000002
 51
114.22759000000003
  0
ARC
  8
_0-0_1
  6
CONTINUOUS
 62
    3
 10
1299.0422000000001
 20
831.33210000000008
 40
2.000003
 50
294.2276
 51
24.227605999999994
  0
ARC
  8
_0-0_1
  6
CONTINUOUS
 62
    3
 10
1299.0422000000001
 20
831.33210000000008
 40
4.2999999999999998
 50
294.2276
 51
24.227605999999994
  0
ARC
  8
_0-0_1
  6
CONTINUOUS
 62
    3
 10
1261.5353
 20
914.68190000000004
 40
4.2999999999999998
 50
24.227606000000002
 51
114.22759000000003
  0
ARC
  8
_0-0_1
  6
CONTINUOUS
 62
    3
 10
1223.7819
 20
897.69299999999998
 40
2.000003
 50
114.22759000000001
 51
204.2276
  0
ARC
  8
_0-0_1
  6
CONTINUOUS
 62
    3
 10
1261.2888
 20
814.34320000000002
 40
2.000003
 50
204.22760000000002
 51
294.22760000000005
  0
ARC
  8
_0-0_1
  6
CONTINUOUS
 62
    3
 10
1261.2888
 20
814.34320000000002
 40
4.2999999999999998
 50
204.22760000000002
 51
294.22760000000005
  0
ARC
  8
_0-0_1
  6
CONTINUOUS
 62
    3
 10
1223.7819
 20
897.69299999999998
 40
4.2999999999999998
 50
114.22759000000001
 51
204.2276
  0
ARC
  8
_0-0_1
  6
CONTINUOUS
 62
    3
 10
1321.4627
 20
844.38439999999991
 40
10.001999
 50
204.23162000000002
 51
294.21884999999997
  0
ARC
  8
_0-0_1
  6
CONTINUOUS
 62
    3
 10
1279.8801000000001
 20
900.23890000000006
 40
4.9989999999999997
 50
24.224675999999999
 51
114.23530999999998
  0
ARC
  8
_0-0_1
  6
CONTINUOUS
 62
    3
 10
1389.6296000000002
 20
858.6087
 40
4.9989999999999997
 50
24.224675999999999
 51
114.23530999999998
  0
ARC
  8
_0-0_1
  6
CONTINUOUS
 62
    3
 10
1273.6926000000001
 20
881.44460000000004
 40
6.1470010000000013
 50
204.58582999999999
 51
238.59309999999999
  0
ARC
  8
_0-0_1
  6
CONTINUOUS
 62
    3
 10
1282.2381
 20
862.48060000000009
 40
6.1580000000000004
 50
169.89975999999999
 51
203.85441
  0
ARC
  8
_0-0_1
  6
CONTINUOUS
 62
    3
 10
1293.2352000000001
 20
878.83580000000006
 40
22.898997999999999
 50
186.62326999999999
 51
221.83878999999999
  0
ARC
  8
_0-0_1
  6
CONTINUOUS
 62
    3
 10
1302.4761000000001
 20
871.58969999999999
 40
6.1479999999999997
 50
24.562656
 51
58.577396
  0
ARC
  8
_0-0_1
  6
CONTINUOUS
 62
    3
 10
1293.9438999999998
 20
890.55210000000011
 40
6.1479999999999997
 50
349.89938000000006
 51
23.901646000000021
  0
ARC
  8
_0-0_1
  6
CONTINUOUS
 62
    3
 10
1282.8996000000002
 20
874.18239999999992
 40
22.936000999999997
 50
6.6513660000000003
 51
41.808135999999998
  0
LINE
  8
_0-0_1
  6
CONTINUOUS
 62
    2
 10
1170.4478999999999
 20
883.89100000000008
 11
1925.7033000000001
 21
1223.7552000000001
  0
LINE
  8
_0-0_1
  6
CONTINUOUS
 62
    2
 10
1168.3960999999999
 20
888.45059999999989
 11
1923.6514999999999
 21
1228.3148000000001
  0
LINE
  8
_0-0_1
  6
CONTINUOUS
 62
    2
 10
1166.3442
 20
893.01019999999994
 11
1921.5997000000002
 21
1232.8743999999999
  0
LINE
  8
_0-0_1
  6
CONTINUOUS
 62
    2
 10
1164.2924
 20
897.56979999999999
 11
1919.5479
 21
1237.434
  0
LINE
  8
_0-1_2
  6
CONTINUOUS
 62
    3
 10
1184.4785999999999
 20
914.53410000000008
 11
1171.9893
 21
942.28819999999996
  0
LINE
  8
_0-1_2
  6
CONTINUOUS
 62
    3
 10
1171.9893
 20
942.28819999999996
 11
1214.4100000000001
 21
957.67859999999996
  0
LINE
  8
_0-0_1
  6
CONTINUOUS
 62
    3
 10
1225.5151000000001
 20
933.0005000000001
 11
1214.4100000000001
 21
957.67859999999996
  0
LINE
  8
_0-0_1
  6
CONTINUOUS
 62
    3
 10
1214.4100000000001
 20
957.67859999999996
 11
1184.4785999999999
 21
914.53410000000008
  0
LINE
  8
_0-0_1
  6
CONTINUOUS
 62
    3
 10
1171.9893
 20
942.28819999999996
 11
1225.5151000000001
 21
933.0005000000001
  0
LINE
  8
_0-2_3
  6
CONTINUOUS
 62
    3
 10
1185.4997000000001
 20
946.2496000000001
 11
1187.4408000000001
 21
939.00520000000006
  0
LINE
  8
_0-2_3
  6
CONTINUOUS
 62
    3
 10
1187.4408000000001
 20
939.00520000000006
 11
1182.1375
 21
944.30850000000009
  0
LINE
  8
_0-2_3
  6
CONTINUOUS
 62
    3
 10
1187.4408000000001
 20
939.00520000000006
 11
1127.4650999999999
 21
1042.8860999999999
  0
LINE
  8
_0-2_3
  6
CONTINUOUS
 62
    3
 10
1127.4650999999999
 20
1042.8860999999999
 11
987.96509999999989
 21
1042.8860999999999
  0
LINE
  8
_0-1_2
  6
CONTINUOUS
 62
    3
 10
1658.1439999999998
 20
1174.1660999999999
 11
1660.0852
 21
1166.9215999999999
  0
LINE
  8
_0-1_2
  6
CONTINUOUS
 62
    3
 10
1660.0852
 20
1166.9215999999999
 11
1654.7819
 21
1172.2248999999999
  0
LINE
  8
_0-1_2
  6
CONTINUOUS
 62
    3
 10
1660.0852
 20
1166.9215999999999
 11
1595.4969000000001
 21
1278.7918
  0
LINE
  8
_0-1_2
  6
CONTINUOUS
 62
    3
 10
1595.4969000000001
 20
1278.7918
 11
1554.9969000000001
 21
1278.7918
  0
LINE
  8
_0-0_1
  6
CONTINUOUS
 62
    3
 10
990.7947999999999
 20
1152.8071
 11
1008.8030000000001
 21
1103.4922999999999
  0
CIRCLE
  8
_0-0_1
  6
CONTINUOUS
 62
    3
 10
991.65239999999994
 20
1150.4588000000001
 40
1.6999999999999997
  0
LINE
  8
_0-0_1
  6
CONTINUOUS
 62
    3
 10
991.65239999999994
 20
1150.4588000000001
 11
1212.3951
 21
1231.0667000000001
  0
CIRCLE
  8
_0-0_1
  6
CONTINUOUS
 62
    3
 10
1212.3951
 20
1231.0667000000001
 40
1.6999999999999997
  0
LINE
  8
_0-0_1
  6
CONTINUOUS
 62
    3
 10
1211.5376000000001
 20
1233.415
 11
1229.5456999999999
 21
1184.1001000000001
  0
LINE
  8
_0-0_1
  6
CONTINUOUS
 62
    3
 10
1197.8171
 20
1270.9883
 11
1215.8253
 21
1221.6733999999999
  0
CIRCLE
  8
_0-0_1
  6
CONTINUOUS
 62
    3
 10
1198.6746000000001
 20
1268.6398999999999
 40
1.6999999999999997
  0
LINE
  8
_0-0_1
  6
CONTINUOUS
 62
    3
 10
1198.6746000000001
 20
1268.6398999999999
 11
1419.4174
 21
1349.2478000000001
  0
CIRCLE
  8
_0-0_1
  6
CONTINUOUS
 62
    3
 10
1419.4174
 20
1349.2478000000001
 40
1.6999999999999997
  0
LINE
  8
_0-0_1
  6
CONTINUOUS
 62
    3
 10
1418.5599
 20
1351.5960999999998
 11
1436.5680000000002
 21
1302.2813000000001
  0
LINE
  8
_0-0_1
  6
CONTINUOUS
 62
    3
 10
1404.8394000000003
 20
1389.1694000000002
 11
1422.8475000000001
 21
1339.8544999999999
  0
CIRCLE
  8
_0-0_1
  6
CONTINUOUS
 62
    3
 10
1405.6968999999999
 20
1386.8210999999999
 40
1.6999999999999997
  0
LINE
  8
_0-0_1
  6
CONTINUOUS
 62
    3
 10
1405.6968999999999
 20
1386.8210999999999
 11
1626.4396999999999
 21
1467.4290000000001
  0
CIRCLE
  8
_0-0_1
  6
CONTINUOUS
 62
    3
 10
1626.4396999999999
 20
1467.4290000000001
 40
1.6999999999999997
  0
LINE
  8
_0-0_1
  6
CONTINUOUS
 62
    3
 10
1625.5821000000001
 20
1469.7773000000002
 11
1643.5902999999998
 21
1420.4623999999999
  0
LINE
  8
_0-0_1
  6
CONTINUOUS
 62
    3
 10
1334.9636
 20
983.96100000000001
 11
1362.3206
 21
996.27330000000006
  0
LINE
  8
_0-0_1
  6
CONTINUOUS
 62
    3
 10
1362.3206
 20
996.27330000000006
 11
1356.1643999999999
 21
1009.9518
  0
LINE
  8
_0-0_1
  6
CONTINUOUS
 62
    3
 10
1356.1643999999999
 20
1009.9518
 11
1328.8074000000001
 21
997.6395
  0
LINE
  8
_0-0_1
  6
CONTINUOUS
 62
    3
 10
1328.8074000000001
 20
997.6395
 11
1334.9636
 21
983.96100000000001
  0
LINE
  8
_0-0_1
  6
CONTINUOUS
 62
    3
 10
1356.1643999999999
 20
1009.9518
 11
1334.9636
 21
983.96100000000001
  0
LINE
  8
_0-0_1
  6
CONTINUOUS
 62
    5
 10
1370.7536
 20
1002.3332
 11
1360.4083000000001
 21
1030.6635000000001
  0
LINE
  8
_0-0_1
  6
CONTINUOUS
 62
    3
 10
1550.172
 20
1080.8182999999999
 11
1577.529
 21
1093.1306999999999
  0
LINE
  8
_0-0_1
  6
CONTINUOUS
 62
    3
 10
1577.529
 20
1093.1306999999999
 11
1571.3728000000001
 21
1106.8091999999999
  0
LINE
  8
_0-0_1
  6
CONTINUOUS
 62
    3
 10
1571.3728000000001
 20
1106.8091999999999
 11
1544.0158000000001
 21
1094.4967999999999
  0
LINE
  8
_0-0_1
  6
CONTINUOUS
 62
    3
 10
1544.0158000000001
 20
1094.4967999999999
 11
1550.172
 21
1080.8182999999999
  0
LINE
  8
_0-0_1
  6
CONTINUOUS
 62
    3
 10
1571.3728000000001
 20
1106.8091999999999
 11
1550.172
 21
1080.8182999999999
  0
LINE
  8
_0-0_1
  6
CONTINUOUS
 62
    5
 10
1585.6001000000001
 20
1099.0878
 11
1575.2548999999999
 21
1127.4181000000001
  0
LINE
  8
_0-0_1
  6
CONTINUOUS
 62
    3
 10
1765.3804
 20
1177.6757
 11
1792.7374
 21
1189.9881
  0
LINE
  8
_0-0_1
  6
CONTINUOUS
 62
    3
 10
1792.7374
 20
1189.9881
 11
1786.5812000000001
 21
1203.6666
  0
LINE
  8
_0-0_1
  6
CONTINUOUS
 62
    3
 10
1786.5812000000001
 20
1203.6666
 11
1759.2242000000001
 21
1191.3542
  0
LINE
  8
_0-0_1
  6
CONTINUOUS
 62
    3
 10
1759.2242000000001
 20
1191.3542
 11
1765.3804
 21
1177.6757
  0
LINE
  8
_0-0_1
  6
CONTINUOUS
 62
    3
 10
1786.5812000000001
 20
1203.6666
 11
1765.3804
 21
1177.6757
  0
LINE
  8
_0-0_1
  6
CONTINUOUS
 62
    5
 10
1800.4467
 20
1195.8423
 11
1790.1014
 21
1224.1726000000001
  0
LINE
  8
_0-0_1
  6
CONTINUOUS
 62
    5
 10
1800.4467
 20
1195.8423
 11
1792.2941000000001
 21
1192.8846000000001
  0
LINE
  8
_0-0_1
  6
CONTINUOUS
 62
    5
 10
1788.0378000000001
 20
1204.6162999999999
 11
1792.2941000000001
 21
1192.8846000000001
  0
LINE
  8
_0-0_1
  6
CONTINUOUS
 62
    5
 10
1585.6001000000001
 20
1099.0878
 11
1577.0949000000001
 21
1096.002
  0
LINE
  8
_0-0_1
  6
CONTINUOUS
 62
    5
 10
1572.8386
 20
1107.7338
 11
1577.0949000000001
 21
1096.002
  0
LINE
  8
_0-0_1
  6
CONTINUOUS
 62
    5
 10
1117.2655
 20
923.64300000000003
 11
1357.6393000000003
 21
1010.8513
  0
LINE
  8
_0-0_1
  6
CONTINUOUS
 62
    5
 10
1370.7536
 20
1002.3332
 11
1361.8956000000001
 21
999.11950000000002
  0
LINE
  8
_0-0_1
  6
CONTINUOUS
 62
    5
 10
1357.6393000000003
 20
1010.8513
 11
1361.8956000000001
 21
999.11950000000002
  0
ARC
  8
_0-0_1
  6
CONTINUOUS
 62
    5
 10
1516.7451999999998
 20
1113.9349
 40
10.4
 50
109.94091000000002
 51
199.94091
  0
ARC
  8
_0-0_1
  6
CONTINUOUS
 62
    5
 10
1731.5918000000001
 20
1210.6895
 40
10.4
 50
109.94091000000002
 51
199.94091
  0
ARC
  8
_0-0_1
  6
CONTINUOUS
 62
    5
 10
1301.8986999999997
 20
1017.1803
 40
10.4
 50
109.94091000000002
 51
199.94091
  0
ARC
  8
_0-0_1
  6
CONTINUOUS
 62
    5
 10
1051.1677999999999
 20
1087.9467
 40
108.38132
 50
268.69240000000002
 51
288.42793999999998
  0
LINE
  8
_0-0_1
  6
CONTINUOUS
 62
    5
 10
1104.1510000000001
 20
899.16419999999994
 11
1109.6451
 21
876.625
  0
ARC
  8
_0-0_1
  6
CONTINUOUS
 62
    5
 10
1124.3593000000001
 20
904.08999999999992
 40
20.800000000000001
 50
109.94091000000002
 51
193.69899000000001
  0
LINE
  8
_0-0_1
  6
CONTINUOUS
 62
    5
 10
1278.3492000000001
 20
1051.5961
 11
1294.6051
 21
1006.7899
  0
ARC
  8
_0-0_1
  6
CONTINUOUS
 62
    5
 10
1297.9022
 20
1058.6899000000001
 40
20.800000000000001
 50
109.94091000000002
 51
199.94091
  0
LINE
  8
_0-0_1
  6
CONTINUOUS
 62
    5
 10
1790.1014
 20
1224.1726000000001
 11
1907.3824
 21
1266.7225000000001
  0
LINE
  8
_0-0_1
  6
CONTINUOUS
 62
    5
 10
1085.4957999999999
 20
984.93720000000008
 11
1277.1887999999999
 21
1054.4838999999999
  0
LINE
  8
_0-0_1
  6
CONTINUOUS
 62
    5
 10
1290.8082999999999
 20
1078.2429
 11
1492.0320999999999
 21
1151.2474
  0
ARC
  8
_0-0_1
  6
CONTINUOUS
 62
    5
 10
1499.4252999999999
 20
1161.674
 40
10.4
 50
109.94091000000002
 51
199.94091
  0
LINE
  8
_0-0_1
  6
CONTINUOUS
 62
    5
 10
1489.6487999999999
 20
1158.1270999999999
 11
1509.4515999999999
 21
1103.5444
  0
LINE
  8
_0-0_1
  6
CONTINUOUS
 62
    5
 10
1499.2256000000002
 20
1131.7306000000001
 11
1509.4515999999999
 21
1103.5444
  0
LINE
  8
_0-0_1
  6
CONTINUOUS
 62
    5
 10
1298.3517000000002
 20
1026.9567999999999
 11
1788.0378000000001
 21
1204.6162999999999
  0
LINE
  8
_0-0_1
  6
CONTINUOUS
 62
    5
 10
1495.8784000000001
 20
1171.4504999999999
 11
1706.8786
 21
1248.002
  0
ARC
  8
_0-0_1
  6
CONTINUOUS
 62
    5
 10
1714.2719000000002
 20
1258.4286
 40
10.4
 50
109.94091000000002
 51
199.94091
  0
LINE
  8
_0-0_1
  6
CONTINUOUS
 62
    5
 10
1704.4953999999998
 20
1254.8816999999999
 11
1724.2981
 21
1200.299
  0
LINE
  8
_0-0_1
  6
CONTINUOUS
 62
    5
 10
1704.4953999999998
 20
1254.8816999999999
 11
1724.2981
 21
1200.299
  0
LINE
  8
_0-0_1
  6
CONTINUOUS
 62
    5
 10
1513.1983
 20
1123.7113999999999
 11
1790.1014
 21
1224.1726000000001
  0
LINE
  8
_0-0_1
  6
CONTINUOUS
 62
    5
 10
1711.6561000000002
 20
1268.5428999999999
 11
1880.6529
 21
1329.8553999999999
  0
LINE
  8
_0-0_1
  6
CONTINUOUS
 62
    5
 10
1728.0448000000001
 20
1220.4658999999999
 11
1900.4798000000001
 21
1283.0257999999999
  0
LINE
  8
_0-0_1
  6
CONTINUOUS
 62
    5
 10
1048.8800000000001
 20
979.41499999999996
 11
1078.9504999999999
 21
883.00289999999995
  0
ARC
  8
_0-0_1
  6
CONTINUOUS
 62
    5
 10
1236.5603000000001
 20
985.83380000000011
 40
188.27051
 50
181.81043
 51
212.85045999999997
  0
LINE
  8
_0-0_1
  6
CONTINUOUS
 62
    5
 10
1077.5255999999999
 20
928.09789999999998
 11
1077.4474
 21
927.42409999999995
  0
LINE
  8
_0-0_1
  6
CONTINUOUS
 62
    5
 10
1572.8386
 20
1107.7338
 11
1077.3115
 21
927.9550999999999
  0
LINE
  8
_0-0_1
  6
CONTINUOUS
 62
    5
 10
1078.9504999999999
 20
883.00289999999995
 11
1089.3851999999999
 21
886.78870000000006
  0
LINE
  8
_0-0_1
  6
CONTINUOUS
 62
    5
 10
1077.3115
 20
927.9550999999999
 11
1094.0279
 21
870.95910000000003
  0
LINE
  8
_0-0_1
  6
CONTINUOUS
 62
    5
 10
1109.6451
 20
876.625
 11
1094.0279
 21
870.95910000000003
  0
LINE
  8
_0-0_1
  6
CONTINUOUS
 62
    3
 10
1255.0174
 20
695.95759999999996
 11
1233.4734000000001
 21
743.83349999999996
  0
CIRCLE
  8
_0-0_1
  6
CONTINUOUS
 62
    3
 10
1253.9915000000001
 20
698.23739999999998
 40
1.6999999999999997
  0
LINE
  8
_0-0_1
  6
CONTINUOUS
 62
    3
 10
1253.9915000000001
 20
698.23739999999998
 11
1455.6089000000002
 21
788.96460000000002
  0
CIRCLE
  8
_0-0_1
  6
CONTINUOUS
 62
    3
 10
1455.6089000000002
 20
788.96460000000002
 40
1.6999999999999997
  0
LINE
  8
_0-0_1
  6
CONTINUOUS
 62
    3
 10
1456.6347999999998
 20
786.6848
 11
1435.0907999999999
 21
834.56079999999997
  0
CIRCLE
  8
_0-0_1
  6
CONTINUOUS
 62
    3
 10
1455.6089000000002
 20
788.96460000000002
 40
1.6999999999999997
  0
LINE
  8
_0-0_1
  6
CONTINUOUS
 62
    3
 10
1455.6089000000002
 20
788.96460000000002
 11
1670.8226
 21
885.8101999999999
  0
CIRCLE
  8
_0-0_1
  6
CONTINUOUS
 62
    3
 10
1670.8226
 20
885.8101999999999
 40
1.6999999999999997
  0
LINE
  8
_0-0_1
  6
CONTINUOUS
 62
    3
 10
1671.8485000000001
 20
883.5304000000001
 11
1650.3045000000002
 21
931.4063000000001
  0
CIRCLE
  8
_0-0_1
  6
CONTINUOUS
 62
    3
 10
1670.8226
 20
885.8101999999999
 40
1.6999999999999997
  0
LINE
  8
_0-0_1
  6
CONTINUOUS
 62
    3
 10
1670.8226
 20
885.8101999999999
 11
1886.0363000000002
 21
982.65570000000002
  0
CIRCLE
  8
_0-0_1
  6
CONTINUOUS
 62
    3
 10
1886.0363000000002
 20
982.65570000000002
 40
1.6999999999999997
  0
LINE
  8
_0-0_1
  6
CONTINUOUS
 62
    3
 10
1887.0621999999998
 20
980.3759
 11
1865.5182
 21
1028.2519
  0
LINE
  8
_0-0_1
  6
CONTINUOUS
 62
    3
 10
1940.2017000000001
 20
1111.8483000000001
 11
1878.1903000000002
 21
1083.9435000000001
  0
LINE
  8
_0-0_1
  6
CONTINUOUS
 62
    3
 10
1946.8126000000002
 20
1109.3403000000001
 11
1947.6333
 21
1107.5163
  0
LINE
  8
_0-0_1
  6
CONTINUOUS
 62
    3
 10
1947.6333
 20
1107.5163
 11
1865.5603999999998
 21
1070.5832
  0
ARC
  8
_0-0_1
  6
CONTINUOUS
 62
    3
 10
1874.0871999999999
 20
1093.0650000000001
 40
10.001999
 50
204.2319
 51
294.21913000000001
  0
ARC
  8
_0-0_1
  6
CONTINUOUS
 62
    3
 10
1942.2539999999999
 20
1107.2896000000001
 40
4.9989999999999997
 50
24.224954
 51
114.23559000000002
  0
LINE
  8
_0-0_1
  6
CONTINUOUS
 62
    3
 10
1831.1145000000001
 20
1107.7212
 11
1832.8544000000002
 21
1106.4680000000001
  0
LINE
  8
_0-0_1
  6
CONTINUOUS
 62
    3
 10
1814.2460999999998
 20
1122.0599999999999
 11
1823.3851
 21
1108.6278
  0
LINE
  8
_0-0_1
  6
CONTINUOUS
 62
    3
 10
1819.8026
 20
1124.5600999999999
 11
1828.9407000000001
 21
1111.1270999999999
  0
LINE
  8
_0-0_1
  6
CONTINUOUS
 62
    3
 10
1814.2460999999998
 20
1122.0599999999999
 11
1813.2429000000002
 21
1119.4152999999999
  0
LINE
  8
_0-0_1
  6
CONTINUOUS
 62
    3
 10
1829.4737
 20
1111.3679
 11
1820.8117999999999
 21
1107.4698000000001
  0
LINE
  8
_0-0_1
  6
CONTINUOUS
 62
    3
 10
1814.2460999999998
 20
1122.0599999999999
 11
1820.8117999999999
 21
1107.4698000000001
  0
LINE
  8
_0-0_1
  6
CONTINUOUS
 62
    3
 10
1818.1664999999998
 20
1108.4725000000001
 11
1820.8117999999999
 21
1107.4698000000001
  0
LINE
  8
_0-0_1
  6
CONTINUOUS
 62
    3
 10
1813.2429000000002
 20
1119.4152999999999
 11
1818.1664999999998
 21
1108.4725000000001
  0
ARC
  8
_0-0_1
  6
CONTINUOUS
 62
    3
 10
1836.0749000000001
 20
1111.7063000000001
 40
6.1580000000000004
 50
169.90002999999999
 51
203.85469000000001
  0
LINE
  8
_0-0_1
  6
CONTINUOUS
 62
    3
 10
1830.4513000000002
 20
1153.4784
 11
1828.6280999999999
 21
1152.6572000000001
  0
LINE
  8
_0-0_1
  6
CONTINUOUS
 62
    3
 10
1865.5601999999999
 20
1070.5835999999999
 11
1828.6280999999999
 21
1152.6572000000001
  0
LINE
  8
_0-0_1
  6
CONTINUOUS
 62
    3
 10
1837.0630999999998
 20
1150.9699000000001
 11
1864.9672
 21
1088.9592
  0
LINE
  8
_0-0_1
  6
CONTINUOUS
 62
    3
 10
1838.0466000000001
 20
1123.9978000000001
 11
1835.3105999999998
 21
1122.7662
  0
LINE
  8
_0-0_1
  6
CONTINUOUS
 62
    3
 10
1831.4810000000002
 20
1138.5880999999999
 11
1828.7451999999998
 21
1137.3566000000001
  0
LINE
  8
_0-0_1
  6
CONTINUOUS
 62
    3
 10
1841.8753000000002
 20
1108.1768
 11
1828.7451999999998
 21
1137.3566000000001
  0
LINE
  8
_0-0_1
  6
CONTINUOUS
 62
    3
 10
1844.6122
 20
1109.4077
 11
1841.8753000000002
 21
1108.1768
  0
LINE
  8
_0-0_1
  6
CONTINUOUS
 62
    3
 10
1830.0108
 20
1112.7863
 11
1838.1518000000001
 21
1116.4502
  0
LINE
  8
_0-0_1
  6
CONTINUOUS
 62
    3
 10
1824.3256000000001
 20
1125.4211
 11
1832.4663999999998
 21
1129.0838000000001
  0
LINE
  8
_0-0_1
  6
CONTINUOUS
 62
    3
 10
1821.4814999999999
 20
1131.7385999999999
 11
1829.6239
 21
1135.4025999999999
  0
LINE
  8
_0-0_1
  6
CONTINUOUS
 62
    3
 10
1821.2660999999998
 20
1129.6080999999999
 11
1821.4814999999999
 21
1131.7385999999999
  0
LINE
  8
_0-0_1
  6
CONTINUOUS
 62
    3
 10
1831.1145000000001
 20
1107.7212
 11
1821.2660999999998
 21
1129.6080999999999
  0
LINE
  8
_0-0_1
  6
CONTINUOUS
 62
    3
 10
1832.8544000000002
 20
1106.4680000000001
 11
1840.9958000000001
 21
1110.1314
  0
LINE
  8
_0-0_1
  6
CONTINUOUS
 62
    3
 10
1852.6215000000002
 20
1138.1531
 11
1844.4807000000001
 21
1134.4892
  0
LINE
  8
_0-0_1
  6
CONTINUOUS
 62
    3
 10
1858.3069999999998
 20
1125.5182
 11
1850.1653000000001
 21
1121.8549
  0
LINE
  8
_0-0_1
  6
CONTINUOUS
 62
    3
 10
1861.1507999999999
 20
1119.2007000000001
 11
1853.0088000000001
 21
1115.5367000000001
  0
LINE
  8
_0-0_1
  6
CONTINUOUS
 62
    3
 10
1861.3665000000001
 20
1121.3312000000001
 11
1861.1507999999999
 21
1119.2007000000001
  0
LINE
  8
_0-0_1
  6
CONTINUOUS
 62
    3
 10
1851.5178000000001
 20
1143.2182
 11
1861.3665000000001
 21
1121.3312000000001
  0
LINE
  8
_0-0_1
  6
CONTINUOUS
 62
    3
 10
1849.7784000000001
 20
1144.4712999999999
 11
1841.6368000000002
 21
1140.8081
  0
LINE
  8
_0-0_1
  6
CONTINUOUS
 62
    3
 10
1851.5178000000001
 20
1143.2182
 11
1849.7784000000001
 21
1144.4712999999999
  0
LINE
  8
_0-0_1
  6
CONTINUOUS
 62
    3
 10
1822.9088000000002
 20
1125.9575
 11
1814.2460999999998
 21
1122.0599999999999
  0
ARC
  8
_0-0_1
  6
CONTINUOUS
 62
    3
 10
1832.5043000000001
 20
1148.9193
 40
4.9989999999999997
 50
24.224954
 51
114.23559000000002
  0
ARC
  8
_0-0_1
  6
CONTINUOUS
 62
    3
 10
1827.5293000000001
 20
1130.6703
 40
6.1470010000000013
 50
204.58611000000002
 51
238.59338000000002
  0
ARC
  8
_0-0_1
  6
CONTINUOUS
 62
    3
 10
1847.0718999999999
 20
1128.0616
 40
22.898997999999999
 50
186.62354999999999
 51
221.83906999999999
  0
ARC
  8
_0-0_1
  6
CONTINUOUS
 62
    3
 10
1855.1003999999998
 20
1120.2701999999999
 40
6.1479999999999997
 50
24.562933999999998
 51
58.577674000000009
  0
ARC
  8
_0-0_1
  6
CONTINUOUS
 62
    3
 10
1846.5682000000002
 20
1139.2326
 40
6.1479999999999997
 50
349.89965999999998
 51
23.901924000000019
  0
ARC
  8
_0-0_1
  6
CONTINUOUS
 62
    3
 10
1835.5239000000001
 20
1122.8628000000001
 40
22.936000999999997
 50
6.651644000000001
 51
41.808413999999999
  0
LINE
  8
_0-0_1
  6
CONTINUOUS
 62
    3
 10
1782.7438999999999
 20
1181.3551
 11
1791.8640999999998
 21
1185.4593
  0
LINE
  8
_0-0_1
  6
CONTINUOUS
 62
    3
 10
1783.9762999999998
 20
1178.6197
 11
1793.0942
 21
1182.7234000000001
  0
LINE
  8
_0-0_1
  6
CONTINUOUS
 62
    3
 10
1791.8640999999998
 20
1185.4593
 11
1793.0942
 21
1182.7234000000001
  0
LINE
  8
_0-0_1
  6
CONTINUOUS
 62
    3
 10
1782.7438999999999
 20
1181.3551
 11
1783.9762999999998
 21
1178.6197
  0
LINE
  8
_0-0_1
  6
CONTINUOUS
 62
    3
 10
1787.3038999999999
 20
1183.4072000000001
 11
1788.5356999999999
 21
1180.6711
  0
LINE
  8
_0-0_1
  6
CONTINUOUS
 62
    3
 10
1805.7051000000001
 20
1142.5146
 11
1805.2310000000002
 21
1148.4425000000001
  0
LINE
  8
_0-0_1
  6
CONTINUOUS
 62
    3
 10
1805.7051000000001
 20
1142.5146
 11
1801.5837999999999
 21
1146.8006
  0
LINE
  8
_0-0_1
  6
CONTINUOUS
 62
    3
 10
1798.0293999999999
 20
1167.4603999999999
 11
1791.5342000000001
 21
1165.6967
  0
LINE
  8
_0-0_1
  6
CONTINUOUS
 62
    3
 10
1800.0817000000002
 20
1162.9003
 11
1793.5855000000001
 21
1161.1359
  0
LINE
  8
_0-0_1
  6
CONTINUOUS
 62
    3
 10
1802.1324
 20
1158.3403000000001
 11
1795.6385
 21
1156.5764999999999
  0
LINE
  8
_0-0_1
  6
CONTINUOUS
 62
    3
 10
1804.1853000000001
 20
1153.7808
 11
1797.6898999999999
 21
1152.0172
  0
LINE
  8
_0-0_1
  6
CONTINUOUS
 62
    3
 10
1805.7203
 20
1150.3684000000001
 11
1799.2253000000001
 21
1148.6049
  0
LINE
  8
_0-0_1
  6
CONTINUOUS
 62
    3
 10
1787.9409000000001
 20
1177.1164000000001
 11
1801.5837999999999
 21
1146.8006
  0
LINE
  8
_0-0_1
  6
CONTINUOUS
 62
    3
 10
1783.9762999999998
 20
1178.6197
 11
1787.9409000000001
 21
1177.1164000000001
  0
LINE
  8
_0-0_1
  6
CONTINUOUS
 62
    3
 10
1791.5898000000002
 20
1178.7554
 11
1805.2310000000002
 21
1148.4425000000001
  0
LINE
  8
_0-0_1
  6
CONTINUOUS
 62
    3
 10
1793.0942
 20
1182.7234000000001
 11
1791.5898000000002
 21
1178.7554
  0
LINE
  8
_0-0_1
  6
CONTINUOUS
 62
    3
 10
1784.7240000000002
 20
1132.8998999999999
 11
1782.6266000000001
 21
1131.9559999999999
  0
LINE
  8
_0-0_1
  6
CONTINUOUS
 62
    3
 10
1809.346
 20
1078.1847
 11
1807.2485999999999
 21
1077.2407000000001
  0
LINE
  8
_0-0_1
  6
CONTINUOUS
 62
    3
 10
1817.0378999999998
 20
1166.8507999999999
 11
1779.2844
 21
1149.8616
  0
LINE
  8
_0-0_1
  6
CONTINUOUS
 62
    3
 10
1784.7240000000002
 20
1132.8998999999999
 11
1778.2811999999999
 21
1147.2170000000001
  0
LINE
  8
_0-0_1
  6
CONTINUOUS
 62
    3
 10
1815.7887000000001
 20
1063.8675000000001
 11
1809.346
 21
1078.1847
  0
LINE
  8
_0-0_1
  6
CONTINUOUS
 62
    3
 10
1856.1869000000002
 20
1079.8534
 11
1818.4335000000001
 21
1062.8643
  0
LINE
  8
_0-0_1
  6
CONTINUOUS
 62
    3
 10
1782.6266000000001
 20
1131.9559999999999
 11
1776.1839
 21
1146.2731000000001
  0
LINE
  8
_0-0_1
  6
CONTINUOUS
 62
    3
 10
1816.0942
 20
1168.9482
 11
1778.3407000000002
 21
1151.9590000000001
  0
LINE
  8
_0-0_1
  6
CONTINUOUS
 62
    3
 10
1813.6913
 20
1062.9235000000001
 11
1807.2485999999999
 21
1077.2407000000001
  0
LINE
  8
_0-0_1
  6
CONTINUOUS
 62
    3
 10
1857.1307000000002
 20
1077.7560000000001
 11
1819.3773000000001
 21
1060.7670000000001
  0
LINE
  8
_0-0_1
  6
CONTINUOUS
 62
    3
 10
1857.1898999999999
 20
1082.4981
 11
1819.6824000000001
 21
1165.8478
  0
LINE
  8
_0-0_1
  6
CONTINUOUS
 62
    3
 10
1821.7799
 20
1166.7913000000001
 11
1859.2873
 21
1083.4418000000001
  0
ARC
  8
_0-0_1
  6
CONTINUOUS
 62
    3
 10
1780.1052
 20
1148.0377000000001
 40
2.000003
 50
114.22777000000002
 51
204.22776000000002
  0
ARC
  8
_0-0_1
  6
CONTINUOUS
 62
    3
 10
1817.6127000000001
 20
1064.6882000000001
 40
2.000003
 50
204.22776000000002
 51
294.22775999999999
  0
ARC
  8
_0-0_1
  6
CONTINUOUS
 62
    3
 10
1817.6127000000001
 20
1064.6882000000001
 40
4.2999999999999998
 50
204.22776000000002
 51
294.22775999999999
  0
ARC
  8
_0-0_1
  6
CONTINUOUS
 62
    3
 10
1780.1052
 20
1148.0377000000001
 40
4.2999999999999998
 50
114.22777000000002
 51
204.22776000000002
  0
ARC
  8
_0-0_1
  6
CONTINUOUS
 62
    3
 10
1817.8584999999998
 20
1165.0268000000001
 40
2.000003
 50
24.227764000000004
 51
114.22777000000002
  0
ARC
  8
_0-0_1
  6
CONTINUOUS
 62
    3
 10
1855.3661000000002
 20
1081.6773000000001
 40
2.000003
 50
294.22775999999999
 51
24.227764000000008
  0
ARC
  8
_0-0_1
  6
CONTINUOUS
 62
    3
 10
1855.3661000000002
 20
1081.6773000000001
 40
4.2999999999999998
 50
294.22775999999999
 51
24.227764000000008
  0
ARC
  8
_0-0_1
  6
CONTINUOUS
 62
    3
 10
1817.8584999999998
 20
1165.0268000000001
 40
4.2999999999999998
 50
24.227764000000004
 51
114.22777000000002
  0
LINE
  8
_0-2_3
  6
CONTINUOUS
 62
    3
 10
1214.8567
 20
793.50160000000005
 11
1220.1600000000001
 21
798.80490000000009
  0
LINE
  8
_0-2_3
  6
CONTINUOUS
 62
    3
 10
1220.1600000000001
 20
798.80490000000009
 11
1218.2188000000001
 21
791.56040000000007
  0
LINE
  8
_0-2_3
  6
CONTINUOUS
 62
    3
 10
1220.1600000000001
 20
798.80490000000009
 11
1149.6512
 21
676.68010000000004
  0
LINE
  8
_0-2_3
  6
CONTINUOUS
 62
    3
 10
1149.6512
 20
676.68010000000004
 11
931.85230000000001
 21
676.68010000000004
  0
LINE
  8
_0-0_1
  6
CONTINUOUS
 62
    3
 10
1620.4468000000002
 20
834.22080000000005
 11
1825.2694999999999
 21
834.22080000000005
  0
LINE
  8
_0-0_1
  6
CONTINUOUS
 62
    3
 10
1554.1669000000002
 20
1078.6148000000001
 11
1554.1669000000002
 21
1086.1148000000001
  0
LINE
  8
_0-0_1
  6
CONTINUOUS
 62
    3
 10
1554.1669000000002
 20
1086.1148000000001
 11
1557.9169000000002
 21
1079.6197
  0
LINE
  8
_0-0_1
  6
CONTINUOUS
 62
    3
 10
1554.1669000000002
 20
1086.1148000000001
 11
1645.7925
 21
744.16350000000011
  0
LINE
  8
_0-0_1
  6
CONTINUOUS
 62
    3
 10
1645.7925
 20
744.16350000000011
 11
2038.1475999999998
 21
744.16350000000011
  0
LINE
  8
_0-0_1
  6
CONTINUOUS
 62
    3
 10
1638.6192999999998
 20
774.03009999999995
 11
1975.9385000000002
 21
774.03009999999995
  0
LINE
  8
_0-0_1
  6
CONTINUOUS
 62
    3
 10
1629.0762
 20
804.1253999999999
 11
1971.8409000000001
 21
804.1253999999999
  0
LINE
  8
_0-1_2
  6
CONTINUOUS
 62
   18
 10
1094.9168
 20
1085.0371
 11
1159.4168
 21
1085.0371
  0
LINE
  8
_0-1_2
  6
CONTINUOUS
 62
   18
 10
1159.4168
 20
1085.0371
 11
1207.8012000000001
 21
1001.2329
  0
LINE
  8
_0-1_2
  6
CONTINUOUS
 62
   18
 10
1207.8012000000001
 20
1001.2329
 11
1205.8599999999999
 21
1008.4773
  0
LINE
  8
_0-1_2
  6
CONTINUOUS
 62
   18
 10
1207.8012000000001
 20
1001.2329
 11
1202.4979000000001
 21
1006.5362
  0
LINE
  8
_0-1_2
  6
CONTINUOUS
 62
   18
 10
1185.4997000000001
 20
946.2496000000001
 11
1187.4408000000001
 21
939.00520000000006
  0
LINE
  8
_0-1_2
  6
CONTINUOUS
 62
   18
 10
1187.4408000000001
 20
939.00520000000006
 11
1182.1375
 21
944.30850000000009
  0
LINE
  8
_0-1_2
  6
CONTINUOUS
 62
   18
 10
1187.2716646821136
 20
939.63643172268212
 11
1127.4650999999999
 21
1042.8860999999999
  0
LINE
  8
_0-1_2
  6
CONTINUOUS
 62
   18
 10
1127.4650999999999
 20
1042.8860999999999
 11
987.96509999999989
 21
1042.8860999999999
  0
LINE
  8
_0-1_2
  6
CONTINUOUS
 62
   18
 10
1008.8030000000001
 20
1103.4922999999999
 11
991.06921028592592
 21
1152.0556374235966
  0
LINE
  8
_0-1_2
  6
CONTINUOUS
 62
   18
 10
991.65239999999994
 20
1150.4588000000001
 11
1212.3951
 21
1231.0667000000001
  0
LINE
  8
_0-1_2
  6
CONTINUOUS
 62
   18
 10
1229.5456999999999
 20
1184.1001000000001
 11
1198.0915302492153
 21
1270.2367812309374
  0
LINE
  8
_0-1_2
  6
CONTINUOUS
 62
   18
 10
1198.6746524258931
 20
1268.6399191441856
 11
1419.4173919979755
 21
1349.247797077928
  0
LINE
  8
_0-1_2
  6
CONTINUOUS
 62
   18
 10
1436.5680000000002
 20
1302.2813000000001
 11
1405.1137966842155
 21
1388.4179689749385
  0
LINE
  8
_0-1_2
  6
CONTINUOUS
 62
   18
 10
1405.6968999999999
 20
1386.8210999999999
 11
1626.4396319713862
 21
1467.4289751582216
  0
LINE
  8
_0-1_2
  6
CONTINUOUS
 62
   18
 10
1625.8565097949588
 20
1469.0258372442877
 11
1643.5902999999998
 21
1420.4623999999999
  0
LINE
  8
_0-1_2
  6
CONTINUOUS
 62
   18
 10
1554.9969000000001
 20
1278.7918
 11
1595.4969000000001
 21
1278.7918
  0
LINE
  8
_0-1_2
  6
CONTINUOUS
 62
   18
 10
1595.4969000000001
 20
1278.7918
 11
1660.0852
 21
1166.9215999999999
  0
LINE
  8
_0-1_2
  6
CONTINUOUS
 62
   18
 10
1660.0852
 20
1166.9215999999999
 11
1658.1439999999998
 21
1174.1660999999999
  0
LINE
  8
_0-1_2
  6
CONTINUOUS
 62
   18
 10
1660.0852
 20
1166.9215999999999
 11
1654.7819
 21
1172.2248999999999
  0
LINE
  8
_0-1_2
  6
CONTINUOUS
 62
   18
 10
1759.2242000000001
 20
1191.3542
 11
1786.5812000000001
 21
1203.6666
  0
LINE
  8
_0-1_2
  6
CONTINUOUS
 62
   18
 10
1786.5812000000001
 20
1203.6666
 11
1792.7374
 21
1189.9881
  0
LINE
  8
_0-1_2
  6
CONTINUOUS
 62
   18
 10
1792.7374
 20
1189.9881
 11
1765.3804
 21
1177.6757
  0
LINE
  8
_0-1_2
  6
CONTINUOUS
 62
   18
 10
1759.2242000000001
 20
1191.3542
 11
1765.3804
 21
1177.6757
  0
LINE
  8
_0-1_2
  6
CONTINUOUS
 62
   18
 10
1765.3804
 20
1177.6757
 11
1786.5812000000001
 21
1203.6666
  0
LINE
  8
_0-1_2
  6
CONTINUOUS
 62
   18
 10
1917.4076
 20
1244.0736999999999
 11
1165.9992999999999
 21
905.94039999999995
  0
LINE
  8
_0-1_2
  6
CONTINUOUS
 62
   18
 10
1184.4785999999999
 20
914.53410000000008
 11
1171.9893
 21
942.28819999999996
  0
LINE
  8
_0-1_2
  6
CONTINUOUS
 62
   18
 10
1171.9893
 20
942.28819999999996
 11
1214.4100000000001
 21
957.67859999999996
  0
LINE
  8
_0-1_2
  6
CONTINUOUS
 62
   18
 10
1214.4100000000001
 20
957.67859999999996
 11
1225.5151000000001
 21
933.0005000000001
  0
LINE
  8
_0-1_2
  6
CONTINUOUS
 62
   18
 10
1225.5151000000001
 20
933.0005000000001
 11
1171.9893
 21
942.28819999999996
  0
LINE
  8
_0-1_2
  6
CONTINUOUS
 62
   18
 10
1184.4785999999999
 20
914.53410000000008
 11
1214.4100000000001
 21
957.67859999999996
  0
LINE
  8
_0-1_2
  6
CONTINUOUS
 62
   18
 10
1328.8074000000001
 20
997.6395
 11
1356.1643999999999
 21
1009.9518
  0
LINE
  8
_0-1_2
  6
CONTINUOUS
 62
   18
 10
1356.1643999999999
 20
1009.9518
 11
1334.9636
 21
983.96100000000001
  0
LINE
  8
_0-1_2
  6
CONTINUOUS
 62
   18
 10
1334.9636
 20
983.96100000000001
 11
1328.8074000000001
 21
997.6395
  0
LINE
  8
_0-1_2
  6
CONTINUOUS
 62
   18
 10
1334.9636
 20
983.96100000000001
 11
1362.3206
 21
996.27330000000006
  0
LINE
  8
_0-1_2
  6
CONTINUOUS
 62
   18
 10
1362.3206
 20
996.27330000000006
 11
1356.1643999999999
 21
1009.9518
  0
LINE
  8
_0-1_2
  6
CONTINUOUS
 62
   18
 10
1162.2406000000001
 20
902.12940000000003
 11
1270.4207954916949
 21
661.72766743652176
  0
LINE
  8
_0-1_2
  6
CONTINUOUS
 62
   18
 10
1162.2406000000001
 20
902.12940000000003
 11
1917.4960999999998
 21
1241.9936
  0
LINE
  8
_0-1_2
  6
CONTINUOUS
 62
   18
 10
1927.7552000000001
 20
1219.1956
 11
1172.4997000000001
 21
879.33130000000006
  0
LINE
  8
_0-1_2
  6
CONTINUOUS
 62
   18
 10
1179.4851000000001
 20
863.80799999999999
 11
1245.5993220528317
 21
838.73016749726673
  0
LINE
  8
_0-1_2
  6
CONTINUOUS
 62
   18
 10
1247.3403482074345
 20
834.86119550761691
 11
1181.2262000000001
 21
859.93900000000008
  0
LINE
  8
_0-1_2
  6
CONTINUOUS
 62
   18
 10
1220.1600000000001
 20
798.80490000000009
 11
1214.8567
 21
793.50160000000005
  0
LINE
  8
_0-1_2
  6
CONTINUOUS
 62
   18
 10
1220.1600000000001
 20
798.80490000000009
 11
1218.2188000000001
 21
791.56040000000007
  0
LINE
  8
_0-1_2
  6
CONTINUOUS
 62
   18
 10
1220.1600000000001
 20
798.80490000000009
 11
1149.6512
 21
676.68010000000004
  0
LINE
  8
_0-1_2
  6
CONTINUOUS
 62
   18
 10
1149.6512
 20
676.68010000000004
 11
931.85230000000001
 21
676.68010000000004
  0
LINE
  8
_0-1_2
  6
CONTINUOUS
 62
   18
 10
1180.8145999999999
 20
678.09860000000003
 11
1202.0304129026295
 21
630.95213026924841
  0
LINE
  8
_0-1_2
  6
CONTINUOUS
 62
   18
 10
1201.3327999999999
 20
632.50240000000008
 11
1269.7230999999999
 21
663.27790000000005
  0
LINE
  8
_0-1_2
  6
CONTINUOUS
 62
   18
 10
1253.9915000000001
 20
698.23739999999998
 11
1886.0362996039655
 21
982.65569982178567
  0
LINE
  8
_0-1_2
  6
CONTINUOUS
 62
   18
 10
1886.7339141698199
 20
981.10543083947755
 11
1865.5182
 21
1028.2519
  0
LINE
  8
_0-1_2
  6
CONTINUOUS
 62
   18
 10
1671.520213599588
 20
884.259930582876
 11
1650.3045000000002
 21
931.4063000000001
  0
LINE
  8
_0-1_2
  6
CONTINUOUS
 62
   18
 10
1456.3065141698198
 20
787.41433083947754
 11
1435.0907999999999
 21
834.56079999999997
  0
LINE
  8
_0-1_2
  6
CONTINUOUS
 62
   18
 10
1645.7925
 20
744.16350000000011
 11
2038.1475999999998
 21
744.16350000000011
  0
LINE
  8
_0-1_2
  6
CONTINUOUS
 62
   18
 10
1975.9385000000002
 20
774.03009999999995
 11
1638.6192999999998
 21
774.03009999999995
  0
LINE
  8
_0-1_2
  6
CONTINUOUS
 62
   18
 10
1629.7257528794598
 20
804.1253999999999
 11
1971.8409000000001
 21
804.1253999999999
  0
LINE
  8
_0-1_2
  6
CONTINUOUS
 62
   18
 10
1825.2694999999999
 20
834.22080000000005
 11
1621.6617125256435
 21
834.22080000000005
  0
LINE
  8
_0-1_2
  6
CONTINUOUS
 62
   18
 10
1645.7925
 20
744.16350000000011
 11
1554.1669000000002
 21
1086.1148000000001
  0
LINE
  8
_0-1_2
  6
CONTINUOUS
 62
   18
 10
1554.1669000000002
 20
1086.1148000000001
 11
1554.1669000000002
 21
1078.6148000000001
  0
LINE
  8
_0-1_2
  6
CONTINUOUS
 62
   18
 10
1554.1669000000002
 20
1086.1148000000001
 11
1557.9169000000002
 21
1079.6197
  0
LINE
  8
_0-1_2
  6
CONTINUOUS
 62
   18
 10
1550.172
 20
1080.8182999999999
 11
1544.0158000000001
 21
1094.4967999999999
  0
LINE
  8
_0-1_2
  6
CONTINUOUS
 62
   18
 10
1544.0158000000001
 20
1094.4967999999999
 11
1571.3728000000001
 21
1106.8091999999999
  0
LINE
  8
_0-1_2
  6
CONTINUOUS
 62
   18
 10
1571.3728000000001
 20
1106.8091999999999
 11
1550.172
 21
1080.8182999999999
  0
LINE
  8
_0-1_2
  6
CONTINUOUS
 62
   18
 10
1550.172
 20
1080.8182999999999
 11
1577.529
 21
1093.1306999999999
  0
LINE
  8
_0-1_2
  6
CONTINUOUS
 62
   18
 10
1577.529
 20
1093.1306999999999
 11
1571.3728000000001
 21
1106.8091999999999
  0
LINE
  8
_0-1_2
  6
CONTINUOUS
 62
   18
 10
1972.8951999999999
 20
1118.8842
 11
1263.2357
 21
799.53809999999999
  0
LINE
  8
_0-1_2
  6
CONTINUOUS
 62
   18
 10
1269.9824000000001
 20
784.54520000000002
 11
1218.0958000000001
 21
899.84950000000003
  0
LINE
  8
_0-1_2
  6
CONTINUOUS
 62
   18
 10
1278.4490000000001
 20
793.1373000000001
 11
1253.9864
 21
768.31189999999992
  0
LINE
  8
_0-1_2
  6
CONTINUOUS
 62
   18
 10
1253.9864
 20
768.31189999999992
 11
1254.5423000000001
 21
763.44170000000008
  0
LINE
  8
_0-1_2
  6
CONTINUOUS
 62
   18
 10
1254.5423000000001
 20
763.44170000000008
 11
1245.5144
 21
765.7650000000001
  0
LINE
  8
_0-1_2
  6
CONTINUOUS
 62
   18
 10
1245.5144
 20
765.7650000000001
 11
1246.402
 21
760.61490000000003
  0
LINE
  8
_0-1_2
  6
CONTINUOUS
 62
   18
 10
1246.402
 20
760.61490000000003
 11
1224.7460000000001
 21
738.6377
  0
TEXT
  8
_0-1_2
 62
    7
 10
1571.4968999999996
 20
1281.2918000000002
 40
20
 41
1
 50
0
  1
　
  0
TEXT
  8
_0-2_3
 62
    7
 10
1094.9167999999997
 20
1087.5371
 40
20
 41
1
 50
0
  1
万十軒瓦
  0
TEXT
  8
_0-1_2
 62
    7
 10
1550.0270559209916
 20
1283.5497634501451
 40
20
 41
1
 50
0
  1
桟　瓦
  0
TEXT
  8
_0-0_1
 62
    7
 10
1098.8870818597254
 20
1212.5493907845612
 40
20
 41
1
 50
20.060506999999973
  1
235
  0
TEXT
  8
_0-0_1
 62
    7
 10
1309.0775113015416
 20
1323.0144339948588
 40
20
 41
1
 50
20.060506999999973
  1
235
  0
TEXT
  8
_0-0_1
 62
    7
 10
1506.9940470533247
 20
1435.0137139164103
 40
20
 41
1
 50
20.06050700000003
  1
235
  0
TEXT
  8
_0-2_3
 62
    7
 10
987.96509999999967
 20
1045.3861000000002
 40
20
 41
1
 50
0
  1
瓦　座：36x45
  0
TEXT
  8
_0-2_3
 62
    7
 10
933.18951704427923
 20
683.23772540188531
 40
20
 41
1
 50
0
  1
破風板：薄型ALCパネル　
  0
TEXT
  8
_0-1_2
 62
    7
 10
1243.1053327176139
 20
615.73131010670352
 40
20
 41
1
 50
24.227608999999983
  1
75
  0
TEXT
  8
_0-0_1
 62
    7
 10
1341.2964822378785
 20
755.34685083082968
 40
20
 41
1
 50
24.227599999999995
  1
214
  0
TEXT
  8
_0-0_1
 62
    7
 10
1549.9526749684405
 20
842.79834337231523
 40
20
 41
1
 50
24.227609000000022
  1
236
  0
TEXT
  8
_0-0_1
 62
    7
 10
1746.3349740089698
 20
944.05796631508792
 40
20
 41
1
 50
24.227608999999983
  1
236
  0
TEXT
  8
_0-0_1
 62
    7
 10
1623.5960371086389
 20
836.66139652729862
 40
20
 41
1
 50
0
  1
瓦桟：１５ｘ３０以上
  0
TEXT
  8
_0-0_1
 62
    7
 10
1629.7329839536555
 20
807.51089901347018
 40
20
 41
1
 50
0
  1
下葺材：ルーフィング
  0
TEXT
  8
_0-0_1
 62
    7
 10
1638.9384042211805
 20
778.36040149964163
 40
20
 41
1
 50
0
  1
野地板：硬質木片セメントパネルｔ＝25
  0
TEXT
  8
_0-0_1
 62
    7
 10
1648.1438244887049
 20
747.67566727455892
 40
20
 41
1
 50
0
  1
鋼製：C－100x50x20x2.3　@606
  0
ENDSEC
  0
EOF
