  0
SECTION
  2
HEADER
  9
$ACADVER
  1
AC1009
  9
$INSBASE
 10
0
 20
0
 30
0
  9
$EXTMIN
 10
0
 20
0
  9
$EXTMAX
 10
2970
 20
2100
  9
$LIMMIN
 10
0
 20
0
  9
$LIMMAX
 10
2970
 20
2100
  9
$LTSCALE
 40
10
  0
ENDSEC
  0
SECTION
  2
TABLES
  0
TABLE
  2
LTYPE
 70
     9
  0
LTYPE
  2
CONTINUOUS
 70
    64
  3
実線
 72
    65
 73
     0
 40
0.0
  0
LTYPE
  2
DASHED1
 70
    64
  3
--  --  --  --  --  --  --  --  
 72
    65
 73
     2
 40
2.5
 49
1.25
 49
-1.25
  0
LTYPE
  2
DASHED2
 70
    64
  3
----    ----    ----    ----    
 72
    65
 73
     2
 40
5.0
 49
2.5
 49
-2.5
  0
LTYPE
  2
DASHED3
 70
    64
  3
------  ------  ------  ------  
 72
    65
 73
     2
 40
5.0
 49
3.75
 49
-1.25
  0
LTYPE
  2
CENTER1
 70
    64
  3
----- - ----- - ----- - ----- - 
 72
    65
 73
     4
 40
10.0
 49
6.25
 49
-1.25
 49
1.25
 49
-1.25
  0
LTYPE
  2
CENTER2
 70
    64
  3
----------  --  ----------  --  
 72
    65
 73
     4
 40
20.0
 49
12.5
 49
-2.5
 49
2.5
 49
-2.5
  0
LTYPE
  2
PHANTOM1
 70
    64
  3
--- - - --- - - --- - - --- - - 
 72
    65
 73
     6
 40
10.0
 49
3.25
 49
-1.25
 49
1.25
 49
-1.25
 49
1.25
 49
-1.25
  0
LTYPE
  2
PHANTOM2
 70
    64
  3
--------  -  -  --------  -  -  
 72
    65
 73
     6
 40
20.0
 49
10.0
 49
-2.5
 49
1.25
 49
-2.5
 49
1.25
 49
-2.5
  0
LTYPE
  2
DOT
 70
    64
  3
-   -   -   -   -   -   -   -   
 72
    65
 73
     2
 40
2.5
 49
0.625
 49
-1.875
  0
LTYPE
  2
DUMMY
 70
    64
  3
ダミー
 72
    65
 73
     0
 40
0.0
  0
LTYPE
  2
RAND1
 70
    64
  3
ランダム線1
 72
    65
 73
     4
 40
10.0
 49
1.0
 49
-2.0
 49
3.0
 49
-4.0
  0
LTYPE
  2
RAND2
 70
    64
  3
ランダム線2
 72
    65
 73
     4
 40
14.0
 49
2.0
 49
-3.0
 49
4.0
 49
-5.0
  0
LTYPE
  2
RAND3
 70
    64
  3
ランダム線3
 72
    65
 73
     4
 40
18.0
 49
3.0
 49
-4.0
 49
5.0
 49
-6.0
  0
LTYPE
  2
RAND4
 70
    64
  3
ランダム線4
 72
    65
 73
     4
 40
22.0
 49
4.0
 49
-5.0
 49
6.0
 49
-7.0
  0
LTYPE
  2
RAND5
 70
    64
  3
ランダム線5
 72
    65
 73
     4
 40
26.0
 49
5.0
 49
-6.0
 49
7.0
 49
-8.0
  0
LTYPE
  2
LONG1
 70
    64
  3
----------  --  ----------  --  
 72
    65
 73
     4
 40
40.0
 49
32.5
 49
-2.5
 49
2.5
 49
-2.5
  0
LTYPE
  2
LONG2
 70
    64
  3
--------  -  -  --------  -  -  
 72
    65
 73
     6
 40
40.0
 49
30.0
 49
-2.5
 49
1.25
 49
-2.5
 49
1.25
 49
-2.5
  0
LTYPE
  2
LONG3
 70
    64
  3
+++++++++++++++..+++++++++++++++
 72
    65
 73
     2
 40
40.0
 49
37.5
 49
-2.5
  0
LTYPE
  2
LONG4
 70
    64
  3
+++++++++++++++..+++++++++++++++
 72
    65
 73
     2
 40
80.0
 49
75.0
 49
-5.0
  0
LTYPE
  2
LONG5
 70
    64
  3
----------  --  ----------  --  
 72
    65
 73
     4
 40
60.0
 49
37.5
 49
-7.5
 49
7.5
 49
-7.5
  0
LTYPE
  2
dashed
 70
   64
  3
-------   -------------   ------
 72
   65
 73
    2
 40
7.5
 49
6
 49
-1.5
  0
LTYPE
  2
dashed_spaced
 70
   64
  3
----        --------        ----
 72
   65
 73
    2
 40
12
 49
6
 49
-6
  0
LTYPE
  2
long_dashed_dotted
 70
   64
  3
------------- --- --------------
 72
   65
 73
    4
 40
15.25
 49
12
 49
-1.5
 49
0.25
 49
-1.5
  0
LTYPE
  2
long_dashed_double-dotted
 70
   64
  3
----------- --- --- ------------
 72
   65
 73
    6
 40
17
 49
12
 49
-1.5
 49
0.25
 49
-1.5
 49
0.25
 49
-1.5
  0
LTYPE
  2
long_dashed_triplicate-dotted
 70
   64
  3
--------- --- --- --- ----------
 72
   65
 73
    8
 40
18.75
 49
12
 49
-1.5
 49
0.25
 49
-1.5
 49
0.25
 49
-1.5
 49
0.25
 49
-1.5
  0
LTYPE
  2
dotted
 70
   64
  3
   -       -       -       -    
 72
   65
 73
    2
 40
1.75
 49
0.25
 49
-1.5
  0
LTYPE
  2
chain
 70
   64
  3
-------------- -- --------------
 72
   65
 73
    4
 40
18.5
 49
12
 49
-1.5
 49
3.5
 49
-1.5
  0
LTYPE
  2
chain_double_dash
 70
   64
  3
------------ -- -- -------------
 72
   65
 73
    6
 40
23.5
 49
12
 49
-1.5
 49
3.5
 49
-1.5
 49
3.5
 49
-1.5
  0
LTYPE
  2
dashed_dotted
 70
   64
  3
-----------     -     ----------
 72
   65
 73
    4
 40
9.25
 49
6
 49
-1.5
 49
0.25
 49
-1.5
  0
LTYPE
  2
double-dashed_dotted
 70
   64
  3
------   -----------   -   -----
 72
   65
 73
    6
 40
16.75
 49
6
 49
-1.5
 49
6
 49
-1.5
 49
0.25
 49
-1.5
  0
LTYPE
  2
dashed_double-dotted
 70
   64
  3
---------    -    -    ---------
 72
   65
 73
    6
 40
11
 49
6
 49
-1.5
 49
0.25
 49
-1.5
 49
0.25
 49
-1.5
  0
LTYPE
  2
double-dashed_double-dotted
 70
   64
  3
-----   ---------   -   -   ----
 72
   65
 73
    8
 40
18.5
 49
6
 49
-1.5
 49
6
 49
-1.5
 49
0.25
 49
-1.5
 49
0.25
 49
-1.5
  0
LTYPE
  2
dashed_triplicate-dotted
 70
   64
  3
-------    -    -    -    ------
 72
   65
 73
    8
 40
12.75
 49
6
 49
-1.5
 49
0.25
 49
-1.5
 49
0.25
 49
-1.5
 49
0.25
 49
-1.5
  0
LTYPE
  2
double-dashed_triplicate-dotted
 70
   64
  3
-----  ---------  -  -  -  -----
 72
   65
 73
   10
 40
20.25
 49
6
 49
-1.5
 49
6
 49
-1.5
 49
0.25
 49
-1.5
 49
0.25
 49
-1.5
 49
0.25
 49
-1.5
  0
LTYPE
  2
undefined
 70
   64
  3
--------------------------------
 72
   65
 73
    0
 40
0
  0
ENDTAB
  0
TABLE
  2
STYLE
  5
3
100
AcDbSymbolTable
 70
     1
  0
STYLE
  5
10
100
AcDbSymbolTableRecord
100
AcDbTextStyleTableRecord
  2
STANDARD
 70
     0
 40
0.0
 41
1.0
 50
0.0
 71
     0
 42
0.2
  3
txt
  4
bigfont.shx
  0
STYLE
  5
26
100
AcDbSymbolTableRecord
100
AcDbTextStyleTableRecord
  2
TATEGAKI
 70
    68
 40
0.0
 41
1.0
 50
0.0
 71
     0
 42
1.0
  3
txt
  4
bigfont.shx
  0
ENDTAB
  0
TABLE
  2
LAYER
 70
    4
  0
LAYER
  2
_0-0_LAYER001
 70
   64
 62
    7
  6
CONTINUOUS
  0
LAYER
  2
_0-1_LAYER003
 70
   64
 62
    7
  6
CONTINUOUS
  0
LAYER
  2
_0-2_ADD_LINE
 70
   64
 62
    7
  6
CONTINUOUS
  0
LAYER
  2
ADD_LINE
 70
   64
 62
    7
  6
CONTINUOUS
  0
ENDTAB
  0
ENDSEC
  0
SECTION
  2
BLOCKS
  0
ENDSEC
  0
SECTION
  2
ENTITIES
  0
TEXT
  8
_0-2_ADD_LINE
 62
    7
 10
919.20206027414429
 20
1196.738782597806
 40
20
 41
1
 50
0
  1
野地板：ALCパネル　t＝50
  0
LINE
  8
_0-1_LAYER003
  6
CONTINUOUS
 62
   18
 10
1161.6781985196376
 20
1017.1303696451492
 11
1179.412
 21
968.56700000000001
  0
LINE
  8
_0-0_LAYER001
  6
CONTINUOUS
 62
    2
 10
1739.6958
 20
998.12709999999993
 11
1839.6958
 21
998.12709999999993
  0
LINE
  8
_0-0_LAYER001
  6
CONTINUOUS
 62
    2
 10
1854.6958
 20
1369.4456
 11
1854.6958
 21
699.41509999999994
  0
LINE
  8
_0-0_LAYER001
  6
CONTINUOUS
 62
    2
 10
1930.9947999999999
 20
1204.2494999999999
 11
1878.4947999999999
 21
1204.2494999999999
  0
CIRCLE
  8
_0-0_LAYER001
  6
CONTINUOUS
 62
    2
 10
1928.4947999999999
 20
1204.2494999999999
 40
1.6999999999999997
  0
LINE
  8
_0-0_LAYER001
  6
CONTINUOUS
 62
    2
 10
1928.4947999999999
 20
1204.2494999999999
 11
1928.4947999999999
 21
1054.2494999999999
  0
CIRCLE
  8
_0-0_LAYER001
  6
CONTINUOUS
 62
    2
 10
1928.4947999999999
 20
1054.2494999999999
 40
1.6999999999999997
  0
LINE
  8
_0-0_LAYER001
  6
CONTINUOUS
 62
    2
 10
1930.9947999999999
 20
1054.2494999999999
 11
1878.4947999999999
 21
1054.2494999999999
  0
LINE
  8
_0-0_LAYER001
  6
CONTINUOUS
 62
    2
 10
1646.1415999999999
 20
1427.8553999999999
 11
1646.1415999999999
 21
1400.3553999999999
  0
CIRCLE
  8
_0-0_LAYER001
  6
CONTINUOUS
 62
    2
 10
1646.1415999999999
 20
1425.3553999999999
 40
1.6999999999999997
  0
LINE
  8
_0-0_LAYER001
  6
CONTINUOUS
 62
    2
 10
1646.1415999999999
 20
1425.3553999999999
 11
1737.6958
 21
1425.3553999999999
  0
CIRCLE
  8
_0-0_LAYER001
  6
CONTINUOUS
 62
    2
 10
1737.6958
 20
1425.3553999999999
 40
1.6999999999999997
  0
LINE
  8
_0-0_LAYER001
  6
CONTINUOUS
 62
    2
 10
1737.6958
 20
1427.8553999999999
 11
1737.6958
 21
1400.3553999999999
  0
CIRCLE
  8
_0-0_LAYER001
  6
CONTINUOUS
 62
    2
 10
1696.2491
 20
1118.8692000000001
 40
0.8999999999999999
  0
CIRCLE
  8
_0-0_LAYER001
  6
CONTINUOUS
 62
    2
 10
1700.5821000000001
 20
1106.5924
 40
0.8999999999999999
  0
CIRCLE
  8
_0-0_LAYER001
  6
CONTINUOUS
 62
    2
 10
1672.0565999999999
 20
1110.9254000000001
 40
0.8999999999999999
  0
LINE
  8
_0-0_LAYER001
  6
CONTINUOUS
 62
    2
 10
1651.0630999999998
 20
1121.7862
 11
1739.6958
 21
1137.4145000000001
  0
LINE
  8
_0-0_LAYER001
  6
CONTINUOUS
 62
    2
 10
1648.4585000000002
 20
1136.5582999999999
 11
1737.0911000000001
 21
1152.1866
  0
LINE
  8
_0-0_LAYER001
  6
CONTINUOUS
 62
    2
 10
1648.4585000000002
 20
1136.5582999999999
 11
1651.0630999999998
 21
1121.7862
  0
LINE
  8
_0-0_LAYER001
  6
CONTINUOUS
 62
    2
 10
1737.0911000000001
 20
1152.1866
 11
1739.6958
 21
1137.4145000000001
  0
LINE
  8
_0-0_LAYER001
  6
CONTINUOUS
 62
    2
 10
1739.6958
 20
1137.4145000000001
 11
1648.4585000000002
 21
1136.5582999999999
  0
LINE
  8
_0-0_LAYER001
  6
CONTINUOUS
 62
    2
 10
1646.1415999999999
 20
1138.1804999999999
 11
1648.7462999999998
 21
1123.4084
  0
LINE
  8
_0-0_LAYER001
  6
CONTINUOUS
 62
    2
 10
1787.6958
 20
1117.4145000000001
 11
1782.6958
 21
1120.4145000000001
  0
LINE
  8
_0-0_LAYER001
  6
CONTINUOUS
 62
    2
 10
1782.6958
 20
1114.4146000000001
 11
1787.6958
 21
1117.4145000000001
  0
LINE
  8
_0-0_LAYER001
  6
CONTINUOUS
 62
    2
 10
1781.6208000000001
 20
1114.4146000000001
 11
1784.4697999999999
 21
1119.3506
  0
LINE
  8
_0-0_LAYER001
  6
CONTINUOUS
 62
    2
 10
1715.6957000000002
 20
1114.4146000000001
 11
1715.6957000000002
 21
1120.4145000000001
  0
LINE
  8
_0-0_LAYER001
  6
CONTINUOUS
 62
    2
 10
1709.6958
 20
1111.4145000000001
 11
1709.6958
 21
1123.4146000000001
  0
LINE
  8
_0-0_LAYER001
  6
CONTINUOUS
 62
    2
 10
1718.5828000000001
 20
1114.4146000000001
 11
1722.0457999999999
 21
1120.4145000000001
  0
LINE
  8
_0-0_LAYER001
  6
CONTINUOUS
 62
    2
 10
1709.6958
 20
1111.4145000000001
 11
1715.6957000000002
 21
1114.4146000000001
  0
LINE
  8
_0-0_LAYER001
  6
CONTINUOUS
 62
    2
 10
1715.6957000000002
 20
1120.4145000000001
 11
1709.6958
 21
1123.4146000000001
  0
LINE
  8
_0-0_LAYER001
  6
CONTINUOUS
 62
    2
 10
1782.6958
 20
1120.4145000000001
 11
1772.6808000000001
 21
1120.4145000000001
  0
LINE
  8
_0-0_LAYER001
  6
CONTINUOUS
 62
    2
 10
1764.0288999999998
 20
1115.9416000000001
 11
1765.9227999999998
 21
1119.2226000000001
  0
LINE
  8
_0-0_LAYER001
  6
CONTINUOUS
 62
    2
 10
1772.4128000000001
 20
1114.4635000000001
 11
1775.8478
 21
1120.4145000000001
  0
LINE
  8
_0-0_LAYER001
  6
CONTINUOUS
 62
    2
 10
1782.6958
 20
1114.4146000000001
 11
1772.6889000000001
 21
1114.4146000000001
  0
LINE
  8
_0-0_LAYER001
  6
CONTINUOUS
 62
    2
 10
1780.5448000000001
 20
1124.1376
 11
1780.9448000000002
 21
1121.8715
  0
LINE
  8
_0-0_LAYER001
  6
CONTINUOUS
 62
    2
 10
1780.3717999999999
 20
1110.7247
 11
1780.7696999999998
 21
1112.9896000000001
  0
LINE
  8
_0-0_LAYER001
  6
CONTINUOUS
 62
    2
 10
1775.9517000000001
 20
1123.1235999999999
 11
1777.6257999999998
 21
1123.4185
  0
LINE
  8
_0-0_LAYER001
  6
CONTINUOUS
 62
    2
 10
1771.6188000000002
 20
1122.3596
 11
1773.2917000000002
 21
1122.6545000000001
  0
LINE
  8
_0-0_LAYER001
  6
CONTINUOUS
 62
    2
 10
1767.2858000000001
 20
1121.5954999999999
 11
1768.9587000000001
 21
1121.8905999999999
  0
LINE
  8
_0-0_LAYER001
  6
CONTINUOUS
 62
    2
 10
1766.9897000000001
 20
1123.2686000000001
 11
1757.8957999999998
 21
1121.6657
  0
LINE
  8
_0-0_LAYER001
  6
CONTINUOUS
 62
    2
 10
1771.3227000000002
 20
1124.0325
 11
1768.6637000000001
 21
1123.5635
  0
LINE
  8
_0-0_LAYER001
  6
CONTINUOUS
 62
    2
 10
1775.6558
 20
1124.7967000000001
 11
1772.9967999999999
 21
1124.3276000000001
  0
LINE
  8
_0-0_LAYER001
  6
CONTINUOUS
 62
    2
 10
1778.8076999999998
 20
1125.3525
 11
1777.3299000000002
 21
1125.0915
  0
LINE
  8
_0-0_LAYER001
  6
CONTINUOUS
 62
    2
 10
1777.6257999999998
 20
1123.4185
 11
1777.3299000000002
 21
1125.0925999999999
  0
LINE
  8
_0-0_LAYER001
  6
CONTINUOUS
 62
    2
 10
1775.9517000000001
 20
1123.1235999999999
 11
1775.6558
 21
1124.7976000000001
  0
LINE
  8
_0-0_LAYER001
  6
CONTINUOUS
 62
    2
 10
1773.2928999999999
 20
1122.6545000000001
 11
1772.9967999999999
 21
1124.3286000000001
  0
LINE
  8
_0-0_LAYER001
  6
CONTINUOUS
 62
    2
 10
1771.6188000000002
 20
1122.3596
 11
1771.3227000000002
 21
1124.0335
  0
LINE
  8
_0-0_LAYER001
  6
CONTINUOUS
 62
    2
 10
1768.9598000000001
 20
1121.8905999999999
 11
1768.6637000000001
 21
1123.5645
  0
LINE
  8
_0-0_LAYER001
  6
CONTINUOUS
 62
    2
 10
1767.2858000000001
 20
1121.5954999999999
 11
1766.9897000000001
 21
1123.2695000000001
  0
LINE
  8
_0-0_LAYER001
  6
CONTINUOUS
 62
    2
 10
1775.7768000000001
 20
1111.7375
 11
1777.4508000000001
 21
1111.4425000000001
  0
LINE
  8
_0-0_LAYER001
  6
CONTINUOUS
 62
    2
 10
1771.4439000000002
 20
1112.5016000000001
 11
1773.1178
 21
1112.2066
  0
LINE
  8
_0-0_LAYER001
  6
CONTINUOUS
 62
    2
 10
1767.1107999999999
 20
1113.2655999999999
 11
1768.7847000000002
 21
1112.9704999999999
  0
LINE
  8
_0-0_LAYER001
  6
CONTINUOUS
 62
    2
 10
1767.1118000000001
 20
1113.2655999999999
 11
1766.8157000000001
 21
1111.5925999999999
  0
LINE
  8
_0-0_LAYER001
  6
CONTINUOUS
 62
    2
 10
1768.7856999999999
 20
1112.9704999999999
 11
1768.4897000000001
 21
1111.2976000000001
  0
LINE
  8
_0-0_LAYER001
  6
CONTINUOUS
 62
    2
 10
1771.4449
 20
1112.5016000000001
 11
1771.1487999999999
 21
1110.8285000000001
  0
LINE
  8
_0-0_LAYER001
  6
CONTINUOUS
 62
    2
 10
1773.1188000000002
 20
1112.2066
 11
1772.8227000000002
 21
1110.5336
  0
LINE
  8
_0-0_LAYER001
  6
CONTINUOUS
 62
    2
 10
1775.7777999999998
 20
1111.7375
 11
1775.4818
 21
1110.0645999999999
  0
LINE
  8
_0-0_LAYER001
  6
CONTINUOUS
 62
    2
 10
1777.4517999999998
 20
1111.4425000000001
 11
1777.1558
 21
1109.7696000000001
  0
LINE
  8
_0-0_LAYER001
  6
CONTINUOUS
 62
    2
 10
1766.8157000000001
 20
1111.5925999999999
 11
1757.8957999999998
 21
1113.1645000000001
  0
LINE
  8
_0-0_LAYER001
  6
CONTINUOUS
 62
    2
 10
1771.1487999999999
 20
1110.8285000000001
 11
1768.4897000000001
 21
1111.2976000000001
  0
LINE
  8
_0-0_LAYER001
  6
CONTINUOUS
 62
    2
 10
1775.4818
 20
1110.0645999999999
 11
1772.8227000000002
 21
1110.5336
  0
LINE
  8
_0-0_LAYER001
  6
CONTINUOUS
 62
    2
 10
1778.6329000000001
 20
1109.5085999999999
 11
1777.1558
 21
1109.7686000000001
  0
LINE
  8
_0-0_LAYER001
  6
CONTINUOUS
 62
    2
 10
1755.6718000000001
 20
1117.4156
 11
1780.9448000000002
 21
1121.8715
  0
LINE
  8
_0-0_LAYER001
  6
CONTINUOUS
 62
    2
 10
1755.6718000000001
 20
1117.4156
 11
1780.7696999999998
 21
1112.9896000000001
  0
LINE
  8
_0-0_LAYER001
  6
CONTINUOUS
 62
    2
 10
1739.6958
 20
1121.6645000000001
 11
1757.8957999999998
 21
1121.6645000000001
  0
LINE
  8
_0-0_LAYER001
  6
CONTINUOUS
 62
    2
 10
1739.6958
 20
1113.1645000000001
 11
1757.8957999999998
 21
1113.1645000000001
  0
LINE
  8
_0-0_LAYER001
  6
CONTINUOUS
 62
    2
 10
1739.6958
 20
1113.1645000000001
 11
1739.6958
 21
1121.6645000000001
  0
LINE
  8
_0-0_LAYER001
  6
CONTINUOUS
 62
    2
 10
1709.6958
 20
1097.4145000000001
 11
1739.6958
 21
1097.4145000000001
  0
LINE
  8
_0-0_LAYER001
  6
CONTINUOUS
 62
    2
 10
1739.6958
 20
1120.4145000000001
 11
1715.6957000000002
 21
1120.4145000000001
  0
LINE
  8
_0-0_LAYER001
  6
CONTINUOUS
 62
    2
 10
1739.6958
 20
1114.4146000000001
 11
1715.6957000000002
 21
1114.4146000000001
  0
LINE
  8
_0-0_LAYER001
  6
CONTINUOUS
 62
    2
 10
1724.3058999999998
 20
1114.4146000000001
 11
1727.7689999999998
 21
1120.4145000000001
  0
LINE
  8
_0-0_LAYER001
  6
CONTINUOUS
 62
    2
 10
1730.029
 20
1114.4146000000001
 11
1733.4920999999999
 21
1120.4145000000001
  0
LINE
  8
_0-0_LAYER001
  6
CONTINUOUS
 62
    2
 10
1735.7521999999999
 20
1114.4146000000001
 11
1739.2152000000001
 21
1120.4145000000001
  0
LINE
  8
_0-0_LAYER001
  6
CONTINUOUS
 62
    2
 10
1709.6958
 20
1097.4145000000001
 11
1709.6958
 21
1132.1247000000001
  0
LINE
  8
_0-0_LAYER001
  6
CONTINUOUS
 62
    2
 10
1739.6958
 20
1097.4145000000001
 11
1713.1997999999999
 21
1132.7426
  0
LINE
  8
_0-0_LAYER001
  6
CONTINUOUS
 62
    2
 10
1646.1415999999999
 20
1138.1804999999999
 11
1737.6958
 21
1154.3240000000001
  0
LINE
  8
_0-0_LAYER001
  6
CONTINUOUS
 62
    2
 10
1718.8739999999998
 20
1148.9744000000001
 11
1727.6433999999999
 21
1150.5207
  0
LINE
  8
_0-0_LAYER001
  6
CONTINUOUS
 62
    2
 10
1726.3996999999999
 20
1121.2625
 11
1729.8413999999998
 21
1113.0235
  0
LINE
  8
_0-0_LAYER001
  6
CONTINUOUS
 62
    2
 10
1725.3598999999999
 20
1148.4981
 11
1730.0497
 21
1121.9063000000001
  0
LINE
  8
_0-0_LAYER001
  6
CONTINUOUS
 62
    2
 10
1729.8413999999998
 20
1113.0235
 11
1730.0497
 21
1121.9063000000001
  0
LINE
  8
_0-0_LAYER001
  6
CONTINUOUS
 62
    2
 10
1721.7098999999998
 20
1147.8558
 11
1718.8739999999998
 21
1148.9744000000001
  0
LINE
  8
_0-0_LAYER001
  6
CONTINUOUS
 62
    2
 10
1725.3598999999999
 20
1148.4981
 11
1727.6433999999999
 21
1150.5207
  0
LINE
  8
_0-0_LAYER001
  6
CONTINUOUS
 62
    2
 10
1721.7098999999998
 20
1147.8558
 11
1726.3996999999999
 21
1121.2625
  0
LINE
  8
_0-0_LAYER001
  6
CONTINUOUS
 62
    2
 10
1625.1642000000002
 20
1114.8252
 11
1648.7462999999998
 21
1123.4084
  0
LINE
  8
_0-0_LAYER001
  6
CONTINUOUS
 62
    2
 10
1625.1642000000002
 20
1114.8252
 11
1631.0767999999998
 21
1115.8454999999999
  0
ARC
  8
_0-0_LAYER001
  6
CONTINUOUS
 62
    2
 10
1779.0598
 20
1123.8706
 40
1.5049999999999999
 50
10.451269999999999
 51
99.637527999999989
  0
ARC
  8
_0-0_LAYER001
  6
CONTINUOUS
 62
    2
 10
1778.8917999999999
 20
1110.9875
 40
1.4969999999999999
 50
259.83899000000008
 51
350.14733000000001
  0
ARC
  8
_0-0_LAYER001
  6
CONTINUOUS
 62
    2
 10
1481.7865000000002
 20
1111.9205999999999
 40
184.43133
 50
344.74495000000007
 51
3.8748450000000396
  0
CIRCLE
  8
_0-0_LAYER001
  6
CONTINUOUS
 62
    2
 10
1677.9265
 20
1091.3427999999999
 40
0.8999999999999999
  0
CIRCLE
  8
_0-0_LAYER001
  6
CONTINUOUS
 62
    2
 10
1670.6790000000001
 20
1089.0269000000001
 40
0.8999999999999999
  0
CIRCLE
  8
_0-0_LAYER001
  6
CONTINUOUS
 62
    2
 10
1676.5088000000001
 20
1078.5830000000001
 40
0.8999999999999999
  0
CIRCLE
  8
_0-0_LAYER001
  6
CONTINUOUS
 62
    2
 10
1669.2611999999999
 20
1076.2671
 40
0.8999999999999999
  0
CIRCLE
  8
_0-0_LAYER001
  6
CONTINUOUS
 62
    2
 10
1704.5803000000001
 20
1087.6566
 40
0.8999999999999999
  0
CIRCLE
  8
_0-0_LAYER001
  6
CONTINUOUS
 62
    2
 10
1697.3328000000001
 20
1085.3407
 40
0.8999999999999999
  0
CIRCLE
  8
_0-0_LAYER001
  6
CONTINUOUS
 62
    2
 10
1690.1192000000001
 20
1118.2800999999999
 40
0.8999999999999999
  0
CIRCLE
  8
_0-0_LAYER001
  6
CONTINUOUS
 62
    2
 10
1682.8717000000001
 20
1115.9641999999999
 40
0.8999999999999999
  0
CIRCLE
  8
_0-0_LAYER001
  6
CONTINUOUS
 62
    2
 10
1719.8921
 20
1091.3427999999999
 40
0.8999999999999999
  0
CIRCLE
  8
_0-0_LAYER001
  6
CONTINUOUS
 62
    2
 10
1712.6444999999999
 20
1089.0269000000001
 40
0.8999999999999999
  0
LINE
  8
_0-0_LAYER001
  6
CONTINUOUS
 62
    2
 10
1671.3829000000001
 20
1095.0768
 11
1678.6273000000001
 21
1097.018
  0
LINE
  8
_0-0_LAYER001
  6
CONTINUOUS
 62
    2
 10
1678.6273000000001
 20
1097.018
 11
1673.3240000000001
 21
1091.7147
  0
LINE
  8
_0-0_LAYER001
  6
CONTINUOUS
 62
    2
 10
1678.6273000000001
 20
1097.018
 11
1631.7703000000001
 21
1069.9650999999999
  0
LINE
  8
_0-0_LAYER001
  6
CONTINUOUS
 62
    2
 10
1697.5459999999998
 20
1154.2904000000001
 11
1697.5459999999998
 21
1146.7904000000001
  0
LINE
  8
_0-0_LAYER001
  6
CONTINUOUS
 62
    2
 10
1697.5459999999998
 20
1146.7904000000001
 11
1693.7959999999998
 21
1153.2855999999999
  0
LINE
  8
_0-0_LAYER001
  6
CONTINUOUS
 62
    2
 10
1697.5459999999998
 20
1146.7904000000001
 11
1648.0810999999999
 21
1331.3957
  0
LINE
  8
_0-0_LAYER001
  6
CONTINUOUS
 62
    2
 10
1732.7737000000002
 20
1124.5299
 11
1727.4704000000002
 21
1119.2266
  0
LINE
  8
_0-0_LAYER001
  6
CONTINUOUS
 62
    2
 10
1727.4704000000002
 20
1119.2266
 11
1729.4115000000002
 21
1126.4711
  0
LINE
  8
_0-0_LAYER001
  6
CONTINUOUS
 62
    2
 10
1727.4704000000002
 20
1119.2266
 11
1870.8285999999998
 21
1367.5302999999999
  0
LINE
  8
_0-0_LAYER001
  6
CONTINUOUS
 62
    2
 10
1870.8285999999998
 20
1367.5302999999999
 11
2001.3285999999998
 21
1367.5302999999999
  0
LINE
  8
_0-0_LAYER001
  6
CONTINUOUS
 62
    2
 10
1408.4147000000003
 20
949.39149999999995
 11
1408.4147000000003
 21
941.89149999999995
  0
LINE
  8
_0-0_LAYER001
  6
CONTINUOUS
 62
    2
 10
1408.4147000000003
 20
941.89149999999995
 11
1404.6647000000003
 21
948.38670000000002
  0
LINE
  8
_0-0_LAYER001
  6
CONTINUOUS
 62
    2
 10
1408.4147000000003
 20
941.89149999999995
 11
1380.8715999999999
 21
1044.6838
  0
LINE
  8
_0-0_LAYER001
  6
CONTINUOUS
 62
    2
 10
1380.8715999999999
 20
1044.6838
 11
1340.3715999999999
 21
1044.6838
  0
LINE
  8
_0-0_LAYER001
  6
CONTINUOUS
 62
    2
 10
1688.9137999999998
 20
1036.6822
 11
1716.2707999999998
 21
1048.9946
  0
LINE
  8
_0-0_LAYER001
  6
CONTINUOUS
 62
    2
 10
1716.2707999999998
 20
1048.9946
 11
1710.1145999999999
 21
1062.6731
  0
LINE
  8
_0-0_LAYER001
  6
CONTINUOUS
 62
    2
 10
1710.1145999999999
 20
1062.6731
 11
1682.7575999999999
 21
1050.3607
  0
LINE
  8
_0-0_LAYER001
  6
CONTINUOUS
 62
    2
 10
1682.7575999999999
 20
1050.3607
 11
1688.9137999999998
 21
1036.6822
  0
LINE
  8
_0-0_LAYER001
  6
CONTINUOUS
 62
    2
 10
1710.1145999999999
 20
1062.6731
 11
1688.9137999999998
 21
1036.6822
  0
LINE
  8
_0-0_LAYER001
  6
CONTINUOUS
 62
    4
 10
1722.8946000000001
 20
1054.5404000000001
 11
1712.5493000000001
 21
1082.8706999999999
  0
LINE
  8
_0-0_LAYER001
  6
CONTINUOUS
 62
    4
 10
1722.8946000000001
 20
1054.5404000000001
 11
1715.8002000000001
 21
1051.9665
  0
LINE
  8
_0-0_LAYER001
  6
CONTINUOUS
 62
    4
 10
1711.5439000000001
 20
1063.6983
 11
1715.8002000000001
 21
1051.9665
  0
LINE
  8
_0-0_LAYER001
  6
CONTINUOUS
 62
    4
 10
1712.5493000000001
 20
1082.8706999999999
 11
1692.8593999999998
 21
1129.7499
  0
LINE
  8
_0-0_LAYER001
  6
CONTINUOUS
 62
    2
 10
1258.4971
 20
842.96749999999997
 11
1285.8541
 21
855.27980000000002
  0
LINE
  8
_0-0_LAYER001
  6
CONTINUOUS
 62
    2
 10
1285.8541
 20
855.27980000000002
 11
1279.6978999999999
 21
868.95830000000001
  0
LINE
  8
_0-0_LAYER001
  6
CONTINUOUS
 62
    2
 10
1279.6978999999999
 20
868.95830000000001
 11
1252.3408999999999
 21
856.64599999999996
  0
LINE
  8
_0-0_LAYER001
  6
CONTINUOUS
 62
    2
 10
1252.3408999999999
 20
856.64599999999996
 11
1258.4971
 21
842.96749999999997
  0
LINE
  8
_0-0_LAYER001
  6
CONTINUOUS
 62
    2
 10
1279.6978999999999
 20
868.95830000000001
 11
1258.4971
 21
842.96749999999997
  0
LINE
  8
_0-0_LAYER001
  6
CONTINUOUS
 62
    4
 10
1293.2014999999999
 20
861.0313000000001
 11
1282.8562999999999
 21
889.36149999999998
  0
LINE
  8
_0-0_LAYER001
  6
CONTINUOUS
 62
    2
 10
1473.7053999999998
 20
939.8248000000001
 11
1501.0623999999998
 21
952.13719999999989
  0
LINE
  8
_0-0_LAYER001
  6
CONTINUOUS
 62
    2
 10
1501.0623999999998
 20
952.13719999999989
 11
1494.9063000000001
 21
965.81570000000011
  0
LINE
  8
_0-0_LAYER001
  6
CONTINUOUS
 62
    2
 10
1494.9063000000001
 20
965.81570000000011
 11
1467.5493000000001
 21
953.50330000000008
  0
LINE
  8
_0-0_LAYER001
  6
CONTINUOUS
 62
    2
 10
1467.5493000000001
 20
953.50330000000008
 11
1473.7053999999998
 21
939.8248000000001
  0
LINE
  8
_0-0_LAYER001
  6
CONTINUOUS
 62
    2
 10
1494.9063000000001
 20
965.81570000000011
 11
1473.7053999999998
 21
939.8248000000001
  0
LINE
  8
_0-0_LAYER001
  6
CONTINUOUS
 62
    4
 10
1508.0481
 20
957.78580000000011
 11
1497.7028
 21
986.11609999999996
  0
LINE
  8
_0-0_LAYER001
  6
CONTINUOUS
 62
    4
 10
1508.0481
 20
957.78580000000011
 11
1500.6010000000001
 21
955.08400000000006
  0
LINE
  8
_0-0_LAYER001
  6
CONTINUOUS
 62
    4
 10
1496.3445999999999
 20
966.81570000000011
 11
1500.6010000000001
 21
955.08400000000006
  0
LINE
  8
_0-0_LAYER001
  6
CONTINUOUS
 62
    4
 10
1293.2014999999999
 20
861.0313000000001
 11
1285.4016999999999
 21
858.2014999999999
  0
LINE
  8
_0-0_LAYER001
  6
CONTINUOUS
 62
    4
 10
1281.1454000000001
 20
869.93319999999994
 11
1285.4016999999999
 21
858.2014999999999
  0
LINE
  8
_0-0_LAYER001
  6
CONTINUOUS
 62
    4
 10
1220.825
 20
885.66399999999999
 11
1711.5439000000001
 21
1063.6983
  0
LINE
  8
_0-0_LAYER001
  6
CONTINUOUS
 62
    4
 10
1203.5051000000001
 20
933.40319999999997
 11
1414.48
 21
1009.9455
  0
LINE
  8
_0-0_LAYER001
  6
CONTINUOUS
 62
    4
 10
1412.0967999999998
 20
1016.8251
 11
1431.8995
 21
962.24250000000006
  0
ARC
  8
_0-0_LAYER001
  6
CONTINUOUS
 62
    4
 10
1421.8732
 20
1020.3721
 40
10.4
 50
109.94091000000002
 51
199.94091
  0
ARC
  8
_0-0_LAYER001
  6
CONTINUOUS
 62
    4
 10
1224.3466000000001
 20
875.87840000000006
 40
10.4
 50
109.94091000000002
 51
199.94091
  0
ARC
  8
_0-0_LAYER001
  6
CONTINUOUS
 62
    4
 10
1439.1931
 20
972.63290000000006
 40
10.4
 50
109.94091000000002
 51
199.94091
  0
LINE
  8
_0-0_LAYER001
  6
CONTINUOUS
 62
    4
 10
1434.7656999999999
 20
982.08999999999992
 11
1712.5493000000001
 21
1082.8706999999999
  0
LINE
  8
_0-0_LAYER001
  6
CONTINUOUS
 62
    4
 10
1412.0967999999998
 20
1016.8251
 11
1425.8697000000002
 21
978.86249999999995
  0
LINE
  8
_0-0_LAYER001
  6
CONTINUOUS
 62
    4
 10
1176.3686
 20
831.9199000000001
 11
1281.1454000000001
 21
869.93319999999994
  0
LINE
  8
_0-0_LAYER001
  6
CONTINUOUS
 62
    4
 10
1148.0897
 20
894.49070000000006
 11
1199.6333999999999
 21
913.19090000000006
  0
LINE
  8
_0-0_LAYER001
  6
CONTINUOUS
 62
    4
 10
1203.28
 20
903.45059999999989
 11
1217.0530000000001
 21
865.48790000000008
  0
LINE
  8
_0-0_LAYER001
  6
CONTINUOUS
 62
    4
 10
1169.0659000000001
 20
848.07809999999995
 11
1496.3445999999999
 21
966.81570000000011
  0
LINE
  8
_0-0_LAYER001
  6
CONTINUOUS
 62
    4
 10
1417.4458
 20
1029.8290999999999
 11
1692.8593999999998
 21
1129.7499
  0
LINE
  8
_0-0_LAYER001
  6
CONTINUOUS
 62
    4
 10
1197.2501999999999
 20
920.07060000000001
 11
1217.0530000000001
 21
865.48790000000008
  0
ARC
  8
_0-0_LAYER001
  6
CONTINUOUS
 62
    4
 10
1207.0266999999999
 20
923.61750000000006
 40
10.4
 50
109.94091000000002
 51
199.94091
  0
LINE
  8
_0-0_LAYER001
  6
CONTINUOUS
 62
    2
 10
1161.4038
 20
1017.8818000000001
 11
1179.412
 21
968.56700000000001
  0
CIRCLE
  8
_0-0_LAYER001
  6
CONTINUOUS
 62
    2
 10
1162.2612999999999
 20
1015.5335
 40
1.6999999999999997
  0
LINE
  8
_0-0_LAYER001
  6
CONTINUOUS
 62
    2
 10
1162.2612999999999
 20
1015.5335
 11
1383.0041000000001
 21
1096.1414
  0
CIRCLE
  8
_0-0_LAYER001
  6
CONTINUOUS
 62
    2
 10
1383.0041000000001
 20
1096.1414
 40
1.6999999999999997
  0
LINE
  8
_0-0_LAYER001
  6
CONTINUOUS
 62
    2
 10
1382.1466
 20
1098.4897000000001
 11
1400.1547
 21
1049.1749
  0
LINE
  8
_0-0_LAYER001
  6
CONTINUOUS
 62
    2
 10
1654.922
 20
1240.6817000000001
 11
1672.9301999999998
 21
1191.3669
  0
CIRCLE
  8
_0-0_LAYER001
  6
CONTINUOUS
 62
    2
 10
1655.7795000000001
 20
1238.3334
 40
1.6999999999999997
  0
LINE
  8
_0-0_LAYER001
  6
CONTINUOUS
 62
    2
 10
1655.7795000000001
 20
1238.3334
 11
1369.2836
 21
1133.7146
  0
CIRCLE
  8
_0-0_LAYER001
  6
CONTINUOUS
 62
    2
 10
1369.2836
 20
1133.7146
 40
1.6999999999999997
  0
LINE
  8
_0-0_LAYER001
  6
CONTINUOUS
 62
    2
 10
1368.4260999999997
 20
1136.0630000000001
 11
1386.4341999999999
 21
1086.7481
  0
LINE
  8
_0-0_LAYER001
  6
CONTINUOUS
 62
    2
 10
1750.8683999999998
 20
1257.4213
 11
1745.5650999999998
 21
1252.1179999999999
  0
LINE
  8
_0-0_LAYER001
  6
CONTINUOUS
 62
    2
 10
1745.5650999999998
 20
1252.1179999999999
 11
1747.5061999999998
 21
1259.3625
  0
LINE
  8
_0-0_LAYER001
  6
CONTINUOUS
 62
    2
 10
1745.5650999999998
 20
1252.1179999999999
 11
1835.4688000000001
 21
1407.8359
  0
LINE
  8
_0-0_LAYER001
  6
CONTINUOUS
 62
    2
 10
1835.4688000000001
 20
1407.8359
 11
1916.4688000000001
 21
1407.8359
  0
LINE
  8
_0-0_LAYER001
  6
CONTINUOUS
 62
    2
 10
1627.0859999999998
 20
1155.3214
 11
1654.5859999999998
 21
1155.3214
  0
CIRCLE
  8
_0-0_LAYER001
  6
CONTINUOUS
 62
    2
 10
1629.5859999999998
 20
1155.3214
 40
1.6999999999999997
  0
LINE
  8
_0-0_LAYER001
  6
CONTINUOUS
 62
    2
 10
1629.5859999999998
 20
1155.3214
 11
1629.5859999999998
 21
1245.3214
  0
CIRCLE
  8
_0-0_LAYER001
  6
CONTINUOUS
 62
    2
 10
1629.5859999999998
 20
1245.3214
 40
1.6999999999999997
  0
LINE
  8
_0-0_LAYER001
  6
CONTINUOUS
 62
    2
 10
1627.0859999999998
 20
1245.3214
 11
1654.5859999999998
 21
1245.3214
  0
CIRCLE
  8
_0-0_LAYER001
  6
CONTINUOUS
 62
    2
 10
1629.5859999999998
 20
1245.3214
 40
1.6999999999999997
  0
LINE
  8
_0-0_LAYER001
  6
CONTINUOUS
 62
    2
 10
1629.5859999999998
 20
1245.3214
 11
1629.5859999999998
 21
1260.3214
  0
CIRCLE
  8
_0-0_LAYER001
  6
CONTINUOUS
 62
    2
 10
1629.5859999999998
 20
1260.3214
 40
1.6999999999999997
  0
LINE
  8
_0-0_LAYER001
  6
CONTINUOUS
 62
    2
 10
1627.0859999999998
 20
1260.3214
 11
1654.5859999999998
 21
1260.3214
  0
LINE
  8
_0-0_LAYER001
  6
CONTINUOUS
 62
    2
 10
1718.0538000000001
 20
1149.3499999999999
 11
1718.0538000000001
 21
1141.8499999999999
  0
LINE
  8
_0-0_LAYER001
  6
CONTINUOUS
 62
    2
 10
1718.0538000000001
 20
1141.8499999999999
 11
1714.3038000000001
 21
1148.3452
  0
LINE
  8
_0-0_LAYER001
  6
CONTINUOUS
 62
    2
 10
1718.0538000000001
 20
1141.8499999999999
 11
1657.2568999999999
 21
1368.7469000000001
  0
LINE
  8
_0-0_LAYER001
  6
CONTINUOUS
 62
    2
 10
1631.7703000000001
 20
1069.9650999999999
 11
1583.2183
 21
1251.1636000000001
  0
LINE
  8
_0-0_LAYER001
  6
CONTINUOUS
 62
    2
 10
1583.2183
 20
1251.1636000000001
 11
1500.8445000000002
 21
1251.1636000000001
  0
LINE
  8
_0-0_LAYER001
  6
CONTINUOUS
 62
    2
 10
1825.7129
 20
1159.6020000000001
 11
1820.4096
 21
1154.2987000000001
  0
LINE
  8
_0-0_LAYER001
  6
CONTINUOUS
 62
    2
 10
1820.4096
 20
1154.2987000000001
 11
1822.3507
 21
1161.5432000000001
  0
LINE
  8
_0-0_LAYER001
  6
CONTINUOUS
 62
    2
 10
1820.4096
 20
1154.2987000000001
 11
1881.5720000000001
 21
1260.2351000000001
  0
LINE
  8
_0-0_LAYER001
  6
CONTINUOUS
 62
    2
 10
1881.5720000000001
 20
1260.2351000000001
 11
2121.6156999999998
 21
1260.2351000000001
  0
LINE
  8
_0-0_LAYER001
  6
DASHED3
 62
    2
 10
1737.6958
 20
1054.2494999999999
 11
1187.9755
 21
806.87580000000003
  0
LINE
  8
_0-0_LAYER001
  6
CONTINUOUS
 62
    2
 10
1452.3206
 20
868.80850000000009
 11
1386.2063000000001
 21
893.88640000000009
  0
LINE
  8
_0-0_LAYER001
  6
CONTINUOUS
 62
    2
 10
1456.1894000000002
 20
870.54950000000008
 11
1390.0751
 21
895.62740000000008
  0
LINE
  8
_0-0_LAYER001
  6
CONTINUOUS
 62
    2
 10
1645.7683999999999
 20
955.85979999999995
 11
1579.6541000000002
 21
980.93769999999995
  0
LINE
  8
_0-0_LAYER001
  6
CONTINUOUS
 62
    2
 10
1649.6374000000001
 20
957.60079999999994
 11
1583.5230000000001
 21
982.67869999999994
  0
LINE
  8
_0-0_LAYER001
  6
CONTINUOUS
 62
    2
 10
1747.1502
 20
913.75510000000008
 11
1749.2473
 21
914.69879999999989
  0
LINE
  8
_0-0_LAYER001
  6
CONTINUOUS
 62
    2
 10
1722.5264999999999
 20
968.46980000000008
 11
1724.6242999999999
 21
969.41339999999991
  0
LINE
  8
_0-0_LAYER001
  6
CONTINUOUS
 62
    2
 10
1716.3710000000001
 20
982.14930000000004
 11
1722.5264999999999
 21
968.46980000000008
  0
LINE
  8
_0-0_LAYER001
  6
CONTINUOUS
 62
    2
 10
1676.3245999999999
 20
967.08919999999989
 11
1712.8002999999999
 21
983.50320000000011
  0
LINE
  8
_0-0_LAYER001
  6
CONTINUOUS
 62
    2
 10
1711.8577
 20
985.60020000000009
 11
1675.3800999999999
 21
969.18509999999992
  0
LINE
  8
_0-0_LAYER001
  6
CONTINUOUS
 62
    2
 10
1718.4686999999999
 20
983.0929000000001
 11
1724.6242999999999
 21
969.41339999999991
  0
LINE
  8
_0-0_LAYER001
  6
CONTINUOUS
 62
    2
 10
1709.8058000000001
 20
880.50009999999997
 11
1672.8726000000001
 21
962.57390000000009
  0
LINE
  8
_0-0_LAYER001
  6
CONTINUOUS
 62
    2
 10
1752.8955999999998
 20
894.4081000000001
 11
1716.4169000000002
 21
877.99270000000001
  0
LINE
  8
_0-0_LAYER001
  6
CONTINUOUS
 62
    2
 10
1755.4029
 20
901.01909999999998
 11
1749.2473
 21
914.69879999999989
  0
LINE
  8
_0-0_LAYER001
  6
CONTINUOUS
 62
    2
 10
1753.3060999999998
 20
900.07559999999989
 11
1747.1502
 21
913.75510000000008
  0
LINE
  8
_0-0_LAYER001
  6
CONTINUOUS
 62
    2
 10
1715.4744999999998
 20
880.08979999999997
 11
1751.9520000000002
 21
896.50500000000011
  0
LINE
  8
_0-0_LAYER001
  6
CONTINUOUS
 62
    2
 10
1711.9038
 20
881.44380000000001
 11
1674.9706999999999
 21
963.51860000000011
  0
LINE
  8
_0-0_LAYER001
  6
CONTINUOUS
 62
    2
 10
1715.9621000000002
 20
866.82320000000004
 11
1679.0281
 21
948.89589999999998
  0
LINE
  8
_0-0_LAYER001
  6
CONTINUOUS
 62
    2
 10
1674.6968000000002
 20
941.46379999999999
 11
1702.6023
 21
879.45370000000003
  0
LINE
  8
_0-0_LAYER001
  6
CONTINUOUS
 62
    2
 10
1677.2042000000001
 20
948.07590000000005
 11
1679.0281
 21
948.89589999999998
  0
LINE
  8
_0-0_LAYER001
  6
CONTINUOUS
 62
    2
 10
1635.5756000000001
 20
838.32510000000002
 11
1697.5866999999998
 21
866.23060000000009
  0
LINE
  8
_0-0_LAYER001
  6
CONTINUOUS
 62
    2
 10
1693.4364
 20
922.4822999999999
 11
1696.1727000000001
 21
923.71319999999992
  0
LINE
  8
_0-0_LAYER001
  6
CONTINUOUS
 62
    2
 10
1686.8706000000002
 20
937.07240000000002
 11
1689.6066999999998
 21
938.30340000000001
  0
LINE
  8
_0-0_LAYER001
  6
CONTINUOUS
 62
    2
 10
1702.7381999999998
 20
909.12419999999997
 11
1689.6066999999998
 21
938.30340000000001
  0
LINE
  8
_0-0_LAYER001
  6
CONTINUOUS
 62
    2
 10
1700.0019000000002
 20
907.8922
 11
1702.7381999999998
 21
909.12419999999997
  0
LINE
  8
_0-0_LAYER001
  6
CONTINUOUS
 62
    2
 10
1702.0093999999999
 20
935.1117999999999
 11
1712.6785
 21
939.91370000000006
  0
LINE
  8
_0-0_LAYER001
  6
CONTINUOUS
 62
    2
 10
1708.5747999999999
 20
920.52260000000001
 11
1719.2440999999999
 21
925.32339999999999
  0
LINE
  8
_0-0_LAYER001
  6
CONTINUOUS
 62
    2
 10
1707.1568000000002
 20
921.0610999999999
 11
1699.0154000000002
 21
917.39799999999991
  0
LINE
  8
_0-0_LAYER001
  6
CONTINUOUS
 62
    2
 10
1701.4708000000001
 20
933.69560000000001
 11
1693.3305
 21
930.0317
  0
LINE
  8
_0-0_LAYER001
  6
CONTINUOUS
 62
    2
 10
1698.6288
 20
940.0139999999999
 11
1690.4863999999998
 21
936.34989999999993
  0
LINE
  8
_0-0_LAYER001
  6
CONTINUOUS
 62
    2
 10
1700.3661000000002
 20
938.7623000000001
 11
1698.6288
 21
940.0139999999999
  0
LINE
  8
_0-0_LAYER001
  6
CONTINUOUS
 62
    2
 10
1710.2157000000002
 20
916.87580000000003
 11
1700.3661000000002
 21
938.7623000000001
  0
LINE
  8
_0-0_LAYER001
  6
CONTINUOUS
 62
    2
 10
1709.9998999999998
 20
914.74260000000004
 11
1701.8586
 21
911.07870000000003
  0
LINE
  8
_0-0_LAYER001
  6
CONTINUOUS
 62
    2
 10
1710.2157000000002
 20
916.87580000000003
 11
1709.9998999999998
 21
914.74260000000004
  0
LINE
  8
_0-0_LAYER001
  6
CONTINUOUS
 62
    2
 10
1720.248
 20
927.96839999999997
 11
1719.2440999999999
 21
925.32339999999999
  0
LINE
  8
_0-0_LAYER001
  6
CONTINUOUS
 62
    2
 10
1715.3233
 20
938.91059999999993
 11
1720.248
 21
927.96839999999997
  0
LINE
  8
_0-0_LAYER001
  6
CONTINUOUS
 62
    2
 10
1712.6785
 20
939.91370000000006
 11
1715.3233
 21
938.91059999999993
  0
LINE
  8
_0-0_LAYER001
  6
CONTINUOUS
 62
    2
 10
1712.6785
 20
939.91370000000006
 11
1719.2440999999999
 21
925.32339999999999
  0
LINE
  8
_0-0_LAYER001
  6
CONTINUOUS
 62
    2
 10
1712.6785
 20
939.91370000000006
 11
1716.6707999999999
 21
924.16560000000004
  0
LINE
  8
_0-0_LAYER001
  6
CONTINUOUS
 62
    2
 10
1707.1223
 20
937.41309999999999
 11
1711.1158
 21
921.66509999999994
  0
LINE
  8
_0-0_LAYER001
  6
CONTINUOUS
 62
    2
 10
1673.9712
 20
921.31909999999993
 11
1682.1122999999998
 21
924.98219999999992
  0
LINE
  8
_0-0_LAYER001
  6
CONTINUOUS
 62
    2
 10
1679.6570000000002
 20
908.6844000000001
 11
1687.7984000000001
 21
912.34850000000006
  0
LINE
  8
_0-0_LAYER001
  6
CONTINUOUS
 62
    2
 10
1682.4994000000002
 20
902.36629999999991
 11
1690.6414
 21
906.03009999999995
  0
LINE
  8
_0-0_LAYER001
  6
CONTINUOUS
 62
    2
 10
1680.7617
 20
903.61770000000001
 11
1682.4994000000002
 21
902.36629999999991
  0
LINE
  8
_0-0_LAYER001
  6
CONTINUOUS
 62
    2
 10
1670.9122000000002
 20
925.50440000000003
 11
1680.7617
 21
903.61770000000001
  0
LINE
  8
_0-0_LAYER001
  6
CONTINUOUS
 62
    2
 10
1671.1279
 20
927.6373000000001
 11
1679.2691
 21
931.30130000000008
  0
LINE
  8
_0-0_LAYER001
  6
CONTINUOUS
 62
    2
 10
1670.9122000000002
 20
925.50440000000003
 11
1671.1279
 21
927.6373000000001
  0
LINE
  8
_0-0_LAYER001
  6
CONTINUOUS
 62
    2
 10
1633.0682999999999
 20
831.71389999999997
 11
1633.8890999999999
 21
829.8900000000001
  0
LINE
  8
_0-0_LAYER001
  6
CONTINUOUS
 62
    2
 10
1633.8890999999999
 20
829.8900000000001
 11
1715.9623000000001
 21
866.82279999999992
  0
LINE
  8
_0-0_LAYER001
  6
CONTINUOUS
 62
    2
 10
1677.6606999999999
 20
1025.0418
 11
1668.5403999999999
 21
1020.9376999999999
  0
LINE
  8
_0-0_LAYER001
  6
CONTINUOUS
 62
    2
 10
1678.8906999999999
 20
1022.3053
 11
1669.7721999999999
 21
1018.2026000000001
  0
LINE
  8
_0-0_LAYER001
  6
CONTINUOUS
 62
    2
 10
1668.5403999999999
 20
1020.9376999999999
 11
1669.7721999999999
 21
1018.2026000000001
  0
LINE
  8
_0-0_LAYER001
  6
CONTINUOUS
 62
    2
 10
1677.6606999999999
 20
1025.0418
 11
1678.8906999999999
 21
1022.3053
  0
LINE
  8
_0-0_LAYER001
  6
CONTINUOUS
 62
    2
 10
1673.1007
 20
1022.9898000000001
 11
1674.3314
 21
1020.2534000000001
  0
LINE
  8
_0-0_LAYER001
  6
CONTINUOUS
 62
    2
 10
1699.7741999999998
 20
963.71499999999992
 11
1695.652
 21
968.00119999999993
  0
LINE
  8
_0-0_LAYER001
  6
CONTINUOUS
 62
    2
 10
1699.7741999999998
 20
963.71499999999992
 11
1699.2997999999998
 21
969.64200000000005
  0
LINE
  8
_0-0_LAYER001
  6
CONTINUOUS
 62
    2
 10
1677.9866999999999
 20
1004.2419
 11
1683.6145000000001
 21
1007.9332999999999
  0
LINE
  8
_0-0_LAYER001
  6
CONTINUOUS
 62
    2
 10
1680.0387000000001
 20
999.68270000000007
 11
1685.6676000000002
 21
1003.3732
  0
LINE
  8
_0-0_LAYER001
  6
CONTINUOUS
 62
    2
 10
1682.0916000000002
 20
995.12239999999997
 11
1687.7192
 21
998.81400000000008
  0
LINE
  8
_0-0_LAYER001
  6
CONTINUOUS
 62
    2
 10
1684.1424999999999
 20
990.56220000000008
 11
1689.7701999999999
 21
994.25479999999993
  0
LINE
  8
_0-0_LAYER001
  6
CONTINUOUS
 62
    2
 10
1686.1943999999999
 20
986.00389999999993
 11
1691.8220999999999
 21
989.69550000000004
  0
LINE
  8
_0-0_LAYER001
  6
CONTINUOUS
 62
    2
 10
1688.2462
 20
981.44370000000004
 11
1693.8751000000002
 21
985.13539999999989
  0
LINE
  8
_0-0_LAYER001
  6
CONTINUOUS
 62
    2
 10
1690.2991000000002
 20
976.88449999999989
 11
1695.9259999999999
 21
980.57510000000002
  0
LINE
  8
_0-0_LAYER001
  6
CONTINUOUS
 62
    2
 10
1692.3501000000001
 20
972.32420000000002
 11
1697.9778000000001
 21
976.01600000000008
  0
LINE
  8
_0-0_LAYER001
  6
CONTINUOUS
 62
    2
 10
1693.886
 20
968.91219999999998
 11
1699.5135
 21
972.60390000000007
  0
LINE
  8
_0-0_LAYER001
  6
CONTINUOUS
 62
    2
 10
1677.3863999999999
 20
1018.3409999999999
 11
1699.2997999999998
 21
969.64200000000005
  0
LINE
  8
_0-0_LAYER001
  6
CONTINUOUS
 62
    2
 10
1678.8906999999999
 20
1022.3053
 11
1677.3863999999999
 21
1018.3409999999999
  0
LINE
  8
_0-0_LAYER001
  6
CONTINUOUS
 62
    2
 10
1673.7397000000001
 20
1016.6971000000001
 11
1695.652
 21
968.00119999999993
  0
LINE
  8
_0-0_LAYER001
  6
CONTINUOUS
 62
    2
 10
1669.7721999999999
 20
1018.2026000000001
 11
1673.7397000000001
 21
1016.6971000000001
  0
LINE
  8
_0-0_LAYER001
  6
CONTINUOUS
 62
    2
 10
1839.6958
 20
998.12709999999993
 11
1839.6958
 21
1383.5920000000001
  0
LINE
  8
_0-0_LAYER001
  6
CONTINUOUS
 62
    2
 10
1852.75
 20
928.37689999999998
 11
1254.4545000000001
 21
659.14450000000011
  0
LINE
  8
_0-0_LAYER001
  6
CONTINUOUS
 62
    2
 10
1839.6958
 20
1052.4905000000001
 11
1739.6958
 21
1152.4902999999999
  0
LINE
  8
_0-0_LAYER001
  6
CONTINUOUS
 62
    2
 10
1839.6958
 20
1048.2478000000001
 11
1739.6958
 21
1148.2478000000001
  0
LINE
  8
_0-0_LAYER001
  6
CONTINUOUS
 62
    2
 10
1839.6958
 20
1264.4905000000001
 11
1739.6958
 21
1364.4902
  0
LINE
  8
_0-0_LAYER001
  6
CONTINUOUS
 62
    2
 10
1839.6958
 20
1260.2479000000001
 11
1739.6958
 21
1360.2478000000001
  0
LINE
  8
_0-0_LAYER001
  6
CONTINUOUS
 62
    2
 10
1739.6958
 20
998.12709999999993
 11
1719.1777000000002
 21
1043.7230999999999
  0
LINE
  8
_0-0_LAYER001
  6
CONTINUOUS
 62
    2
 10
1694.0997000000002
 20
977.60889999999995
 11
1673.5816
 21
1023.2049999999999
  0
LINE
  8
_0-0_LAYER001
  6
CONTINUOUS
 62
    2
 10
1719.1777000000002
 20
1043.7230999999999
 11
1188.7962
 21
805.05199999999991
  0
LINE
  8
_0-0_LAYER001
  6
CONTINUOUS
 62
    2
 10
1739.6958
 20
998.12709999999993
 11
1209.3144
 21
759.45589999999993
  0
LINE
  8
_0-0_LAYER001
  6
DASHED3
 62
    2
 10
1737.6958
 20
1054.2494999999999
 11
1737.6958
 21
1205.7614000000001
  0
LINE
  8
_0-0_LAYER001
  6
CONTINUOUS
 62
    2
 10
1737.0958999999998
 20
1241.7864999999999
 11
1734.3164000000002
 21
1226.4362000000001
  0
LINE
  8
_0-0_LAYER001
  6
CONTINUOUS
 62
    2
 10
1755.2959000000001
 20
1241.7864999999999
 11
1755.2959000000001
 21
1262.5864999999999
  0
LINE
  8
_0-0_LAYER001
  6
CONTINUOUS
 62
    2
 10
1753.2159000000001
 20
1243.8665000000001
 11
1753.2159000000001
 21
1259.4666
  0
LINE
  8
_0-0_LAYER001
  6
CONTINUOUS
 62
    2
 10
1753.2159000000001
 20
1243.8665000000001
 11
1742.1210000000001
 21
1254.9613999999999
  0
LINE
  8
_0-0_LAYER001
  6
CONTINUOUS
 62
    2
 10
1748.8035
 20
1243.8665000000001
 11
1742.2269999999999
 21
1250.443
  0
LINE
  8
_0-0_LAYER001
  6
CONTINUOUS
 62
    2
 10
1744.3910999999998
 20
1243.8665000000001
 11
1741.5945000000002
 21
1246.6632
  0
LINE
  8
_0-0_LAYER001
  6
CONTINUOUS
 62
    2
 10
1741.9297999999999
 20
1248.1804999999999
 11
1753.2159000000001
 21
1259.4665
  0
LINE
  8
_0-0_LAYER001
  6
CONTINUOUS
 62
    2
 10
1742.2828
 20
1252.9458999999999
 11
1751.9234999999999
 21
1262.5864999999999
  0
LINE
  8
_0-0_LAYER001
  6
CONTINUOUS
 62
    2
 10
1741.7939999999999
 20
1256.8695
 11
1747.511
 21
1262.5864999999999
  0
LINE
  8
_0-0_LAYER001
  6
CONTINUOUS
 62
    2
 10
1746.4405999999999
 20
1243.8665000000001
 11
1751.5675000000001
 21
1248.9935
  0
LINE
  8
_0-0_LAYER001
  6
CONTINUOUS
 62
    2
 10
1750.8528999999999
 20
1243.8665000000001
 11
1752.9009999999998
 21
1245.9146000000001
  0
LINE
  8
_0-0_LAYER001
  6
CONTINUOUS
 62
    2
 10
1751.3022999999998
 20
1250.1922999999999
 11
1740.4373000000001
 21
1261.0572999999999
  0
LINE
  8
_0-0_LAYER001
  6
CONTINUOUS
 62
    2
 10
1751.3681999999999
 20
1254.5389
 11
1743.3207000000002
 21
1262.5864999999999
  0
LINE
  8
_0-0_LAYER001
  6
CONTINUOUS
 62
    2
 10
1742.0282000000002
 20
1243.8665000000001
 11
1751.1635000000001
 21
1253.0018
  0
LINE
  8
_0-0_LAYER001
  6
CONTINUOUS
 62
    2
 10
1740.7694000000001
 20
1260.2574
 11
1743.0985000000001
 21
1262.5864999999999
  0
LINE
  8
_0-0_LAYER001
  6
CONTINUOUS
 62
    2
 10
1752.5241000000001
 20
1257.7954999999999
 11
1747.7330999999999
 21
1262.5864999999999
  0
LINE
  8
_0-0_LAYER001
  6
CONTINUOUS
 62
    2
 10
1753.2159000000001
 20
1261.5161000000001
 11
1752.1455000000001
 21
1262.5864999999999
  0
LINE
  8
_0-0_LAYER001
  6
CONTINUOUS
 62
    2
 10
1753.2159000000001
 20
1259.4665
 11
1753.2159000000001
 21
1262.5864999999999
  0
LINE
  8
_0-0_LAYER001
  6
CONTINUOUS
 62
    2
 10
1755.2959000000001
 20
1241.7864999999999
 11
1739.6958
 21
1241.7864999999999
  0
LINE
  8
_0-0_LAYER001
  6
CONTINUOUS
 62
    2
 10
1737.6958
 20
1153.3865000000001
 11
1737.6958
 21
1241.7864999999999
  0
LINE
  8
_0-0_LAYER001
  6
CONTINUOUS
 62
    2
 10
1739.6958
 20
998.12709999999993
 11
1739.6958
 21
1241.7864999999999
  0
LINE
  8
_0-0_LAYER001
  6
CONTINUOUS
 62
    2
 10
1755.2959000000001
 20
1262.5864999999999
 11
1739.6958
 21
1262.5864999999999
  0
LINE
  8
_0-0_LAYER001
  6
CONTINUOUS
 62
    2
 10
1739.6958
 20
1262.5864999999999
 11
1739.6958
 21
1383.5920000000001
  0
LINE
  8
_0-0_LAYER001
  6
CONTINUOUS
 62
    2
 10
1753.2159000000001
 20
1243.8665000000001
 11
1735.2957999999999
 21
1243.8665000000001
  0
LINE
  8
_0-0_LAYER001
  6
CONTINUOUS
 62
    2
 10
1735.2957999999999
 20
1211.3865000000001
 11
1735.2957999999999
 21
1243.8665000000001
  0
CIRCLE
  8
_0-0_LAYER001
  6
CONTINUOUS
 62
    2
 10
1734.2633999999998
 20
1084.0977
 40
0.8999999999999999
  0
CIRCLE
  8
_0-0_LAYER001
  6
CONTINUOUS
 62
    2
 10
1729.5612999999998
 20
1069.2081000000001
 40
0.8999999999999999
  0
CIRCLE
  8
_0-0_LAYER001
  6
CONTINUOUS
 62
    2
 10
1725.643
 20
1089.5834
 40
0.8999999999999999
  0
CIRCLE
  8
_0-0_LAYER001
  6
CONTINUOUS
 62
    2
 10
1690.3780999999999
 20
1095.069
 40
0.8999999999999999
  0
CIRCLE
  8
_0-0_LAYER001
  6
CONTINUOUS
 62
    2
 10
1690.3780999999999
 20
1080.9630999999999
 40
0.8999999999999999
  0
CIRCLE
  8
_0-0_LAYER001
  6
CONTINUOUS
 62
    2
 10
1676.2721999999999
 20
1073.1264000000001
 40
0.8999999999999999
  0
CIRCLE
  8
_0-0_LAYER001
  6
CONTINUOUS
 62
    2
 10
1702.9168
 20
1096.6362999999999
 40
0.8999999999999999
  0
ARC
  8
_0-0_LAYER001
  6
CONTINUOUS
 62
    2
 10
1713.9086000000002
 20
981.04089999999997
 40
2.7000000000000002
 50
24.240372000000001
 51
114.23248000000001
  0
ARC
  8
_0-0_LAYER001
  6
CONTINUOUS
 62
    2
 10
1677.4328
 20
964.62689999999998
 40
2.7000000000000002
 50
114.23248000000001
 51
204.21279999999999
  0
ARC
  8
_0-0_LAYER001
  6
CONTINUOUS
 62
    2
 10
1677.4308000000001
 20
964.6259
 40
4.9989999999999997
 50
114.22009000000001
 51
204.23074000000003
  0
ARC
  8
_0-0_LAYER001
  6
CONTINUOUS
 62
    2
 10
1713.9096
 20
981.04220000000009
 40
4.9989999999999997
 50
24.224352
 51
114.24136000000001
  0
ARC
  8
_0-0_LAYER001
  6
CONTINUOUS
 62
    2
 10
1714.3649
 20
882.55089999999996
 40
4.9989999999999997
 50
204.20946000000004
 51
294.23500000000001
  0
ARC
  8
_0-0_LAYER001
  6
CONTINUOUS
 62
    2
 10
1750.8445999999999
 20
898.96720000000005
 40
4.9989999999999997
 50
294.21370999999999
 51
24.245641999999961
  0
ARC
  8
_0-0_LAYER001
  6
CONTINUOUS
 62
    2
 10
1750.8434999999999
 20
898.96730000000002
 40
2.7000000000000002
 50
294.22066999999998
 51
24.240371999999976
  0
ARC
  8
_0-0_LAYER001
  6
CONTINUOUS
 62
    2
 10
1714.3658
 20
882.55189999999993
 40
2.7000000000000002
 50
204.21279999999999
 51
294.22066999999998
  0
ARC
  8
_0-0_LAYER001
  6
CONTINUOUS
 62
    2
 10
1693.4809
 20
875.35089999999991
 40
10.001999
 50
294.23665999999992
 51
24.223891999999939
  0
ARC
  8
_0-0_LAYER001
  6
CONTINUOUS
 62
    2
 10
1679.2550000000001
 20
943.51569999999992
 40
4.9989999999999997
 50
114.22009000000001
 51
204.23074000000003
  0
ARC
  8
_0-0_LAYER001
  6
CONTINUOUS
 62
    2
 10
1637.6262999999999
 20
833.76559999999995
 40
4.9989999999999997
 50
114.22009000000001
 51
204.23074000000003
  0
ARC
  8
_0-0_LAYER001
  6
CONTINUOUS
 62
    2
 10
1695.4173999999998
 20
934.77909999999997
 40
6.1470010000000013
 50
349.86246
 51
23.869741999999949
  0
ARC
  8
_0-0_LAYER001
  6
CONTINUOUS
 62
    2
 10
1703.9434999999999
 20
915.80619999999999
 40
6.1580000000000004
 50
24.600922000000004
 51
58.555572000000005
  0
ARC
  8
_0-0_LAYER001
  6
CONTINUOUS
 62
    2
 10
1684.4092000000001
 20
918.42239999999993
 40
22.898997999999999
 50
6.6164920000000009
 51
41.832002000000003
  0
ARC
  8
_0-0_LAYER001
  6
CONTINUOUS
 62
    2
 10
1685.7114000000001
 20
907.60380000000009
 40
6.1479999999999997
 50
169.87799999999999
 51
203.89275000000001
  0
ARC
  8
_0-0_LAYER001
  6
CONTINUOUS
 62
    2
 10
1677.1777999999999
 20
926.56549999999993
 40
6.1479999999999997
 50
204.55376000000004
 51
238.55601999999999
  0
ARC
  8
_0-0_LAYER001
  6
CONTINUOUS
 62
    2
 10
1696.7541000000001
 20
923.97520000000009
 40
22.936000999999997
 50
186.64732000000004
 51
221.80409000000003
  0
ARC
  8
_0-0_LAYER001
  6
CONTINUOUS
 62
    2
 10
1720.1959999999999
 20
1252.1865
 40
22.099885999999998
 50
337.88465000000002
 51
28.072639999999978
  0
CIRCLE
  8
_0-0_LAYER001
  6
CONTINUOUS
 62
    2
 10
1686.4331000000002
 20
1106.3267000000001
 40
0.8999999999999999
  0
CIRCLE
  8
_0-0_LAYER001
  6
CONTINUOUS
 62
    2
 10
1678.3022999999998
 20
1085.8231000000001
 40
0.8999999999999999
  0
CIRCLE
  8
_0-0_LAYER001
  6
CONTINUOUS
 62
    2
 10
1670.5250999999998
 20
1101.0241000000001
 40
0.8999999999999999
  0
CIRCLE
  8
_0-0_LAYER001
  6
CONTINUOUS
 62
    2
 10
1721.4901
 20
1075.6062999999999
 40
0.8999999999999999
  0
CIRCLE
  8
_0-0_LAYER001
  6
CONTINUOUS
 62
    2
 10
1679.1855
 20
1104.0109
 40
0.8999999999999999
  0
LINE
  8
_0-0_LAYER001
  6
CONTINUOUS
 62
    2
 10
1184.4438
 20
1252.8297
 11
979.62110000000007
 21
1252.8297
  0
LINE
  8
_0-0_LAYER001
  6
CONTINUOUS
 62
    2
 10
1288.8303000000001
 20
870.75430000000006
 11
1288.8303000000001
 21
863.25430000000006
  0
LINE
  8
_0-0_LAYER001
  6
CONTINUOUS
 62
    2
 10
1288.8303000000001
 20
863.25430000000006
 11
1285.0803000000001
 21
869.7494999999999
  0
LINE
  8
_0-0_LAYER001
  6
CONTINUOUS
 62
    2
 10
1288.8303000000001
 20
863.25430000000006
 11
1184.4438
 21
1252.8297
  0
LINE
  8
_0-1_LAYER003
  6
CONTINUOUS
 62
   18
 10
979.62110000000007
 20
1252.8297
 11
1184.4438
 21
1252.8297
  0
LINE
  8
_0-1_LAYER003
  6
CONTINUOUS
 62
   18
 10
1414.0811000000003
 20
1331.3957
 11
1648.0810999999999
 21
1331.3957
  0
LINE
  8
_0-1_LAYER003
  6
CONTINUOUS
 62
   18
 10
1500.8445000000002
 20
1251.1636000000001
 11
1583.2183
 21
1251.1636000000001
  0
LINE
  8
_0-1_LAYER003
  6
CONTINUOUS
 62
   18
 10
1646.1415999999999
 20
1427.0553999999997
 11
1646.1415999999999
 21
1400.3553999999999
  0
LINE
  8
_0-1_LAYER003
  6
CONTINUOUS
 62
   18
 10
1646.1415999999999
 20
1425.3553999999999
 11
1737.6958
 21
1425.3553999999999
  0
LINE
  8
_0-1_LAYER003
  6
CONTINUOUS
 62
   18
 10
1737.6958
 20
1427.0553999999997
 11
1737.6958
 21
1400.3553999999999
  0
LINE
  8
_0-1_LAYER003
  6
CONTINUOUS
 62
   18
 10
1835.4688000000001
 20
1407.8359
 11
1916.4688000000001
 21
1407.8359
  0
LINE
  8
_0-1_LAYER003
  6
CONTINUOUS
 62
   18
 10
1870.8285999999998
 20
1367.5302999999999
 11
2001.3285999999998
 21
1367.5302999999999
  0
LINE
  8
_0-1_LAYER003
  6
CONTINUOUS
 62
   18
 10
1881.5720000000001
 20
1260.2351000000001
 11
2121.6156999999998
 21
1260.2351000000001
  0
LINE
  8
_0-1_LAYER003
  6
CONTINUOUS
 62
   18
 10
1854.6958
 20
1369.4456
 11
1854.6958
 21
699.41509999999994
  0
LINE
  8
_0-1_LAYER003
  6
CONTINUOUS
 62
   18
 10
1878.4947999999999
 20
1204.2494999999999
 11
1930.1947999999998
 21
1204.2494999999999
  0
LINE
  8
_0-1_LAYER003
  6
CONTINUOUS
 62
   18
 10
1928.4947999999999
 20
1204.2494999999999
 11
1928.4947999999999
 21
1054.2494999999999
  0
LINE
  8
_0-1_LAYER003
  6
CONTINUOUS
 62
   18
 10
1928.4947999999999
 20
1054.2494999999999
 11
1878.4947999999999
 21
1054.2494999999999
  0
LINE
  8
_0-1_LAYER003
  6
CONTINUOUS
 62
   18
 10
1928.4947999999999
 20
1054.2494999999999
 11
1930.1947999999998
 21
1054.2494999999999
  0
LINE
  8
_0-1_LAYER003
  6
CONTINUOUS
 62
   18
 10
1739.6958
 20
998.12709999999993
 11
1839.6958
 21
998.12709999999993
  0
LINE
  8
_0-1_LAYER003
  6
CONTINUOUS
 62
   18
 10
1839.6958
 20
998.12709999999993
 11
1839.6958
 21
1383.5920000000001
  0
LINE
  8
_0-1_LAYER003
  6
CONTINUOUS
 62
   18
 10
1739.6958
 20
1383.5920000000001
 11
1739.6958
 21
1262.5864999999999
  0
LINE
  8
_0-1_LAYER003
  6
CONTINUOUS
 62
   18
 10
1739.6958
 20
1262.5864999999999
 11
1755.2959000000001
 21
1262.5864999999999
  0
LINE
  8
_0-1_LAYER003
  6
CONTINUOUS
 62
   18
 10
1755.2959000000001
 20
1262.5864999999999
 11
1755.2959000000001
 21
1241.7864999999999
  0
LINE
  8
_0-1_LAYER003
  6
CONTINUOUS
 62
   18
 10
1755.2959000000001
 20
1241.7864999999999
 11
1739.6958
 21
1241.7864999999999
  0
LINE
  8
_0-1_LAYER003
  6
CONTINUOUS
 62
   18
 10
1739.6958
 20
1241.7864999999999
 11
1739.6958
 21
998.12709999999993
  0
LINE
  8
_0-1_LAYER003
  6
CONTINUOUS
 62
   18
 10
1737.6958
 20
1054.2494999999999
 11
1737.6958
 21
1241.7864999999999
  0
LINE
  8
_0-1_LAYER003
  6
CONTINUOUS
 62
   18
 10
1735.2957999999999
 20
1211.3865000000001
 11
1735.2957999999999
 21
1241.7864999999999
  0
LINE
  8
_0-1_LAYER003
  6
CONTINUOUS
 62
   18
 10
1735.2957999999999
 20
1241.7864999999999
 11
1735.2957999999999
 21
1243.8665000000001
  0
LINE
  8
_0-1_LAYER003
  6
CONTINUOUS
 62
   18
 10
1735.2957999999999
 20
1243.8665000000001
 11
1753.2159000000001
 21
1243.8665000000001
  0
LINE
  8
_0-1_LAYER003
  6
CONTINUOUS
 62
   18
 10
1753.2159000000001
 20
1243.8665000000001
 11
1753.2159000000001
 21
1262.5864999999999
  0
LINE
  8
_0-1_LAYER003
  6
CONTINUOUS
 62
   18
 10
1654.5859999999998
 20
1260.3214
 11
1627.8859999999997
 21
1260.3214
  0
LINE
  8
_0-1_LAYER003
  6
CONTINUOUS
 62
   18
 10
1629.5859999999998
 20
1260.3214
 11
1629.5859999999998
 21
1245.3214
  0
LINE
  8
_0-1_LAYER003
  6
CONTINUOUS
 62
   18
 10
1629.5859999999998
 20
1245.3214
 11
1654.5859999999998
 21
1245.3214
  0
LINE
  8
_0-1_LAYER003
  6
CONTINUOUS
 62
   18
 10
1629.5859999999998
 20
1245.3214
 11
1629.5859999999998
 21
1155.3214
  0
LINE
  8
_0-1_LAYER003
  6
CONTINUOUS
 62
   18
 10
1627.8859999999997
 20
1155.3214
 11
1654.5859999999998
 21
1155.3214
  0
LINE
  8
_0-1_LAYER003
  6
CONTINUOUS
 62
   18
 10
1835.4688000000001
 20
1407.8359
 11
1745.5650999999998
 21
1252.1179999999999
  0
LINE
  8
_0-1_LAYER003
  6
CONTINUOUS
 62
   18
 10
1745.5650999999998
 20
1252.1179999999999
 11
1747.5061999999998
 21
1259.3625
  0
LINE
  8
_0-1_LAYER003
  6
CONTINUOUS
 62
   18
 10
1750.8683999999998
 20
1257.4213
 11
1745.5650999999998
 21
1252.1179999999999
  0
LINE
  8
_0-1_LAYER003
  6
CONTINUOUS
 62
   18
 10
1881.5720000000001
 20
1260.2351000000001
 11
1820.4096
 21
1154.2987000000001
  0
LINE
  8
_0-1_LAYER003
  6
CONTINUOUS
 62
   18
 10
1820.4096
 20
1154.2987000000001
 11
1822.3507
 21
1161.5432000000001
  0
LINE
  8
_0-1_LAYER003
  6
CONTINUOUS
 62
   18
 10
1820.4096
 20
1154.2987000000001
 11
1825.7129
 21
1159.6020000000001
  0
LINE
  8
_0-1_LAYER003
  6
CONTINUOUS
 62
   18
 10
1729.4115000000002
 20
1126.4711
 11
1727.4704000000002
 21
1119.2266
  0
LINE
  8
_0-1_LAYER003
  6
CONTINUOUS
 62
   18
 10
1727.4704000000002
 20
1119.2266
 11
1732.7737000000002
 21
1124.5299
  0
LINE
  8
_0-1_LAYER003
  6
CONTINUOUS
 62
   18
 10
1727.4704000000002
 20
1119.2266
 11
1870.8285999999998
 21
1367.5302999999999
  0
LINE
  8
_0-1_LAYER003
  6
CONTINUOUS
 62
   18
 10
1739.6958
 20
1364.4902
 11
1839.6958
 21
1264.4905000000001
  0
LINE
  8
_0-1_LAYER003
  6
CONTINUOUS
 62
   18
 10
1839.6958
 20
1260.2479000000001
 11
1739.6958
 21
1360.2478000000001
  0
LINE
  8
_0-1_LAYER003
  6
CONTINUOUS
 62
   18
 10
1657.2568999999999
 20
1368.7469000000001
 11
1718.0538000000001
 21
1141.8499999999999
  0
LINE
  8
_0-1_LAYER003
  6
CONTINUOUS
 62
   18
 10
1718.0538000000001
 20
1141.8499999999999
 11
1718.0538000000001
 21
1148.8298143975242
  0
LINE
  8
_0-1_LAYER003
  6
CONTINUOUS
 62
   18
 10
1718.0538000000001
 20
1141.8499999999999
 11
1714.3038000000001
 21
1148.3452
  0
LINE
  8
_0-1_LAYER003
  6
CONTINUOUS
 62
   18
 10
1697.5459999999998
 20
1154.2904000000001
 11
1697.5459999999998
 21
1146.7904000000001
  0
LINE
  8
_0-1_LAYER003
  6
CONTINUOUS
 62
   18
 10
1697.5459999999998
 20
1146.7904000000001
 11
1693.7959999999998
 21
1153.2855999999999
  0
LINE
  8
_0-1_LAYER003
  6
CONTINUOUS
 62
   18
 10
1697.5459999999998
 20
1146.7904000000001
 11
1648.0810999999999
 21
1331.3957
  0
LINE
  8
_0-1_LAYER003
  6
CONTINUOUS
 62
   18
 10
1583.2183
 20
1251.1636000000001
 11
1631.7703000000001
 21
1069.9650999999999
  0
LINE
  8
_0-1_LAYER003
  6
CONTINUOUS
 62
   18
 10
1631.7703000000001
 20
1069.9650999999999
 11
1678.6273000000001
 21
1097.018
  0
LINE
  8
_0-1_LAYER003
  6
CONTINUOUS
 62
   18
 10
1678.6273000000001
 20
1097.018
 11
1671.3829000000001
 21
1095.0768
  0
LINE
  8
_0-1_LAYER003
  6
CONTINUOUS
 62
   18
 10
1678.6273000000001
 20
1097.018
 11
1673.3240000000001
 21
1091.7147
  0
LINE
  8
_0-1_LAYER003
  6
CONTINUOUS
 62
   18
 10
1625.1642000000002
 20
1114.8252
 11
1648.7462999999998
 21
1123.4084
  0
LINE
  8
_0-1_LAYER003
  6
CONTINUOUS
 62
   18
 10
1625.1642000000002
 20
1114.8252
 11
1631.0767999999998
 21
1115.8454999999999
  0
LINE
  8
_0-1_LAYER003
  6
CONTINUOUS
 62
   18
 10
1648.7462999999998
 20
1123.4084
 11
1646.1415999999999
 21
1138.1804999999999
  0
LINE
  8
_0-1_LAYER003
  6
CONTINUOUS
 62
   18
 10
1646.1415999999999
 20
1138.1804999999999
 11
1737.6958
 21
1154.3240000000001
  0
LINE
  8
_0-1_LAYER003
  6
CONTINUOUS
 62
   18
 10
1737.0911000000001
 20
1152.1866
 11
1648.4585000000002
 21
1136.5582999999999
  0
LINE
  8
_0-1_LAYER003
  6
CONTINUOUS
 62
   18
 10
1648.4585000000002
 20
1136.5582999999999
 11
1651.0630999999998
 21
1121.7862
  0
LINE
  8
_0-1_LAYER003
  6
CONTINUOUS
 62
   18
 10
1651.0630999999998
 20
1121.7862
 11
1739.6958
 21
1137.4145000000001
  0
LINE
  8
_0-1_LAYER003
  6
CONTINUOUS
 62
   18
 10
1739.6958
 20
1137.4145000000001
 11
1737.0911000000001
 21
1152.1866
  0
LINE
  8
_0-1_LAYER003
  6
CONTINUOUS
 62
   18
 10
1727.6433999999999
 20
1150.5207
 11
1725.3598999999999
 21
1148.4981
  0
LINE
  8
_0-1_LAYER003
  6
CONTINUOUS
 62
   18
 10
1718.8739999999998
 20
1148.9744000000001
 11
1721.7098999999998
 21
1147.8558
  0
LINE
  8
_0-1_LAYER003
  6
CONTINUOUS
 62
   18
 10
1721.7098999999998
 20
1147.8558
 11
1726.3996999999999
 21
1121.2625
  0
LINE
  8
_0-1_LAYER003
  6
CONTINUOUS
 62
   18
 10
1726.3996999999999
 20
1121.2625
 11
1729.8413999999998
 21
1113.0235
  0
LINE
  8
_0-1_LAYER003
  6
CONTINUOUS
 62
   18
 10
1729.8413999999998
 20
1113.0235
 11
1730.0497
 21
1121.9063000000001
  0
LINE
  8
_0-1_LAYER003
  6
CONTINUOUS
 62
   18
 10
1730.0497
 20
1121.9063000000001
 11
1725.3598999999999
 21
1148.4981
  0
LINE
  8
_0-1_LAYER003
  6
CONTINUOUS
 62
   18
 10
1739.6958
 20
1137.4145000000001
 11
1648.4585000000002
 21
1136.5582999999999
  0
LINE
  8
_0-1_LAYER003
  6
CONTINUOUS
 62
   18
 10
1709.6958
 20
1132.1247000000001
 11
1709.6958
 21
1097.4145000000001
  0
LINE
  8
_0-1_LAYER003
  6
CONTINUOUS
 62
   18
 10
1709.6958
 20
1097.4145000000001
 11
1739.6958
 21
1097.4145000000001
  0
LINE
  8
_0-1_LAYER003
  6
CONTINUOUS
 62
   18
 10
1739.6958
 20
1097.4145000000001
 11
1713.1997999999999
 21
1132.7426
  0
LINE
  8
_0-1_LAYER003
  6
CONTINUOUS
 62
   18
 10
1709.6958
 20
1123.4146000000001
 11
1715.6957000000002
 21
1120.4145000000001
  0
LINE
  8
_0-1_LAYER003
  6
CONTINUOUS
 62
   18
 10
1715.6957000000002
 20
1120.4145000000001
 11
1715.6957000000002
 21
1114.4146000000001
  0
LINE
  8
_0-1_LAYER003
  6
CONTINUOUS
 62
   18
 10
1715.6957000000002
 20
1114.4146000000001
 11
1709.6958
 21
1111.4145000000001
  0
LINE
  8
_0-1_LAYER003
  6
CONTINUOUS
 62
   18
 10
1715.6957000000002
 20
1120.4145000000001
 11
1739.2152000000001
 21
1120.4145000000001
  0
LINE
  8
_0-1_LAYER003
  6
CONTINUOUS
 62
   18
 10
1715.6957000000002
 20
1114.4146000000001
 11
1739.6958
 21
1114.4146000000001
  0
LINE
  8
_0-1_LAYER003
  6
CONTINUOUS
 62
   18
 10
1739.6958
 20
1121.6645000000001
 11
1757.8957999999998
 21
1121.6645000000001
  0
LINE
  8
_0-1_LAYER003
  6
CONTINUOUS
 62
   18
 10
1757.8957999999998
 20
1121.6645000000001
 11
1766.9897000000001
 21
1123.2686000000001
  0
LINE
  8
_0-1_LAYER003
  6
CONTINUOUS
 62
   18
 10
1766.9897000000001
 20
1123.2686000000001
 11
1767.2858000000001
 21
1121.5954999999999
  0
LINE
  8
_0-1_LAYER003
  6
CONTINUOUS
 62
   18
 10
1767.2858000000001
 20
1121.5954999999999
 11
1768.9598000000001
 21
1121.8905999999999
  0
LINE
  8
_0-1_LAYER003
  6
CONTINUOUS
 62
   18
 10
1768.9598000000001
 20
1121.8905999999999
 11
1768.6637000000001
 21
1123.5645
  0
LINE
  8
_0-1_LAYER003
  6
CONTINUOUS
 62
   18
 10
1768.6637000000001
 20
1123.5645
 11
1771.3227000000002
 21
1124.0325
  0
LINE
  8
_0-1_LAYER003
  6
CONTINUOUS
 62
   18
 10
1771.3227000000002
 20
1124.0325
 11
1771.6188000000002
 21
1122.3596
  0
LINE
  8
_0-1_LAYER003
  6
CONTINUOUS
 62
   18
 10
1771.6188000000002
 20
1122.3596
 11
1773.2917000000002
 21
1122.6545000000001
  0
LINE
  8
_0-1_LAYER003
  6
CONTINUOUS
 62
   18
 10
1773.2917000000002
 20
1122.6545000000001
 11
1772.9967999999999
 21
1124.3276000000001
  0
LINE
  8
_0-1_LAYER003
  6
CONTINUOUS
 62
   18
 10
1772.9967999999999
 20
1124.3276000000001
 11
1775.6558
 21
1124.7976000000001
  0
LINE
  8
_0-1_LAYER003
  6
CONTINUOUS
 62
   18
 10
1775.6558
 20
1124.7967000000001
 11
1775.9517000000001
 21
1123.1235999999999
  0
LINE
  8
_0-1_LAYER003
  6
CONTINUOUS
 62
   18
 10
1775.9517000000001
 20
1123.1235999999999
 11
1777.6257999999998
 21
1123.4185
  0
LINE
  8
_0-1_LAYER003
  6
CONTINUOUS
 62
   18
 10
1777.6257999999998
 20
1123.4185
 11
1777.3300885412029
 21
1125.0915332989944
  0
LINE
  8
_0-1_LAYER003
  6
CONTINUOUS
 62
   18
 10
1777.3300885412029
 20
1125.0915332989944
 11
1778.8078411389072
 21
1125.3543593242559
  0
LINE
  8
_0-1_LAYER003
  6
CONTINUOUS
 62
   18
 10
1778.8078411389072
 20
1125.3543593242559
 11
1780.5398313622893
 21
1124.143605799645
  0
LINE
  8
_0-1_LAYER003
  6
CONTINUOUS
 62
   18
 10
1780.5398313622893
 20
1124.143605799645
 11
1780.9448000000002
 21
1121.8715
  0
LINE
  8
_0-1_LAYER003
  6
CONTINUOUS
 62
   18
 10
1780.9448000000002
 20
1121.8715
 11
1755.6718000000001
 21
1117.4156
  0
LINE
  8
_0-1_LAYER003
  6
CONTINUOUS
 62
   18
 10
1755.6718000000001
 20
1117.4156
 11
1780.7696999999998
 21
1112.9896000000001
  0
LINE
  8
_0-1_LAYER003
  6
CONTINUOUS
 62
   18
 10
1780.7696999999998
 20
1112.9896000000001
 11
1780.3717999999999
 21
1110.7247
  0
LINE
  8
_0-1_LAYER003
  6
CONTINUOUS
 62
   18
 10
1780.3717999999999
 20
1110.7247
 11
1778.6277068191862
 21
1109.5139791172678
  0
LINE
  8
_0-1_LAYER003
  6
CONTINUOUS
 62
   18
 10
1778.6277068191862
 20
1109.5139791172678
 11
1777.1558
 21
1109.7696000000001
  0
LINE
  8
_0-1_LAYER003
  6
CONTINUOUS
 62
   18
 10
1777.1558
 20
1109.7696000000001
 11
1777.4508000000001
 21
1111.4425000000001
  0
LINE
  8
_0-1_LAYER003
  6
CONTINUOUS
 62
   18
 10
1777.4508000000001
 20
1111.4425000000001
 11
1775.7768000000001
 21
1111.7375
  0
LINE
  8
_0-1_LAYER003
  6
CONTINUOUS
 62
   18
 10
1775.7768000000001
 20
1111.7375
 11
1775.4818
 21
1110.0645999999999
  0
LINE
  8
_0-1_LAYER003
  6
CONTINUOUS
 62
   18
 10
1775.4818
 20
1110.0645999999999
 11
1772.8227000000002
 21
1110.5336
  0
LINE
  8
_0-1_LAYER003
  6
CONTINUOUS
 62
   18
 10
1772.8227000000002
 20
1110.5336
 11
1773.1178
 21
1112.2066
  0
LINE
  8
_0-1_LAYER003
  6
CONTINUOUS
 62
   18
 10
1773.1178
 20
1112.2066
 11
1771.444869753821
 21
1112.5014290953002
  0
LINE
  8
_0-1_LAYER003
  6
CONTINUOUS
 62
   18
 10
1771.444869753821
 20
1112.5014290953002
 11
1771.1487999999999
 21
1110.8285000000001
  0
LINE
  8
_0-1_LAYER003
  6
CONTINUOUS
 62
   18
 10
1771.1487999999999
 20
1110.8285000000001
 11
1768.4897000000001
 21
1111.2976000000001
  0
LINE
  8
_0-1_LAYER003
  6
CONTINUOUS
 62
   18
 10
1768.4897000000001
 20
1111.2976000000001
 11
1768.7856999999999
 21
1112.9704999999999
  0
LINE
  8
_0-1_LAYER003
  6
CONTINUOUS
 62
   18
 10
1768.7856999999999
 20
1112.9704999999999
 11
1767.1118000000001
 21
1113.2655999999999
  0
LINE
  8
_0-1_LAYER003
  6
CONTINUOUS
 62
   18
 10
1767.1118000000001
 20
1113.2655999999999
 11
1766.8157000000001
 21
1111.5925999999999
  0
LINE
  8
_0-1_LAYER003
  6
CONTINUOUS
 62
   18
 10
1766.8157000000001
 20
1111.5925999999999
 11
1757.8957999999998
 21
1113.1645000000001
  0
LINE
  8
_0-1_LAYER003
  6
CONTINUOUS
 62
   18
 10
1757.8957999999998
 20
1113.1645000000001
 11
1739.6958
 21
1113.1645000000001
  0
LINE
  8
_0-1_LAYER003
  6
CONTINUOUS
 62
   18
 10
1839.6958
 20
1052.4905000000001
 11
1739.6958
 21
1152.4902999999999
  0
LINE
  8
_0-1_LAYER003
  6
CONTINUOUS
 62
   18
 10
1739.6958
 20
1148.2478000000001
 11
1839.6958
 21
1048.2478000000001
  0
LINE
  8
_0-1_LAYER003
  6
CONTINUOUS
 62
   18
 10
1737.6958
 20
1054.2494999999999
 11
1187.9755
 21
806.87580000000003
  0
LINE
  8
_0-1_LAYER003
  6
CONTINUOUS
 62
   18
 10
1188.7962
 20
805.05199999999991
 11
1719.1777000000002
 21
1043.7230999999999
  0
LINE
  8
_0-1_LAYER003
  6
CONTINUOUS
 62
   18
 10
1719.1777000000002
 20
1043.7230999999999
 11
1739.6958
 21
998.12709999999993
  0
LINE
  8
_0-1_LAYER003
  6
CONTINUOUS
 62
   18
 10
1739.6958
 20
998.12709999999993
 11
1209.3144
 21
759.45589999999993
  0
LINE
  8
_0-1_LAYER003
  6
CONTINUOUS
 62
   18
 10
1254.4545000000001
 20
659.14450000000011
 11
1852.75
 21
928.37689999999998
  0
LINE
  8
_0-1_LAYER003
  6
CONTINUOUS
 62
   18
 10
1583.5230819154949
 20
982.67866892857546
 11
1649.6372878420398
 21
957.60084254271544
  0
LINE
  8
_0-1_LAYER003
  6
CONTINUOUS
 62
   18
 10
1645.7683443508179
 20
955.85982110836255
 11
1579.6541828868815
 21
980.93766856007062
  0
LINE
  8
_0-1_LAYER003
  6
CONTINUOUS
 62
   18
 10
1386.2063000000001
 20
893.88640000000009
 11
1452.3206
 21
868.80850000000009
  0
LINE
  8
_0-1_LAYER003
  6
CONTINUOUS
 62
   18
 10
1456.1894000000002
 20
870.54950000000008
 11
1390.0752365129078
 21
895.62734821911374
  0
LINE
  8
_0-1_LAYER003
  6
CONTINUOUS
 62
   18
 10
1279.6978999999999
 20
868.95830000000001
 11
1252.3408999999999
 21
856.64599999999996
  0
LINE
  8
_0-1_LAYER003
  6
CONTINUOUS
 62
   18
 10
1252.3408999999999
 20
856.64599999999996
 11
1258.4971
 21
842.96749999999997
  0
LINE
  8
_0-1_LAYER003
  6
CONTINUOUS
 62
   18
 10
1258.4971
 20
842.96749999999997
 11
1279.6978999999999
 21
868.95830000000001
  0
LINE
  8
_0-1_LAYER003
  6
CONTINUOUS
 62
   18
 10
1279.6978999999999
 20
868.95830000000001
 11
1285.8541
 21
855.27980000000002
  0
LINE
  8
_0-1_LAYER003
  6
CONTINUOUS
 62
   18
 10
1285.8541
 20
855.27980000000002
 11
1258.4971
 21
842.96749999999997
  0
LINE
  8
_0-1_LAYER003
  6
CONTINUOUS
 62
   18
 10
1285.0803000000001
 20
869.7494999999999
 11
1288.8303000000001
 21
863.25430000000006
  0
LINE
  8
_0-1_LAYER003
  6
CONTINUOUS
 62
   18
 10
1288.8303000000001
 20
863.25430000000006
 11
1288.8303000000001
 21
870.75430000000006
  0
LINE
  8
_0-1_LAYER003
  6
CONTINUOUS
 62
   18
 10
1288.8303000000001
 20
863.25430000000006
 11
1184.4438
 21
1252.8297
  0
LINE
  8
_0-1_LAYER003
  6
CONTINUOUS
 62
   18
 10
1340.3715999999999
 20
1044.6838
 11
1380.8715999999999
 21
1044.6838
  0
LINE
  8
_0-1_LAYER003
  6
CONTINUOUS
 62
   18
 10
1380.8715999999999
 20
1044.6838
 11
1408.4147000000003
 21
941.89149999999995
  0
LINE
  8
_0-1_LAYER003
  6
CONTINUOUS
 62
   18
 10
1408.4147000000003
 20
941.89149999999995
 11
1408.4147000000003
 21
949.39149999999995
  0
LINE
  8
_0-1_LAYER003
  6
CONTINUOUS
 62
   18
 10
1408.4147000000003
 20
941.89149999999995
 11
1404.6647000000003
 21
948.38670000000002
  0
LINE
  8
_0-1_LAYER003
  6
CONTINUOUS
 62
   18
 10
1467.5493000000001
 20
953.50330000000008
 11
1494.9063000000001
 21
965.81570000000011
  0
LINE
  8
_0-1_LAYER003
  6
CONTINUOUS
 62
   18
 10
1494.9063000000001
 20
965.81570000000011
 11
1473.7053999999998
 21
939.8248000000001
  0
LINE
  8
_0-1_LAYER003
  6
CONTINUOUS
 62
   18
 10
1473.7053999999998
 20
939.8248000000001
 11
1467.5493000000001
 21
953.50330000000008
  0
LINE
  8
_0-1_LAYER003
  6
CONTINUOUS
 62
   18
 10
1494.9063000000001
 20
965.81570000000011
 11
1501.0623999999998
 21
952.13719999999989
  0
LINE
  8
_0-1_LAYER003
  6
CONTINUOUS
 62
   18
 10
1473.7053999999998
 20
939.8248000000001
 11
1501.0623999999998
 21
952.13719999999989
  0
LINE
  8
_0-1_LAYER003
  6
CONTINUOUS
 62
   18
 10
1682.7575999999999
 20
1050.3607
 11
1710.1145999999999
 21
1062.6731
  0
LINE
  8
_0-1_LAYER003
  6
CONTINUOUS
 62
   18
 10
1710.1145999999999
 20
1062.6731
 11
1716.2707999999998
 21
1048.9946
  0
LINE
  8
_0-1_LAYER003
  6
CONTINUOUS
 62
   18
 10
1716.2707999999998
 20
1048.9946
 11
1688.9137999999998
 21
1036.6822
  0
LINE
  8
_0-1_LAYER003
  6
CONTINUOUS
 62
   18
 10
1710.1145999999999
 20
1062.6731
 11
1688.9137999999998
 21
1036.6822
  0
LINE
  8
_0-1_LAYER003
  6
CONTINUOUS
 62
   18
 10
1688.9137999999998
 20
1036.6822
 11
1682.7575999999999
 21
1050.3607
  0
LINE
  8
_0-1_LAYER003
  6
CONTINUOUS
 62
   18
 10
1682.7575999999999
 20
1050.3607
 11
1710.1145999999999
 21
1062.6731
  0
ARC
  8
_0-1_LAYER003
  6
CONTINUOUS
 62
   18
 10
1497.5964486616588
 20
1110.3607438225545
 40
168.7833419426569
 50
343.96466628212164
 51
4.7658650836031953
  0
LINE
  8
_0-1_LAYER003
  6
CONTINUOUS
 62
   18
 10
1672.9301999999998
 20
1191.3669
 11
1655.7795000000001
 21
1238.3334
  0
LINE
  8
_0-1_LAYER003
  6
CONTINUOUS
 62
   18
 10
1655.7795000000001
 20
1238.3334
 11
1655.1963985196378
 21
1239.9302696451493
  0
LINE
  8
_0-1_LAYER003
  6
CONTINUOUS
 62
   18
 10
1655.7795000000001
 20
1238.3334
 11
1369.2836482241632
 21
1133.7146176098649
  0
LINE
  8
_0-1_LAYER003
  6
CONTINUOUS
 62
   18
 10
1368.7005289045815
 20
1135.31148073997
 11
1400.1547
 21
1049.1749
  0
LINE
  8
_0-1_LAYER003
  6
CONTINUOUS
 62
   18
 10
1383.0041000000001
 20
1096.1414
 11
1162.2613217398955
 21
1015.533507938684
  0
ARC
  8
_0-1_LAYER003
  6
CONTINUOUS
 62
   18
 10
1719.7931276684449
 20
1252.165536921837
 40
22.465877597722304
 50
338.32099591667844
 51
27.636294083321587
  0
LINE
  8
_0-1_LAYER003
  6
CONTINUOUS
 62
   18
 10
1737.6958
 20
1241.7864999999999
 11
1734.3164000000002
 21
1226.4362000000001
  0
LINE
  8
_0-1_LAYER003
  6
CONTINUOUS
 62
   18
 10
1161.4038
 20
1017.8818000000001
 11
1179.412
 21
968.56700000000001
  0
TEXT
  8
_0-0_LAYER001
 62
    7
 10
1340.3715999999999
 20
1047.1837999999998
 40
15
 41
1
 50
0
  1
桟　瓦
  0
TEXT
  8
_0-2_ADD_LINE
 62
    7
 10
951.75407327687492
 20
933.35155132611874
 40
20
 41
1
 50
0
  1
：
  0
TEXT
  8
_0-2_ADD_LINE
 62
    7
 10
308.11760546221933
 20
1300.5264949004402
 40
20
 41
1
 50
24.227692999999523
  1
280
  0
TEXT
  8
_0-2_ADD_LINE
 62
    7
 10
1971.6485938902908
 20
999.17425786635386
 40
20
 41
1
 50
90
  1
下葺き材立上がり寸法
  0
TEXT
  8
_0-2_ADD_LINE
 62
    7
 10
1009.6755342165848
 20
1263.2090899840889
 40
20
 41
1
 50
0
  1
瓦桟：15x30以上
  0
TEXT
  8
_0-2_ADD_LINE
 62
    7
 10
954.28361139468234
 20
1228.1275388635506
 40
20
 41
1
 50
0
  1
下葺材：ルーフィング
  0
TEXT
  8
_0-2_ADD_LINE
 62
    7
 10
952.43721396728563
 20
1169.0428211868548
 40
20
 41
1
 50
0
  1
　鋼製：C100x50x20x2.3
  0
TEXT
  8
_0-2_ADD_LINE
 62
    7
 10
1506.3564421863102
 20
1200.4315774525994
 40
20
 41
1
 50
24.227692999999988
  1
305
  0
TEXT
  8
_0-2_ADD_LINE
 62
    7
 10
1270.0175714795264
 20
1061.9517703978433
 40
20
 41
1
 50
24.227693000000002
  1
235
  0
TEXT
  8
_0-2_ADD_LINE
 62
    7
 10
1884.8679148026438
 20
1272.4410771210728
 40
20
 41
1
 50
0
  1
外壁：ALCパネルt＝100
  0
TEXT
  8
_0-2_ADD_LINE
 62
    7
 10
1526.6668138876744
 20
1375.8393330552906
 40
20
 41
1
 50
0
  1
笠木：15x90
  0
TEXT
  8
_0-2_ADD_LINE
 62
    7
 10
1676.2250055068112
 20
1434.9240507319864
 40
20
 41
1
 50
0
  1
100
  0
TEXT
  8
_0-2_ADD_LINE
 62
    7
 10
1916.2566710683884
 20
1117.3436932197458
 40
20
 41
1
 50
90
  1
150
  0
TEXT
  8
_0-2_ADD_LINE
 62
    7
 10
1624.5258775397022
 20
1189.3531928882189
 40
20
 41
1
 50
90
  1
90
  0
TEXT
  8
_0-2_ADD_LINE
 62
    7
 10
1620.8330826849087
 20
1241.0523208553282
 40
20
 41
1
 50
90
  1
20
  0
TEXT
  8
_0-2_ADD_LINE
 62
    7
 10
1506.3564421863102
 20
1255.8235002745018
 40
20
 41
1
 50
0
  1
葺　土
  0
TEXT
  8
_0-2_ADD_LINE
 62
    7
 10
1799.9336331423933
 20
1414.6136790306223
 40
20
 41
1
 50
0
  1
シーリング
  0
TEXT
  8
_0-2_ADD_LINE
 62
    7
 10
1877.4823250930567
 20
1370.3001407731006
 40
20
 41
1
 50
0
  1
下地：40x30
  0
TEXT
  8
_0-2_ADD_LINE
 62
    7
 10
1307.1138073252291
 20
1336.3950131209208
 40
20
 41
1
 50
0
  1
雨押水切カラー鋼板0.35ｍｍ以上
  0
LINE
  8
_0-0_LAYER001
  6
CONTINUOUS
 62
    2
 10
1648.0810999999999
 20
1331.3957
 11
1298.7311947571684
 21
1331.3957
  0
LINE
  8
_0-0_LAYER001
  6
CONTINUOUS
 62
    2
 10
1535.1208691764859
 20
1368.7469000000001
 11
1510.2568999999999
 21
1368.7469000000001
  0
LINE
  8
_0-1_LAYER003
  6
CONTINUOUS
 62
   18
 10
1510.2568999999999
 20
1368.7469000000001
 11
1654.1539676429509
 21
1368.7469000000001
  0
LINE
  8
_0-2_ADD_LINE
  6
CONTINUOUS
 62
    7
 10
1648.0810999999999
 20
1331.3957
 11
1298.7311947571684
 21
1331.3957
  0
LINE
  8
_0-2_ADD_LINE
  6
CONTINUOUS
 62
    7
 10
1192.5172801399096
 20
1221.8464488683703
 11
954.82824626921001
 21
1221.8464488683703
  0
LINE
  8
_0-2_ADD_LINE
  6
CONTINUOUS
 62
    7
 10
1208.0398292906493
 20
1160.7264115873334
 11
968.4104767761072
 21
1160.7264115873334
  0
LINE
  8
_0-1_LAYER003
  6
CONTINUOUS
 62
   18
 10
919.88985545082187
 20
1192.9821999999999
 11
1199.7608
 21
1192.9821999999999
  0
ENDSEC
  0
EOF
