  0
SECTION
  2
HEADER
  9
$ACADVER
  1
AC1009
  9
$INSBASE
 10
0
 20
0
 30
0
  9
$EXTMIN
 10
0
 20
0
  9
$EXTMAX
 10
2970
 20
2100
  9
$LIMMIN
 10
0
 20
0
  9
$LIMMAX
 10
2970
 20
2100
  9
$LTSCALE
 40
10
  0
ENDSEC
  0
SECTION
  2
TABLES
  0
TABLE
  2
LTYPE
 70
     9
  0
LTYPE
  2
CONTINUOUS
 70
    64
  3
実線
 72
    65
 73
     0
 40
0.0
  0
LTYPE
  2
DASHED1
 70
    64
  3
--  --  --  --  --  --  --  --  
 72
    65
 73
     2
 40
2.5
 49
1.25
 49
-1.25
  0
LTYPE
  2
DASHED2
 70
    64
  3
----    ----    ----    ----    
 72
    65
 73
     2
 40
5.0
 49
2.5
 49
-2.5
  0
LTYPE
  2
DASHED3
 70
    64
  3
------  ------  ------  ------  
 72
    65
 73
     2
 40
5.0
 49
3.75
 49
-1.25
  0
LTYPE
  2
CENTER1
 70
    64
  3
----- - ----- - ----- - ----- - 
 72
    65
 73
     4
 40
10.0
 49
6.25
 49
-1.25
 49
1.25
 49
-1.25
  0
LTYPE
  2
CENTER2
 70
    64
  3
----------  --  ----------  --  
 72
    65
 73
     4
 40
20.0
 49
12.5
 49
-2.5
 49
2.5
 49
-2.5
  0
LTYPE
  2
PHANTOM1
 70
    64
  3
--- - - --- - - --- - - --- - - 
 72
    65
 73
     6
 40
10.0
 49
3.25
 49
-1.25
 49
1.25
 49
-1.25
 49
1.25
 49
-1.25
  0
LTYPE
  2
PHANTOM2
 70
    64
  3
--------  -  -  --------  -  -  
 72
    65
 73
     6
 40
20.0
 49
10.0
 49
-2.5
 49
1.25
 49
-2.5
 49
1.25
 49
-2.5
  0
LTYPE
  2
DOT
 70
    64
  3
-   -   -   -   -   -   -   -   
 72
    65
 73
     2
 40
2.5
 49
0.625
 49
-1.875
  0
LTYPE
  2
DUMMY
 70
    64
  3
ダミー
 72
    65
 73
     0
 40
0.0
  0
LTYPE
  2
RAND1
 70
    64
  3
ランダム線1
 72
    65
 73
     4
 40
10.0
 49
1.0
 49
-2.0
 49
3.0
 49
-4.0
  0
LTYPE
  2
RAND2
 70
    64
  3
ランダム線2
 72
    65
 73
     4
 40
14.0
 49
2.0
 49
-3.0
 49
4.0
 49
-5.0
  0
LTYPE
  2
RAND3
 70
    64
  3
ランダム線3
 72
    65
 73
     4
 40
18.0
 49
3.0
 49
-4.0
 49
5.0
 49
-6.0
  0
LTYPE
  2
RAND4
 70
    64
  3
ランダム線4
 72
    65
 73
     4
 40
22.0
 49
4.0
 49
-5.0
 49
6.0
 49
-7.0
  0
LTYPE
  2
RAND5
 70
    64
  3
ランダム線5
 72
    65
 73
     4
 40
26.0
 49
5.0
 49
-6.0
 49
7.0
 49
-8.0
  0
LTYPE
  2
LONG1
 70
    64
  3
----------  --  ----------  --  
 72
    65
 73
     4
 40
40.0
 49
32.5
 49
-2.5
 49
2.5
 49
-2.5
  0
LTYPE
  2
LONG2
 70
    64
  3
--------  -  -  --------  -  -  
 72
    65
 73
     6
 40
40.0
 49
30.0
 49
-2.5
 49
1.25
 49
-2.5
 49
1.25
 49
-2.5
  0
LTYPE
  2
LONG3
 70
    64
  3
+++++++++++++++..+++++++++++++++
 72
    65
 73
     2
 40
40.0
 49
37.5
 49
-2.5
  0
LTYPE
  2
LONG4
 70
    64
  3
+++++++++++++++..+++++++++++++++
 72
    65
 73
     2
 40
80.0
 49
75.0
 49
-5.0
  0
LTYPE
  2
LONG5
 70
    64
  3
----------  --  ----------  --  
 72
    65
 73
     4
 40
60.0
 49
37.5
 49
-7.5
 49
7.5
 49
-7.5
  0
LTYPE
  2
dashed
 70
   64
  3
-------   -------------   ------
 72
   65
 73
    2
 40
7.5
 49
6
 49
-1.5
  0
LTYPE
  2
dashed_spaced
 70
   64
  3
----        --------        ----
 72
   65
 73
    2
 40
12
 49
6
 49
-6
  0
LTYPE
  2
long_dashed_dotted
 70
   64
  3
------------- --- --------------
 72
   65
 73
    4
 40
15.25
 49
12
 49
-1.5
 49
0.25
 49
-1.5
  0
LTYPE
  2
long_dashed_double-dotted
 70
   64
  3
----------- --- --- ------------
 72
   65
 73
    6
 40
17
 49
12
 49
-1.5
 49
0.25
 49
-1.5
 49
0.25
 49
-1.5
  0
LTYPE
  2
long_dashed_triplicate-dotted
 70
   64
  3
--------- --- --- --- ----------
 72
   65
 73
    8
 40
18.75
 49
12
 49
-1.5
 49
0.25
 49
-1.5
 49
0.25
 49
-1.5
 49
0.25
 49
-1.5
  0
LTYPE
  2
dotted
 70
   64
  3
   -       -       -       -    
 72
   65
 73
    2
 40
1.75
 49
0.25
 49
-1.5
  0
LTYPE
  2
chain
 70
   64
  3
-------------- -- --------------
 72
   65
 73
    4
 40
18.5
 49
12
 49
-1.5
 49
3.5
 49
-1.5
  0
LTYPE
  2
chain_double_dash
 70
   64
  3
------------ -- -- -------------
 72
   65
 73
    6
 40
23.5
 49
12
 49
-1.5
 49
3.5
 49
-1.5
 49
3.5
 49
-1.5
  0
LTYPE
  2
dashed_dotted
 70
   64
  3
-----------     -     ----------
 72
   65
 73
    4
 40
9.25
 49
6
 49
-1.5
 49
0.25
 49
-1.5
  0
LTYPE
  2
double-dashed_dotted
 70
   64
  3
------   -----------   -   -----
 72
   65
 73
    6
 40
16.75
 49
6
 49
-1.5
 49
6
 49
-1.5
 49
0.25
 49
-1.5
  0
LTYPE
  2
dashed_double-dotted
 70
   64
  3
---------    -    -    ---------
 72
   65
 73
    6
 40
11
 49
6
 49
-1.5
 49
0.25
 49
-1.5
 49
0.25
 49
-1.5
  0
LTYPE
  2
double-dashed_double-dotted
 70
   64
  3
-----   ---------   -   -   ----
 72
   65
 73
    8
 40
18.5
 49
6
 49
-1.5
 49
6
 49
-1.5
 49
0.25
 49
-1.5
 49
0.25
 49
-1.5
  0
LTYPE
  2
dashed_triplicate-dotted
 70
   64
  3
-------    -    -    -    ------
 72
   65
 73
    8
 40
12.75
 49
6
 49
-1.5
 49
0.25
 49
-1.5
 49
0.25
 49
-1.5
 49
0.25
 49
-1.5
  0
LTYPE
  2
double-dashed_triplicate-dotted
 70
   64
  3
-----  ---------  -  -  -  -----
 72
   65
 73
   10
 40
20.25
 49
6
 49
-1.5
 49
6
 49
-1.5
 49
0.25
 49
-1.5
 49
0.25
 49
-1.5
 49
0.25
 49
-1.5
  0
LTYPE
  2
undefined
 70
   64
  3
--------------------------------
 72
   65
 73
    0
 40
0
  0
ENDTAB
  0
TABLE
  2
STYLE
  5
3
100
AcDbSymbolTable
 70
     1
  0
STYLE
  5
10
100
AcDbSymbolTableRecord
100
AcDbTextStyleTableRecord
  2
STANDARD
 70
     0
 40
0.0
 41
1.0
 50
0.0
 71
     0
 42
0.2
  3
txt
  4
bigfont.shx
  0
STYLE
  5
26
100
AcDbSymbolTableRecord
100
AcDbTextStyleTableRecord
  2
TATEGAKI
 70
    68
 40
0.0
 41
1.0
 50
0.0
 71
     0
 42
1.0
  3
txt
  4
bigfont.shx
  0
ENDTAB
  0
TABLE
  2
LAYER
 70
    4
  0
LAYER
  2
_0-0_LAYER001
 70
   64
 62
    7
  6
CONTINUOUS
  0
LAYER
  2
_0-1_LAYER003
 70
   64
 62
    7
  6
CONTINUOUS
  0
LAYER
  2
_0-2_ADD_LINE
 70
   64
 62
    7
  6
CONTINUOUS
  0
LAYER
  2
ADD_LINE
 70
   64
 62
    7
  6
CONTINUOUS
  0
ENDTAB
  0
ENDSEC
  0
SECTION
  2
BLOCKS
  0
ENDSEC
  0
SECTION
  2
ENTITIES
  0
LINE
  8
_0-0_LAYER001
  6
DASHED3
 62
    2
 10
1774.0338999999999
 20
1034.2974999999999
 11
1231.8351
 21
790.30860000000007
  0
LINE
  8
_0-0_LAYER001
  6
CONTINUOUS
 62
    2
 10
1765.7748000000001
 20
1028.3878
 11
1232.6558
 21
788.48469999999998
  0
LINE
  8
_0-0_LAYER001
  6
CONTINUOUS
 62
    2
 10
1776.0338999999999
 20
1005.5897
 11
1876.0338999999999
 21
1005.5897
  0
LINE
  8
_0-0_LAYER001
  6
CONTINUOUS
 62
    2
 10
1682.4796999999999
 20
1340.654
 11
1682.4796999999999
 21
1313.154
  0
CIRCLE
  8
_0-0_LAYER001
  6
CONTINUOUS
 62
    2
 10
1682.4796999999999
 20
1338.154
 40
1.6999999999999997
  0
LINE
  8
_0-0_LAYER001
  6
CONTINUOUS
 62
    2
 10
1682.4796999999999
 20
1338.154
 11
1774.0338999999999
 21
1338.154
  0
CIRCLE
  8
_0-0_LAYER001
  6
CONTINUOUS
 62
    2
 10
1774.0338999999999
 20
1338.154
 40
1.6999999999999997
  0
LINE
  8
_0-0_LAYER001
  6
CONTINUOUS
 62
    2
 10
1774.0338999999999
 20
1340.654
 11
1774.0338999999999
 21
1313.154
  0
LINE
  8
_0-0_LAYER001
  6
CONTINUOUS
 62
    2
 10
1703.3009999999999
 20
1189.1856
 11
1703.3009999999999
 21
1181.6856
  0
LINE
  8
_0-0_LAYER001
  6
CONTINUOUS
 62
    2
 10
1703.3009999999999
 20
1181.6856
 11
1699.5509999999999
 21
1188.1808000000001
  0
LINE
  8
_0-0_LAYER001
  6
CONTINUOUS
 62
    2
 10
1703.3009999999999
 20
1181.6856
 11
1662.3462
 21
1334.5309
  0
LINE
  8
_0-0_LAYER001
  6
CONTINUOUS
 62
    2
 10
1770.9016999999999
 20
1159.329
 11
1765.5983999999999
 21
1154.0256999999999
  0
LINE
  8
_0-0_LAYER001
  6
CONTINUOUS
 62
    2
 10
1765.5983999999999
 20
1154.0256999999999
 11
1767.5394999999999
 21
1161.2701
  0
LINE
  8
_0-0_LAYER001
  6
CONTINUOUS
 62
    2
 10
1765.5983999999999
 20
1154.0256999999999
 11
1868.8748000000001
 21
1332.9057
  0
LINE
  8
_0-0_LAYER001
  6
CONTINUOUS
 62
    2
 10
1868.8748000000001
 20
1332.9057
 11
1999.3748000000001
 21
1332.9057
  0
LINE
  8
_0-0_LAYER001
  6
CONTINUOUS
 62
    2
 10
1891.0338999999999
 20
1318.0045999999998
 11
1891.0338999999999
 21
706.87779999999998
  0
LINE
  8
_0-0_LAYER001
  6
CONTINUOUS
 62
    2
 10
1973.7053000000001
 20
1185.2094999999999
 11
1921.2053000000001
 21
1185.2094999999999
  0
CIRCLE
  8
_0-0_LAYER001
  6
CONTINUOUS
 62
    2
 10
1971.2053000000001
 20
1185.2094999999999
 40
1.6999999999999997
  0
LINE
  8
_0-0_LAYER001
  6
CONTINUOUS
 62
    2
 10
1971.2053000000001
 20
1185.2094999999999
 11
1971.2053000000001
 21
1034.2974999999999
  0
CIRCLE
  8
_0-0_LAYER001
  6
CONTINUOUS
 62
    2
 10
1971.2053000000001
 20
1034.2974999999999
 40
1.6999999999999997
  0
LINE
  8
_0-0_LAYER001
  6
CONTINUOUS
 62
    2
 10
1973.7053000000001
 20
1034.2974999999999
 11
1921.2053000000001
 21
1034.2974999999999
  0
LINE
  8
_0-0_LAYER001
  6
CONTINUOUS
 62
    1
 10
1773.9821000000002
 20
1010.1494
 11
1240.8631
 21
770.24630000000002
  0
LINE
  8
_0-0_LAYER001
  6
CONTINUOUS
 62
    1
 10
1771.9303
 20
1014.7090000000001
 11
1238.8113000000001
 21
774.80590000000007
  0
LINE
  8
_0-0_LAYER001
  6
CONTINUOUS
 62
    1
 10
1769.8784999999998
 20
1019.2686000000001
 11
1236.7594999999999
 21
779.36550000000011
  0
LINE
  8
_0-0_LAYER001
  6
CONTINUOUS
 62
    1
 10
1767.8265999999999
 20
1023.8281999999999
 11
1234.7076
 21
783.92509999999993
  0
CIRCLE
  8
_0-0_LAYER001
  6
CONTINUOUS
 62
    2
 10
1733.2602999999999
 20
1137.1498999999999
 40
0.8999999999999999
  0
CIRCLE
  8
_0-0_LAYER001
  6
CONTINUOUS
 62
    2
 10
1735.6558
 20
1125.5717999999999
 40
0.8999999999999999
  0
CIRCLE
  8
_0-0_LAYER001
  6
CONTINUOUS
 62
    2
 10
1710.1041
 20
1075.2669000000001
 40
0.8999999999999999
  0
CIRCLE
  8
_0-0_LAYER001
  6
CONTINUOUS
 62
    2
 10
1711.7011000000002
 20
1059.2971
 40
0.8999999999999999
  0
CIRCLE
  8
_0-0_LAYER001
  6
CONTINUOUS
 62
    2
 10
1720.8836999999999
 20
1058.0994000000001
 40
0.8999999999999999
  0
CIRCLE
  8
_0-0_LAYER001
  6
CONTINUOUS
 62
    2
 10
1702.1192000000001
 20
1053.7076999999999
 40
0.8999999999999999
  0
CIRCLE
  8
_0-0_LAYER001
  6
CONTINUOUS
 62
    2
 10
1701.7199000000001
 20
1068.8789999999999
 40
0.8999999999999999
  0
CIRCLE
  8
_0-0_LAYER001
  6
CONTINUOUS
 62
    2
 10
1676.9666999999999
 20
1044.9242999999999
 40
0.8999999999999999
  0
CIRCLE
  8
_0-0_LAYER001
  6
CONTINUOUS
 62
    2
 10
1666.9856
 20
1038.1370999999999
 40
0.8999999999999999
  0
CIRCLE
  8
_0-0_LAYER001
  6
CONTINUOUS
 62
    2
 10
1666.1871000000001
 20
1048.9167
 40
0.8999999999999999
  0
CIRCLE
  8
_0-0_LAYER001
  6
CONTINUOUS
 62
    2
 10
1670.5787999999998
 20
1069.2782
 40
0.8999999999999999
  0
CIRCLE
  8
_0-0_LAYER001
  6
CONTINUOUS
 62
    2
 10
1674.172
 20
1092.8336999999999
 40
0.8999999999999999
  0
CIRCLE
  8
_0-0_LAYER001
  6
CONTINUOUS
 62
    2
 10
1686.5486000000001
 20
1097.6246000000001
 40
0.8999999999999999
  0
CIRCLE
  8
_0-0_LAYER001
  6
CONTINUOUS
 62
    2
 10
1732.0626000000002
 20
1074.0691999999999
 40
0.8999999999999999
  0
CIRCLE
  8
_0-0_LAYER001
  6
CONTINUOUS
 62
    2
 10
1741.2451999999998
 20
1086.845
 40
0.8999999999999999
  0
CIRCLE
  8
_0-0_LAYER001
  6
CONTINUOUS
 62
    2
 10
1744.8384000000001
 20
1097.6246000000001
 40
0.8999999999999999
  0
CIRCLE
  8
_0-0_LAYER001
  6
CONTINUOUS
 62
    2
 10
1745.2377000000001
 20
1059.6963000000001
 40
0.8999999999999999
  0
CIRCLE
  8
_0-0_LAYER001
  6
CONTINUOUS
 62
    2
 10
1733.2602999999999
 20
1115.5907
 40
0.8999999999999999
  0
LINE
  8
_0-0_LAYER001
  6
CONTINUOUS
 62
    3
 10
1741.2950999999998
 20
1168.1102000000001
 11
1741.3279000000002
 21
1167.6456000000001
  0
LINE
  8
_0-0_LAYER001
  6
CONTINUOUS
 62
    3
 10
1741.3279000000002
 20
1167.6456000000001
 11
1741.4168
 21
1166.3843999999999
  0
LINE
  8
_0-0_LAYER001
  6
CONTINUOUS
 62
    3
 10
1741.4168
 20
1166.3843999999999
 11
1741.5479
 21
1164.5259000000001
  0
LINE
  8
_0-0_LAYER001
  6
CONTINUOUS
 62
    3
 10
1741.5479
 20
1164.5259000000001
 11
1741.7069999999999
 21
1162.2692
  0
LINE
  8
_0-0_LAYER001
  6
CONTINUOUS
 62
    3
 10
1741.7069999999999
 20
1162.2692
 11
1741.8802000000001
 21
1159.8133
  0
LINE
  8
_0-0_LAYER001
  6
CONTINUOUS
 62
    3
 10
1741.8802000000001
 20
1159.8133
 11
1742.0533999999998
 21
1157.3574000000001
  0
LINE
  8
_0-0_LAYER001
  6
CONTINUOUS
 62
    3
 10
1742.0533999999998
 20
1157.3574000000001
 11
1742.2125000000001
 21
1155.1007
  0
LINE
  8
_0-0_LAYER001
  6
CONTINUOUS
 62
    3
 10
1742.2125000000001
 20
1155.1007
 11
1742.3436000000002
 21
1153.2421999999999
  0
LINE
  8
_0-0_LAYER001
  6
CONTINUOUS
 62
    3
 10
1742.3436000000002
 20
1153.2421999999999
 11
1742.4324999999999
 21
1151.981
  0
LINE
  8
_0-0_LAYER001
  6
CONTINUOUS
 62
    3
 10
1742.4324999999999
 20
1151.981
 11
1742.4652999999998
 21
1151.5164
  0
LINE
  8
_0-0_LAYER001
  6
CONTINUOUS
 62
    3
 10
1742.4652999999998
 20
1151.5164
 11
1741.3193000000001
 21
1151.4555
  0
LINE
  8
_0-0_LAYER001
  6
CONTINUOUS
 62
    3
 10
1741.3193000000001
 20
1151.4555
 11
1737.9596999999999
 21
1151.1228000000001
  0
LINE
  8
_0-0_LAYER001
  6
CONTINUOUS
 62
    3
 10
1737.9596999999999
 20
1151.1228000000001
 11
1732.5046000000002
 21
1150.2931000000001
  0
LINE
  8
_0-0_LAYER001
  6
CONTINUOUS
 62
    3
 10
1732.5046000000002
 20
1150.2931000000001
 11
1725.0718000000002
 21
1148.7411999999999
  0
LINE
  8
_0-0_LAYER001
  6
CONTINUOUS
 62
    3
 10
1725.0718000000002
 20
1148.7411999999999
 11
1715.7793000000001
 21
1146.2420999999999
  0
LINE
  8
_0-0_LAYER001
  6
CONTINUOUS
 62
    3
 10
1715.7793000000001
 20
1146.2420999999999
 11
1704.7447999999999
 21
1142.5704000000001
  0
LINE
  8
_0-0_LAYER001
  6
CONTINUOUS
 62
    3
 10
1704.7447999999999
 20
1142.5704000000001
 11
1692.0862999999999
 21
1137.5011
  0
LINE
  8
_0-0_LAYER001
  6
CONTINUOUS
 62
    3
 10
1692.0862999999999
 20
1137.5011
 11
1677.9216999999999
 21
1130.8090999999999
  0
LINE
  8
_0-0_LAYER001
  6
CONTINUOUS
 62
    3
 10
1677.9216999999999
 20
1130.8090999999999
 11
1662.3690000000001
 21
1122.2691
  0
LINE
  8
_0-0_LAYER001
  6
CONTINUOUS
 62
    3
 10
1662.3690000000001
 20
1122.2691
 11
1645.5459000000001
 21
1111.6560999999999
  0
LINE
  8
_0-0_LAYER001
  6
CONTINUOUS
 62
    3
 10
1645.5459000000001
 20
1111.6560999999999
 11
1645.4926
 21
1112.4122
  0
LINE
  8
_0-0_LAYER001
  6
CONTINUOUS
 62
    3
 10
1645.4926
 20
1112.4122
 11
1645.3478
 21
1114.4647
  0
LINE
  8
_0-0_LAYER001
  6
CONTINUOUS
 62
    3
 10
1645.3478
 20
1114.4647
 11
1645.1345000000001
 21
1117.4893
  0
LINE
  8
_0-0_LAYER001
  6
CONTINUOUS
 62
    3
 10
1645.1345000000001
 20
1117.4893
 11
1644.8755000000001
 21
1121.1621
  0
LINE
  8
_0-0_LAYER001
  6
CONTINUOUS
 62
    3
 10
1644.8755000000001
 20
1121.1621
 11
1644.5936000000002
 21
1125.1590000000001
  0
LINE
  8
_0-0_LAYER001
  6
CONTINUOUS
 62
    3
 10
1644.5936000000002
 20
1125.1590000000001
 11
1644.3117999999999
 21
1129.1559
  0
LINE
  8
_0-0_LAYER001
  6
CONTINUOUS
 62
    3
 10
1644.3117999999999
 20
1129.1559
 11
1644.0527999999999
 21
1132.8287
  0
LINE
  8
_0-0_LAYER001
  6
CONTINUOUS
 62
    3
 10
1644.0527999999999
 20
1132.8287
 11
1643.8395
 21
1135.8533
  0
LINE
  8
_0-0_LAYER001
  6
CONTINUOUS
 62
    3
 10
1643.8395
 20
1135.8533
 11
1643.6947
 21
1137.9058
  0
LINE
  8
_0-0_LAYER001
  6
CONTINUOUS
 62
    3
 10
1643.6947
 20
1137.9058
 11
1643.6414
 21
1138.6619000000001
  0
LINE
  8
_0-0_LAYER001
  6
CONTINUOUS
 62
    3
 10
1643.6414
 20
1138.6619000000001
 11
1645.2631000000001
 21
1139.3639000000001
  0
LINE
  8
_0-0_LAYER001
  6
CONTINUOUS
 62
    3
 10
1645.2631000000001
 20
1139.3639000000001
 11
1649.8415
 21
1141.2887000000001
  0
LINE
  8
_0-0_LAYER001
  6
CONTINUOUS
 62
    3
 10
1649.8415
 20
1141.2887000000001
 11
1656.9465
 21
1144.1646000000001
  0
LINE
  8
_0-0_LAYER001
  6
CONTINUOUS
 62
    3
 10
1656.9465
 20
1144.1646000000001
 11
1666.1478999999999
 21
1147.72
  0
LINE
  8
_0-0_LAYER001
  6
CONTINUOUS
 62
    3
 10
1666.1478999999999
 20
1147.72
 11
1677.0156999999999
 21
1151.6832999999999
  0
LINE
  8
_0-0_LAYER001
  6
CONTINUOUS
 62
    3
 10
1677.0156999999999
 20
1151.6832999999999
 11
1689.1196
 21
1155.7828999999999
  0
LINE
  8
_0-0_LAYER001
  6
CONTINUOUS
 62
    3
 10
1689.1196
 20
1155.7828999999999
 11
1702.0297
 21
1159.7469000000001
  0
LINE
  8
_0-0_LAYER001
  6
CONTINUOUS
 62
    3
 10
1702.0297
 20
1159.7469000000001
 11
1715.3157000000001
 21
1163.3040000000001
  0
LINE
  8
_0-0_LAYER001
  6
CONTINUOUS
 62
    3
 10
1715.3157000000001
 20
1163.3040000000001
 11
1728.5475000000001
 21
1166.1822999999999
  0
LINE
  8
_0-0_LAYER001
  6
CONTINUOUS
 62
    3
 10
1741.2950999999998
 20
1168.1102000000001
 11
1728.4366
 21
1166.1581000000001
  0
LINE
  8
_0-0_LAYER001
  6
CONTINUOUS
 62
    3
 10
1731.3429999999998
 20
1133.9434000000001
 11
1731.3757999999998
 21
1133.4788000000001
  0
LINE
  8
_0-0_LAYER001
  6
CONTINUOUS
 62
    3
 10
1731.3757999999998
 20
1133.4788000000001
 11
1731.4647
 21
1132.2175999999999
  0
LINE
  8
_0-0_LAYER001
  6
CONTINUOUS
 62
    3
 10
1731.4647
 20
1132.2175999999999
 11
1731.5958000000001
 21
1130.3590999999999
  0
LINE
  8
_0-0_LAYER001
  6
CONTINUOUS
 62
    3
 10
1731.5958000000001
 20
1130.3590999999999
 11
1731.7548999999999
 21
1128.1024
  0
LINE
  8
_0-0_LAYER001
  6
CONTINUOUS
 62
    3
 10
1731.7548999999999
 20
1128.1024
 11
1731.9281000000001
 21
1125.6465000000001
  0
LINE
  8
_0-0_LAYER001
  6
CONTINUOUS
 62
    3
 10
1731.9281000000001
 20
1125.6465000000001
 11
1732.1012999999998
 21
1123.1905999999999
  0
LINE
  8
_0-0_LAYER001
  6
CONTINUOUS
 62
    3
 10
1732.1012999999998
 20
1123.1905999999999
 11
1732.2604000000001
 21
1120.9339
  0
LINE
  8
_0-0_LAYER001
  6
CONTINUOUS
 62
    3
 10
1732.2604000000001
 20
1120.9339
 11
1732.3915000000002
 21
1119.0753999999999
  0
LINE
  8
_0-0_LAYER001
  6
CONTINUOUS
 62
    3
 10
1732.3915000000002
 20
1119.0753999999999
 11
1732.4803999999999
 21
1117.8142
  0
LINE
  8
_0-0_LAYER001
  6
CONTINUOUS
 62
    3
 10
1732.4803999999999
 20
1117.8142
 11
1732.5131999999999
 21
1117.3496
  0
LINE
  8
_0-0_LAYER001
  6
CONTINUOUS
 62
    3
 10
1732.5131999999999
 20
1117.3496
 11
1731.3672000000001
 21
1117.2887000000001
  0
LINE
  8
_0-0_LAYER001
  6
CONTINUOUS
 62
    3
 10
1731.3672000000001
 20
1117.2887000000001
 11
1728.0075999999999
 21
1116.9559999999999
  0
LINE
  8
_0-0_LAYER001
  6
CONTINUOUS
 62
    3
 10
1728.0075999999999
 20
1116.9559999999999
 11
1722.5524999999998
 21
1116.1262999999999
  0
LINE
  8
_0-0_LAYER001
  6
CONTINUOUS
 62
    3
 10
1722.5524999999998
 20
1116.1262999999999
 11
1715.1197999999999
 21
1114.5744
  0
LINE
  8
_0-0_LAYER001
  6
CONTINUOUS
 62
    3
 10
1715.1197999999999
 20
1114.5744
 11
1705.8272000000002
 21
1112.0752
  0
LINE
  8
_0-0_LAYER001
  6
CONTINUOUS
 62
    3
 10
1705.8272000000002
 20
1112.0752
 11
1694.7927
 21
1108.4036000000001
  0
LINE
  8
_0-0_LAYER001
  6
CONTINUOUS
 62
    3
 10
1694.7927
 20
1108.4036000000001
 11
1682.1342
 21
1103.3343
  0
LINE
  8
_0-0_LAYER001
  6
CONTINUOUS
 62
    3
 10
1682.1342
 20
1103.3343
 11
1667.9695999999999
 21
1096.6423
  0
LINE
  8
_0-0_LAYER001
  6
CONTINUOUS
 62
    3
 10
1667.9695999999999
 20
1096.6423
 11
1652.4169000000002
 21
1088.1023
  0
LINE
  8
_0-0_LAYER001
  6
CONTINUOUS
 62
    3
 10
1652.4169000000002
 20
1088.1023
 11
1635.5938000000001
 21
1077.4892
  0
LINE
  8
_0-0_LAYER001
  6
CONTINUOUS
 62
    3
 10
1635.5938000000001
 20
1077.4892
 11
1635.5405000000001
 21
1078.2454
  0
LINE
  8
_0-0_LAYER001
  6
CONTINUOUS
 62
    3
 10
1635.5405000000001
 20
1078.2454
 11
1635.3957
 21
1080.2979
  0
LINE
  8
_0-0_LAYER001
  6
CONTINUOUS
 62
    3
 10
1635.3957
 20
1080.2979
 11
1635.1824000000001
 21
1083.3225
  0
LINE
  8
_0-0_LAYER001
  6
CONTINUOUS
 62
    3
 10
1635.1824000000001
 20
1083.3225
 11
1634.9234000000001
 21
1086.9953
  0
LINE
  8
_0-0_LAYER001
  6
CONTINUOUS
 62
    3
 10
1634.9234000000001
 20
1086.9953
 11
1634.6415000000002
 21
1090.9921999999999
  0
LINE
  8
_0-0_LAYER001
  6
CONTINUOUS
 62
    3
 10
1634.6415000000002
 20
1090.9921999999999
 11
1634.3597
 21
1094.9891
  0
LINE
  8
_0-0_LAYER001
  6
CONTINUOUS
 62
    3
 10
1634.3597
 20
1094.9891
 11
1634.1007
 21
1098.6619000000001
  0
LINE
  8
_0-0_LAYER001
  6
CONTINUOUS
 62
    3
 10
1634.1007
 20
1098.6619000000001
 11
1633.8874000000001
 21
1101.6865
  0
LINE
  8
_0-0_LAYER001
  6
CONTINUOUS
 62
    3
 10
1633.8874000000001
 20
1101.6865
 11
1633.7426
 21
1103.739
  0
LINE
  8
_0-0_LAYER001
  6
CONTINUOUS
 62
    3
 10
1633.7426
 20
1103.739
 11
1633.6893
 21
1104.4951000000001
  0
LINE
  8
_0-0_LAYER001
  6
CONTINUOUS
 62
    3
 10
1633.6893
 20
1104.4951000000001
 11
1635.3110000000001
 21
1105.1971000000001
  0
LINE
  8
_0-0_LAYER001
  6
CONTINUOUS
 62
    3
 10
1635.3110000000001
 20
1105.1971000000001
 11
1639.8894
 21
1107.1217999999999
  0
LINE
  8
_0-0_LAYER001
  6
CONTINUOUS
 62
    3
 10
1639.8894
 20
1107.1217999999999
 11
1646.9944
 21
1109.9978000000001
  0
LINE
  8
_0-0_LAYER001
  6
CONTINUOUS
 62
    3
 10
1646.9944
 20
1109.9978000000001
 11
1656.1958
 21
1113.5532000000001
  0
LINE
  8
_0-0_LAYER001
  6
CONTINUOUS
 62
    3
 10
1656.1958
 20
1113.5532000000001
 11
1667.0636
 21
1117.5165
  0
LINE
  8
_0-0_LAYER001
  6
CONTINUOUS
 62
    3
 10
1667.0636
 20
1117.5165
 11
1679.1676000000002
 21
1121.616
  0
LINE
  8
_0-0_LAYER001
  6
CONTINUOUS
 62
    3
 10
1679.1676000000002
 20
1121.616
 11
1692.0776000000001
 21
1125.5800999999999
  0
LINE
  8
_0-0_LAYER001
  6
CONTINUOUS
 62
    3
 10
1692.0776000000001
 20
1125.5800999999999
 11
1705.3636000000001
 21
1129.1371999999999
  0
LINE
  8
_0-0_LAYER001
  6
CONTINUOUS
 62
    3
 10
1705.3636000000001
 20
1129.1371999999999
 11
1718.5954000000002
 21
1132.0155
  0
LINE
  8
_0-0_LAYER001
  6
CONTINUOUS
 62
    3
 10
1731.3429999999998
 20
1133.9434000000001
 11
1718.4845
 21
1131.9912999999999
  0
ARC
  8
_0-0_LAYER001
  6
CONTINUOUS
 62
    2
 10
1506.4232000000002
 20
1069.6670999999999
 40
160.10042000000001
 50
346.36619000000002
 51
9.0178680000000355
  0
ARC
  8
_0-0_LAYER001
  6
CONTINUOUS
 62
    2
 10
1633.6617999999999
 20
1123.8959
 40
32.517400000000002
 50
347.60806000000002
 51
0.8169229999999736
  0
LINE
  8
_0-0_LAYER001
  6
CONTINUOUS
 62
    2
 10
1667.6023
 20
1073.8623
 11
1674.8467000000001
 21
1075.8034
  0
LINE
  8
_0-0_LAYER001
  6
CONTINUOUS
 62
    2
 10
1674.8467000000001
 20
1075.8034
 11
1669.5434
 21
1070.5001
  0
LINE
  8
_0-0_LAYER001
  6
CONTINUOUS
 62
    2
 10
1674.8467000000001
 20
1075.8034
 11
1573.7420000000002
 21
1017.4305999999999
  0
LINE
  8
_0-0_LAYER001
  6
CONTINUOUS
 62
    2
 10
1642.0558999999998
 20
1108.7773
 11
1642.0558999999998
 21
1101.2773
  0
LINE
  8
_0-0_LAYER001
  6
CONTINUOUS
 62
    2
 10
1642.0558999999998
 20
1101.2773
 11
1638.3058999999998
 21
1107.7725
  0
LINE
  8
_0-0_LAYER001
  6
CONTINUOUS
 62
    2
 10
1642.0558999999998
 20
1101.2773
 11
1590.7455
 21
1292.7703999999999
  0
LINE
  8
_0-0_LAYER001
  6
CONTINUOUS
 62
    2
 10
1447.9056
 20
938.21229999999991
 11
1447.9056
 21
930.71229999999991
  0
LINE
  8
_0-0_LAYER001
  6
CONTINUOUS
 62
    2
 10
1447.9056
 20
930.71229999999991
 11
1444.1556
 21
937.20749999999998
  0
LINE
  8
_0-0_LAYER001
  6
CONTINUOUS
 62
    2
 10
1447.9056
 20
930.71229999999991
 11
1420.3625
 21
1033.5045
  0
LINE
  8
_0-0_LAYER001
  6
CONTINUOUS
 62
    2
 10
1420.3625
 20
1033.5045
 11
1379.8624999999997
 21
1033.5045
  0
LINE
  8
_0-0_LAYER001
  6
CONTINUOUS
 62
    2
 10
1734.8712999999998
 20
1021.059
 11
1762.2283000000002
 21
1033.3714
  0
LINE
  8
_0-0_LAYER001
  6
CONTINUOUS
 62
    2
 10
1762.2283000000002
 20
1033.3714
 11
1756.0720999999999
 21
1047.0499
  0
LINE
  8
_0-0_LAYER001
  6
CONTINUOUS
 62
    2
 10
1756.0720999999999
 20
1047.0499
 11
1728.7152000000001
 21
1034.7375
  0
LINE
  8
_0-0_LAYER001
  6
CONTINUOUS
 62
    2
 10
1728.7152000000001
 20
1034.7375
 11
1734.8712999999998
 21
1021.059
  0
LINE
  8
_0-0_LAYER001
  6
CONTINUOUS
 62
    2
 10
1756.0720999999999
 20
1047.0499
 11
1734.8712999999998
 21
1021.059
  0
LINE
  8
_0-0_LAYER001
  6
CONTINUOUS
 62
    4
 10
1768.8521000000001
 20
1038.9170999999999
 11
1758.5068999999999
 21
1067.2474
  0
LINE
  8
_0-0_LAYER001
  6
CONTINUOUS
 62
    4
 10
1768.8521000000001
 20
1038.9170999999999
 11
1761.7577000000001
 21
1036.3433
  0
LINE
  8
_0-0_LAYER001
  6
CONTINUOUS
 62
    4
 10
1757.5014000000001
 20
1048.075
 11
1761.7577000000001
 21
1036.3433
  0
LINE
  8
_0-0_LAYER001
  6
CONTINUOUS
 62
    4
 10
1758.5068999999999
 20
1067.2474
 11
1738.8168999999998
 21
1114.1267
  0
LINE
  8
_0-0_LAYER001
  6
CONTINUOUS
 62
    2
 10
1304.4546
 20
827.3442
 11
1331.8116
 21
839.65660000000003
  0
LINE
  8
_0-0_LAYER001
  6
CONTINUOUS
 62
    2
 10
1331.8116
 20
839.65660000000003
 11
1325.6554000000001
 21
853.33510000000001
  0
LINE
  8
_0-0_LAYER001
  6
CONTINUOUS
 62
    2
 10
1325.6554000000001
 20
853.33510000000001
 11
1298.2983999999999
 21
841.02269999999999
  0
LINE
  8
_0-0_LAYER001
  6
CONTINUOUS
 62
    2
 10
1298.2983999999999
 20
841.02269999999999
 11
1304.4546
 21
827.3442
  0
LINE
  8
_0-0_LAYER001
  6
CONTINUOUS
 62
    2
 10
1325.6554000000001
 20
853.33510000000001
 11
1304.4546
 21
827.3442
  0
LINE
  8
_0-0_LAYER001
  6
CONTINUOUS
 62
    4
 10
1339.1590999999999
 20
845.4079999999999
 11
1328.8137999999999
 21
873.73829999999998
  0
LINE
  8
_0-0_LAYER001
  6
CONTINUOUS
 62
    2
 10
1519.663
 20
924.2016000000001
 11
1547.02
 21
936.5139999999999
  0
LINE
  8
_0-0_LAYER001
  6
CONTINUOUS
 62
    2
 10
1547.02
 20
936.5139999999999
 11
1540.8638000000001
 21
950.19250000000011
  0
LINE
  8
_0-0_LAYER001
  6
CONTINUOUS
 62
    2
 10
1540.8638000000001
 20
950.19250000000011
 11
1513.5068000000001
 21
937.88010000000008
  0
LINE
  8
_0-0_LAYER001
  6
CONTINUOUS
 62
    2
 10
1513.5068000000001
 20
937.88010000000008
 11
1519.663
 21
924.2016000000001
  0
LINE
  8
_0-0_LAYER001
  6
CONTINUOUS
 62
    2
 10
1540.8638000000001
 20
950.19250000000011
 11
1519.663
 21
924.2016000000001
  0
LINE
  8
_0-0_LAYER001
  6
CONTINUOUS
 62
    4
 10
1554.0056
 20
942.16260000000011
 11
1543.6603
 21
970.49289999999996
  0
LINE
  8
_0-0_LAYER001
  6
CONTINUOUS
 62
    4
 10
1554.0056
 20
942.16260000000011
 11
1546.5585000000001
 21
939.46080000000006
  0
LINE
  8
_0-0_LAYER001
  6
CONTINUOUS
 62
    4
 10
1542.3022000000001
 20
951.19250000000011
 11
1546.5585000000001
 21
939.46080000000006
  0
LINE
  8
_0-0_LAYER001
  6
CONTINUOUS
 62
    4
 10
1339.1590999999999
 20
845.4079999999999
 11
1331.3591999999999
 21
842.57819999999992
  0
LINE
  8
_0-0_LAYER001
  6
CONTINUOUS
 62
    4
 10
1327.1029000000001
 20
854.30999999999995
 11
1331.3591999999999
 21
842.57819999999992
  0
LINE
  8
_0-0_LAYER001
  6
CONTINUOUS
 62
    4
 10
1266.7825
 20
870.04079999999999
 11
1757.5014000000001
 21
1048.075
  0
LINE
  8
_0-0_LAYER001
  6
CONTINUOUS
 62
    4
 10
1249.4626000000001
 20
917.77999999999997
 11
1460.4375
 21
994.32220000000007
  0
LINE
  8
_0-0_LAYER001
  6
CONTINUOUS
 62
    4
 10
1458.0542999999998
 20
1001.2019
 11
1477.857
 21
946.61930000000007
  0
ARC
  8
_0-0_LAYER001
  6
CONTINUOUS
 62
    4
 10
1467.8308000000002
 20
1004.7489
 40
10.4
 50
109.94091000000002
 51
199.94091
  0
ARC
  8
_0-0_LAYER001
  6
CONTINUOUS
 62
    4
 10
1270.3041000000001
 20
860.25520000000006
 40
10.4
 50
109.94091000000002
 51
199.94091
  0
ARC
  8
_0-0_LAYER001
  6
CONTINUOUS
 62
    4
 10
1485.1507000000001
 20
957.00970000000007
 40
10.4
 50
109.94091000000002
 51
199.94091
  0
LINE
  8
_0-0_LAYER001
  6
CONTINUOUS
 62
    4
 10
1480.7231999999999
 20
966.46669999999995
 11
1758.5068999999999
 21
1067.2474
  0
LINE
  8
_0-0_LAYER001
  6
CONTINUOUS
 62
    4
 10
1458.0542999999998
 20
1001.2019
 11
1471.8272999999999
 21
963.23929999999996
  0
LINE
  8
_0-0_LAYER001
  6
CONTINUOUS
 62
    4
 10
1220.1076
 20
815.49180000000001
 11
1327.1029000000001
 21
854.30999999999995
  0
LINE
  8
_0-0_LAYER001
  6
CONTINUOUS
 62
    4
 10
1191.8327999999999
 20
878.06410000000005
 11
1245.5909999999999
 21
897.56770000000006
  0
LINE
  8
_0-0_LAYER001
  6
CONTINUOUS
 62
    4
 10
1249.2375
 20
887.8273999999999
 11
1263.0105000000001
 21
849.86470000000008
  0
LINE
  8
_0-0_LAYER001
  6
CONTINUOUS
 62
    4
 10
1212.806
 20
831.65039999999999
 11
1542.3022000000001
 21
951.19250000000011
  0
LINE
  8
_0-0_LAYER001
  6
CONTINUOUS
 62
    4
 10
1463.4032999999999
 20
1014.2058999999999
 11
1738.8168999999998
 21
1114.1267
  0
LINE
  8
_0-0_LAYER001
  6
CONTINUOUS
 62
    4
 10
1243.2077999999999
 20
904.44740000000002
 11
1263.0105000000001
 21
849.86470000000008
  0
ARC
  8
_0-0_LAYER001
  6
CONTINUOUS
 62
    4
 10
1252.9842000000001
 20
907.99430000000007
 40
10.4
 50
109.94091000000002
 51
199.94091
  0
LINE
  8
_0-0_LAYER001
  6
CONTINUOUS
 62
    2
 10
1198.7593999999999
 20
1025.8148000000001
 11
1216.7674999999999
 21
976.5
  0
CIRCLE
  8
_0-0_LAYER001
  6
CONTINUOUS
 62
    2
 10
1199.6169
 20
1023.4665
 40
1.6999999999999997
  0
LINE
  8
_0-0_LAYER001
  6
CONTINUOUS
 62
    2
 10
1199.6169
 20
1023.4665
 11
1420.3597
 21
1104.0744
  0
CIRCLE
  8
_0-0_LAYER001
  6
CONTINUOUS
 62
    2
 10
1420.3597
 20
1104.0744
 40
1.6999999999999997
  0
LINE
  8
_0-0_LAYER001
  6
CONTINUOUS
 62
    2
 10
1419.5020999999999
 20
1106.4227000000001
 11
1437.5102999999999
 21
1057.1079
  0
LINE
  8
_0-0_LAYER001
  6
CONTINUOUS
 62
    2
 10
1692.2775999999999
 20
1248.6147000000001
 11
1710.2856999999999
 21
1199.2999
  0
CIRCLE
  8
_0-0_LAYER001
  6
CONTINUOUS
 62
    2
 10
1693.1351
 20
1246.2664
 40
1.6999999999999997
  0
LINE
  8
_0-0_LAYER001
  6
CONTINUOUS
 62
    2
 10
1693.1351
 20
1246.2664
 11
1406.6392000000001
 21
1141.6476
  0
CIRCLE
  8
_0-0_LAYER001
  6
CONTINUOUS
 62
    2
 10
1406.6392000000001
 20
1141.6476
 40
1.6999999999999997
  0
LINE
  8
_0-0_LAYER001
  6
CONTINUOUS
 62
    2
 10
1405.7816
 20
1143.9960000000001
 11
1423.7898
 21
1094.6811
  0
LINE
  8
_0-0_LAYER001
  6
CONTINUOUS
 62
    2
 10
1787.4342999999999
 20
1296.9354000000001
 11
1782.1309999999999
 21
1291.6320999999998
  0
LINE
  8
_0-0_LAYER001
  6
CONTINUOUS
 62
    2
 10
1782.1309999999999
 20
1291.6320999999998
 11
1784.0720999999999
 21
1298.8766000000001
  0
LINE
  8
_0-0_LAYER001
  6
CONTINUOUS
 62
    2
 10
1782.1309999999999
 20
1291.6320999999998
 11
1854.5841
 21
1417.1246000000001
  0
LINE
  8
_0-0_LAYER001
  6
CONTINUOUS
 62
    2
 10
1854.5841
 20
1417.1246000000001
 11
1935.5841
 21
1417.1246000000001
  0
LINE
  8
_0-0_LAYER001
  6
CONTINUOUS
 62
    2
 10
1739.1985
 20
1182.4938999999999
 11
1739.1985
 21
1174.9938999999999
  0
LINE
  8
_0-0_LAYER001
  6
CONTINUOUS
 62
    2
 10
1739.1985
 20
1174.9938999999999
 11
1735.4485
 21
1181.4891
  0
LINE
  8
_0-0_LAYER001
  6
CONTINUOUS
 62
    2
 10
1739.1985
 20
1174.9938999999999
 11
1686.4049
 21
1372.0224000000003
  0
LINE
  8
_0-0_LAYER001
  6
CONTINUOUS
 62
    2
 10
1686.4049
 20
1372.0224000000003
 11
1539.4049
 21
1372.0224000000003
  0
LINE
  8
_0-0_LAYER001
  6
CONTINUOUS
 62
    2
 10
1573.7420000000002
 20
1017.4305999999999
 11
1514.5972000000002
 21
1238.1619000000001
  0
LINE
  8
_0-0_LAYER001
  6
CONTINUOUS
 62
    2
 10
1514.5972000000002
 20
1238.1619000000001
 11
1432.5565000000001
 21
1238.1619000000001
  0
LINE
  8
_0-0_LAYER001
  6
CONTINUOUS
 62
    2
 10
1853.4722999999999
 20
1167.0646999999999
 11
1848.1689999999999
 21
1161.7614000000001
  0
LINE
  8
_0-0_LAYER001
  6
CONTINUOUS
 62
    2
 10
1848.1689999999999
 20
1161.7614000000001
 11
1850.1100999999999
 21
1169.0059000000001
  0
LINE
  8
_0-0_LAYER001
  6
CONTINUOUS
 62
    2
 10
1848.1689999999999
 20
1161.7614000000001
 11
1909.3314
 21
1267.6977999999999
  0
LINE
  8
_0-0_LAYER001
  6
CONTINUOUS
 62
    2
 10
1909.3314
 20
1267.6977999999999
 11
2145.5358999999999
 21
1267.6977999999999
  0
LINE
  8
_0-0_LAYER001
  6
CONTINUOUS
 62
    2
 10
1734.4503
 20
1168.4984999999999
 11
1753.223
 21
1168.4984999999999
  0
LINE
  8
_0-0_LAYER001
  6
CONTINUOUS
 62
    2
 10
1753.223
 20
1168.4984999999999
 11
1753.223
 21
1150.1169
  0
LINE
  8
_0-0_LAYER001
  6
CONTINUOUS
 62
    2
 10
1753.223
 20
1150.1169
 11
1734.4503
 21
1150.1169
  0
LINE
  8
_0-0_LAYER001
  6
CONTINUOUS
 62
    2
 10
1734.4503
 20
1150.1169
 11
1734.4503
 21
1168.4984999999999
  0
LINE
  8
_0-0_LAYER001
  6
CONTINUOUS
 62
    2
 10
1724.4540000000002
 20
1133.8402000000001
 11
1724.4540000000002
 21
1115.2860000000001
  0
LINE
  8
_0-0_LAYER001
  6
CONTINUOUS
 62
    2
 10
1724.4540000000002
 20
1115.2860000000001
 11
1732.5131999999999
 21
1117.3496
  0
LINE
  8
_0-0_LAYER001
  6
CONTINUOUS
 62
    2
 10
1732.5131999999999
 20
1117.3496
 11
1753.1288
 21
1140.4818
  0
LINE
  8
_0-0_LAYER001
  6
CONTINUOUS
 62
    2
 10
1724.4540000000002
 20
1133.8402000000001
 11
1749.4389999999999
 21
1145.6474000000001
  0
LINE
  8
_0-0_LAYER001
  6
CONTINUOUS
 62
    2
 10
1749.4389999999999
 20
1145.6474000000001
 11
1753.1288
 21
1140.4818
  0
LINE
  8
_0-0_LAYER001
  6
CONTINUOUS
 62
    2
 10
1687.4011999999998
 20
1161.3973000000001
 11
1776.0338999999999
 21
1177.0255999999999
  0
LINE
  8
_0-0_LAYER001
  6
CONTINUOUS
 62
    2
 10
1684.7966000000001
 20
1176.1694
 11
1773.4292
 21
1191.7977000000001
  0
LINE
  8
_0-0_LAYER001
  6
CONTINUOUS
 62
    2
 10
1684.7966000000001
 20
1176.1694
 11
1687.4011999999998
 21
1161.3973000000001
  0
LINE
  8
_0-0_LAYER001
  6
CONTINUOUS
 62
    2
 10
1773.4292
 20
1191.7977000000001
 11
1776.0338999999999
 21
1177.0255999999999
  0
LINE
  8
_0-0_LAYER001
  6
CONTINUOUS
 62
    2
 10
1776.0338999999999
 20
1177.0255999999999
 11
1684.7966000000001
 21
1176.1694
  0
LINE
  8
_0-0_LAYER001
  6
CONTINUOUS
 62
    2
 10
1682.4796999999999
 20
1177.7916
 11
1685.0843
 21
1163.0195000000001
  0
LINE
  8
_0-0_LAYER001
  6
CONTINUOUS
 62
    2
 10
1824.0338999999999
 20
1157.0255999999999
 11
1819.0338999999999
 21
1160.0255999999999
  0
LINE
  8
_0-0_LAYER001
  6
CONTINUOUS
 62
    2
 10
1819.0338999999999
 20
1154.0256999999999
 11
1824.0338999999999
 21
1157.0255999999999
  0
LINE
  8
_0-0_LAYER001
  6
CONTINUOUS
 62
    2
 10
1817.9589000000001
 20
1154.0256999999999
 11
1820.8078999999998
 21
1158.9617000000001
  0
LINE
  8
_0-0_LAYER001
  6
CONTINUOUS
 62
    2
 10
1752.0338000000002
 20
1154.0256999999999
 11
1752.0338000000002
 21
1160.0255999999999
  0
LINE
  8
_0-0_LAYER001
  6
CONTINUOUS
 62
    2
 10
1746.0338999999999
 20
1151.0255999999999
 11
1746.0338999999999
 21
1163.0256999999999
  0
LINE
  8
_0-0_LAYER001
  6
CONTINUOUS
 62
    2
 10
1754.9209000000001
 20
1154.0256999999999
 11
1758.3838999999998
 21
1160.0255999999999
  0
LINE
  8
_0-0_LAYER001
  6
CONTINUOUS
 62
    2
 10
1746.0338999999999
 20
1151.0255999999999
 11
1752.0338000000002
 21
1154.0256999999999
  0
LINE
  8
_0-0_LAYER001
  6
CONTINUOUS
 62
    2
 10
1752.0338000000002
 20
1160.0255999999999
 11
1746.0338999999999
 21
1163.0256999999999
  0
LINE
  8
_0-0_LAYER001
  6
CONTINUOUS
 62
    2
 10
1819.0338999999999
 20
1160.0255999999999
 11
1809.0189
 21
1160.0255999999999
  0
LINE
  8
_0-0_LAYER001
  6
CONTINUOUS
 62
    2
 10
1800.3669
 20
1155.5527
 11
1802.2609000000002
 21
1158.8336999999999
  0
LINE
  8
_0-0_LAYER001
  6
CONTINUOUS
 62
    2
 10
1808.7509
 20
1154.0745999999999
 11
1812.1858999999999
 21
1160.0255999999999
  0
LINE
  8
_0-0_LAYER001
  6
CONTINUOUS
 62
    2
 10
1819.0338999999999
 20
1154.0256999999999
 11
1809.027
 21
1154.0256999999999
  0
LINE
  8
_0-0_LAYER001
  6
CONTINUOUS
 62
    2
 10
1816.8829000000001
 20
1163.7487000000001
 11
1817.2829000000002
 21
1161.4826
  0
LINE
  8
_0-0_LAYER001
  6
CONTINUOUS
 62
    2
 10
1816.7098999999998
 20
1150.3358000000001
 11
1817.1078000000002
 21
1152.6007
  0
LINE
  8
_0-0_LAYER001
  6
CONTINUOUS
 62
    2
 10
1812.2898
 20
1162.7347
 11
1813.9639000000002
 21
1163.0296000000001
  0
LINE
  8
_0-0_LAYER001
  6
CONTINUOUS
 62
    2
 10
1807.9569000000001
 20
1161.9707000000001
 11
1809.6298000000002
 21
1162.2655999999999
  0
LINE
  8
_0-0_LAYER001
  6
CONTINUOUS
 62
    2
 10
1803.6239
 20
1161.2066
 11
1805.2968000000001
 21
1161.5017
  0
LINE
  8
_0-0_LAYER001
  6
CONTINUOUS
 62
    2
 10
1803.3278
 20
1162.8797
 11
1794.2338
 21
1161.2768000000001
  0
LINE
  8
_0-0_LAYER001
  6
CONTINUOUS
 62
    2
 10
1807.6608000000001
 20
1163.6436000000001
 11
1805.0018
 21
1163.1746000000001
  0
LINE
  8
_0-0_LAYER001
  6
CONTINUOUS
 62
    2
 10
1811.9938000000002
 20
1164.4078
 11
1809.3348999999998
 21
1163.9386999999999
  0
LINE
  8
_0-0_LAYER001
  6
CONTINUOUS
 62
    2
 10
1815.1457999999998
 20
1164.9636
 11
1813.6678999999999
 21
1164.7026000000001
  0
LINE
  8
_0-0_LAYER001
  6
CONTINUOUS
 62
    2
 10
1813.9639000000002
 20
1163.0296000000001
 11
1813.6678999999999
 21
1164.7037
  0
LINE
  8
_0-0_LAYER001
  6
CONTINUOUS
 62
    2
 10
1812.2898
 20
1162.7347
 11
1811.9938000000002
 21
1164.4087
  0
LINE
  8
_0-0_LAYER001
  6
CONTINUOUS
 62
    2
 10
1809.6309000000001
 20
1162.2655999999999
 11
1809.3348999999998
 21
1163.9396999999999
  0
LINE
  8
_0-0_LAYER001
  6
CONTINUOUS
 62
    2
 10
1807.9569000000001
 20
1161.9707000000001
 11
1807.6608000000001
 21
1163.6446000000001
  0
LINE
  8
_0-0_LAYER001
  6
CONTINUOUS
 62
    2
 10
1805.2979
 20
1161.5017
 11
1805.0018
 21
1163.1756
  0
LINE
  8
_0-0_LAYER001
  6
CONTINUOUS
 62
    2
 10
1803.6239
 20
1161.2066
 11
1803.3278
 21
1162.8806
  0
LINE
  8
_0-0_LAYER001
  6
CONTINUOUS
 62
    2
 10
1812.1149
 20
1151.3486
 11
1813.7889
 21
1151.0536
  0
LINE
  8
_0-0_LAYER001
  6
CONTINUOUS
 62
    2
 10
1807.7819
 20
1152.1126999999999
 11
1809.4558999999999
 21
1151.8177000000001
  0
LINE
  8
_0-0_LAYER001
  6
CONTINUOUS
 62
    2
 10
1803.4488999999999
 20
1152.8767
 11
1805.1228000000001
 21
1152.5816
  0
LINE
  8
_0-0_LAYER001
  6
CONTINUOUS
 62
    2
 10
1803.4499000000001
 20
1152.8767
 11
1803.1538
 21
1151.2037
  0
LINE
  8
_0-0_LAYER001
  6
CONTINUOUS
 62
    2
 10
1805.1237999999998
 20
1152.5816
 11
1804.8278
 21
1150.9087
  0
LINE
  8
_0-0_LAYER001
  6
CONTINUOUS
 62
    2
 10
1807.7829000000002
 20
1152.1126999999999
 11
1807.4868999999999
 21
1150.4395999999999
  0
LINE
  8
_0-0_LAYER001
  6
CONTINUOUS
 62
    2
 10
1809.4569000000001
 20
1151.8177000000001
 11
1809.1608000000001
 21
1150.1447000000001
  0
LINE
  8
_0-0_LAYER001
  6
CONTINUOUS
 62
    2
 10
1812.1158
 20
1151.3486
 11
1811.8199
 21
1149.6757
  0
LINE
  8
_0-0_LAYER001
  6
CONTINUOUS
 62
    2
 10
1813.7899000000002
 20
1151.0536
 11
1813.4938999999999
 21
1149.3806999999999
  0
LINE
  8
_0-0_LAYER001
  6
CONTINUOUS
 62
    2
 10
1803.1538
 20
1151.2037
 11
1794.2338
 21
1152.7755999999999
  0
LINE
  8
_0-0_LAYER001
  6
CONTINUOUS
 62
    2
 10
1807.4868999999999
 20
1150.4395999999999
 11
1804.8278
 21
1150.9087
  0
LINE
  8
_0-0_LAYER001
  6
CONTINUOUS
 62
    2
 10
1811.8199
 20
1149.6757
 11
1809.1608000000001
 21
1150.1447000000001
  0
LINE
  8
_0-0_LAYER001
  6
CONTINUOUS
 62
    2
 10
1814.971
 20
1149.1197
 11
1813.4938999999999
 21
1149.3797
  0
LINE
  8
_0-0_LAYER001
  6
CONTINUOUS
 62
    2
 10
1792.0099
 20
1157.0266999999999
 11
1817.2829000000002
 21
1161.4826
  0
LINE
  8
_0-0_LAYER001
  6
CONTINUOUS
 62
    2
 10
1792.0099
 20
1157.0266999999999
 11
1817.1078000000002
 21
1152.6007
  0
LINE
  8
_0-0_LAYER001
  6
CONTINUOUS
 62
    2
 10
1776.0338999999999
 20
1161.2755999999999
 11
1794.2338
 21
1161.2755999999999
  0
LINE
  8
_0-0_LAYER001
  6
CONTINUOUS
 62
    2
 10
1776.0338999999999
 20
1152.7755999999999
 11
1794.2338
 21
1152.7755999999999
  0
LINE
  8
_0-0_LAYER001
  6
CONTINUOUS
 62
    2
 10
1776.0338999999999
 20
1152.7755999999999
 11
1776.0338999999999
 21
1161.2755999999999
  0
LINE
  8
_0-0_LAYER001
  6
CONTINUOUS
 62
    2
 10
1783.4883
 20
921.2177999999999
 11
1785.5853999999999
 21
922.16149999999993
  0
LINE
  8
_0-0_LAYER001
  6
CONTINUOUS
 62
    2
 10
1758.8645999999999
 20
975.93249999999989
 11
1760.9623999999999
 21
976.87609999999995
  0
LINE
  8
_0-0_LAYER001
  6
CONTINUOUS
 62
    2
 10
1752.7091
 20
989.61200000000008
 11
1758.8645999999999
 21
975.93249999999989
  0
LINE
  8
_0-0_LAYER001
  6
CONTINUOUS
 62
    2
 10
1712.6626000000001
 20
974.55189999999993
 11
1749.1383000000001
 21
990.96589999999992
  0
LINE
  8
_0-0_LAYER001
  6
CONTINUOUS
 62
    2
 10
1748.1958
 20
993.0628999999999
 11
1711.7181999999998
 21
976.64779999999996
  0
LINE
  8
_0-0_LAYER001
  6
CONTINUOUS
 62
    2
 10
1754.8067999999998
 20
990.55559999999991
 11
1760.9623999999999
 21
976.87609999999995
  0
LINE
  8
_0-0_LAYER001
  6
CONTINUOUS
 62
    2
 10
1746.1439
 20
887.96280000000002
 11
1709.2107000000001
 21
970.03659999999991
  0
LINE
  8
_0-0_LAYER001
  6
CONTINUOUS
 62
    2
 10
1789.2337000000002
 20
901.87079999999992
 11
1752.7548999999999
 21
885.45540000000005
  0
LINE
  8
_0-0_LAYER001
  6
CONTINUOUS
 62
    2
 10
1791.741
 20
908.48180000000002
 11
1785.5853999999999
 21
922.16149999999993
  0
LINE
  8
_0-0_LAYER001
  6
CONTINUOUS
 62
    2
 10
1789.6442000000002
 20
907.53829999999994
 11
1783.4883
 21
921.2177999999999
  0
LINE
  8
_0-0_LAYER001
  6
CONTINUOUS
 62
    2
 10
1751.8125
 20
887.55250000000001
 11
1788.2901000000002
 21
903.96769999999992
  0
LINE
  8
_0-0_LAYER001
  6
CONTINUOUS
 62
    2
 10
1748.2419
 20
888.90650000000005
 11
1711.3087999999998
 21
970.98129999999992
  0
LINE
  8
_0-0_LAYER001
  6
CONTINUOUS
 62
    2
 10
1752.3002000000001
 20
874.28590000000008
 11
1715.3661999999999
 21
956.35860000000002
  0
LINE
  8
_0-0_LAYER001
  6
CONTINUOUS
 62
    2
 10
1711.0349000000001
 20
948.92650000000003
 11
1738.9404
 21
886.91640000000007
  0
LINE
  8
_0-0_LAYER001
  6
CONTINUOUS
 62
    2
 10
1713.5421999999999
 20
955.53860000000009
 11
1715.3661999999999
 21
956.35860000000002
  0
LINE
  8
_0-0_LAYER001
  6
CONTINUOUS
 62
    2
 10
1671.9135999999999
 20
845.78770000000009
 11
1733.9247999999998
 21
873.69329999999991
  0
LINE
  8
_0-0_LAYER001
  6
CONTINUOUS
 62
    2
 10
1729.7745
 20
929.94499999999994
 11
1732.5108
 21
931.17589999999996
  0
LINE
  8
_0-0_LAYER001
  6
CONTINUOUS
 62
    2
 10
1723.2087000000001
 20
944.53510000000006
 11
1725.9448000000002
 21
945.76610000000005
  0
LINE
  8
_0-0_LAYER001
  6
CONTINUOUS
 62
    2
 10
1739.0763000000002
 20
916.58690000000001
 11
1725.9448000000002
 21
945.76610000000005
  0
LINE
  8
_0-0_LAYER001
  6
CONTINUOUS
 62
    2
 10
1736.3400000000001
 20
915.35490000000004
 11
1739.0763000000002
 21
916.58690000000001
  0
LINE
  8
_0-0_LAYER001
  6
CONTINUOUS
 62
    2
 10
1738.3474999999999
 20
942.57439999999997
 11
1749.0165999999999
 21
947.3764000000001
  0
LINE
  8
_0-0_LAYER001
  6
CONTINUOUS
 62
    2
 10
1744.9128999999998
 20
927.98530000000005
 11
1755.5821999999998
 21
932.78610000000003
  0
LINE
  8
_0-0_LAYER001
  6
CONTINUOUS
 62
    2
 10
1743.4949000000001
 20
928.52379999999994
 11
1735.3535000000002
 21
924.86069999999995
  0
LINE
  8
_0-0_LAYER001
  6
CONTINUOUS
 62
    2
 10
1737.8089
 20
941.15830000000005
 11
1729.6686
 21
937.49440000000004
  0
LINE
  8
_0-0_LAYER001
  6
CONTINUOUS
 62
    2
 10
1734.9668999999999
 20
947.47669999999994
 11
1726.8245000000002
 21
943.8125
  0
LINE
  8
_0-0_LAYER001
  6
CONTINUOUS
 62
    2
 10
1736.7042000000001
 20
946.22499999999991
 11
1734.9668999999999
 21
947.47669999999994
  0
LINE
  8
_0-0_LAYER001
  6
CONTINUOUS
 62
    2
 10
1746.5538000000001
 20
924.33850000000007
 11
1736.7042000000001
 21
946.22499999999991
  0
LINE
  8
_0-0_LAYER001
  6
CONTINUOUS
 62
    2
 10
1746.3380000000002
 20
922.20530000000008
 11
1738.1967
 21
918.54140000000007
  0
LINE
  8
_0-0_LAYER001
  6
CONTINUOUS
 62
    2
 10
1746.5538000000001
 20
924.33850000000007
 11
1746.3380000000002
 21
922.20530000000008
  0
LINE
  8
_0-0_LAYER001
  6
CONTINUOUS
 62
    2
 10
1756.5861
 20
935.43110000000001
 11
1755.5821999999998
 21
932.78610000000003
  0
LINE
  8
_0-0_LAYER001
  6
CONTINUOUS
 62
    2
 10
1751.6614
 20
946.37329999999997
 11
1756.5861
 21
935.43110000000001
  0
LINE
  8
_0-0_LAYER001
  6
CONTINUOUS
 62
    2
 10
1749.0165999999999
 20
947.3764000000001
 11
1751.6614
 21
946.37329999999997
  0
LINE
  8
_0-0_LAYER001
  6
CONTINUOUS
 62
    2
 10
1749.0165999999999
 20
947.3764000000001
 11
1755.5821999999998
 21
932.78610000000003
  0
LINE
  8
_0-0_LAYER001
  6
CONTINUOUS
 62
    2
 10
1749.0165999999999
 20
947.3764000000001
 11
1753.0088999999998
 21
931.62820000000011
  0
LINE
  8
_0-0_LAYER001
  6
CONTINUOUS
 62
    2
 10
1743.4603999999999
 20
944.87580000000003
 11
1747.4539
 21
929.1277
  0
LINE
  8
_0-0_LAYER001
  6
CONTINUOUS
 62
    2
 10
1710.3092999999999
 20
928.78179999999998
 11
1718.4504000000002
 21
932.44479999999999
  0
LINE
  8
_0-0_LAYER001
  6
CONTINUOUS
 62
    2
 10
1715.9951000000001
 20
916.14709999999991
 11
1724.1365000000001
 21
919.8112000000001
  0
LINE
  8
_0-0_LAYER001
  6
CONTINUOUS
 62
    2
 10
1718.8373999999999
 20
909.82889999999998
 11
1726.9794999999999
 21
913.49279999999999
  0
LINE
  8
_0-0_LAYER001
  6
CONTINUOUS
 62
    2
 10
1717.0998
 20
911.08040000000005
 11
1718.8373999999999
 21
909.82889999999998
  0
LINE
  8
_0-0_LAYER001
  6
CONTINUOUS
 62
    2
 10
1707.2503000000002
 20
932.96710000000007
 11
1717.0998
 21
911.08040000000005
  0
LINE
  8
_0-0_LAYER001
  6
CONTINUOUS
 62
    2
 10
1707.4659999999999
 20
935.09999999999991
 11
1715.6071999999999
 21
938.7639999999999
  0
LINE
  8
_0-0_LAYER001
  6
CONTINUOUS
 62
    2
 10
1707.2503000000002
 20
932.96710000000007
 11
1707.4659999999999
 21
935.09999999999991
  0
LINE
  8
_0-0_LAYER001
  6
CONTINUOUS
 62
    2
 10
1669.4063999999998
 20
839.17660000000001
 11
1670.2271999999998
 21
837.35269999999991
  0
LINE
  8
_0-0_LAYER001
  6
CONTINUOUS
 62
    2
 10
1670.2271999999998
 20
837.35269999999991
 11
1752.3002999999999
 21
874.28549999999996
  0
LINE
  8
_0-0_LAYER001
  6
CONTINUOUS
 62
    2
 10
1724.2579000000001
 20
1009.7052000000001
 11
1715.1376
 21
1005.6011000000001
  0
LINE
  8
_0-0_LAYER001
  6
CONTINUOUS
 62
    2
 10
1725.4879000000001
 20
1006.9686999999999
 11
1716.3694
 21
1002.866
  0
LINE
  8
_0-0_LAYER001
  6
CONTINUOUS
 62
    2
 10
1715.1376
 20
1005.6011000000001
 11
1716.3694
 21
1002.866
  0
LINE
  8
_0-0_LAYER001
  6
CONTINUOUS
 62
    2
 10
1724.2579000000001
 20
1009.7052000000001
 11
1725.4879000000001
 21
1006.9686999999999
  0
LINE
  8
_0-0_LAYER001
  6
CONTINUOUS
 62
    2
 10
1719.6979000000001
 20
1007.6532
 11
1720.9286000000002
 21
1004.9168
  0
LINE
  8
_0-0_LAYER001
  6
CONTINUOUS
 62
    2
 10
1738.1642999999999
 20
966.61740000000009
 11
1734.0421999999999
 21
970.90349999999989
  0
LINE
  8
_0-0_LAYER001
  6
CONTINUOUS
 62
    2
 10
1738.1642999999999
 20
966.61740000000009
 11
1737.6898999999999
 21
972.5444
  0
LINE
  8
_0-0_LAYER001
  6
CONTINUOUS
 62
    2
 10
1724.5839000000001
 20
988.9052999999999
 11
1730.2116999999998
 21
992.59680000000003
  0
LINE
  8
_0-0_LAYER001
  6
CONTINUOUS
 62
    2
 10
1726.6358
 20
984.34609999999998
 11
1732.2647999999999
 21
988.03659999999991
  0
LINE
  8
_0-0_LAYER001
  6
CONTINUOUS
 62
    2
 10
1728.6887999999999
 20
979.78580000000011
 11
1734.3164000000002
 21
983.47739999999999
  0
LINE
  8
_0-0_LAYER001
  6
CONTINUOUS
 62
    2
 10
1730.7397000000001
 20
975.22559999999999
 11
1736.3674000000001
 21
978.91820000000007
  0
LINE
  8
_0-0_LAYER001
  6
CONTINUOUS
 62
    2
 10
1724.5844999999999
 20
988.9063000000001
 11
1730.2121999999999
 21
992.59780000000001
  0
LINE
  8
_0-0_LAYER001
  6
CONTINUOUS
 62
    2
 10
1726.6363000000001
 20
984.346
 11
1732.2651999999998
 21
988.03780000000006
  0
LINE
  8
_0-0_LAYER001
  6
CONTINUOUS
 62
    2
 10
1728.6891999999998
 20
979.78690000000006
 11
1734.3161
 21
983.47739999999999
  0
LINE
  8
_0-0_LAYER001
  6
CONTINUOUS
 62
    2
 10
1730.7402000000002
 20
975.22659999999996
 11
1736.3679000000002
 21
978.91840000000002
  0
LINE
  8
_0-0_LAYER001
  6
CONTINUOUS
 62
    2
 10
1732.2761999999998
 20
971.81459999999993
 11
1737.9036000000001
 21
975.50630000000001
  0
LINE
  8
_0-0_LAYER001
  6
CONTINUOUS
 62
    2
 10
1723.9836
 20
1003.0044
 11
1737.6898999999999
 21
972.5444
  0
LINE
  8
_0-0_LAYER001
  6
CONTINUOUS
 62
    2
 10
1725.4879000000001
 20
1006.9686999999999
 11
1723.9836
 21
1003.0044
  0
LINE
  8
_0-0_LAYER001
  6
CONTINUOUS
 62
    2
 10
1720.3371000000002
 20
1001.3604
 11
1734.0421999999999
 21
970.90349999999989
  0
LINE
  8
_0-0_LAYER001
  6
CONTINUOUS
 62
    2
 10
1716.3694
 20
1002.866
 11
1720.3371000000002
 21
1001.3604
  0
LINE
  8
_0-0_LAYER001
  6
CONTINUOUS
 62
    2
 10
1876.0338999999999
 20
1005.5897
 11
1876.0338999999999
 21
1318.0045999999998
  0
LINE
  8
_0-0_LAYER001
  6
CONTINUOUS
 62
    2
 10
1889.0880999999999
 20
935.83960000000002
 11
1288.0549999999998
 21
665.37529999999992
  0
LINE
  8
_0-0_LAYER001
  6
CONTINUOUS
 62
    2
 10
1876.0338999999999
 20
1059.9531999999999
 11
1776.0338999999999
 21
1159.953
  0
LINE
  8
_0-0_LAYER001
  6
CONTINUOUS
 62
    2
 10
1876.0338999999999
 20
1055.7104999999999
 11
1776.0338999999999
 21
1155.7104999999999
  0
LINE
  8
_0-0_LAYER001
  6
CONTINUOUS
 62
    2
 10
1876.0338999999999
 20
1271.9531999999999
 11
1776.0338999999999
 21
1371.9529
  0
LINE
  8
_0-0_LAYER001
  6
CONTINUOUS
 62
    2
 10
1876.0338999999999
 20
1267.7106000000001
 11
1776.0338999999999
 21
1367.7105000000001
  0
LINE
  8
_0-0_LAYER001
  6
CONTINUOUS
 62
    2
 10
1776.0338999999999
 20
1005.5897
 11
1765.7748000000001
 21
1028.3878
  0
LINE
  8
_0-0_LAYER001
  6
CONTINUOUS
 62
    2
 10
1776.0338999999999
 20
1005.5897
 11
1242.9149
 21
765.68669999999997
  0
LINE
  8
_0-0_LAYER001
  6
CONTINUOUS
 62
    2
 10
1746.0338999999999
 20
1137.0255999999999
 11
1776.0338999999999
 21
1137.0255999999999
  0
LINE
  8
_0-0_LAYER001
  6
CONTINUOUS
 62
    2
 10
1776.0338999999999
 20
1160.0255999999999
 11
1752.0338000000002
 21
1160.0255999999999
  0
LINE
  8
_0-0_LAYER001
  6
CONTINUOUS
 62
    2
 10
1776.0338999999999
 20
1154.0256999999999
 11
1752.0338000000002
 21
1154.0256999999999
  0
LINE
  8
_0-0_LAYER001
  6
CONTINUOUS
 62
    2
 10
1760.6439999999998
 20
1154.0256999999999
 11
1764.1071000000002
 21
1160.0255999999999
  0
LINE
  8
_0-0_LAYER001
  6
CONTINUOUS
 62
    2
 10
1766.3670999999999
 20
1154.0256999999999
 11
1769.8301999999999
 21
1160.0255999999999
  0
LINE
  8
_0-0_LAYER001
  6
CONTINUOUS
 62
    2
 10
1772.0902999999998
 20
1154.0256999999999
 11
1775.5533
 21
1160.0255999999999
  0
LINE
  8
_0-0_LAYER001
  6
CONTINUOUS
 62
    2
 10
1746.0338999999999
 20
1137.0255999999999
 11
1746.0338999999999
 21
1171.7357999999999
  0
LINE
  8
_0-0_LAYER001
  6
CONTINUOUS
 62
    2
 10
1776.0338999999999
 20
1137.0255999999999
 11
1749.5378999999998
 21
1172.3536999999999
  0
LINE
  8
_0-0_LAYER001
  6
DASHED3
 62
    2
 10
1774.0338999999999
 20
1034.2974999999999
 11
1774.0338999999999
 21
1185.2094999999999
  0
LINE
  8
_0-0_LAYER001
  6
CONTINUOUS
 62
    2
 10
1774.0338999999999
 20
1282.3351
 11
1771.8959
 21
1270.5272
  0
LINE
  8
_0-0_LAYER001
  6
CONTINUOUS
 62
    2
 10
1791.6338999999998
 20
1282.3351
 11
1791.6338999999998
 21
1303.1351
  0
LINE
  8
_0-0_LAYER001
  6
CONTINUOUS
 62
    2
 10
1789.5538999999999
 20
1284.4150999999999
 11
1789.5538999999999
 21
1300.0152
  0
LINE
  8
_0-0_LAYER001
  6
CONTINUOUS
 62
    2
 10
1789.5538999999999
 20
1284.4150999999999
 11
1778.4591
 21
1295.5099999999998
  0
LINE
  8
_0-0_LAYER001
  6
CONTINUOUS
 62
    2
 10
1785.1415999999999
 20
1284.4150999999999
 11
1778.5650999999998
 21
1290.9916000000001
  0
LINE
  8
_0-0_LAYER001
  6
CONTINUOUS
 62
    2
 10
1780.7292000000002
 20
1284.4150999999999
 11
1777.9326000000001
 21
1287.2118
  0
LINE
  8
_0-0_LAYER001
  6
CONTINUOUS
 62
    2
 10
1778.2678000000001
 20
1288.7291
 11
1789.5538999999999
 21
1300.0151000000001
  0
LINE
  8
_0-0_LAYER001
  6
CONTINUOUS
 62
    2
 10
1778.6208999999999
 20
1293.4944999999998
 11
1788.2615999999998
 21
1303.1351
  0
LINE
  8
_0-0_LAYER001
  6
CONTINUOUS
 62
    2
 10
1778.1320999999998
 20
1297.4181000000001
 11
1783.8490999999999
 21
1303.1351
  0
LINE
  8
_0-0_LAYER001
  6
CONTINUOUS
 62
    2
 10
1782.7786999999998
 20
1284.4150999999999
 11
1787.9056
 21
1289.5420999999999
  0
LINE
  8
_0-0_LAYER001
  6
CONTINUOUS
 62
    2
 10
1787.1909999999998
 20
1284.4150999999999
 11
1789.2390999999998
 21
1286.4632000000001
  0
LINE
  8
_0-0_LAYER001
  6
CONTINUOUS
 62
    2
 10
1787.6404000000002
 20
1290.7409000000002
 11
1776.7754
 21
1301.6059999999998
  0
LINE
  8
_0-0_LAYER001
  6
CONTINUOUS
 62
    2
 10
1787.7062999999998
 20
1295.0875000000001
 11
1779.6588000000002
 21
1303.1351
  0
LINE
  8
_0-0_LAYER001
  6
CONTINUOUS
 62
    2
 10
1778.3663000000001
 20
1284.4150999999999
 11
1787.5016000000001
 21
1293.5505000000001
  0
LINE
  8
_0-0_LAYER001
  6
CONTINUOUS
 62
    2
 10
1777.1075000000001
 20
1300.806
 11
1779.4366
 21
1303.1351
  0
LINE
  8
_0-0_LAYER001
  6
CONTINUOUS
 62
    2
 10
1788.8622
 20
1298.3440999999998
 11
1784.0711999999999
 21
1303.1351
  0
LINE
  8
_0-0_LAYER001
  6
CONTINUOUS
 62
    2
 10
1789.5538999999999
 20
1302.0646999999999
 11
1788.4836
 21
1303.1351
  0
LINE
  8
_0-0_LAYER001
  6
CONTINUOUS
 62
    2
 10
1789.5538999999999
 20
1300.0151000000001
 11
1789.5538999999999
 21
1303.1351
  0
LINE
  8
_0-0_LAYER001
  6
CONTINUOUS
 62
    2
 10
1791.6338999999998
 20
1282.3351
 11
1776.0338999999999
 21
1282.3351
  0
LINE
  8
_0-0_LAYER001
  6
CONTINUOUS
 62
    2
 10
1774.0338999999999
 20
1193.9350999999999
 11
1774.0338999999999
 21
1282.3351
  0
LINE
  8
_0-0_LAYER001
  6
CONTINUOUS
 62
    2
 10
1682.4796999999999
 20
1177.7916
 11
1774.0338999999999
 21
1193.9350999999999
  0
LINE
  8
_0-0_LAYER001
  6
CONTINUOUS
 62
    2
 10
1776.0338999999999
 20
1005.5897
 11
1776.0338999999999
 21
1282.3351
  0
LINE
  8
_0-0_LAYER001
  6
CONTINUOUS
 62
    2
 10
1791.6338999999998
 20
1303.1351
 11
1776.0338999999999
 21
1303.1351
  0
LINE
  8
_0-0_LAYER001
  6
CONTINUOUS
 62
    2
 10
1776.0338999999999
 20
1303.1351
 11
1776.0338999999999
 21
1391.0546999999999
  0
LINE
  8
_0-0_LAYER001
  6
CONTINUOUS
 62
    2
 10
1789.5538999999999
 20
1284.4150999999999
 11
1771.6338999999998
 21
1284.4150999999999
  0
LINE
  8
_0-0_LAYER001
  6
CONTINUOUS
 62
    2
 10
1771.6338999999998
 20
1251.9351999999999
 11
1771.6338999999998
 21
1284.4150999999999
  0
LINE
  8
_0-0_LAYER001
  6
CONTINUOUS
 62
    2
 10
1755.2121000000002
 20
1188.5854999999999
 11
1763.9814999999999
 21
1190.1318000000001
  0
LINE
  8
_0-0_LAYER001
  6
CONTINUOUS
 62
    2
 10
1762.7377000000001
 20
1160.8735999999999
 11
1766.1795000000002
 21
1152.6346000000001
  0
LINE
  8
_0-0_LAYER001
  6
CONTINUOUS
 62
    2
 10
1761.6979999999999
 20
1188.1092000000001
 11
1766.3878
 21
1161.5174
  0
LINE
  8
_0-0_LAYER001
  6
CONTINUOUS
 62
    2
 10
1766.1795000000002
 20
1152.6346000000001
 11
1766.3878
 21
1161.5174
  0
LINE
  8
_0-0_LAYER001
  6
CONTINUOUS
 62
    2
 10
1758.0479999999998
 20
1187.4668999999999
 11
1755.2121000000002
 21
1188.5854999999999
  0
LINE
  8
_0-0_LAYER001
  6
CONTINUOUS
 62
    2
 10
1761.6979999999999
 20
1188.1092000000001
 11
1763.9814999999999
 21
1190.1318000000001
  0
LINE
  8
_0-0_LAYER001
  6
CONTINUOUS
 62
    2
 10
1758.0479999999998
 20
1187.4668999999999
 11
1762.7377000000001
 21
1160.8735999999999
  0
LINE
  8
_0-0_LAYER001
  6
CONTINUOUS
 62
    2
 10
1661.5023000000001
 20
1154.4363000000001
 11
1685.0843
 21
1163.0195000000001
  0
LINE
  8
_0-0_LAYER001
  6
CONTINUOUS
 62
    2
 10
1661.5023000000001
 20
1154.4363000000001
 11
1667.4149000000002
 21
1155.4566
  0
ARC
  8
_0-0_LAYER001
  6
CONTINUOUS
 62
    2
 10
1815.3978999999999
 20
1163.4817
 40
1.5049999999999999
 50
10.451269999999999
 51
99.637527999999989
  0
ARC
  8
_0-0_LAYER001
  6
CONTINUOUS
 62
    2
 10
1815.2298999999998
 20
1150.5986
 40
1.4969999999999999
 50
259.83899000000008
 51
350.14733000000001
  0
CIRCLE
  8
_0-0_LAYER001
  6
CONTINUOUS
 62
    2
 10
1761.1974
 20
1111.9357
 40
0.8999999999999999
  0
CIRCLE
  8
_0-0_LAYER001
  6
CONTINUOUS
 62
    2
 10
1770.6014
 20
1091.5604000000001
 40
0.8999999999999999
  0
CIRCLE
  8
_0-0_LAYER001
  6
CONTINUOUS
 62
    2
 10
1765.8993999999998
 20
1076.6708000000001
 40
0.8999999999999999
  0
CIRCLE
  8
_0-0_LAYER001
  6
CONTINUOUS
 62
    2
 10
1761.9811
 20
1097.0461
 40
0.8999999999999999
  0
CIRCLE
  8
_0-0_LAYER001
  6
CONTINUOUS
 62
    2
 10
1680.48
 20
1087.6421
 40
0.8999999999999999
  0
CIRCLE
  8
_0-0_LAYER001
  6
CONTINUOUS
 62
    2
 10
1700.0716000000002
 20
1092.3441
 40
0.8999999999999999
  0
CIRCLE
  8
_0-0_LAYER001
  6
CONTINUOUS
 62
    2
 10
1726.7161999999998
 20
1102.5317
 40
0.8999999999999999
  0
CIRCLE
  8
_0-0_LAYER001
  6
CONTINUOUS
 62
    2
 10
1726.7161999999998
 20
1088.4258
 40
0.8999999999999999
  0
CIRCLE
  8
_0-0_LAYER001
  6
CONTINUOUS
 62
    2
 10
1712.6102999999998
 20
1080.5890999999999
 40
0.8999999999999999
  0
CIRCLE
  8
_0-0_LAYER001
  6
CONTINUOUS
 62
    2
 10
1682.0473000000002
 20
1079.0218
 40
0.8999999999999999
  0
CIRCLE
  8
_0-0_LAYER001
  6
CONTINUOUS
 62
    2
 10
1679.5318000000002
 20
1062.1310000000001
 40
0.8999999999999999
  0
CIRCLE
  8
_0-0_LAYER001
  6
CONTINUOUS
 62
    2
 10
1688.9358000000002
 20
1059.78
 40
0.8999999999999999
  0
CIRCLE
  8
_0-0_LAYER001
  6
CONTINUOUS
 62
    2
 10
1693.8022999999998
 20
1075.8870999999999
 40
0.8999999999999999
  0
CIRCLE
  8
_0-0_LAYER001
  6
CONTINUOUS
 62
    2
 10
1739.2548999999999
 20
1104.0989999999999
 40
0.8999999999999999
  0
CIRCLE
  8
_0-0_LAYER001
  6
CONTINUOUS
 62
    2
 10
1748.6588000000002
 20
1118.9885999999999
 40
0.8999999999999999
  0
ARC
  8
_0-0_LAYER001
  6
CONTINUOUS
 62
    2
 10
1750.2467000000001
 20
988.50360000000001
 40
2.7000000000000002
 50
24.240372000000001
 51
114.23248000000001
  0
ARC
  8
_0-0_LAYER001
  6
CONTINUOUS
 62
    2
 10
1713.7709
 20
972.08960000000002
 40
2.7000000000000002
 50
114.23248000000001
 51
204.21279999999999
  0
ARC
  8
_0-0_LAYER001
  6
CONTINUOUS
 62
    2
 10
1713.7689
 20
972.08860000000004
 40
4.9989999999999997
 50
114.22009000000001
 51
204.23074000000003
  0
ARC
  8
_0-0_LAYER001
  6
CONTINUOUS
 62
    2
 10
1750.2476999999999
 20
988.50489999999991
 40
4.9989999999999997
 50
24.224352
 51
114.24136000000001
  0
ARC
  8
_0-0_LAYER001
  6
CONTINUOUS
 62
    2
 10
1750.703
 20
890.0136
 40
4.9989999999999997
 50
204.20946000000004
 51
294.23500000000001
  0
ARC
  8
_0-0_LAYER001
  6
CONTINUOUS
 62
    2
 10
1787.1826999999998
 20
906.42990000000009
 40
4.9989999999999997
 50
294.21370999999999
 51
24.245641999999961
  0
ARC
  8
_0-0_LAYER001
  6
CONTINUOUS
 62
    2
 10
1787.1815999999999
 20
906.42990000000009
 40
2.7000000000000002
 50
294.22066999999998
 51
24.240371999999976
  0
ARC
  8
_0-0_LAYER001
  6
CONTINUOUS
 62
    2
 10
1750.7039
 20
890.01459999999997
 40
2.7000000000000002
 50
204.21279999999999
 51
294.22066999999998
  0
ARC
  8
_0-0_LAYER001
  6
CONTINUOUS
 62
    2
 10
1729.819
 20
882.81359999999995
 40
10.001999
 50
294.23665999999992
 51
24.223891999999939
  0
ARC
  8
_0-0_LAYER001
  6
CONTINUOUS
 62
    2
 10
1715.5931
 20
950.97839999999997
 40
4.9989999999999997
 50
114.22009000000001
 51
204.23074000000003
  0
ARC
  8
_0-0_LAYER001
  6
CONTINUOUS
 62
    2
 10
1673.9643999999998
 20
841.22829999999999
 40
4.9989999999999997
 50
114.22009000000001
 51
204.23074000000003
  0
ARC
  8
_0-0_LAYER001
  6
CONTINUOUS
 62
    2
 10
1731.7555000000002
 20
942.24170000000004
 40
6.1470010000000013
 50
349.86246
 51
23.869741999999949
  0
ARC
  8
_0-0_LAYER001
  6
CONTINUOUS
 62
    2
 10
1740.2815999999998
 20
923.26890000000003
 40
6.1580000000000004
 50
24.600922000000004
 51
58.555572000000005
  0
ARC
  8
_0-0_LAYER001
  6
CONTINUOUS
 62
    2
 10
1720.7473
 20
925.88509999999997
 40
22.898997999999999
 50
6.6164920000000009
 51
41.832002000000003
  0
ARC
  8
_0-0_LAYER001
  6
CONTINUOUS
 62
    2
 10
1722.0495000000001
 20
915.06649999999991
 40
6.1479999999999997
 50
169.87799999999999
 51
203.89275000000001
  0
ARC
  8
_0-0_LAYER001
  6
CONTINUOUS
 62
    2
 10
1713.5158999999999
 20
934.02819999999997
 40
6.1479999999999997
 50
204.55376000000004
 51
238.55601999999999
  0
ARC
  8
_0-0_LAYER001
  6
CONTINUOUS
 62
    2
 10
1733.0922
 20
931.4378999999999
 40
22.936000999999997
 50
186.64732000000004
 51
221.80409000000003
  0
ARC
  8
_0-0_LAYER001
  6
CONTINUOUS
 62
    2
 10
1756.5340999999999
 20
1292.7351000000001
 40
22.099885999999998
 50
337.88465000000002
 51
28.072639999999978
  0
CIRCLE
  8
_0-0_LAYER001
  6
CONTINUOUS
 62
    2
 10
1761.7055
 20
1057.9952000000001
 40
0.8999999999999999
  0
CIRCLE
  8
_0-0_LAYER001
  6
CONTINUOUS
 62
    2
 10
1749.9913999999999
 20
1086.2156
 40
0.8999999999999999
  0
CIRCLE
  8
_0-0_LAYER001
  6
CONTINUOUS
 62
    2
 10
1767.6669999999999
 20
1129.3439000000001
 40
0.8999999999999999
  0
CIRCLE
  8
_0-0_LAYER001
  6
CONTINUOUS
 62
    2
 10
1751.759
 20
1129.3439000000001
 40
0.8999999999999999
  0
CIRCLE
  8
_0-0_LAYER001
  6
CONTINUOUS
 62
    2
 10
1722.7710999999999
 20
1113.7893999999999
 40
0.8999999999999999
  0
CIRCLE
  8
_0-0_LAYER001
  6
CONTINUOUS
 62
    2
 10
1691.6622000000002
 20
1104.2446
 40
0.8999999999999999
  0
CIRCLE
  8
_0-0_LAYER001
  6
CONTINUOUS
 62
    2
 10
1674.3883999999998
 20
1054.4601
 40
0.8999999999999999
  0
CIRCLE
  8
_0-0_LAYER001
  6
CONTINUOUS
 62
    2
 10
1714.6404000000002
 20
1093.2858000000001
 40
0.8999999999999999
  0
CIRCLE
  8
_0-0_LAYER001
  6
CONTINUOUS
 62
    2
 10
1706.8631999999998
 20
1108.4867999999999
 40
0.8999999999999999
  0
CIRCLE
  8
_0-0_LAYER001
  6
CONTINUOUS
 62
    2
 10
1729.1343000000002
 20
1145.9589000000001
 40
0.8999999999999999
  0
CIRCLE
  8
_0-0_LAYER001
  6
CONTINUOUS
 62
    2
 10
1706.7568000000001
 20
1134.0356999999999
 40
0.8999999999999999
  0
CIRCLE
  8
_0-0_LAYER001
  6
CONTINUOUS
 62
    2
 10
1714.6404000000002
 20
1140.3027
 40
0.8999999999999999
  0
CIRCLE
  8
_0-0_LAYER001
  6
CONTINUOUS
 62
    2
 10
1688.8697000000002
 20
1130.2686000000001
 40
0.8999999999999999
  0
CIRCLE
  8
_0-0_LAYER001
  6
CONTINUOUS
 62
    2
 10
1696.9146999999998
 20
1135.4037000000001
 40
0.8999999999999999
  0
CIRCLE
  8
_0-0_LAYER001
  6
CONTINUOUS
 62
    2
 10
1678.4036000000001
 20
1124.4141999999999
 40
0.8999999999999999
  0
CIRCLE
  8
_0-0_LAYER001
  6
CONTINUOUS
 62
    2
 10
1742.7194
 20
1148.9432999999999
 40
0.8999999999999999
  0
CIRCLE
  8
_0-0_LAYER001
  6
CONTINUOUS
 62
    2
 10
1748.7629000000002
 20
1105.4300000000001
 40
0.8999999999999999
  0
CIRCLE
  8
_0-0_LAYER001
  6
CONTINUOUS
 62
    2
 10
1757.8281999999999
 20
1083.069
 40
0.8999999999999999
  0
CIRCLE
  8
_0-0_LAYER001
  6
CONTINUOUS
 62
    2
 10
1756.6419999999998
 20
1061.7505000000001
 40
0.8999999999999999
  0
CIRCLE
  8
_0-0_LAYER001
  6
CONTINUOUS
 62
    2
 10
1744.5324999999998
 20
1077.6297999999999
 40
0.8999999999999999
  0
CIRCLE
  8
_0-0_LAYER001
  6
CONTINUOUS
 62
    2
 10
1715.5236
 20
1111.4735000000001
 40
0.8999999999999999
  0
CIRCLE
  8
_0-0_LAYER001
  6
CONTINUOUS
 62
    2
 10
1679.3867
 20
1093.8295000000001
 40
0.8999999999999999
  0
LINE
  8
_0-0_LAYER001
  6
CONTINUOUS
 62
    2
 10
1208.4158
 20
1222.797
 11
1003.5930000000001
 21
1222.797
  0
LINE
  8
_0-0_LAYER001
  6
CONTINUOUS
 62
    2
 10
1312.8022000000001
 20
840.72160000000008
 11
1312.8022000000001
 21
833.22160000000008
  0
LINE
  8
_0-0_LAYER001
  6
CONTINUOUS
 62
    2
 10
1312.8022000000001
 20
833.22160000000008
 11
1309.0522000000001
 21
839.71679999999992
  0
LINE
  8
_0-0_LAYER001
  6
CONTINUOUS
 62
    2
 10
1312.8022000000001
 20
833.22160000000008
 11
1208.4158
 21
1222.797
  0
LINE
  8
_0-1_LAYER003
  6
CONTINUOUS
 62
   18
 10
1003.5930000000001
 20
1222.797
 11
1208.4158
 21
1222.797
  0
LINE
  8
_0-1_LAYER003
  6
CONTINUOUS
 62
   18
 10
1539.4049
 20
1372.0224000000003
 11
1686.4049
 21
1372.0224000000003
  0
LINE
  8
_0-1_LAYER003
  6
CONTINUOUS
 62
   18
 10
1514.5972000000002
 20
1238.1619000000001
 11
1432.5565000000001
 21
1238.1619000000001
  0
LINE
  8
_0-1_LAYER003
  6
CONTINUOUS
 62
   18
 10
1854.5841
 20
1417.1246000000001
 11
1935.5841
 21
1417.1246000000001
  0
LINE
  8
_0-1_LAYER003
  6
CONTINUOUS
 62
   18
 10
1868.8748000000001
 20
1332.9057
 11
1999.3748000000001
 21
1332.9057
  0
LINE
  8
_0-1_LAYER003
  6
CONTINUOUS
 62
   18
 10
1909.3314
 20
1267.6977999999999
 11
2145.5358999999999
 21
1267.6977999999999
  0
LINE
  8
_0-1_LAYER003
  6
CONTINUOUS
 62
   18
 10
1921.2053000000001
 20
1185.2094999999999
 11
1971.2053000000001
 21
1185.2094999999999
  0
LINE
  8
_0-1_LAYER003
  6
CONTINUOUS
 62
   18
 10
1971.2053000000001
 20
1185.2094999999999
 11
1972.9053000000001
 21
1185.2094999999999
  0
LINE
  8
_0-1_LAYER003
  6
CONTINUOUS
 62
   18
 10
1971.2053000000001
 20
1185.2094999999999
 11
1971.2053000000001
 21
1034.2974999999999
  0
LINE
  8
_0-1_LAYER003
  6
CONTINUOUS
 62
   18
 10
1972.9053000000001
 20
1034.2974999999999
 11
1921.2053000000001
 21
1034.2974999999999
  0
LINE
  8
_0-1_LAYER003
  6
CONTINUOUS
 62
   18
 10
1891.0338999999999
 20
706.87779999999998
 11
1891.0338999999999
 21
1318.0045999999998
  0
LINE
  8
_0-1_LAYER003
  6
CONTINUOUS
 62
   18
 10
1876.0338999999999
 20
1318.0045999999998
 11
1876.0338999999999
 21
1005.5897
  0
LINE
  8
_0-1_LAYER003
  6
CONTINUOUS
 62
   18
 10
1876.0338999999999
 20
1005.5897
 11
1773.9820534304358
 21
1005.5897
  0
LINE
  8
_0-1_LAYER003
  6
CONTINUOUS
 62
   18
 10
1773.9820534304358
 20
1005.5897
 11
1776.0338999999999
 21
1005.5897
  0
LINE
  8
_0-1_LAYER003
  6
CONTINUOUS
 62
   18
 10
1776.0338999999999
 20
1005.5897
 11
1776.0338999999999
 21
1282.3351
  0
LINE
  8
_0-1_LAYER003
  6
CONTINUOUS
 62
   18
 10
1776.0338999999999
 20
1282.3351
 11
1791.6338999999998
 21
1282.3351
  0
LINE
  8
_0-1_LAYER003
  6
CONTINUOUS
 62
   18
 10
1791.6338999999998
 20
1282.3351
 11
1791.6338999999998
 21
1303.1351
  0
LINE
  8
_0-1_LAYER003
  6
CONTINUOUS
 62
   18
 10
1791.6338999999998
 20
1303.1351
 11
1776.0338999999999
 21
1303.1351
  0
LINE
  8
_0-1_LAYER003
  6
CONTINUOUS
 62
   18
 10
1776.0338999999999
 20
1303.1351
 11
1776.0338999999999
 21
1391.0546999999999
  0
LINE
  8
_0-1_LAYER003
  6
CONTINUOUS
 62
   18
 10
1774.0338999999999
 20
1313.154
 11
1774.0338999999999
 21
1339.854
  0
LINE
  8
_0-1_LAYER003
  6
CONTINUOUS
 62
   18
 10
1774.0338999999999
 20
1338.154
 11
1682.4796999999999
 21
1338.154
  0
LINE
  8
_0-1_LAYER003
  6
CONTINUOUS
 62
   18
 10
1682.4796999999999
 20
1339.854
 11
1682.4796999999999
 21
1313.154
  0
LINE
  8
_0-1_LAYER003
  6
CONTINUOUS
 62
   18
 10
1771.6338999999998
 20
1251.9351999999999
 11
1771.6338999999998
 21
1284.4150999999999
  0
LINE
  8
_0-1_LAYER003
  6
CONTINUOUS
 62
   18
 10
1771.6338999999998
 20
1284.4150999999999
 11
1789.5538999999999
 21
1284.4150999999999
  0
LINE
  8
_0-1_LAYER003
  6
CONTINUOUS
 62
   18
 10
1789.5538999999999
 20
1284.4150999999999
 11
1789.5538999999999
 21
1303.1351
  0
LINE
  8
_0-1_LAYER003
  6
CONTINUOUS
 62
   18
 10
1774.0338999999999
 20
1282.3351
 11
1774.0338999999999
 21
1034.2974999999999
  0
LINE
  8
_0-1_LAYER003
  6
CONTINUOUS
 62
   18
 10
1909.3314
 20
1267.6977999999999
 11
1848.1689999999999
 21
1161.7614000000001
  0
LINE
  8
_0-1_LAYER003
  6
CONTINUOUS
 62
   18
 10
1848.1689999999999
 20
1161.7614000000001
 11
1850.1100999999999
 21
1169.0059000000001
  0
LINE
  8
_0-1_LAYER003
  6
CONTINUOUS
 62
   18
 10
1848.1689999999999
 20
1161.7614000000001
 11
1853.4722999999999
 21
1167.0646999999999
  0
LINE
  8
_0-1_LAYER003
  6
CONTINUOUS
 62
   18
 10
1876.0338999999999
 20
1055.7104999999999
 11
1776.0338999999999
 21
1155.7104999999999
  0
LINE
  8
_0-1_LAYER003
  6
CONTINUOUS
 62
   18
 10
1776.0338999999999
 20
1159.953
 11
1876.0338999999999
 21
1059.9531999999999
  0
LINE
  8
_0-1_LAYER003
  6
CONTINUOUS
 62
   18
 10
1687.4011999999998
 20
1161.3973000000001
 11
1776.0338999999999
 21
1177.0255999999999
  0
LINE
  8
_0-1_LAYER003
  6
CONTINUOUS
 62
   18
 10
1776.0338999999999
 20
1177.0255999999999
 11
1773.4292
 21
1191.7977000000001
  0
LINE
  8
_0-1_LAYER003
  6
CONTINUOUS
 62
   18
 10
1773.4292
 20
1191.7977000000001
 11
1684.7966000000001
 21
1176.1694
  0
LINE
  8
_0-1_LAYER003
  6
CONTINUOUS
 62
   18
 10
1684.7966000000001
 20
1176.1694
 11
1687.4011999999998
 21
1161.3973000000001
  0
LINE
  8
_0-1_LAYER003
  6
CONTINUOUS
 62
   18
 10
1684.7966000000001
 20
1176.1694
 11
1776.0338999999999
 21
1177.0255999999999
  0
LINE
  8
_0-1_LAYER003
  6
CONTINUOUS
 62
   18
 10
1774.0338999999999
 20
1193.9350999999999
 11
1682.4796999999999
 21
1177.7916
  0
LINE
  8
_0-1_LAYER003
  6
CONTINUOUS
 62
   18
 10
1682.4796999999999
 20
1177.7916
 11
1685.0843
 21
1163.0195000000001
  0
LINE
  8
_0-1_LAYER003
  6
CONTINUOUS
 62
   18
 10
1685.0843
 20
1163.0195000000001
 11
1661.5023000000001
 21
1154.4363000000001
  0
LINE
  8
_0-1_LAYER003
  6
CONTINUOUS
 62
   18
 10
1661.5023000000001
 20
1154.4363000000001
 11
1667.4149000000002
 21
1155.4566
  0
LINE
  8
_0-1_LAYER003
  6
CONTINUOUS
 62
   18
 10
1699.5509999999999
 20
1188.1808000000001
 11
1703.3009999999999
 21
1181.6856
  0
LINE
  8
_0-1_LAYER003
  6
CONTINUOUS
 62
   18
 10
1703.3009999999999
 20
1181.6856
 11
1703.3009999999999
 21
1189.1856
  0
LINE
  8
_0-1_LAYER003
  6
CONTINUOUS
 62
   18
 10
1735.4485
 20
1181.4891
 11
1739.1985
 21
1174.9938999999999
  0
LINE
  8
_0-1_LAYER003
  6
CONTINUOUS
 62
   18
 10
1739.1985
 20
1174.9938999999999
 11
1739.1985
 21
1182.4938999999999
  0
LINE
  8
_0-1_LAYER003
  6
CONTINUOUS
 62
   18
 10
1739.1985
 20
1174.9938999999999
 11
1739.1985
 21
1182.4938999999999
  0
LINE
  8
_0-1_LAYER003
  6
CONTINUOUS
 62
   18
 10
1739.1985
 20
1174.9938999999999
 11
1686.4049
 21
1372.0224000000003
  0
LINE
  8
_0-1_LAYER003
  6
CONTINUOUS
 62
   18
 10
1662.3462
 20
1334.5309
 11
1703.3009999999999
 21
1181.6856
  0
LINE
  8
_0-1_LAYER003
  6
CONTINUOUS
 62
   18
 10
1710.2856999999999
 20
1199.2999
 11
1692.5519971751692
 21
1247.863269154212
  0
LINE
  8
_0-1_LAYER003
  6
CONTINUOUS
 62
   18
 10
1693.1351
 20
1246.2664
 11
1406.6392000000001
 21
1141.6476
  0
LINE
  8
_0-1_LAYER003
  6
CONTINUOUS
 62
   18
 10
1406.0560420148429
 20
1143.2444490111302
 11
1437.5102999999999
 21
1057.1079
  0
LINE
  8
_0-1_LAYER003
  6
CONTINUOUS
 62
   18
 10
1420.3596335056852
 20
1104.0743757184964
 11
1199.6169175383204
 21
1023.466506404409
  0
LINE
  8
_0-1_LAYER003
  6
CONTINUOUS
 62
   18
 10
1199.0337971751692
 20
1025.0633691542121
 11
1216.7674999999999
 21
976.5
  0
LINE
  8
_0-1_LAYER003
  6
CONTINUOUS
 62
   18
 10
1298.2983999999999
 20
841.02269999999999
 11
1304.4546
 21
827.3442
  0
LINE
  8
_0-1_LAYER003
  6
CONTINUOUS
 62
   18
 10
1304.4546
 20
827.3442
 11
1325.6554000000001
 21
853.33510000000001
  0
LINE
  8
_0-1_LAYER003
  6
CONTINUOUS
 62
   18
 10
1325.6554000000001
 20
853.33510000000001
 11
1298.2983999999999
 21
841.02269999999999
  0
LINE
  8
_0-1_LAYER003
  6
CONTINUOUS
 62
   18
 10
1325.6554000000001
 20
853.33510000000001
 11
1331.8116
 21
839.65660000000003
  0
LINE
  8
_0-1_LAYER003
  6
CONTINUOUS
 62
   18
 10
1331.8116
 20
839.65660000000003
 11
1304.4546
 21
827.3442
  0
LINE
  8
_0-1_LAYER003
  6
CONTINUOUS
 62
   18
 10
1309.0522000000001
 20
839.71679999999992
 11
1312.8022000000001
 21
833.22160000000008
  0
LINE
  8
_0-1_LAYER003
  6
CONTINUOUS
 62
   18
 10
1312.8022000000001
 20
833.22160000000008
 11
1312.8022000000001
 21
840.72160000000008
  0
LINE
  8
_0-1_LAYER003
  6
CONTINUOUS
 62
   18
 10
1312.8022000000001
 20
833.22160000000008
 11
1208.4158
 21
1222.797
  0
LINE
  8
_0-1_LAYER003
  6
CONTINUOUS
 62
   18
 10
1379.8624999999997
 20
1033.5045
 11
1420.3625
 21
1033.5045
  0
LINE
  8
_0-1_LAYER003
  6
CONTINUOUS
 62
   18
 10
1420.3625
 20
1033.5045
 11
1447.9056
 21
930.71229999999991
  0
LINE
  8
_0-1_LAYER003
  6
CONTINUOUS
 62
   18
 10
1447.9056
 20
938.21229999999991
 11
1447.9056
 21
930.71229999999991
  0
LINE
  8
_0-1_LAYER003
  6
CONTINUOUS
 62
   18
 10
1447.9056
 20
930.71229999999991
 11
1444.1556
 21
937.20749999999998
  0
LINE
  8
_0-1_LAYER003
  6
CONTINUOUS
 62
   18
 10
1519.663
 20
924.2016000000001
 11
1513.5068000000001
 21
937.88010000000008
  0
LINE
  8
_0-1_LAYER003
  6
CONTINUOUS
 62
   18
 10
1513.5068000000001
 20
937.88010000000008
 11
1540.8638000000001
 21
950.19250000000011
  0
LINE
  8
_0-1_LAYER003
  6
CONTINUOUS
 62
   18
 10
1540.8638000000001
 20
950.19250000000011
 11
1519.663
 21
924.2016000000001
  0
LINE
  8
_0-1_LAYER003
  6
CONTINUOUS
 62
   18
 10
1519.663
 20
924.2016000000001
 11
1547.02
 21
936.5139999999999
  0
LINE
  8
_0-1_LAYER003
  6
CONTINUOUS
 62
   18
 10
1547.02
 20
936.5139999999999
 11
1540.8638000000001
 21
950.19250000000011
  0
LINE
  8
_0-1_LAYER003
  6
CONTINUOUS
 62
   18
 10
1667.6023
 20
1073.8623
 11
1674.8467000000001
 21
1075.8034
  0
LINE
  8
_0-1_LAYER003
  6
CONTINUOUS
 62
   18
 10
1674.8467000000001
 20
1075.8034
 11
1669.5434
 21
1070.5001
  0
LINE
  8
_0-1_LAYER003
  6
CONTINUOUS
 62
   18
 10
1674.8467000000001
 20
1075.8034
 11
1573.7420000000002
 21
1017.4305999999999
  0
LINE
  8
_0-1_LAYER003
  6
CONTINUOUS
 62
   18
 10
1573.7420000000002
 20
1017.4305999999999
 11
1514.5972000000002
 21
1238.1619000000001
  0
LINE
  8
_0-1_LAYER003
  6
CONTINUOUS
 62
   18
 10
1590.7455
 20
1292.7703999999999
 11
1642.0558999999998
 21
1101.2773
  0
LINE
  8
_0-1_LAYER003
  6
CONTINUOUS
 62
   18
 10
1642.0558999999998
 20
1101.2773
 11
1642.0558999999998
 21
1108.7773
  0
LINE
  8
_0-1_LAYER003
  6
CONTINUOUS
 62
   18
 10
1642.0558999999998
 20
1101.2773
 11
1638.3058999999998
 21
1107.7725
  0
LINE
  8
_0-1_LAYER003
  6
CONTINUOUS
 62
   18
 10
1724.4540000000002
 20
1133.8402000000001
 11
1749.4389999999999
 21
1145.6474000000001
  0
LINE
  8
_0-1_LAYER003
  6
CONTINUOUS
 62
   18
 10
1749.4389999999999
 20
1145.6474000000001
 11
1753.1288
 21
1140.4818
  0
LINE
  8
_0-1_LAYER003
  6
CONTINUOUS
 62
   18
 10
1753.1288
 20
1140.4818
 11
1732.5131999999999
 21
1117.3496
  0
LINE
  8
_0-1_LAYER003
  6
CONTINUOUS
 62
   18
 10
1732.5131999999999
 20
1117.3496
 11
1724.4540000000002
 21
1115.2860000000001
  0
LINE
  8
_0-1_LAYER003
  6
CONTINUOUS
 62
   18
 10
1724.4540000000002
 20
1115.2860000000001
 11
1724.4540000000002
 21
1133.8402000000001
  0
LINE
  8
_0-1_LAYER003
  6
CONTINUOUS
 62
   18
 10
1734.4503
 20
1168.4984999999999
 11
1753.223
 21
1168.4984999999999
  0
LINE
  8
_0-1_LAYER003
  6
CONTINUOUS
 62
   18
 10
1753.223
 20
1168.4984999999999
 11
1753.223
 21
1150.1169
  0
LINE
  8
_0-1_LAYER003
  6
CONTINUOUS
 62
   18
 10
1753.223
 20
1150.1169
 11
1734.4503
 21
1150.1169
  0
LINE
  8
_0-1_LAYER003
  6
CONTINUOUS
 62
   18
 10
1734.4503
 20
1150.1169
 11
1734.4503
 21
1168.4984999999999
  0
LINE
  8
_0-1_LAYER003
  6
CONTINUOUS
 62
   18
 10
1746.0338999999999
 20
1171.7357999999999
 11
1746.0338999999999
 21
1137.0255999999999
  0
LINE
  8
_0-1_LAYER003
  6
CONTINUOUS
 62
   18
 10
1746.0338999999999
 20
1137.0255999999999
 11
1776.0338999999999
 21
1137.0255999999999
  0
LINE
  8
_0-1_LAYER003
  6
CONTINUOUS
 62
   18
 10
1776.0338999999999
 20
1137.0255999999999
 11
1749.5378999999998
 21
1172.3536999999999
  0
LINE
  8
_0-1_LAYER003
  6
CONTINUOUS
 62
   18
 10
1755.2121000000002
 20
1188.5854999999999
 11
1758.0479999999998
 21
1187.4668999999999
  0
LINE
  8
_0-1_LAYER003
  6
CONTINUOUS
 62
   18
 10
1761.6979999999999
 20
1188.1092000000001
 11
1763.9814999999999
 21
1190.1318000000001
  0
LINE
  8
_0-1_LAYER003
  6
CONTINUOUS
 62
   18
 10
1761.6979999999999
 20
1188.1092000000001
 11
1766.3878
 21
1161.5174
  0
LINE
  8
_0-1_LAYER003
  6
CONTINUOUS
 62
   18
 10
1766.3878
 20
1161.5174
 11
1766.1795000000002
 21
1152.6346000000001
  0
LINE
  8
_0-1_LAYER003
  6
CONTINUOUS
 62
   18
 10
1766.1795000000002
 20
1152.6346000000001
 11
1762.7377000000001
 21
1160.8735999999999
  0
LINE
  8
_0-1_LAYER003
  6
CONTINUOUS
 62
   18
 10
1762.7377000000001
 20
1160.8735999999999
 11
1758.0479999999998
 21
1187.4668999999999
  0
LINE
  8
_0-1_LAYER003
  6
CONTINUOUS
 62
   18
 10
1767.5394999999999
 20
1161.2701
 11
1765.5983999999999
 21
1154.0256999999999
  0
LINE
  8
_0-1_LAYER003
  6
CONTINUOUS
 62
   18
 10
1765.5983999999999
 20
1154.0256999999999
 11
1770.9016999999999
 21
1159.329
  0
LINE
  8
_0-1_LAYER003
  6
CONTINUOUS
 62
   18
 10
1765.5983999999999
 20
1154.0256999999999
 11
1868.8748000000001
 21
1332.9057
  0
LINE
  8
_0-1_LAYER003
  6
CONTINUOUS
 62
   18
 10
1854.5841
 20
1417.1246000000001
 11
1782.2063888517016
 21
1291.762677373117
  0
LINE
  8
_0-1_LAYER003
  6
CONTINUOUS
 62
   18
 10
1782.2063888517016
 20
1291.762677373117
 11
1784.0720999999999
 21
1298.8766000000001
  0
LINE
  8
_0-1_LAYER003
  6
CONTINUOUS
 62
   18
 10
1782.2063888517016
 20
1291.762677373117
 11
1787.4342999999999
 21
1296.9354000000001
  0
ARC
  8
_0-1_LAYER003
  6
CONTINUOUS
 62
   18
 10
1756.5340999999999
 20
1292.7351000000001
 40
22.099886000000097
 50
337.88465000000014
 51
28.072639999999865
  0
ARC
  8
_0-1_LAYER003
  6
CONTINUOUS
 62
   18
 10
1655.7715820724429
 20
1121.6549401889965
 40
10.750091199353307
 50
333.85357420080391
 51
14.571408799196076
  0
ARC
  8
_0-1_LAYER003
  6
CONTINUOUS
 62
   18
 10
1534.1635884996772
 20
1068.5490654084381
 40
132.98997360196898
 50
344.01652369525743
 51
11.367534304742644
  0
LINE
  8
_0-1_LAYER003
  6
CONTINUOUS
 62
   18
 10
1746.0338999999999
 20
1163.0256999999999
 11
1752.0338000000002
 21
1160.0255999999999
  0
LINE
  8
_0-1_LAYER003
  6
CONTINUOUS
 62
   18
 10
1752.0338000000002
 20
1160.0255999999999
 11
1752.0338000000002
 21
1154.0256999999999
  0
LINE
  8
_0-1_LAYER003
  6
CONTINUOUS
 62
   18
 10
1752.0338000000002
 20
1154.0256999999999
 11
1746.0338999999999
 21
1151.0255999999999
  0
LINE
  8
_0-1_LAYER003
  6
CONTINUOUS
 62
   18
 10
1752.0338000000002
 20
1160.0255999999999
 11
1776.0338999999999
 21
1159.953
  0
LINE
  8
_0-1_LAYER003
  6
CONTINUOUS
 62
   18
 10
1753.223
 20
1154.0256999999999
 11
1776.0338999999999
 21
1154.0256999999999
  0
LINE
  8
_0-1_LAYER003
  6
CONTINUOUS
 62
   18
 10
1776.0338999999999
 20
1152.7755999999999
 11
1794.2338
 21
1152.7755999999999
  0
LINE
  8
_0-1_LAYER003
  6
CONTINUOUS
 62
   18
 10
1776.0338999999999
 20
1161.2755999999999
 11
1794.2338
 21
1161.2768000000001
  0
LINE
  8
_0-1_LAYER003
  6
CONTINUOUS
 62
   18
 10
1794.2338
 20
1161.2755999999999
 11
1803.3278
 21
1162.8797
  0
LINE
  8
_0-1_LAYER003
  6
CONTINUOUS
 62
   18
 10
1803.3278
 20
1162.8797
 11
1803.6239
 21
1161.2066
  0
LINE
  8
_0-1_LAYER003
  6
CONTINUOUS
 62
   18
 10
1803.6239
 20
1161.2066
 11
1805.2968000000001
 21
1161.5017
  0
LINE
  8
_0-1_LAYER003
  6
CONTINUOUS
 62
   18
 10
1805.2968000000001
 20
1161.5017
 11
1805.0019715401272
 21
1163.1746302566075
  0
LINE
  8
_0-1_LAYER003
  6
CONTINUOUS
 62
   18
 10
1805.0019715401272
 20
1163.1746302566075
 11
1807.6608000000001
 21
1163.6446000000001
  0
LINE
  8
_0-1_LAYER003
  6
CONTINUOUS
 62
   18
 10
1807.6608000000001
 20
1163.6446000000001
 11
1807.9569000000001
 21
1161.9707000000001
  0
LINE
  8
_0-1_LAYER003
  6
CONTINUOUS
 62
   18
 10
1807.9569000000001
 20
1161.9707000000001
 11
1809.6298000000002
 21
1162.2655999999999
  0
LINE
  8
_0-1_LAYER003
  6
CONTINUOUS
 62
   18
 10
1809.6298000000002
 20
1162.2655999999999
 11
1809.3348999999998
 21
1163.9386999999999
  0
LINE
  8
_0-1_LAYER003
  6
CONTINUOUS
 62
   18
 10
1809.3348999999998
 20
1163.9386999999999
 11
1811.9938000000002
 21
1164.4078
  0
LINE
  8
_0-1_LAYER003
  6
CONTINUOUS
 62
   18
 10
1811.9938000000002
 20
1164.4078
 11
1812.2898
 21
1162.7347
  0
LINE
  8
_0-1_LAYER003
  6
CONTINUOUS
 62
   18
 10
1812.2898
 20
1162.7347
 11
1813.9639000000002
 21
1163.0296000000001
  0
LINE
  8
_0-1_LAYER003
  6
CONTINUOUS
 62
   18
 10
1813.9639000000002
 20
1163.0296000000001
 11
1813.6680886033776
 21
1164.7026333077215
  0
LINE
  8
_0-1_LAYER003
  6
CONTINUOUS
 62
   18
 10
1813.6680886033776
 20
1164.7026333077215
 11
1815.1459411389073
 21
1164.965459324256
  0
LINE
  8
_0-1_LAYER003
  6
CONTINUOUS
 62
   18
 10
1815.1459411389073
 20
1164.965459324256
 11
1816.8779313622895
 21
1163.7547057996451
  0
LINE
  8
_0-1_LAYER003
  6
CONTINUOUS
 62
   18
 10
1816.8779313622895
 20
1163.7547057996451
 11
1817.2829000000002
 21
1161.4826
  0
LINE
  8
_0-1_LAYER003
  6
CONTINUOUS
 62
   18
 10
1817.2829000000002
 20
1161.4826
 11
1792.0099
 21
1157.0266999999999
  0
LINE
  8
_0-1_LAYER003
  6
CONTINUOUS
 62
   18
 10
1792.0099
 20
1157.0266999999999
 11
1817.1078000000002
 21
1152.6007
  0
LINE
  8
_0-1_LAYER003
  6
CONTINUOUS
 62
   18
 10
1817.1078000000002
 20
1152.6007
 11
1816.7098999999998
 21
1150.3358000000001
  0
LINE
  8
_0-1_LAYER003
  6
CONTINUOUS
 62
   18
 10
1816.7098999999998
 20
1150.3358000000001
 11
1814.971
 21
1149.1197
  0
LINE
  8
_0-1_LAYER003
  6
CONTINUOUS
 62
   18
 10
1814.971
 20
1149.1197
 11
1813.4938999999999
 21
1149.3806999999999
  0
LINE
  8
_0-1_LAYER003
  6
CONTINUOUS
 62
   18
 10
1813.4938999999999
 20
1149.3806999999999
 11
1813.7899000000002
 21
1151.0536
  0
LINE
  8
_0-1_LAYER003
  6
CONTINUOUS
 62
   18
 10
1813.7899000000002
 20
1151.0536
 11
1812.1149
 21
1151.3486
  0
LINE
  8
_0-1_LAYER003
  6
CONTINUOUS
 62
   18
 10
1812.1149
 20
1151.3486
 11
1811.8199
 21
1149.6757
  0
LINE
  8
_0-1_LAYER003
  6
CONTINUOUS
 62
   18
 10
1811.8199
 20
1149.6757
 11
1809.1608000000001
 21
1150.1447000000001
  0
LINE
  8
_0-1_LAYER003
  6
CONTINUOUS
 62
   18
 10
1809.1608000000001
 20
1150.1447000000001
 11
1809.4558999999999
 21
1151.8177000000001
  0
LINE
  8
_0-1_LAYER003
  6
CONTINUOUS
 62
   18
 10
1809.4558999999999
 20
1151.8177000000001
 11
1807.7828697654788
 21
1152.112529103455
  0
LINE
  8
_0-1_LAYER003
  6
CONTINUOUS
 62
   18
 10
1807.7819
 20
1152.1126999999999
 11
1807.4868999999999
 21
1150.4395999999999
  0
LINE
  8
_0-1_LAYER003
  6
CONTINUOUS
 62
   18
 10
1807.4868999999999
 20
1150.4395999999999
 11
1804.8278
 21
1150.9087
  0
LINE
  8
_0-1_LAYER003
  6
CONTINUOUS
 62
   18
 10
1804.8278
 20
1150.9087
 11
1805.1237999999998
 21
1152.5816
  0
LINE
  8
_0-1_LAYER003
  6
CONTINUOUS
 62
   18
 10
1805.1237999999998
 20
1152.5816
 11
1803.4499000000001
 21
1152.8767
  0
LINE
  8
_0-1_LAYER003
  6
CONTINUOUS
 62
   18
 10
1803.4499000000001
 20
1152.8767
 11
1803.1538
 21
1151.2037
  0
LINE
  8
_0-1_LAYER003
  6
CONTINUOUS
 62
   18
 10
1803.1538
 20
1151.2037
 11
1794.2338
 21
1152.7755999999999
  0
LINE
  8
_0-1_LAYER003
  6
CONTINUOUS
 62
   18
 10
1889.0880999999999
 20
935.83960000000002
 11
1288.0549999999998
 21
665.37529999999992
  0
LINE
  8
_0-1_LAYER003
  6
CONTINUOUS
 62
   18
 10
1242.9149
 20
765.68669999999997
 11
1776.0338999999999
 21
1005.5897
  0
LINE
  8
_0-1_LAYER003
  6
CONTINUOUS
 62
   18
 10
1776.0338999999999
 20
1005.5897
 11
1765.7748000000001
 21
1028.3878
  0
LINE
  8
_0-1_LAYER003
  6
CONTINUOUS
 62
   18
 10
1765.7748000000001
 20
1028.3878
 11
1232.6558
 21
788.48469999999998
  0
LINE
  8
_0-1_LAYER003
  6
CONTINUOUS
 62
   18
 10
1231.8351
 20
790.30860000000007
 11
1774.0338999999999
 21
1034.2974999999999
  0
LINE
  8
_0-1_LAYER003
  6
CONTINUOUS
 62
   18
 10
1728.7152000000001
 20
1034.7375
 11
1756.0720999999999
 21
1047.0499
  0
LINE
  8
_0-1_LAYER003
  6
CONTINUOUS
 62
   18
 10
1756.0720999999999
 20
1047.0499
 11
1734.8712999999998
 21
1021.059
  0
LINE
  8
_0-1_LAYER003
  6
CONTINUOUS
 62
   18
 10
1734.8712999999998
 20
1021.059
 11
1728.7152000000001
 21
1034.7375
  0
LINE
  8
_0-1_LAYER003
  6
CONTINUOUS
 62
   18
 10
1734.8712999999998
 20
1021.059
 11
1762.2283000000002
 21
1033.3714
  0
LINE
  8
_0-1_LAYER003
  6
CONTINUOUS
 62
   18
 10
1762.2283000000002
 20
1033.3714
 11
1756.0720999999999
 21
1047.0499
  0
LINE
  8
_0-1_LAYER003
  6
CONTINUOUS
 62
   18
 10
1876.0338999999999
 20
1271.9531999999999
 11
1776.0338999999999
 21
1371.9529
  0
LINE
  8
_0-1_LAYER003
  6
CONTINUOUS
 62
   18
 10
1776.0338999999999
 20
1367.7105000000001
 11
1876.0338999999999
 21
1267.7106000000001
  0
LINE
  8
_0-1_LAYER003
  6
CONTINUOUS
 62
   18
 10
1774.0338999999999
 20
1282.3351
 11
1771.8959
 21
1270.5272
  0
TEXT
  8
_0-0_LAYER001
 62
    7
 10
1379.8624999999997
 20
1036.0044999999998
 40
15
 41
1
 50
0
  1
桟　瓦
  0
LINE
  8
_0-0_LAYER001
  6
CONTINUOUS
 62
    2
 10
1651.823694778253
 20
1193.9350999999999
 11
1679.323694778253
 21
1193.9350999999999
  0
CIRCLE
  8
_0-0_LAYER001
  6
CONTINUOUS
 62
    2
 10
1654.323694778253
 20
1193.9350999999999
 40
1.6999999999999997
  0
LINE
  8
_0-0_LAYER001
  6
CONTINUOUS
 62
    2
 10
1654.323694778253
 20
1193.9350999999999
 11
1654.323694778253
 21
1283.9350999999999
  0
CIRCLE
  8
_0-0_LAYER001
  6
CONTINUOUS
 62
    2
 10
1654.323694778253
 20
1283.9350999999999
 40
1.6999999999999997
  0
LINE
  8
_0-0_LAYER001
  6
CONTINUOUS
 62
    2
 10
1651.823694778253
 20
1283.9350999999999
 11
1679.323694778253
 21
1283.9350999999999
  0
CIRCLE
  8
_0-0_LAYER001
  6
CONTINUOUS
 62
    2
 10
1654.323694778253
 20
1283.9350999999999
 40
1.6999999999999997
  0
LINE
  8
_0-0_LAYER001
  6
CONTINUOUS
 62
    2
 10
1654.323694778253
 20
1283.9350999999999
 11
1654.323694778253
 21
1298.9350999999999
  0
CIRCLE
  8
_0-0_LAYER001
  6
CONTINUOUS
 62
    2
 10
1654.323694778253
 20
1298.9350999999999
 40
1.6999999999999997
  0
LINE
  8
_0-0_LAYER001
  6
CONTINUOUS
 62
    2
 10
1651.823694778253
 20
1298.9350999999999
 11
1679.323694778253
 21
1298.9350999999999
  0
LINE
  8
_0-1_LAYER003
  6
CONTINUOUS
 62
   18
 10
1679.323694778253
 20
1298.9350999999999
 11
1652.6236947782531
 21
1298.9350999999999
  0
LINE
  8
_0-1_LAYER003
  6
CONTINUOUS
 62
   18
 10
1654.323694778253
 20
1298.9350999999999
 11
1654.323694778253
 21
1193.9350999999999
  0
LINE
  8
_0-1_LAYER003
  6
CONTINUOUS
 62
   18
 10
1651.823694778253
 20
1193.9350999999999
 11
1679.323694778253
 21
1193.9350999999999
  0
LINE
  8
_0-1_LAYER003
  6
CONTINUOUS
 62
   18
 10
1652.6236947782531
 20
1283.9350999999999
 11
1679.323694778253
 21
1283.9350999999999
  0
TEXT
  8
_0-2_ADD_LINE
 62
    7
 10
1722.9836519527134
 20
877.16926413781266
 40
20
 41
1
 50
0
  1
：
  0
TEXT
  8
_0-2_ADD_LINE
 62
    7
 10
1300.9546909644689
 20
1083.8295873972854
 40
20
 41
1
 50
24.227693000000002
  1
280
  0
TEXT
  8
_0-2_ADD_LINE
 62
    7
 10
1539.7576388135701
 20
1194.8027219859853
 40
20
 41
1
 50
24.227692999999988
  1
305
  0
TEXT
  8
_0-2_ADD_LINE
 62
    7
 10
1041.0808947757414
 20
1227.1113561067459
 40
20
 41
1
 50
0
  1
瓦桟：15x30以上
  0
TEXT
  8
_0-2_ADD_LINE
 62
    7
 10
977.86834975686156
 20
1196.2074452086272
 40
20
 41
1
 50
0
  1
下葺材：ルーフィング
  0
TEXT
  8
_0-2_ADD_LINE
 62
    7
 10
1711.1338719758664
 20
1345.1081068086548
 40
20
 41
1
 50
0
  1
100
  0
TEXT
  8
_0-2_ADD_LINE
 62
    7
 10
1845.9873013494762
 20
1422.3678840539519
 40
20
 41
1
 50
0
  1
シーリング
  0
TEXT
  8
_0-2_ADD_LINE
 62
    7
 10
966.63056397572745
 20
1137.2090698576726
 40
20
 41
1
 50
0
  1
　鋼製：C100x50x20x2.3
  0
TEXT
  8
_0-2_ADD_LINE
 62
    7
 10
796.65905403607326
 20
1165.3035343105082
 40
20
 41
1
 50
0
  1
野地板：硬質木片セメントパネル　t＝25
  0
TEXT
  8
_0-2_ADD_LINE
 62
    7
 10
2001.9115790627129
 20
995.3320243708539
 40
20
 41
1
 50
90
  1
下葺き材立上がり寸法
  0
TEXT
  8
_0-2_ADD_LINE
 62
    7
 10
1956.9604359381763
 20
1085.2343106199273
 40
20
 41
1
 50
90
  1
150
  0
TEXT
  8
_0-2_ADD_LINE
 62
    7
 10
1643.7071572890611
 20
1280.4908385671333
 40
20
 41
1
 50
90
  1
20
  0
TEXT
  8
_0-2_ADD_LINE
 62
    7
 10
1647.9213269569866
 20
1229.9208025520297
 40
20
 41
1
 50
90
  1
90
  0
TEXT
  8
_0-2_ADD_LINE
 62
    7
 10
1316.6477692553867
 20
1338.3566672366339
 40
20
 41
1
 50
0
  1
雨押水切カラー鋼板0.35ｍｍ以上
  0
TEXT
  8
_0-2_ADD_LINE
 62
    7
 10
1554.5117993717986
 20
1378.9675992077289
 40
20
 41
1
 50
0
  1
笠木：15x90
  0
TEXT
  8
_0-0_LAYER001
 62
    7
 10
1864.8953508651655
 20
1342.7078385192513
 40
20
 41
1
 50
0
  1
下地：40x30
  0
TEXT
  8
_0-0_LAYER001
 62
    7
 10
1915.6590158290339
 20
1273.0890979973747
 40
20
 41
1
 50
0
  1
外壁：ALCパネルt＝100
  0
LINE
  8
_0-0_LAYER001
  6
CONTINUOUS
 62
    2
 10
1231.3915
 20
1132.9685999999999
 11
985.04966440836574
 21
1132.9685999999999
  0
LINE
  8
_0-1_LAYER003
  6
CONTINUOUS
 62
   18
 10
985.04966440836574
 20
1132.9685999999999
 11
1231.3915
 21
1132.9685999999999
  0
LINE
  8
_0-0_LAYER001
  6
CONTINUOUS
 62
    2
 10
1223.0832
 20
1162.9494999999999
 11
789.09418474698452
 21
1162.9494999999999
  0
LINE
  8
_0-1_LAYER003
  6
CONTINUOUS
 62
   18
 10
1223.0832
 20
1162.9494999999999
 11
799.68637283678891
 21
1162.9494999999999
  0
LINE
  8
_0-0_LAYER001
  6
CONTINUOUS
 62
    2
 10
1215.5889
 20
1192.9304999999999
 11
979.7535703634635
 21
1192.9304999999999
  0
LINE
  8
_0-1_LAYER003
  6
CONTINUOUS
 62
   18
 10
976.22284100019544
 20
1192.9304999999999
 11
1215.5889
 21
1192.9304999999999
  0
LINE
  8
_0-0_LAYER001
  6
CONTINUOUS
 62
    2
 10
1662.3462
 20
1334.5309
 11
1302.8153071024974
 21
1334.5309
  0
LINE
  8
_0-1_LAYER003
  6
CONTINUOUS
 62
   18
 10
1662.3462
 20
1334.5309
 11
1311.6421305106678
 21
1334.5309
  0
LINE
  8
_0-0_LAYER001
  6
CONTINUOUS
 62
    2
 10
1590.7455
 20
1292.7703999999999
 11
1444.0444816332226
 21
1292.7703999999999
  0
LINE
  8
_0-1_LAYER003
  6
CONTINUOUS
 62
   18
 10
1451.1059403597587
 20
1292.7703999999999
 11
1590.7455
 21
1292.7703999999999
  0
TEXT
  8
_0-2_ADD_LINE
 62
    7
 10
1442.2791169515883
 20
1246.9518931276257
 40
20
 41
1
 50
0
  1
葺　土
  0
TEXT
  8
_0-0_LAYER001
 62
    7
 10
1447.5752109964906
 20
1298.1474688950138
 40
20
 41
1
 50
0
  1
熨斗瓦２段積み
  0
ENDSEC
  0
EOF
