  0
SECTION
  2
HEADER
  9
$ACADVER
  1
AC1009
  9
$INSBASE
 10
0
 20
0
 30
0
  9
$EXTMIN
 10
0
 20
0
  9
$EXTMAX
 10
2970
 20
2100
  9
$LIMMIN
 10
0
 20
0
  9
$LIMMAX
 10
2970
 20
2100
  9
$LTSCALE
 40
10
  0
ENDSEC
  0
SECTION
  2
TABLES
  0
TABLE
  2
LTYPE
 70
     9
  0
LTYPE
  2
CONTINUOUS
 70
    64
  3
実線
 72
    65
 73
     0
 40
0.0
  0
LTYPE
  2
DASHED1
 70
    64
  3
--  --  --  --  --  --  --  --  
 72
    65
 73
     2
 40
2.5
 49
1.25
 49
-1.25
  0
LTYPE
  2
DASHED2
 70
    64
  3
----    ----    ----    ----    
 72
    65
 73
     2
 40
5.0
 49
2.5
 49
-2.5
  0
LTYPE
  2
DASHED3
 70
    64
  3
------  ------  ------  ------  
 72
    65
 73
     2
 40
5.0
 49
3.75
 49
-1.25
  0
LTYPE
  2
CENTER1
 70
    64
  3
----- - ----- - ----- - ----- - 
 72
    65
 73
     4
 40
10.0
 49
6.25
 49
-1.25
 49
1.25
 49
-1.25
  0
LTYPE
  2
CENTER2
 70
    64
  3
----------  --  ----------  --  
 72
    65
 73
     4
 40
20.0
 49
12.5
 49
-2.5
 49
2.5
 49
-2.5
  0
LTYPE
  2
PHANTOM1
 70
    64
  3
--- - - --- - - --- - - --- - - 
 72
    65
 73
     6
 40
10.0
 49
3.25
 49
-1.25
 49
1.25
 49
-1.25
 49
1.25
 49
-1.25
  0
LTYPE
  2
PHANTOM2
 70
    64
  3
--------  -  -  --------  -  -  
 72
    65
 73
     6
 40
20.0
 49
10.0
 49
-2.5
 49
1.25
 49
-2.5
 49
1.25
 49
-2.5
  0
LTYPE
  2
DOT
 70
    64
  3
-   -   -   -   -   -   -   -   
 72
    65
 73
     2
 40
2.5
 49
0.625
 49
-1.875
  0
LTYPE
  2
DUMMY
 70
    64
  3
ダミー
 72
    65
 73
     0
 40
0.0
  0
LTYPE
  2
RAND1
 70
    64
  3
ランダム線1
 72
    65
 73
     4
 40
10.0
 49
1.0
 49
-2.0
 49
3.0
 49
-4.0
  0
LTYPE
  2
RAND2
 70
    64
  3
ランダム線2
 72
    65
 73
     4
 40
14.0
 49
2.0
 49
-3.0
 49
4.0
 49
-5.0
  0
LTYPE
  2
RAND3
 70
    64
  3
ランダム線3
 72
    65
 73
     4
 40
18.0
 49
3.0
 49
-4.0
 49
5.0
 49
-6.0
  0
LTYPE
  2
RAND4
 70
    64
  3
ランダム線4
 72
    65
 73
     4
 40
22.0
 49
4.0
 49
-5.0
 49
6.0
 49
-7.0
  0
LTYPE
  2
RAND5
 70
    64
  3
ランダム線5
 72
    65
 73
     4
 40
26.0
 49
5.0
 49
-6.0
 49
7.0
 49
-8.0
  0
LTYPE
  2
LONG1
 70
    64
  3
----------  --  ----------  --  
 72
    65
 73
     4
 40
40.0
 49
32.5
 49
-2.5
 49
2.5
 49
-2.5
  0
LTYPE
  2
LONG2
 70
    64
  3
--------  -  -  --------  -  -  
 72
    65
 73
     6
 40
40.0
 49
30.0
 49
-2.5
 49
1.25
 49
-2.5
 49
1.25
 49
-2.5
  0
LTYPE
  2
LONG3
 70
    64
  3
+++++++++++++++..+++++++++++++++
 72
    65
 73
     2
 40
40.0
 49
37.5
 49
-2.5
  0
LTYPE
  2
LONG4
 70
    64
  3
+++++++++++++++..+++++++++++++++
 72
    65
 73
     2
 40
80.0
 49
75.0
 49
-5.0
  0
LTYPE
  2
LONG5
 70
    64
  3
----------  --  ----------  --  
 72
    65
 73
     4
 40
60.0
 49
37.5
 49
-7.5
 49
7.5
 49
-7.5
  0
LTYPE
  2
dashed
 70
   64
  3
-------   -------------   ------
 72
   65
 73
    2
 40
7.5
 49
6
 49
-1.5
  0
LTYPE
  2
dashed_spaced
 70
   64
  3
----        --------        ----
 72
   65
 73
    2
 40
12
 49
6
 49
-6
  0
LTYPE
  2
long_dashed_dotted
 70
   64
  3
------------- --- --------------
 72
   65
 73
    4
 40
15.25
 49
12
 49
-1.5
 49
0.25
 49
-1.5
  0
LTYPE
  2
long_dashed_double-dotted
 70
   64
  3
----------- --- --- ------------
 72
   65
 73
    6
 40
17
 49
12
 49
-1.5
 49
0.25
 49
-1.5
 49
0.25
 49
-1.5
  0
LTYPE
  2
long_dashed_triplicate-dotted
 70
   64
  3
--------- --- --- --- ----------
 72
   65
 73
    8
 40
18.75
 49
12
 49
-1.5
 49
0.25
 49
-1.5
 49
0.25
 49
-1.5
 49
0.25
 49
-1.5
  0
LTYPE
  2
dotted
 70
   64
  3
   -       -       -       -    
 72
   65
 73
    2
 40
1.75
 49
0.25
 49
-1.5
  0
LTYPE
  2
chain
 70
   64
  3
-------------- -- --------------
 72
   65
 73
    4
 40
18.5
 49
12
 49
-1.5
 49
3.5
 49
-1.5
  0
LTYPE
  2
chain_double_dash
 70
   64
  3
------------ -- -- -------------
 72
   65
 73
    6
 40
23.5
 49
12
 49
-1.5
 49
3.5
 49
-1.5
 49
3.5
 49
-1.5
  0
LTYPE
  2
dashed_dotted
 70
   64
  3
-----------     -     ----------
 72
   65
 73
    4
 40
9.25
 49
6
 49
-1.5
 49
0.25
 49
-1.5
  0
LTYPE
  2
double-dashed_dotted
 70
   64
  3
------   -----------   -   -----
 72
   65
 73
    6
 40
16.75
 49
6
 49
-1.5
 49
6
 49
-1.5
 49
0.25
 49
-1.5
  0
LTYPE
  2
dashed_double-dotted
 70
   64
  3
---------    -    -    ---------
 72
   65
 73
    6
 40
11
 49
6
 49
-1.5
 49
0.25
 49
-1.5
 49
0.25
 49
-1.5
  0
LTYPE
  2
double-dashed_double-dotted
 70
   64
  3
-----   ---------   -   -   ----
 72
   65
 73
    8
 40
18.5
 49
6
 49
-1.5
 49
6
 49
-1.5
 49
0.25
 49
-1.5
 49
0.25
 49
-1.5
  0
LTYPE
  2
dashed_triplicate-dotted
 70
   64
  3
-------    -    -    -    ------
 72
   65
 73
    8
 40
12.75
 49
6
 49
-1.5
 49
0.25
 49
-1.5
 49
0.25
 49
-1.5
 49
0.25
 49
-1.5
  0
LTYPE
  2
double-dashed_triplicate-dotted
 70
   64
  3
-----  ---------  -  -  -  -----
 72
   65
 73
   10
 40
20.25
 49
6
 49
-1.5
 49
6
 49
-1.5
 49
0.25
 49
-1.5
 49
0.25
 49
-1.5
 49
0.25
 49
-1.5
  0
LTYPE
  2
undefined
 70
   64
  3
--------------------------------
 72
   65
 73
    0
 40
0
  0
ENDTAB
  0
TABLE
  2
STYLE
  5
3
100
AcDbSymbolTable
 70
     1
  0
STYLE
  5
10
100
AcDbSymbolTableRecord
100
AcDbTextStyleTableRecord
  2
STANDARD
 70
     0
 40
0.0
 41
1.0
 50
0.0
 71
     0
 42
0.2
  3
txt
  4
bigfont.shx
  0
STYLE
  5
26
100
AcDbSymbolTableRecord
100
AcDbTextStyleTableRecord
  2
TATEGAKI
 70
    68
 40
0.0
 41
1.0
 50
0.0
 71
     0
 42
1.0
  3
txt
  4
bigfont.shx
  0
ENDTAB
  0
TABLE
  2
LAYER
 70
    4
  0
LAYER
  2
_0-0_LAYER001
 70
   64
 62
    7
  6
CONTINUOUS
  0
LAYER
  2
_0-1_LAYER004
 70
   64
 62
    7
  6
CONTINUOUS
  0
LAYER
  2
_0-2_LAYER006
 70
   64
 62
    7
  6
CONTINUOUS
  0
LAYER
  2
ADD_LINE
 70
   64
 62
    7
  6
CONTINUOUS
  0
ENDTAB
  0
ENDSEC
  0
SECTION
  2
BLOCKS
  0
ENDSEC
  0
SECTION
  2
ENTITIES
  0
LINE
  8
_0-1_LAYER004
  6
CONTINUOUS
 62
   18
 10
1219.2549316381092
 20
1114.3943946619843
 11
1223.0049316381092
 21
1120.8895946619843
  0
LINE
  8
_0-1_LAYER004
  6
CONTINUOUS
 62
   18
 10
1219.2549316381092
 20
1121.5573430990974
 11
1219.2549316381092
 21
1114.3943946619843
  0
LINE
  8
_0-0_LAYER001
  6
CONTINUOUS
 62
    2
 10
1639.9157
 20
1000.7462
 11
1639.9157
 21
1008.2462
  0
LINE
  8
_0-0_LAYER001
  6
CONTINUOUS
 62
    2
 10
1739.8038000000001
 20
950.47769999999991
 11
1789.8036999999999
 21
1000.4776999999999
  0
LINE
  8
_0-0_LAYER001
  6
CONTINUOUS
 62
    2
 10
1735.5612000000001
 20
950.47769999999991
 11
1785.5610000000001
 21
1000.4776999999999
  0
LINE
  8
_0-0_LAYER001
  6
CONTINUOUS
 62
    2
 10
1951.9360000000001
 20
950.47769999999991
 11
2001.9358000000002
 21
1000.4776999999999
  0
LINE
  8
_0-0_LAYER001
  6
CONTINUOUS
 62
    2
 10
1947.6932999999999
 20
950.47769999999991
 11
1997.6931
 21
1000.4776999999999
  0
LINE
  8
_0-0_LAYER001
  6
CONTINUOUS
 62
    2
 10
2100.5637999999999
 20
1021.4776999999999
 11
1288.6030000000001
 21
1021.4776999999999
  0
LINE
  8
_0-0_LAYER001
  6
CONTINUOUS
 62
    2
 10
1154.2170000000001
 20
1021.2840000000001
 11
1159.5202999999999
 21
1026.5872999999999
  0
LINE
  8
_0-0_LAYER001
  6
CONTINUOUS
 62
    2
 10
1159.5202999999999
 20
1026.5872999999999
 11
1157.5790999999999
 21
1019.3429000000001
  0
LINE
  8
_0-0_LAYER001
  6
CONTINUOUS
 62
    2
 10
1159.5202999999999
 20
1026.5872999999999
 11
1091.566
 21
908.88709999999992
  0
LINE
  8
_0-0_LAYER001
  6
CONTINUOUS
 62
    2
 10
1091.566
 20
908.88709999999992
 11
944.56600000000003
 21
908.88709999999992
  0
LINE
  8
_0-0_LAYER001
  6
CONTINUOUS
 62
    2
 10
1182.1027999999999
 20
1396.7449999999999
 11
1178.3527999999999
 21
1390.2498000000001
  0
LINE
  8
_0-0_LAYER001
  6
CONTINUOUS
 62
    2
 10
1178.3527999999999
 20
1390.2498000000001
 11
1178.3527999999999
 21
1397.7498000000001
  0
LINE
  8
_0-0_LAYER001
  6
CONTINUOUS
 62
    2
 10
1178.3527999999999
 20
1390.2498000000001
 11
1200.5454
 21
1473.0740000000001
  0
LINE
  8
_0-0_LAYER001
  6
CONTINUOUS
 62
    2
 10
924.96710000000007
 20
1000.4776999999999
 11
977.46710000000007
 21
1000.4776999999999
  0
CIRCLE
  8
_0-0_LAYER001
  6
CONTINUOUS
 62
    2
 10
927.46710000000007
 20
1000.4776999999999
 40
1.6999999999999997
  0
LINE
  8
_0-0_LAYER001
  6
CONTINUOUS
 62
    2
 10
927.46710000000007
 20
1000.4776999999999
 11
927.46710000000007
 21
1300.4776999999999
  0
CIRCLE
  8
_0-0_LAYER001
  6
CONTINUOUS
 62
    2
 10
927.46710000000007
 20
1300.4776999999999
 40
1.6999999999999997
  0
LINE
  8
_0-0_LAYER001
  6
CONTINUOUS
 62
    2
 10
924.96710000000007
 20
1300.4776999999999
 11
977.46710000000007
 21
1300.4776999999999
  0
LINE
  8
_0-0_LAYER001
  6
CONTINUOUS
 62
    2
 10
2100.5637999999999
 20
1006.4776999999999
 11
1288.6030000000001
 21
1006.4776999999999
  0
LINE
  8
_0-0_LAYER001
  6
CONTINUOUS
 62
    2
 10
1173.6808000000001
 20
1186.6316999999999
 11
1169.9308000000001
 21
1180.1365000000001
  0
LINE
  8
_0-0_LAYER001
  6
CONTINUOUS
 62
    2
 10
1169.9308000000001
 20
1180.1365000000001
 11
1169.9308000000001
 21
1187.6365000000001
  0
LINE
  8
_0-0_LAYER001
  6
CONTINUOUS
 62
    2
 10
1169.9308000000001
 20
1180.1365000000001
 11
1228.7366999999999
 21
1399.6030999999998
  0
LINE
  8
_0-0_LAYER001
  6
CONTINUOUS
 62
    2
 10
1228.7366999999999
 20
1399.6030999999998
 11
1269.2366999999999
 21
1399.6030999999998
  0
LINE
  8
_0-0_LAYER001
  6
CONTINUOUS
 62
    2
 10
1206.3234
 20
999.17440000000011
 11
1211.6267
 21
1004.4776999999999
  0
LINE
  8
_0-0_LAYER001
  6
CONTINUOUS
 62
    2
 10
1211.6267
 20
1004.4776999999999
 11
1209.6856
 21
997.2331999999999
  0
LINE
  8
_0-0_LAYER001
  6
CONTINUOUS
 62
    2
 10
1211.6267
 20
1004.4776999999999
 11
1103.7067
 21
817.55469999999991
  0
LINE
  8
_0-0_LAYER001
  6
CONTINUOUS
 62
    2
 10
1166.6029000000001
 20
806.19640000000004
 11
1166.6029000000001
 21
858.69640000000004
  0
CIRCLE
  8
_0-0_LAYER001
  6
CONTINUOUS
 62
    2
 10
1166.6029000000001
 20
808.69640000000004
 40
1.6999999999999997
  0
LINE
  8
_0-0_LAYER001
  6
CONTINUOUS
 62
    2
 10
1166.6029000000001
 20
808.69640000000004
 11
1286.6029000000001
 21
808.69640000000004
  0
CIRCLE
  8
_0-0_LAYER001
  6
CONTINUOUS
 62
    2
 10
1286.6029000000001
 20
808.69640000000004
 40
1.6999999999999997
  0
LINE
  8
_0-0_LAYER001
  6
CONTINUOUS
 62
    2
 10
1286.6029000000001
 20
806.19640000000004
 11
1286.6029000000001
 21
858.69640000000004
  0
LINE
  8
_0-0_LAYER001
  6
CONTINUOUS
 62
    2
 10
1284.1486
 20
1356.5808999999999
 11
1449.0808000000002
 21
1356.5808999999999
  0
LINE
  8
_0-0_LAYER001
  6
CONTINUOUS
 62
    2
 10
1160.9956999999999
 20
1098.508
 11
1162.9368999999999
 21
1091.2636
  0
LINE
  8
_0-0_LAYER001
  6
CONTINUOUS
 62
    2
 10
1162.9368999999999
 20
1091.2636
 11
1157.6335999999999
 21
1096.5669
  0
LINE
  8
_0-0_LAYER001
  6
CONTINUOUS
 62
    2
 10
1162.9368999999999
 20
1091.2636
 11
1016.4360999999999
 21
1345.0102999999999
  0
LINE
  8
_0-0_LAYER001
  6
CONTINUOUS
 62
    2
 10
1016.4360999999999
 20
1345.0102999999999
 11
869.4360999999999
 21
1345.0102999999999
  0
LINE
  8
_0-0_LAYER001
  6
CONTINUOUS
 62
    2
 10
1723.154
 20
699.25440000000003
 11
1927.9767000000002
 21
699.25440000000003
  0
LINE
  8
_0-0_LAYER001
  6
CONTINUOUS
 62
    2
 10
1639.9157
 20
1008.2462
 11
1643.6657
 21
1001.751
  0
LINE
  8
_0-0_LAYER001
  6
CONTINUOUS
 62
    2
 10
1639.9157
 20
1008.2462
 11
1746.7793000000001
 21
609.42589999999996
  0
LINE
  8
_0-0_LAYER001
  6
CONTINUOUS
 62
    2
 10
1746.7793000000001
 20
609.42589999999996
 11
2067.7793000000001
 21
609.42589999999996
  0
LINE
  8
_0-0_LAYER001
  6
CONTINUOUS
 62
    2
 10
1185.0179000000001
 20
1276.8839
 11
1185.0179000000001
 21
1259.3839
  0
CIRCLE
  8
_0-0_LAYER001
  6
CONTINUOUS
 62
    2
 10
1185.0179000000001
 20
1274.3839
 40
1.6999999999999997
  0
LINE
  8
_0-0_LAYER001
  6
CONTINUOUS
 62
    2
 10
1185.0179000000001
 20
1274.3839
 11
1275.0179000000001
 21
1274.3839
  0
CIRCLE
  8
_0-0_LAYER001
  6
CONTINUOUS
 62
    2
 10
1275.0179000000001
 20
1274.3839
 40
1.6999999999999997
  0
LINE
  8
_0-0_LAYER001
  6
CONTINUOUS
 62
    2
 10
1275.0179000000001
 20
1276.8839
 11
1275.0179000000001
 21
1212.1004
  0
LINE
  8
_0-0_LAYER001
  6
CONTINUOUS
 62
    2
 10
1272.4353000000001
 20
1118.5985000000001
 11
1275.0216
 21
1094.4591
  0
LINE
  8
_0-0_LAYER001
  6
CONTINUOUS
 62
    2
 10
1275.0216
 20
1094.4591
 11
1269.7411999999999
 21
1100.0595000000001
  0
LINE
  8
_0-0_LAYER001
  6
CONTINUOUS
 62
    2
 10
1258.3504
 20
1119.0512000000001
 11
1255.7456999999999
 21
1104.2791
  0
LINE
  8
_0-0_LAYER001
  6
CONTINUOUS
 62
    2
 10
1152.3408999999999
 20
1122.5121999999999
 11
1258.3504
 21
1119.0512000000001
  0
LINE
  8
_0-0_LAYER001
  6
CONTINUOUS
 62
    2
 10
1255.7456999999999
 20
1104.2791
 11
1152.3408999999999
 21
1122.5121999999999
  0
LINE
  8
_0-0_LAYER001
  6
CONTINUOUS
 62
    2
 10
1258.3504
 20
1119.0512000000001
 11
1154.9456
 21
1137.2843
  0
LINE
  8
_0-0_LAYER001
  6
CONTINUOUS
 62
    2
 10
1154.9456
 20
1137.2843
 11
1152.3408999999999
 21
1122.5121999999999
  0
LINE
  8
_0-0_LAYER001
  6
DASHED1
 62
    2
 10
1104.3408999999999
 20
1102.5121999999999
 11
1109.3409999999999
 21
1105.5120999999999
  0
LINE
  8
_0-0_LAYER001
  6
DASHED1
 62
    2
 10
1109.3409999999999
 20
1099.5121999999999
 11
1104.3408999999999
 21
1102.5121999999999
  0
LINE
  8
_0-0_LAYER001
  6
CONTINUOUS
 62
    2
 10
1176.3409999999999
 20
1099.5121999999999
 11
1176.3409999999999
 21
1105.5120999999999
  0
LINE
  8
_0-0_LAYER001
  6
CONTINUOUS
 62
    2
 10
1182.3408999999999
 20
1096.5120999999999
 11
1182.3408999999999
 21
1108.5121999999999
  0
LINE
  8
_0-0_LAYER001
  6
CONTINUOUS
 62
    2
 10
1173.454
 20
1099.5121999999999
 11
1169.9909
 21
1105.5120999999999
  0
LINE
  8
_0-0_LAYER001
  6
CONTINUOUS
 62
    2
 10
1182.3408999999999
 20
1096.5120999999999
 11
1176.3409999999999
 21
1099.5121999999999
  0
LINE
  8
_0-0_LAYER001
  6
CONTINUOUS
 62
    2
 10
1176.3409999999999
 20
1105.5120999999999
 11
1182.3408999999999
 21
1108.5121999999999
  0
LINE
  8
_0-0_LAYER001
  6
DASHED1
 62
    2
 10
1109.3409999999999
 20
1105.5120999999999
 11
1151.5856000000001
 21
1105.5120999999999
  0
LINE
  8
_0-0_LAYER001
  6
DASHED1
 62
    2
 10
1109.3409999999999
 20
1099.5121999999999
 11
1152.3408999999999
 21
1099.5121999999999
  0
LINE
  8
_0-0_LAYER001
  6
CONTINUOUS
 62
    2
 10
1182.3408999999999
 20
1082.5121999999999
 11
1152.3408999999999
 21
1082.5121999999999
  0
LINE
  8
_0-0_LAYER001
  6
CONTINUOUS
 62
    2
 10
1152.3408999999999
 20
1105.5120999999999
 11
1176.3409999999999
 21
1105.5120999999999
  0
LINE
  8
_0-0_LAYER001
  6
CONTINUOUS
 62
    2
 10
1152.3408999999999
 20
1099.5121999999999
 11
1176.3409999999999
 21
1099.5121999999999
  0
LINE
  8
_0-0_LAYER001
  6
CONTINUOUS
 62
    2
 10
1167.7309
 20
1099.5121999999999
 11
1164.2678000000001
 21
1105.5120999999999
  0
LINE
  8
_0-0_LAYER001
  6
CONTINUOUS
 62
    2
 10
1162.0077000000001
 20
1099.5121999999999
 11
1158.5446999999999
 21
1105.5120999999999
  0
LINE
  8
_0-0_LAYER001
  6
CONTINUOUS
 62
    2
 10
1156.2846
 20
1099.5121999999999
 11
1152.8215
 21
1105.5120999999999
  0
LINE
  8
_0-0_LAYER001
  6
CONTINUOUS
 62
    2
 10
1182.3408999999999
 20
1082.5121999999999
 11
1182.3408999999999
 21
1117.2222999999999
  0
LINE
  8
_0-0_LAYER001
  6
CONTINUOUS
 62
    2
 10
1152.3408999999999
 20
1082.5121999999999
 11
1178.837
 21
1117.8402000000001
  0
LINE
  8
_0-0_LAYER001
  6
CONTINUOUS
 62
    2
 10
1272.4353000000001
 20
1118.5985000000001
 11
1153.6029000000001
 21
1139.5518
  0
LINE
  8
_0-0_LAYER001
  6
CONTINUOUS
 62
    2
 10
1173.1628000000001
 20
1134.0721000000001
 11
1164.3933999999999
 21
1135.6184000000001
  0
LINE
  8
_0-0_LAYER001
  6
CONTINUOUS
 62
    2
 10
1165.6370999999999
 20
1106.3601000000001
 11
1162.1954000000001
 21
1098.1212
  0
LINE
  8
_0-0_LAYER001
  6
CONTINUOUS
 62
    2
 10
1166.6768999999999
 20
1133.5958000000001
 11
1161.9870000000001
 21
1107.0038999999999
  0
LINE
  8
_0-0_LAYER001
  6
CONTINUOUS
 62
    2
 10
1162.1954000000001
 20
1098.1212
 11
1161.9870000000001
 21
1107.0038999999999
  0
LINE
  8
_0-0_LAYER001
  6
CONTINUOUS
 62
    2
 10
1170.3268
 20
1132.9535000000001
 11
1173.1628000000001
 21
1134.0721000000001
  0
LINE
  8
_0-0_LAYER001
  6
CONTINUOUS
 62
    2
 10
1166.6768999999999
 20
1133.5958000000001
 11
1164.3933999999999
 21
1135.6184000000001
  0
LINE
  8
_0-0_LAYER001
  6
CONTINUOUS
 62
    2
 10
1170.3268
 20
1132.9535000000001
 11
1165.6370999999999
 21
1106.3601000000001
  0
LINE
  8
_0-0_LAYER001
  6
CONTINUOUS
 62
    2
 10
1527.6716999999999
 20
950.47769999999991
 11
1577.6714999999999
 21
1000.4776999999999
  0
LINE
  8
_0-0_LAYER001
  6
CONTINUOUS
 62
    2
 10
1523.4290999999998
 20
950.47769999999991
 11
1573.4288999999999
 21
1000.4776999999999
  0
LINE
  8
_0-0_LAYER001
  6
CONTINUOUS
 62
    2
 10
1315.5396000000001
 20
950.47769999999991
 11
1365.5396000000001
 21
1000.4776999999999
  0
LINE
  8
_0-0_LAYER001
  6
CONTINUOUS
 62
    2
 10
1311.2969000000001
 20
950.47769999999991
 11
1361.297
 21
1000.4776999999999
  0
LINE
  8
_0-0_LAYER001
  6
CONTINUOUS
 62
    2
 10
1288.6030000000001
 20
1021.4776999999999
 11
1288.6030000000001
 21
1006.4776999999999
  0
LINE
  8
_0-0_LAYER001
  6
CONTINUOUS
 62
    2
 10
1286.6029000000001
 20
1004.4776999999999
 11
1170.6029000000001
 21
1004.4776999999999
  0
LINE
  8
_0-0_LAYER001
  6
DASHED3
 62
    2
 10
2100.5637999999999
 20
1002.4776999999999
 11
1152.3408999999999
 21
1002.4776999999999
  0
LINE
  8
_0-0_LAYER001
  6
CONTINUOUS
 62
    2
 10
1151.6029000000001
 20
950.47769999999991
 11
2100.5637999999999
 21
950.47769999999991
  0
LINE
  8
_0-0_LAYER001
  6
CONTINUOUS
 62
    2
 10
1150.0179000000001
 20
1000.4776999999999
 11
2100.5637999999999
 21
1000.4776999999999
  0
LINE
  8
_0-0_LAYER001
  6
CONTINUOUS
 62
    2
 10
1151.6029000000001
 20
1000.4776999999999
 11
1151.6029000000001
 21
950.47769999999991
  0
LINE
  8
_0-0_LAYER001
  6
CONTINUOUS
 62
    2
 10
1161.6029000000001
 20
850.47769999999991
 11
2100.5637999999999
 21
850.47769999999991
  0
LINE
  8
_0-0_LAYER001
  6
CONTINUOUS
 62
    2
 10
1161.6029000000001
 20
950.47769999999991
 11
1161.6029000000001
 21
850.47769999999991
  0
LINE
  8
_0-0_LAYER001
  6
DASHED1
 62
    1
 10
1161.6029000000001
 20
853.67769999999996
 11
2100.5637999999999
 21
853.67769999999996
  0
LINE
  8
_0-0_LAYER001
  6
DASHED1
 62
    1
 10
1161.6029000000001
 20
947.2777000000001
 11
2100.5637999999999
 21
947.2777000000001
  0
LINE
  8
_0-0_LAYER001
  6
DASHED1
 62
    1
 10
1161.6029000000001
 20
930.47769999999991
 11
2100.5637999999999
 21
930.47769999999991
  0
LINE
  8
_0-0_LAYER001
  6
DASHED1
 62
    1
 10
1161.6029000000001
 20
870.47769999999991
 11
2100.5637999999999
 21
870.47769999999991
  0
LINE
  8
_0-0_LAYER001
  6
CONTINUOUS
 62
    2
 10
1286.6029000000001
 20
1022.2206000000001
 11
1286.6029000000001
 21
1004.4776999999999
  0
LINE
  8
_0-0_LAYER001
  6
CONTINUOUS
 62
    2
 10
1286.6029000000001
 20
1022.2206000000001
 11
1301.6030000000001
 21
1022.2206000000001
  0
LINE
  8
_0-0_LAYER001
  6
CONTINUOUS
 62
    2
 10
1292.6025999999999
 20
1021.2204999999999
 11
1290.9728999999998
 21
1022.2204999999999
  0
LINE
  8
_0-0_LAYER001
  6
CONTINUOUS
 62
    2
 10
1297.2329
 20
1022.2206000000001
 11
1290.9728999999998
 21
1022.2204999999999
  0
LINE
  8
_0-0_LAYER001
  6
CONTINUOUS
 62
    2
 10
1295.6026999999999
 20
1021.2206000000001
 11
1297.2329
 21
1022.2206000000001
  0
LINE
  8
_0-0_LAYER001
  6
CONTINUOUS
 62
    2
 10
1295.6025999999999
 20
1008.8907999999999
 11
1294.1030000000001
 21
1002.2204999999999
  0
LINE
  8
_0-0_LAYER001
  6
CONTINUOUS
 62
    2
 10
1295.6026999999999
 20
1021.2206000000001
 11
1295.6025999999999
 21
1008.8907999999999
  0
LINE
  8
_0-0_LAYER001
  6
CONTINUOUS
 62
    2
 10
1294.1030000000001
 20
1002.2204999999999
 11
1292.6025
 21
1009.6995999999999
  0
LINE
  8
_0-0_LAYER001
  6
CONTINUOUS
 62
    2
 10
1292.6025999999999
 20
1021.2204999999999
 11
1292.6025
 21
1009.6995999999999
  0
LINE
  8
_0-0_LAYER001
  6
CONTINUOUS
 62
    2
 10
1170.6029000000001
 20
1082.2129
 11
1170.6029000000001
 21
1004.4776999999999
  0
LINE
  8
_0-0_LAYER001
  6
CONTINUOUS
 62
    2
 10
1168.3831
 20
1003.6079999999999
 11
1153.3831
 21
1003.6079999999999
  0
LINE
  8
_0-0_LAYER001
  6
CONTINUOUS
 62
    2
 10
1153.3831
 20
1003.6079999999999
 11
1153.3831
 21
1082.2129
  0
LINE
  8
_0-0_LAYER001
  6
CONTINUOUS
 62
    2
 10
1168.3831
 20
1082.2129
 11
1168.3831
 21
1003.6079999999999
  0
LINE
  8
_0-0_LAYER001
  6
CONTINUOUS
 62
    2
 10
1168.3831
 20
1082.2129
 11
1153.3831
 21
1003.6079999999999
  0
LINE
  8
_0-1_LAYER004
  6
DASHED3
 62
    2
 10
1152.3408999999999
 20
1002.4776999999999
 11
1152.3408999999999
 21
1300.4776999999999
  0
LINE
  8
_0-1_LAYER004
  6
CONTINUOUS
 62
    2
 10
1173.0179000000001
 20
1164.5868
 11
1173.0179000000001
 21
1204.5868
  0
LINE
  8
_0-1_LAYER004
  6
CONTINUOUS
 62
    2
 10
1173.0179000000001
 20
1204.5868
 11
1155.0179000000001
 21
1204.5868
  0
LINE
  8
_0-1_LAYER004
  6
CONTINUOUS
 62
    2
 10
1155.0179000000001
 20
1204.5868
 11
1155.0179000000001
 21
1164.5868
  0
LINE
  8
_0-1_LAYER004
  6
CONTINUOUS
 62
    2
 10
1155.0179000000001
 20
1164.5868
 11
1173.0179000000001
 21
1164.5868
  0
LINE
  8
_0-1_LAYER004
  6
CONTINUOUS
 62
    2
 10
1155.0179000000001
 20
1204.5868
 11
1173.0179000000001
 21
1164.5868
  0
LINE
  8
_0-1_LAYER004
  6
CONTINUOUS
 62
    2
 10
1173.0179000000001
 20
1144.0324000000001
 11
1173.0179000000001
 21
1444.7982
  0
LINE
  8
_0-1_LAYER004
  6
CONTINUOUS
 62
    2
 10
1185.0179000000001
 20
1144.0324000000001
 11
1185.0179000000001
 21
1444.7982
  0
LINE
  8
_0-1_LAYER004
  6
CONTINUOUS
 62
    2
 10
1153.6029000000001
 20
1139.5518
 11
1153.6029000000001
 21
1289.5517999999997
  0
LINE
  8
_0-1_LAYER004
  6
CONTINUOUS
 62
    2
 10
1185.0179000000001
 20
1144.0324000000001
 11
1173.0179000000001
 21
1144.0324000000001
  0
LINE
  8
_0-2_LAYER006
  6
CONTINUOUS
 62
    2
 10
1153.6029000000001
 20
1294.9191999999998
 11
1153.6029000000001
 21
1297.3872000000001
  0
LINE
  8
_0-1_LAYER004
  6
CONTINUOUS
 62
    2
 10
1145.2129
 20
1444.7982
 11
1145.2129
 21
774.9688000000001
  0
LINE
  8
_0-1_LAYER004
  6
CONTINUOUS
 62
    2
 10
1150.0179000000001
 20
1446.7873
 11
1150.0179000000001
 21
1000.4776999999999
  0
CIRCLE
  8
_0-0_LAYER001
  6
CONTINUOUS
 62
    2
 10
1006.4435000000001
 20
1139.5518
 40
1.6999999999999997
  0
LINE
  8
_0-0_LAYER001
  6
CONTINUOUS
 62
    2
 10
1006.4435000000001
 20
1139.5518
 11
1006.4435000000001
 21
1289.5517999999997
  0
CIRCLE
  8
_0-0_LAYER001
  6
CONTINUOUS
 62
    2
 10
1006.4435000000001
 20
1289.5517999999997
 40
1.6999999999999997
  0
LINE
  8
_0-0_LAYER001
  6
CONTINUOUS
 62
    2
 10
1003.9435000000001
 20
1289.5517999999997
 11
1056.4435000000001
 21
1289.5517999999997
  0
LINE
  8
_0-0_LAYER001
  6
CONTINUOUS
 62
    2
 10
1003.9435000000001
 20
1139.5518
 11
1056.4435000000001
 21
1139.5518
  0
CIRCLE
  8
_0-0_LAYER001
  6
CONTINUOUS
 62
    2
 10
1006.4435000000001
 20
1139.5518
 40
1.6999999999999997
  0
LINE
  8
_0-0_LAYER001
  6
CONTINUOUS
 62
    2
 10
1006.4435000000001
 20
1139.5518
 11
1006.4435000000001
 21
1082.5121999999999
  0
CIRCLE
  8
_0-0_LAYER001
  6
CONTINUOUS
 62
    2
 10
1006.4435000000001
 20
1082.5121999999999
 40
1.6999999999999997
  0
LINE
  8
_0-0_LAYER001
  6
CONTINUOUS
 62
    2
 10
1003.9435000000001
 20
1082.5121999999999
 11
1056.4435000000001
 21
1082.5121999999999
  0
CIRCLE
  8
_0-0_LAYER001
  6
CONTINUOUS
 62
    2
 10
1006.4435000000001
 20
1082.5121999999999
 40
1.6999999999999997
  0
LINE
  8
_0-0_LAYER001
  6
CONTINUOUS
 62
    2
 10
1006.4435000000001
 20
1082.5121999999999
 11
1006.4435000000001
 21
1000.4776999999999
  0
CIRCLE
  8
_0-0_LAYER001
  6
CONTINUOUS
 62
    2
 10
1006.4435000000001
 20
1000.4776999999999
 40
1.6999999999999997
  0
LINE
  8
_0-0_LAYER001
  6
CONTINUOUS
 62
    2
 10
1003.9435000000001
 20
1000.4776999999999
 11
1056.4435000000001
 21
1000.4776999999999
  0
LINE
  8
_0-0_LAYER001
  6
CONTINUOUS
 62
    2
 10
1184.8625999999999
 20
751.63480000000004
 11
1184.8625999999999
 21
804.13480000000004
  0
CIRCLE
  8
_0-0_LAYER001
  6
CONTINUOUS
 62
    2
 10
1184.8625999999999
 20
754.13480000000004
 40
1.6999999999999997
  0
LINE
  8
_0-0_LAYER001
  6
CONTINUOUS
 62
    2
 10
1184.8625999999999
 20
754.13480000000004
 11
1404.8625999999999
 21
754.13480000000004
  0
CIRCLE
  8
_0-0_LAYER001
  6
CONTINUOUS
 62
    2
 10
1404.8625999999999
 20
754.13480000000004
 40
1.6999999999999997
  0
LINE
  8
_0-0_LAYER001
  6
CONTINUOUS
 62
    2
 10
1404.8625999999999
 20
751.63480000000004
 11
1404.8625999999999
 21
804.13480000000004
  0
CIRCLE
  8
_0-0_LAYER001
  6
CONTINUOUS
 62
    2
 10
1404.8625999999999
 20
754.13480000000004
 40
1.6999999999999997
  0
LINE
  8
_0-0_LAYER001
  6
CONTINUOUS
 62
    2
 10
1404.8625999999999
 20
754.13480000000004
 11
1669.8625999999999
 21
754.13480000000004
  0
CIRCLE
  8
_0-0_LAYER001
  6
CONTINUOUS
 62
    2
 10
1669.8625999999999
 20
754.13480000000004
 40
1.6999999999999997
  0
LINE
  8
_0-0_LAYER001
  6
CONTINUOUS
 62
    2
 10
1669.8625999999999
 20
751.63480000000004
 11
1669.8625999999999
 21
804.13480000000004
  0
CIRCLE
  8
_0-0_LAYER001
  6
CONTINUOUS
 62
    2
 10
1669.8625999999999
 20
754.13480000000004
 40
1.6999999999999997
  0
LINE
  8
_0-0_LAYER001
  6
CONTINUOUS
 62
    2
 10
1669.8625999999999
 20
754.13480000000004
 11
1934.8625999999999
 21
754.13480000000004
  0
CIRCLE
  8
_0-0_LAYER001
  6
CONTINUOUS
 62
    2
 10
1934.8625999999999
 20
754.13480000000004
 40
1.6999999999999997
  0
LINE
  8
_0-0_LAYER001
  6
CONTINUOUS
 62
    2
 10
1934.8625999999999
 20
751.63480000000004
 11
1934.8625999999999
 21
804.13480000000004
  0
LINE
  8
_0-0_LAYER001
  6
CONTINUOUS
 62
    4
 10
2060.4203000000002
 20
1017.9656
 11
2051.8847999999998
 21
1032.499
  0
LINE
  8
_0-0_LAYER001
  6
CONTINUOUS
 62
    4
 10
2068.5882000000001
 20
1017.3153
 11
2076.8944000000001
 21
1027.3807999999999
  0
ARC
  8
_0-0_LAYER001
  6
CONTINUOUS
 62
    4
 10
2064.7316999999998
 20
1020.4976999999999
 40
5
 50
210.42578
 51
320.47001
  0
LINE
  8
_0-0_LAYER001
  6
CONTINUOUS
 62
    4
 10
2099.8398999999999
 20
1045.7761
 11
2100.5637999999999
 21
1045.7737999999999
  0
LINE
  8
_0-0_LAYER001
  6
CONTINUOUS
 62
    4
 10
2094.8688999999999
 20
1045.9339
 11
2099.8398999999999
 21
1045.7761
  0
LINE
  8
_0-0_LAYER001
  6
CONTINUOUS
 62
    4
 10
2089.9115000000002
 20
1046.2517
 11
2094.8688999999999
 21
1045.9339
  0
LINE
  8
_0-0_LAYER001
  6
CONTINUOUS
 62
    4
 10
2086.8598999999999
 20
1046.5331000000001
 11
2089.9115000000002
 21
1046.2517
  0
LINE
  8
_0-0_LAYER001
  6
CONTINUOUS
 62
    4
 10
2082.931
 20
1046.9953
 11
2086.8598999999999
 21
1046.5331000000001
  0
LINE
  8
_0-0_LAYER001
  6
CONTINUOUS
 62
    4
 10
2076.4171000000001
 20
1048.0179000000001
 11
2082.931
 21
1046.9953
  0
LINE
  8
_0-0_LAYER001
  6
CONTINUOUS
 62
    4
 10
2069.8703999999998
 20
1049.3699999999999
 11
2076.4171000000001
 21
1048.0179000000001
  0
LINE
  8
_0-0_LAYER001
  6
CONTINUOUS
 62
    4
 10
2063.4074999999998
 20
1051.0259000000001
 11
2069.8703999999998
 21
1049.3699999999999
  0
LINE
  8
_0-0_LAYER001
  6
CONTINUOUS
 62
    4
 10
2057.0414999999998
 20
1052.9766
 11
2063.4074999999998
 21
1051.0259000000001
  0
LINE
  8
_0-0_LAYER001
  6
CONTINUOUS
 62
    4
 10
2050.8768
 20
1055.1815999999999
 11
2057.0414999999998
 21
1052.9766
  0
LINE
  8
_0-0_LAYER001
  6
CONTINUOUS
 62
    4
 10
2047.1900999999998
 20
1056.6532999999999
 11
2050.8768
 21
1055.1815999999999
  0
LINE
  8
_0-0_LAYER001
  6
CONTINUOUS
 62
    4
 10
2042.8258999999998
 20
1058.5458000000001
 11
2047.1900999999998
 21
1056.6532999999999
  0
LINE
  8
_0-0_LAYER001
  6
CONTINUOUS
 62
    4
 10
2035.7568000000001
 20
1061.9608000000001
 11
2042.8258999999998
 21
1058.5458000000001
  0
LINE
  8
_0-0_LAYER001
  6
CONTINUOUS
 62
    4
 10
2028.8638999999998
 20
1065.6904
 11
2035.7568000000001
 21
1061.9608000000001
  0
LINE
  8
_0-0_LAYER001
  6
CONTINUOUS
 62
    4
 10
2022.2269000000001
 20
1069.6241
 11
2028.8638999999998
 21
1065.6904
  0
LINE
  8
_0-0_LAYER001
  6
CONTINUOUS
 62
    4
 10
2015.8175999999999
 20
1073.7066
 11
2022.2269000000001
 21
1069.6241
  0
LINE
  8
_0-0_LAYER001
  6
CONTINUOUS
 62
    4
 10
2009.6334000000002
 20
1077.8687
 11
2015.8175999999999
 21
1073.7066
  0
LINE
  8
_0-0_LAYER001
  6
CONTINUOUS
 62
    4
 10
2006.0909999999999
 20
1080.3324
 11
2009.6334000000002
 21
1077.8687
  0
LINE
  8
_0-0_LAYER001
  6
CONTINUOUS
 62
    4
 10
2003.8589999999999
 20
1081.9059
 11
2006.0909999999999
 21
1080.3324
  0
LINE
  8
_0-0_LAYER001
  6
CONTINUOUS
 62
    4
 10
2000.2354999999998
 20
1084.4450999999999
 11
2003.8589999999999
 21
1081.9059
  0
LINE
  8
_0-0_LAYER001
  6
CONTINUOUS
 62
    4
 10
1996.8658
 20
1086.7106000000001
 11
2000.2354999999998
 21
1084.4450999999999
  0
LINE
  8
_0-0_LAYER001
  6
CONTINUOUS
 62
    4
 10
1993.7507999999998
 20
1088.6376
 11
1996.8658
 21
1086.7106000000001
  0
LINE
  8
_0-0_LAYER001
  6
CONTINUOUS
 62
    4
 10
1990.8836000000001
 20
1090.1934000000001
 11
1993.7507999999998
 21
1088.6376
  0
LINE
  8
_0-0_LAYER001
  6
CONTINUOUS
 62
    4
 10
1988.0524999999998
 20
1091.4618
 11
1990.8836000000001
 21
1090.1934000000001
  0
LINE
  8
_0-0_LAYER001
  6
CONTINUOUS
 62
    4
 10
1986.5893000000001
 20
1091.9939999999999
 11
1988.0524999999998
 21
1091.4618
  0
LINE
  8
_0-0_LAYER001
  6
CONTINUOUS
 62
    4
 10
1986.4081999999999
 20
1092.0518999999999
 11
1986.5893000000001
 21
1091.9939999999999
  0
LINE
  8
_0-0_LAYER001
  6
CONTINUOUS
 62
    4
 10
1985.6199000000001
 20
1092.2799
 11
1986.4081999999999
 21
1092.0518999999999
  0
LINE
  8
_0-0_LAYER001
  6
CONTINUOUS
 62
    4
 10
1984.9627999999998
 20
1092.4426000000001
 11
1985.6199000000001
 21
1092.2799
  0
LINE
  8
_0-0_LAYER001
  6
CONTINUOUS
 62
    4
 10
1984.3809999999999
 20
1092.5606
 11
1984.9627999999998
 21
1092.4426000000001
  0
LINE
  8
_0-0_LAYER001
  6
CONTINUOUS
 62
    4
 10
1984.3409000000001
 20
1092.5667000000001
 11
1984.3809999999999
 21
1092.5606
  0
LINE
  8
_0-0_LAYER001
  6
CONTINUOUS
 62
    4
 10
2096.1922
 20
1026.6156000000001
 11
2100.5637999999999
 21
1026.6017999999999
  0
LINE
  8
_0-0_LAYER001
  6
CONTINUOUS
 62
    4
 10
2091.2820000000002
 20
1026.7715000000001
 11
2096.1922
 21
1026.6156000000001
  0
LINE
  8
_0-0_LAYER001
  6
CONTINUOUS
 62
    4
 10
2086.3847000000001
 20
1027.0853999999999
 11
2091.2820000000002
 21
1026.7715000000001
  0
LINE
  8
_0-0_LAYER001
  6
CONTINUOUS
 62
    4
 10
2083.386
 20
1027.3619000000001
 11
2086.3847000000001
 21
1027.0853999999999
  0
LINE
  8
_0-0_LAYER001
  6
CONTINUOUS
 62
    4
 10
2079.5203999999999
 20
1027.8167000000001
 11
2083.386
 21
1027.3619000000001
  0
LINE
  8
_0-0_LAYER001
  6
CONTINUOUS
 62
    4
 10
2073.0920000000001
 20
1028.8259
 11
2079.5203999999999
 21
1027.8167000000001
  0
LINE
  8
_0-0_LAYER001
  6
CONTINUOUS
 62
    4
 10
2066.6386000000002
 20
1030.1587999999999
 11
2073.0920000000001
 21
1028.8259
  0
LINE
  8
_0-0_LAYER001
  6
CONTINUOUS
 62
    4
 10
2060.2664
 20
1031.7914000000001
 11
2066.6386000000002
 21
1030.1587999999999
  0
LINE
  8
_0-0_LAYER001
  6
CONTINUOUS
 62
    4
 10
2053.9890999999998
 20
1033.7148999999999
 11
2060.2664
 21
1031.7914000000001
  0
LINE
  8
_0-0_LAYER001
  6
CONTINUOUS
 62
    4
 10
2047.902
 20
1035.8921
 11
2053.9890999999998
 21
1033.7148999999999
  0
LINE
  8
_0-0_LAYER001
  6
CONTINUOUS
 62
    4
 10
2044.2763
 20
1037.3395
 11
2047.902
 21
1035.8921
  0
LINE
  8
_0-0_LAYER001
  6
CONTINUOUS
 62
    4
 10
2039.9765000000002
 20
1039.2040999999999
 11
2044.2763
 21
1037.3395
  0
LINE
  8
_0-0_LAYER001
  6
CONTINUOUS
 62
    4
 10
2032.9856
 20
1042.5813000000001
 11
2039.9765000000002
 21
1039.2040999999999
  0
LINE
  8
_0-0_LAYER001
  6
CONTINUOUS
 62
    4
 10
2026.1675
 20
1046.2705000000001
 11
2032.9856
 21
1042.5813000000001
  0
LINE
  8
_0-0_LAYER001
  6
CONTINUOUS
 62
    4
 10
2019.5916999999999
 20
1050.1677999999999
 11
2026.1675
 21
1046.2705000000001
  0
LINE
  8
_0-0_LAYER001
  6
CONTINUOUS
 62
    4
 10
2013.2307999999998
 20
1054.2194999999999
 11
2019.5916999999999
 21
1050.1677999999999
  0
LINE
  8
_0-0_LAYER001
  6
CONTINUOUS
 62
    4
 10
2007.0801999999999
 20
1058.3589999999999
 11
2013.2307999999998
 21
1054.2194999999999
  0
LINE
  8
_0-0_LAYER001
  6
CONTINUOUS
 62
    4
 10
2003.5556000000001
 20
1060.8103000000001
 11
2007.0801999999999
 21
1058.3589999999999
  0
LINE
  8
_0-0_LAYER001
  6
CONTINUOUS
 62
    4
 10
2001.3265000000001
 20
1062.3818000000001
 11
2003.5556000000001
 21
1060.8103000000001
  0
LINE
  8
_0-0_LAYER001
  6
CONTINUOUS
 62
    4
 10
1997.6848
 20
1064.9336000000001
 11
2001.3265000000001
 21
1062.3818000000001
  0
LINE
  8
_0-0_LAYER001
  6
CONTINUOUS
 62
    4
 10
1994.2676999999999
 20
1067.2311
 11
1997.6848
 21
1064.9336000000001
  0
LINE
  8
_0-0_LAYER001
  6
CONTINUOUS
 62
    4
 10
1991.0720999999999
 20
1069.2080000000001
 11
1994.2676999999999
 21
1067.2311
  0
LINE
  8
_0-0_LAYER001
  6
CONTINUOUS
 62
    4
 10
1988.0880999999999
 20
1070.8271
 11
1991.0720999999999
 21
1069.2080000000001
  0
LINE
  8
_0-0_LAYER001
  6
CONTINUOUS
 62
    4
 10
1985.1215000000002
 20
1072.1561999999999
 11
1988.0880999999999
 21
1070.8271
  0
LINE
  8
_0-0_LAYER001
  6
CONTINUOUS
 62
    4
 10
1984.3715999999999
 20
1072.4290000000001
 11
1985.1215000000002
 21
1072.1561999999999
  0
LINE
  8
_0-0_LAYER001
  6
CONTINUOUS
 62
    4
 10
1984.7046999999998
 20
1092.4721
 11
1984.5286000000001
 21
1072.2987000000001
  0
LINE
  8
_0-0_LAYER001
  6
CONTINUOUS
 62
    4
 10
1937.6084999999998
 20
1101.8623
 11
1938.4223999999999
 21
1102.1688999999999
  0
LINE
  8
_0-0_LAYER001
  6
CONTINUOUS
 62
    4
 10
1938.4223999999999
 20
1102.1688999999999
 11
1941.9717000000001
 21
1103.5084999999999
  0
LINE
  8
_0-0_LAYER001
  6
CONTINUOUS
 62
    4
 10
1941.9717000000001
 20
1103.5084999999999
 11
1945.5282999999999
 21
1104.8574000000001
  0
LINE
  8
_0-0_LAYER001
  6
CONTINUOUS
 62
    4
 10
1945.5282999999999
 20
1104.8574000000001
 11
1949.0969
 21
1106.2213999999999
  0
LINE
  8
_0-0_LAYER001
  6
CONTINUOUS
 62
    4
 10
1949.0969
 20
1106.2213999999999
 11
1952.6822999999999
 21
1107.6065000000001
  0
LINE
  8
_0-0_LAYER001
  6
CONTINUOUS
 62
    4
 10
1952.6822999999999
 20
1107.6065000000001
 11
1956.2890000000002
 21
1109.0184999999999
  0
LINE
  8
_0-0_LAYER001
  6
CONTINUOUS
 62
    4
 10
1956.2890000000002
 20
1109.0184999999999
 11
1958.3924999999999
 21
1109.8521000000001
  0
LINE
  8
_0-0_LAYER001
  6
CONTINUOUS
 62
    4
 10
1958.3924999999999
 20
1109.8521000000001
 11
1960.4719
 21
1110.681
  0
LINE
  8
_0-0_LAYER001
  6
CONTINUOUS
 62
    4
 10
1960.4719
 20
1110.681
 11
1964.0783999999999
 21
1112.0824
  0
LINE
  8
_0-0_LAYER001
  6
CONTINUOUS
 62
    4
 10
1964.0783999999999
 20
1112.0824
 11
1967.7111
 21
1113.3651
  0
LINE
  8
_0-0_LAYER001
  6
CONTINUOUS
 62
    4
 10
1967.7111
 20
1113.3651
 11
1971.3690999999999
 21
1114.4318000000001
  0
LINE
  8
_0-0_LAYER001
  6
CONTINUOUS
 62
    4
 10
1971.3690999999999
 20
1114.4318000000001
 11
1975.0511999999999
 21
1115.1849999999999
  0
LINE
  8
_0-0_LAYER001
  6
CONTINUOUS
 62
    4
 10
1975.0511999999999
 20
1115.1849999999999
 11
1978.7565
 21
1115.5274999999999
  0
LINE
  8
_0-0_LAYER001
  6
CONTINUOUS
 62
    4
 10
1978.7565
 20
1115.5274999999999
 11
1980.9158000000002
 21
1115.4996000000001
  0
LINE
  8
_0-0_LAYER001
  6
CONTINUOUS
 62
    4
 10
1980.9158000000002
 20
1115.4996000000001
 11
1981.7649000000001
 21
1115.4382000000001
  0
LINE
  8
_0-0_LAYER001
  6
CONTINUOUS
 62
    4
 10
1981.7649000000001
 20
1115.4382000000001
 11
1983.2293
 21
1115.2677000000001
  0
LINE
  8
_0-0_LAYER001
  6
CONTINUOUS
 62
    4
 10
1983.2293
 20
1115.2677000000001
 11
1984.6904
 21
1115.0209
  0
LINE
  8
_0-0_LAYER001
  6
CONTINUOUS
 62
    4
 10
1984.6904
 20
1115.0209
 11
1986.1441
 21
1114.7049
  0
LINE
  8
_0-0_LAYER001
  6
CONTINUOUS
 62
    4
 10
1986.1441
 20
1114.7049
 11
1987.5862000000002
 21
1114.3263999999999
  0
LINE
  8
_0-0_LAYER001
  6
CONTINUOUS
 62
    4
 10
1987.5862000000002
 20
1114.3263999999999
 11
1989.0126
 21
1113.8923
  0
LINE
  8
_0-0_LAYER001
  6
CONTINUOUS
 62
    4
 10
1989.0126
 20
1113.8923
 11
1989.8310999999999
 21
1113.6177
  0
LINE
  8
_0-0_LAYER001
  6
CONTINUOUS
 62
    4
 10
1989.8310999999999
 20
1113.6177
 11
1992.3292999999999
 21
1112.6694
  0
LINE
  8
_0-0_LAYER001
  6
CONTINUOUS
 62
    4
 10
1992.3292999999999
 20
1112.6694
 11
1996.4881999999998
 21
1110.7358999999999
  0
LINE
  8
_0-0_LAYER001
  6
CONTINUOUS
 62
    4
 10
1996.4881999999998
 20
1110.7358999999999
 11
2000.4920999999999
 21
1108.4905000000001
  0
LINE
  8
_0-0_LAYER001
  6
CONTINUOUS
 62
    4
 10
2000.4920999999999
 20
1108.4905000000001
 11
2004.3789000000002
 21
1106.0101999999999
  0
LINE
  8
_0-0_LAYER001
  6
CONTINUOUS
 62
    4
 10
2004.3789000000002
 20
1106.0101999999999
 11
2008.1869000000002
 21
1103.3721
  0
LINE
  8
_0-0_LAYER001
  6
CONTINUOUS
 62
    4
 10
2008.1869000000002
 20
1103.3721
 11
2011.9542000000001
 21
1100.653
  0
LINE
  8
_0-0_LAYER001
  6
CONTINUOUS
 62
    4
 10
2011.9542000000001
 20
1100.653
 11
2014.1354999999999
 21
1099.0691999999999
  0
LINE
  8
_0-0_LAYER001
  6
CONTINUOUS
 62
    4
 10
2014.1354999999999
 20
1099.0691999999999
 11
2017.4670999999998
 21
1096.6823999999999
  0
LINE
  8
_0-0_LAYER001
  6
CONTINUOUS
 62
    4
 10
2017.4670999999998
 20
1096.6823999999999
 11
2023.2593000000002
 21
1092.6654000000001
  0
LINE
  8
_0-0_LAYER001
  6
CONTINUOUS
 62
    4
 10
2023.2593000000002
 20
1092.6654000000001
 11
2029.1315
 21
1088.8088
  0
LINE
  8
_0-0_LAYER001
  6
CONTINUOUS
 62
    4
 10
2029.1315
 20
1088.8088
 11
2035.1055999999999
 21
1085.1542999999999
  0
LINE
  8
_0-0_LAYER001
  6
CONTINUOUS
 62
    4
 10
2035.1055999999999
 20
1085.1542999999999
 11
2041.2037999999998
 21
1081.7438
  0
LINE
  8
_0-0_LAYER001
  6
CONTINUOUS
 62
    4
 10
2041.2037999999998
 20
1081.7438
 11
2047.4481000000001
 21
1078.6189999999999
  0
LINE
  8
_0-0_LAYER001
  6
CONTINUOUS
 62
    4
 10
2047.4481000000001
 20
1078.6189999999999
 11
2051.1453999999999
 21
1076.954
  0
LINE
  8
_0-0_LAYER001
  6
CONTINUOUS
 62
    4
 10
2051.1453999999999
 20
1076.954
 11
2054.2046
 21
1075.6829
  0
LINE
  8
_0-0_LAYER001
  6
CONTINUOUS
 62
    4
 10
2054.2046
 20
1075.6829
 11
2059.5652
 21
1073.6806999999999
  0
LINE
  8
_0-0_LAYER001
  6
CONTINUOUS
 62
    4
 10
2059.5652
 20
1073.6806999999999
 11
2065.0209
 21
1071.9253000000001
  0
LINE
  8
_0-0_LAYER001
  6
CONTINUOUS
 62
    4
 10
2065.0209
 20
1071.9253000000001
 11
2070.5558000000001
 21
1070.4245000000001
  0
LINE
  8
_0-0_LAYER001
  6
CONTINUOUS
 62
    4
 10
2070.5558000000001
 20
1070.4245000000001
 11
2076.1541999999999
 21
1069.1865
  0
LINE
  8
_0-0_LAYER001
  6
CONTINUOUS
 62
    4
 10
2076.1541999999999
 20
1069.1865
 11
2081.7999
 21
1068.2193
  0
LINE
  8
_0-0_LAYER001
  6
CONTINUOUS
 62
    4
 10
2081.7999
 20
1068.2193
 11
2085.0898000000002
 21
1067.7855
  0
LINE
  8
_0-0_LAYER001
  6
CONTINUOUS
 62
    4
 10
2085.0898000000002
 20
1067.7855
 11
2087.6091000000001
 21
1067.5177000000001
  0
LINE
  8
_0-0_LAYER001
  6
CONTINUOUS
 62
    4
 10
2087.6091000000001
 20
1067.5177000000001
 11
2091.9612000000002
 21
1067.1777
  0
LINE
  8
_0-0_LAYER001
  6
CONTINUOUS
 62
    4
 10
2091.9612000000002
 20
1067.1777
 11
2096.3213999999998
 21
1066.9782
  0
LINE
  8
_0-0_LAYER001
  6
CONTINUOUS
 62
    4
 10
2096.3213999999998
 20
1066.9782
 11
2100.5637999999999
 21
1066.9057
  0
LINE
  8
_0-0_LAYER001
  6
CONTINUOUS
 62
    4
 10
1942.7116999999998
 20
1084.5498
 11
1944.7736
 21
1085.3267000000001
  0
LINE
  8
_0-0_LAYER001
  6
CONTINUOUS
 62
    4
 10
1944.7736
 20
1085.3267000000001
 11
1948.3411999999998
 21
1086.6732
  0
LINE
  8
_0-0_LAYER001
  6
CONTINUOUS
 62
    4
 10
1948.3411999999998
 20
1086.6732
 11
1951.9331000000002
 21
1088.0354
  0
LINE
  8
_0-0_LAYER001
  6
CONTINUOUS
 62
    4
 10
1951.9331000000002
 20
1088.0354
 11
1955.5535
 21
1089.4192
  0
LINE
  8
_0-0_LAYER001
  6
CONTINUOUS
 62
    4
 10
1955.5535
 20
1089.4192
 11
1959.2064999999998
 21
1090.8304000000001
  0
LINE
  8
_0-0_LAYER001
  6
CONTINUOUS
 62
    4
 10
1959.2064999999998
 20
1090.8304000000001
 11
1962.8856000000001
 21
1092.2708
  0
LINE
  8
_0-0_LAYER001
  6
CONTINUOUS
 62
    4
 10
1962.8856000000001
 20
1092.2708
 11
1965.0408000000002
 21
1093.1249
  0
LINE
  8
_0-0_LAYER001
  6
CONTINUOUS
 62
    4
 10
1965.0408000000002
 20
1093.1249
 11
1967.0644000000002
 21
1093.9314999999999
  0
LINE
  8
_0-0_LAYER001
  6
CONTINUOUS
 62
    4
 10
1967.0644000000002
 20
1093.9314999999999
 11
1970.3362999999999
 21
1095.2029
  0
LINE
  8
_0-0_LAYER001
  6
CONTINUOUS
 62
    4
 10
1970.3362999999999
 20
1095.2029
 11
1973.2314000000001
 21
1096.2252000000001
  0
LINE
  8
_0-0_LAYER001
  6
CONTINUOUS
 62
    4
 10
1973.2314000000001
 20
1096.2252000000001
 11
1975.6995000000002
 21
1096.9449
  0
LINE
  8
_0-0_LAYER001
  6
CONTINUOUS
 62
    4
 10
1975.6995000000002
 20
1096.9449
 11
1977.6913
 21
1097.3523
  0
LINE
  8
_0-0_LAYER001
  6
CONTINUOUS
 62
    4
 10
1977.6913
 20
1097.3523
 11
1979.4706000000001
 21
1097.5168000000001
  0
LINE
  8
_0-0_LAYER001
  6
CONTINUOUS
 62
    4
 10
1979.4706000000001
 20
1097.5168000000001
 11
1980.1500999999998
 21
1097.508
  0
LINE
  8
_0-0_LAYER001
  6
CONTINUOUS
 62
    4
 10
1980.1500999999998
 20
1097.508
 11
1980.0740000000001
 21
1097.5135
  0
LINE
  8
_0-0_LAYER001
  6
CONTINUOUS
 62
    4
 10
1980.0740000000001
 20
1097.5135
 11
1980.6876999999999
 21
1097.442
  0
LINE
  8
_0-0_LAYER001
  6
CONTINUOUS
 62
    4
 10
1980.6876999999999
 20
1097.442
 11
1981.2781
 21
1097.3423
  0
LINE
  8
_0-0_LAYER001
  6
CONTINUOUS
 62
    4
 10
1981.2781
 20
1097.3423
 11
1981.9454999999998
 21
1097.1972000000001
  0
LINE
  8
_0-0_LAYER001
  6
CONTINUOUS
 62
    4
 10
1981.9454999999998
 20
1097.1972000000001
 11
1982.6790999999998
 21
1097.0047
  0
LINE
  8
_0-0_LAYER001
  6
CONTINUOUS
 62
    4
 10
1982.6790999999998
 20
1097.0047
 11
1983.5282000000002
 21
1096.7462
  0
LINE
  8
_0-0_LAYER001
  6
CONTINUOUS
 62
    4
 10
1983.5282000000002
 20
1096.7462
 11
1983.7723000000001
 21
1096.6642999999999
  0
LINE
  8
_0-0_LAYER001
  6
CONTINUOUS
 62
    4
 10
1983.7723000000001
 20
1096.6642999999999
 11
1985.3321999999998
 21
1096.0723
  0
LINE
  8
_0-0_LAYER001
  6
CONTINUOUS
 62
    4
 10
1985.3321999999998
 20
1096.0723
 11
1988.2799
 21
1094.7018
  0
LINE
  8
_0-0_LAYER001
  6
CONTINUOUS
 62
    4
 10
1988.2799
 20
1094.7018
 11
1991.241
 21
1093.0411999999999
  0
LINE
  8
_0-0_LAYER001
  6
CONTINUOUS
 62
    4
 10
1991.241
 20
1093.0411999999999
 11
1994.4087
 21
1091.0199
  0
LINE
  8
_0-0_LAYER001
  6
CONTINUOUS
 62
    4
 10
1994.4087
 20
1091.0199
 11
1997.7934
 21
1088.675
  0
LINE
  8
_0-0_LAYER001
  6
CONTINUOUS
 62
    4
 10
1997.7934
 20
1088.675
 11
2001.3991000000001
 21
1086.0725
  0
LINE
  8
_0-0_LAYER001
  6
CONTINUOUS
 62
    4
 10
2001.3991000000001
 20
1086.0725
 11
2003.6061
 21
1084.4701
  0
LINE
  8
_0-0_LAYER001
  6
CONTINUOUS
 62
    4
 10
2003.6061
 20
1084.4701
 11
2007.0961000000002
 21
1081.9698000000001
  0
LINE
  8
_0-0_LAYER001
  6
CONTINUOUS
 62
    4
 10
2007.0961000000002
 20
1081.9698000000001
 11
2013.1882000000001
 21
1077.7447999999999
  0
LINE
  8
_0-0_LAYER001
  6
CONTINUOUS
 62
    4
 10
2013.1882000000001
 20
1077.7447999999999
 11
2019.4920000000002
 21
1073.6047000000001
  0
LINE
  8
_0-0_LAYER001
  6
CONTINUOUS
 62
    4
 10
2019.4920000000002
 20
1073.6047000000001
 11
2026.0127000000002
 21
1069.6159
  0
LINE
  8
_0-0_LAYER001
  6
CONTINUOUS
 62
    4
 10
2026.0127000000002
 20
1069.6159
 11
2032.7786000000001
 21
1065.8318999999999
  0
LINE
  8
_0-0_LAYER001
  6
CONTINUOUS
 62
    4
 10
2032.7786000000001
 20
1065.8318999999999
 11
2039.7217000000001
 21
1062.3575000000001
  0
LINE
  8
_0-0_LAYER001
  6
CONTINUOUS
 62
    4
 10
2039.7217000000001
 20
1062.3575000000001
 11
2043.9951000000001
 21
1060.433
  0
LINE
  8
_0-0_LAYER001
  6
CONTINUOUS
 62
    4
 10
2043.9951000000001
 20
1060.433
 11
2047.6001999999999
 21
1058.9350999999999
  0
LINE
  8
_0-0_LAYER001
  6
CONTINUOUS
 62
    4
 10
2047.6001999999999
 20
1058.9350999999999
 11
2053.6563000000001
 21
1056.6732
  0
LINE
  8
_0-0_LAYER001
  6
CONTINUOUS
 62
    4
 10
2053.6563000000001
 20
1056.6732
 11
2059.9061000000002
 21
1054.6622
  0
LINE
  8
_0-0_LAYER001
  6
CONTINUOUS
 62
    4
 10
2059.9061000000002
 20
1054.6622
 11
2066.2548999999999
 21
1052.9407000000001
  0
LINE
  8
_0-0_LAYER001
  6
CONTINUOUS
 62
    4
 10
2066.2548999999999
 20
1052.9407000000001
 11
2072.6891000000001
 21
1051.5179000000001
  0
LINE
  8
_0-0_LAYER001
  6
CONTINUOUS
 62
    4
 10
2072.6891000000001
 20
1051.5179000000001
 11
2079.1028000000001
 21
1050.4191000000001
  0
LINE
  8
_0-0_LAYER001
  6
CONTINUOUS
 62
    4
 10
2079.1028000000001
 20
1050.4191000000001
 11
2082.9616000000001
 21
1049.9104
  0
LINE
  8
_0-0_LAYER001
  6
CONTINUOUS
 62
    4
 10
2082.9616000000001
 20
1049.9104
 11
2085.9562000000001
 21
1049.5920000000001
  0
LINE
  8
_0-0_LAYER001
  6
CONTINUOUS
 62
    4
 10
2085.9562000000001
 20
1049.5920000000001
 11
2090.8487
 21
1049.2097000000001
  0
LINE
  8
_0-0_LAYER001
  6
CONTINUOUS
 62
    4
 10
2090.8487
 20
1049.2097000000001
 11
2095.7561999999998
 21
1048.9852000000001
  0
LINE
  8
_0-0_LAYER001
  6
CONTINUOUS
 62
    4
 10
2095.7561999999998
 20
1048.9852000000001
 11
2100.5637999999999
 21
1048.903
  0
LINE
  8
_0-0_LAYER001
  6
CONTINUOUS
 62
    4
 10
1937.1828999999998
 20
1101.6999000000001
 11
1937.6089000000002
 21
1101.8630000000001
  0
ARC
  8
_0-0_LAYER001
  6
CONTINUOUS
 62
    4
 10
1938.2555000000002
 20
1098.8982000000001
 40
3
 50
110.94902000000002
 51
178.70000000000002
  0
LINE
  8
_0-0_LAYER001
  6
CONTINUOUS
 62
    4
 10
1935.1469000000002
 20
1083.1271999999999
 11
1935.1469000000002
 21
1098.8497
  0
LINE
  8
_0-0_LAYER001
  6
CONTINUOUS
 62
    4
 10
1936.5009
 20
1082.192
 11
1942.6758
 21
1084.5291
  0
ARC
  8
_0-0_LAYER001
  6
CONTINUOUS
 62
    4
 10
1936.1469000000002
 20
1083.1271999999999
 40
1
 50
180
 51
290.73165999999998
  0
LINE
  8
_0-0_LAYER001
  6
CONTINUOUS
 62
    4
 10
1795.5972000000002
 20
1018.1500000000001
 11
1787.0617000000002
 21
1032.6832999999999
  0
LINE
  8
_0-0_LAYER001
  6
CONTINUOUS
 62
    4
 10
1803.7651000000001
 20
1017.4997000000001
 11
1812.0713000000001
 21
1027.5652
  0
ARC
  8
_0-0_LAYER001
  6
CONTINUOUS
 62
    4
 10
1799.9086000000002
 20
1020.6821
 40
5
 50
210.42578
 51
320.47001
  0
LINE
  8
_0-0_LAYER001
  6
CONTINUOUS
 62
    4
 10
1879.7107000000001
 20
1017.0298
 11
1872.3852999999999
 21
1028.3359
  0
LINE
  8
_0-0_LAYER001
  6
CONTINUOUS
 62
    4
 10
1888.2202000000002
 20
1017.2197000000001
 11
1897.1586000000002
 21
1032.4654
  0
ARC
  8
_0-0_LAYER001
  6
CONTINUOUS
 62
    4
 10
1883.9069
 20
1019.7485999999999
 40
5
 50
212.93986000000001
 51
329.61716000000001
  0
LINE
  8
_0-0_LAYER001
  6
CONTINUOUS
 62
    4
 10
1927.5021999999999
 20
1056.7773999999999
 11
1929.9304000000002
 21
1057.1813
  0
LINE
  8
_0-0_LAYER001
  6
CONTINUOUS
 62
    4
 10
1923.3132000000001
 20
1056.0811000000001
 11
1927.5021999999999
 21
1056.7773999999999
  0
LINE
  8
_0-0_LAYER001
  6
CONTINUOUS
 62
    4
 10
1919.1194
 20
1055.3856000000001
 11
1923.3132000000001
 21
1056.0811000000001
  0
LINE
  8
_0-0_LAYER001
  6
CONTINUOUS
 62
    4
 10
1914.9205999999999
 20
1054.6916000000001
 11
1919.1194
 21
1055.3856000000001
  0
LINE
  8
_0-0_LAYER001
  6
CONTINUOUS
 62
    4
 10
1910.7166000000002
 20
1054.0001
 11
1914.9205999999999
 21
1054.6916000000001
  0
LINE
  8
_0-0_LAYER001
  6
CONTINUOUS
 62
    4
 10
1906.5097000000001
 20
1053.3125
 11
1910.7166000000002
 21
1054.0001
  0
LINE
  8
_0-0_LAYER001
  6
CONTINUOUS
 62
    4
 10
1904.0574000000001
 20
1052.914
 11
1906.5097000000001
 21
1053.3125
  0
LINE
  8
_0-0_LAYER001
  6
CONTINUOUS
 62
    4
 10
1899.3247000000001
 20
1052.1514999999999
 11
1904.0574000000001
 21
1052.914
  0
LINE
  8
_0-0_LAYER001
  6
CONTINUOUS
 62
    4
 10
1891.1203
 20
1050.8676
 11
1899.3247000000001
 21
1052.1514999999999
  0
LINE
  8
_0-0_LAYER001
  6
CONTINUOUS
 62
    4
 10
1882.8128000000002
 20
1049.6478
 11
1891.1203
 21
1050.8676
  0
LINE
  8
_0-0_LAYER001
  6
CONTINUOUS
 62
    4
 10
1874.4045000000001
 20
1048.5314000000001
 11
1882.8128000000002
 21
1049.6478
  0
LINE
  8
_0-0_LAYER001
  6
CONTINUOUS
 62
    4
 10
1865.8919000000001
 20
1047.558
 11
1874.4045000000001
 21
1048.5314000000001
  0
LINE
  8
_0-0_LAYER001
  6
CONTINUOUS
 62
    4
 10
1857.3328000000001
 20
1046.7739999999999
 11
1865.8919000000001
 21
1047.558
  0
LINE
  8
_0-0_LAYER001
  6
CONTINUOUS
 62
    4
 10
1852.2712000000001
 20
1046.4159999999999
 11
1857.3328000000001
 21
1046.7739999999999
  0
LINE
  8
_0-0_LAYER001
  6
CONTINUOUS
 62
    4
 10
1849.4686999999999
 20
1046.2544
 11
1852.2712000000001
 21
1046.4159999999999
  0
LINE
  8
_0-0_LAYER001
  6
CONTINUOUS
 62
    4
 10
1844.7476000000001
 20
1046.0505000000001
 11
1849.4686999999999
 21
1046.2544
  0
LINE
  8
_0-0_LAYER001
  6
CONTINUOUS
 62
    4
 10
1839.9184
 20
1045.9449999999999
 11
1844.7476000000001
 21
1046.0505000000001
  0
LINE
  8
_0-0_LAYER001
  6
CONTINUOUS
 62
    4
 10
1835.0167999999999
 20
1045.9603999999999
 11
1839.9184
 21
1045.9449999999999
  0
LINE
  8
_0-0_LAYER001
  6
CONTINUOUS
 62
    4
 10
1830.0457000000001
 20
1046.1183000000001
 11
1835.0167999999999
 21
1045.9603999999999
  0
LINE
  8
_0-0_LAYER001
  6
CONTINUOUS
 62
    4
 10
1825.0884000000001
 20
1046.4359999999999
 11
1830.0457000000001
 21
1046.1183000000001
  0
LINE
  8
_0-0_LAYER001
  6
CONTINUOUS
 62
    4
 10
1822.0367000000001
 20
1046.7174
 11
1825.0884000000001
 21
1046.4359999999999
  0
LINE
  8
_0-0_LAYER001
  6
CONTINUOUS
 62
    4
 10
1818.1079
 20
1047.1796999999999
 11
1822.0367000000001
 21
1046.7174
  0
LINE
  8
_0-0_LAYER001
  6
CONTINUOUS
 62
    4
 10
1811.5938999999998
 20
1048.2021999999999
 11
1818.1079
 21
1047.1796999999999
  0
LINE
  8
_0-0_LAYER001
  6
CONTINUOUS
 62
    4
 10
1805.0473000000002
 20
1049.5544
 11
1811.5938999999998
 21
1048.2021999999999
  0
LINE
  8
_0-0_LAYER001
  6
CONTINUOUS
 62
    4
 10
1798.5844000000002
 20
1051.2102
 11
1805.0473000000002
 21
1049.5544
  0
LINE
  8
_0-0_LAYER001
  6
CONTINUOUS
 62
    4
 10
1792.2184000000002
 20
1053.1610000000001
 11
1798.5844000000002
 21
1051.2102
  0
LINE
  8
_0-0_LAYER001
  6
CONTINUOUS
 62
    4
 10
1786.0536000000002
 20
1055.3659
 11
1792.2184000000002
 21
1053.1610000000001
  0
LINE
  8
_0-0_LAYER001
  6
CONTINUOUS
 62
    4
 10
1782.3670000000002
 20
1056.8377
 11
1786.0536000000002
 21
1055.3659
  0
LINE
  8
_0-0_LAYER001
  6
CONTINUOUS
 62
    4
 10
1778.0027
 20
1058.7302
 11
1782.3670000000002
 21
1056.8377
  0
LINE
  8
_0-0_LAYER001
  6
CONTINUOUS
 62
    4
 10
1770.9337
 20
1062.1451999999999
 11
1778.0027
 21
1058.7302
  0
LINE
  8
_0-0_LAYER001
  6
CONTINUOUS
 62
    4
 10
1764.0408000000002
 20
1065.8748000000001
 11
1770.9337
 21
1062.1451999999999
  0
LINE
  8
_0-0_LAYER001
  6
CONTINUOUS
 62
    4
 10
1757.4038
 20
1069.8085000000001
 11
1764.0408000000002
 21
1065.8748000000001
  0
LINE
  8
_0-0_LAYER001
  6
CONTINUOUS
 62
    4
 10
1750.9944
 20
1073.8909000000001
 11
1757.4038
 21
1069.8085000000001
  0
LINE
  8
_0-0_LAYER001
  6
CONTINUOUS
 62
    4
 10
1744.8101999999999
 20
1078.0530000000001
 11
1750.9944
 21
1073.8909000000001
  0
LINE
  8
_0-0_LAYER001
  6
CONTINUOUS
 62
    4
 10
1741.2678999999998
 20
1080.5168000000001
 11
1744.8101999999999
 21
1078.0530000000001
  0
LINE
  8
_0-0_LAYER001
  6
CONTINUOUS
 62
    4
 10
1739.0358999999999
 20
1082.0902000000001
 11
1741.2678999999998
 21
1080.5168000000001
  0
LINE
  8
_0-0_LAYER001
  6
CONTINUOUS
 62
    4
 10
1735.4123
 20
1084.6294
 11
1739.0358999999999
 21
1082.0902000000001
  0
LINE
  8
_0-0_LAYER001
  6
CONTINUOUS
 62
    4
 10
1732.0427
 20
1086.8949
 11
1735.4123
 21
1084.6294
  0
LINE
  8
_0-0_LAYER001
  6
CONTINUOUS
 62
    4
 10
1728.9277000000002
 20
1088.8219999999999
 11
1732.0427
 21
1086.8949
  0
LINE
  8
_0-0_LAYER001
  6
CONTINUOUS
 62
    4
 10
1726.0605
 20
1090.3777
 11
1728.9277000000002
 21
1088.8219999999999
  0
LINE
  8
_0-0_LAYER001
  6
CONTINUOUS
 62
    4
 10
1723.2294000000002
 20
1091.6461999999999
 11
1726.0605
 21
1090.3777
  0
LINE
  8
_0-0_LAYER001
  6
CONTINUOUS
 62
    4
 10
1721.7662
 20
1092.1783
 11
1723.2294000000002
 21
1091.6461999999999
  0
LINE
  8
_0-0_LAYER001
  6
CONTINUOUS
 62
    4
 10
1721.5850999999998
 20
1092.2363
 11
1721.7662
 21
1092.1783
  0
LINE
  8
_0-0_LAYER001
  6
CONTINUOUS
 62
    4
 10
1720.7968000000001
 20
1092.4641999999999
 11
1721.5850999999998
 21
1092.2363
  0
LINE
  8
_0-0_LAYER001
  6
CONTINUOUS
 62
    4
 10
1720.1396
 20
1092.6269
 11
1720.7968000000001
 21
1092.4641999999999
  0
LINE
  8
_0-0_LAYER001
  6
CONTINUOUS
 62
    4
 10
1719.5578
 20
1092.7448999999999
 11
1720.1396
 21
1092.6269
  0
LINE
  8
_0-0_LAYER001
  6
CONTINUOUS
 62
    4
 10
1719.5178000000001
 20
1092.7511
 11
1719.5578
 21
1092.7448999999999
  0
LINE
  8
_0-0_LAYER001
  6
CONTINUOUS
 62
    4
 10
1923.4915999999998
 20
1037.5898999999999
 11
1925.1057000000001
 21
1037.8584000000001
  0
LINE
  8
_0-0_LAYER001
  6
CONTINUOUS
 62
    4
 10
1919.3029999999999
 20
1036.8937000000001
 11
1923.4915999999998
 21
1037.5898999999999
  0
LINE
  8
_0-0_LAYER001
  6
CONTINUOUS
 62
    4
 10
1915.1100999999999
 20
1036.1983
 11
1919.3029999999999
 21
1036.8937000000001
  0
LINE
  8
_0-0_LAYER001
  6
CONTINUOUS
 62
    4
 10
1910.9126999999999
 20
1035.5045
 11
1915.1100999999999
 21
1036.1983
  0
LINE
  8
_0-0_LAYER001
  6
CONTINUOUS
 62
    4
 10
1906.7103999999999
 20
1034.8134
 11
1910.9126999999999
 21
1035.5045
  0
LINE
  8
_0-0_LAYER001
  6
CONTINUOUS
 62
    4
 10
1902.5054
 20
1034.126
 11
1906.7103999999999
 21
1034.8134
  0
LINE
  8
_0-0_LAYER001
  6
CONTINUOUS
 62
    4
 10
1900.0554000000002
 20
1033.7279000000001
 11
1902.5054
 21
1034.126
  0
LINE
  8
_0-0_LAYER001
  6
CONTINUOUS
 62
    4
 10
1895.3283999999999
 20
1032.9664
 11
1900.0554000000002
 21
1033.7279000000001
  0
LINE
  8
_0-0_LAYER001
  6
CONTINUOUS
 62
    4
 10
1887.1378
 20
1031.6846
 11
1895.3283999999999
 21
1032.9664
  0
LINE
  8
_0-0_LAYER001
  6
CONTINUOUS
 62
    4
 10
1878.8533000000002
 20
1030.4682
 11
1887.1378
 21
1031.6846
  0
LINE
  8
_0-0_LAYER001
  6
CONTINUOUS
 62
    4
 10
1870.4767000000002
 20
1029.356
 11
1878.8533000000002
 21
1030.4682
  0
LINE
  8
_0-0_LAYER001
  6
CONTINUOUS
 62
    4
 10
1862.0045
 20
1028.3871999999999
 11
1870.4767000000002
 21
1029.356
  0
LINE
  8
_0-0_LAYER001
  6
CONTINUOUS
 62
    4
 10
1853.4884000000002
 20
1027.6071999999999
 11
1862.0045
 21
1028.3871999999999
  0
LINE
  8
_0-0_LAYER001
  6
CONTINUOUS
 62
    4
 10
1848.4605000000001
 20
1027.2516000000001
 11
1853.4884000000002
 21
1027.6071999999999
  0
LINE
  8
_0-0_LAYER001
  6
CONTINUOUS
 62
    4
 10
1845.6853000000001
 20
1027.0915
 11
1848.4605000000001
 21
1027.2516000000001
  0
LINE
  8
_0-0_LAYER001
  6
CONTINUOUS
 62
    4
 10
1841
 20
1026.8891000000001
 11
1845.6853000000001
 21
1027.0915
  0
LINE
  8
_0-0_LAYER001
  6
CONTINUOUS
 62
    4
 10
1836.2170999999998
 20
1026.7846999999999
 11
1841
 21
1026.8891000000001
  0
LINE
  8
_0-0_LAYER001
  6
CONTINUOUS
 62
    4
 10
1831.3690999999999
 20
1026.7999
 11
1836.2170999999998
 21
1026.7846999999999
  0
LINE
  8
_0-0_LAYER001
  6
CONTINUOUS
 62
    4
 10
1826.4589000000001
 20
1026.9558
 11
1831.3690999999999
 21
1026.7999
  0
LINE
  8
_0-0_LAYER001
  6
CONTINUOUS
 62
    4
 10
1821.5616
 20
1027.2697000000001
 11
1826.4589000000001
 21
1026.9558
  0
LINE
  8
_0-0_LAYER001
  6
CONTINUOUS
 62
    4
 10
1818.5628000000002
 20
1027.5463
 11
1821.5616
 21
1027.2697000000001
  0
LINE
  8
_0-0_LAYER001
  6
CONTINUOUS
 62
    4
 10
1814.6972999999998
 20
1028.0011
 11
1818.5628000000002
 21
1027.5463
  0
LINE
  8
_0-0_LAYER001
  6
CONTINUOUS
 62
    4
 10
1808.2689
 20
1029.0101999999999
 11
1814.6972999999998
 21
1028.0011
  0
LINE
  8
_0-0_LAYER001
  6
CONTINUOUS
 62
    4
 10
1801.8154
 20
1030.3431
 11
1808.2689
 21
1029.0101999999999
  0
LINE
  8
_0-0_LAYER001
  6
CONTINUOUS
 62
    4
 10
1795.4432000000002
 20
1031.9757
 11
1801.8154
 21
1030.3431
  0
LINE
  8
_0-0_LAYER001
  6
CONTINUOUS
 62
    4
 10
1789.1659
 20
1033.8993
 11
1795.4432000000002
 21
1031.9757
  0
LINE
  8
_0-0_LAYER001
  6
CONTINUOUS
 62
    4
 10
1783.0787999999998
 20
1036.0763999999999
 11
1789.1659
 21
1033.8993
  0
LINE
  8
_0-0_LAYER001
  6
CONTINUOUS
 62
    4
 10
1779.4531999999999
 20
1037.5238999999999
 11
1783.0787999999998
 21
1036.0763999999999
  0
LINE
  8
_0-0_LAYER001
  6
CONTINUOUS
 62
    4
 10
1775.1532999999999
 20
1039.3884
 11
1779.4531999999999
 21
1037.5238999999999
  0
LINE
  8
_0-0_LAYER001
  6
CONTINUOUS
 62
    4
 10
1768.1624000000002
 20
1042.7656999999999
 11
1775.1532999999999
 21
1039.3884
  0
LINE
  8
_0-0_LAYER001
  6
CONTINUOUS
 62
    4
 10
1761.3443000000002
 20
1046.4548
 11
1768.1624000000002
 21
1042.7656999999999
  0
LINE
  8
_0-0_LAYER001
  6
CONTINUOUS
 62
    4
 10
1754.7685999999999
 20
1050.3522
 11
1761.3443000000002
 21
1046.4548
  0
LINE
  8
_0-0_LAYER001
  6
CONTINUOUS
 62
    4
 10
1748.4076
 20
1054.4038
 11
1754.7685999999999
 21
1050.3522
  0
LINE
  8
_0-0_LAYER001
  6
CONTINUOUS
 62
    4
 10
1742.2570000000001
 20
1058.5433
 11
1748.4076
 21
1054.4038
  0
LINE
  8
_0-0_LAYER001
  6
CONTINUOUS
 62
    4
 10
1738.7325000000001
 20
1060.9947
 11
1742.2570000000001
 21
1058.5433
  0
LINE
  8
_0-0_LAYER001
  6
CONTINUOUS
 62
    4
 10
1736.5034000000001
 20
1062.5661
 11
1738.7325000000001
 21
1060.9947
  0
LINE
  8
_0-0_LAYER001
  6
CONTINUOUS
 62
    4
 10
1732.8616999999999
 20
1065.1179999999999
 11
1736.5034000000001
 21
1062.5661
  0
LINE
  8
_0-0_LAYER001
  6
CONTINUOUS
 62
    4
 10
1729.4445000000001
 20
1067.4154000000001
 11
1732.8616999999999
 21
1065.1179999999999
  0
LINE
  8
_0-0_LAYER001
  6
CONTINUOUS
 62
    4
 10
1726.2489
 20
1069.3923
 11
1729.4445000000001
 21
1067.4154000000001
  0
LINE
  8
_0-0_LAYER001
  6
CONTINUOUS
 62
    4
 10
1723.2649999999999
 20
1071.0114000000001
 11
1726.2489
 21
1069.3923
  0
LINE
  8
_0-0_LAYER001
  6
CONTINUOUS
 62
    4
 10
1720.2984000000001
 20
1072.3406
 11
1723.2649999999999
 21
1071.0114000000001
  0
LINE
  8
_0-0_LAYER001
  6
CONTINUOUS
 62
    4
 10
1719.5484000000001
 20
1072.6133
 11
1720.2984000000001
 21
1072.3406
  0
LINE
  8
_0-0_LAYER001
  6
CONTINUOUS
 62
    4
 10
1719.8815
 20
1092.6565000000001
 11
1719.7055
 21
1072.4829999999999
  0
LINE
  8
_0-0_LAYER001
  6
CONTINUOUS
 62
    4
 10
1920.2071000000001
 20
1027.1686999999999
 11
1917.9616999999998
 21
1035.7420999999999
  0
ARC
  8
_0-0_LAYER001
  6
CONTINUOUS
 62
    4
 10
1923.1093000000001
 20
1027.9286999999999
 40
3
 50
194.67639000000003
 51
270.00000000000006
  0
LINE
  8
_0-0_LAYER001
  6
CONTINUOUS
 62
    4
 10
1926.5517
 20
1024.9244000000001
 11
1923.1338999999998
 21
1024.9244000000001
  0
LINE
  8
_0-0_LAYER001
  6
CONTINUOUS
 62
    4
 10
1929.5109000000002
 20
1027.4312
 11
1931.4449
 21
1039.0354
  0
ARC
  8
_0-0_LAYER001
  6
CONTINUOUS
 62
    4
 10
1926.5517
 20
1027.9244000000001
 40
3
 50
270
 51
350.53766999999999
  0
LINE
  8
_0-0_LAYER001
  6
CONTINUOUS
 62
    4
 10
1672.7854000000002
 20
1102.0465999999999
 11
1673.5992999999999
 21
1102.3533
  0
LINE
  8
_0-0_LAYER001
  6
CONTINUOUS
 62
    4
 10
1673.5992999999999
 20
1102.3533
 11
1677.1484999999998
 21
1103.6929
  0
LINE
  8
_0-0_LAYER001
  6
CONTINUOUS
 62
    4
 10
1677.1484999999998
 20
1103.6929
 11
1680.7051000000001
 21
1105.0418
  0
LINE
  8
_0-0_LAYER001
  6
CONTINUOUS
 62
    4
 10
1680.7051000000001
 20
1105.0418
 11
1684.2737999999999
 21
1106.4058
  0
LINE
  8
_0-0_LAYER001
  6
CONTINUOUS
 62
    4
 10
1684.2737999999999
 20
1106.4058
 11
1687.8591000000001
 21
1107.7909
  0
LINE
  8
_0-0_LAYER001
  6
CONTINUOUS
 62
    4
 10
1687.8591000000001
 20
1107.7909
 11
1691.4659000000001
 21
1109.2028
  0
LINE
  8
_0-0_LAYER001
  6
CONTINUOUS
 62
    4
 10
1691.4659000000001
 20
1109.2028
 11
1693.5693999999999
 21
1110.0364
  0
LINE
  8
_0-0_LAYER001
  6
CONTINUOUS
 62
    4
 10
1693.5693999999999
 20
1110.0364
 11
1695.6487999999999
 21
1110.8652999999999
  0
LINE
  8
_0-0_LAYER001
  6
CONTINUOUS
 62
    4
 10
1695.6487999999999
 20
1110.8652999999999
 11
1699.2552999999998
 21
1112.2668000000001
  0
LINE
  8
_0-0_LAYER001
  6
CONTINUOUS
 62
    4
 10
1699.2552999999998
 20
1112.2668000000001
 11
1702.8879999999999
 21
1113.5495000000001
  0
LINE
  8
_0-0_LAYER001
  6
CONTINUOUS
 62
    4
 10
1702.8879999999999
 20
1113.5495000000001
 11
1706.5459000000001
 21
1114.6161
  0
LINE
  8
_0-0_LAYER001
  6
CONTINUOUS
 62
    4
 10
1706.5459000000001
 20
1114.6161
 11
1710.2280999999998
 21
1115.3693000000001
  0
LINE
  8
_0-0_LAYER001
  6
CONTINUOUS
 62
    4
 10
1710.2280999999998
 20
1115.3693000000001
 11
1713.9333000000001
 21
1115.7119
  0
LINE
  8
_0-0_LAYER001
  6
CONTINUOUS
 62
    4
 10
1713.9333000000001
 20
1115.7119
 11
1716.0925999999999
 21
1115.684
  0
LINE
  8
_0-0_LAYER001
  6
CONTINUOUS
 62
    4
 10
1716.0925999999999
 20
1115.684
 11
1716.9418000000001
 21
1115.6225999999999
  0
LINE
  8
_0-0_LAYER001
  6
CONTINUOUS
 62
    4
 10
1716.9418000000001
 20
1115.6225999999999
 11
1718.4061000000002
 21
1115.452
  0
LINE
  8
_0-0_LAYER001
  6
CONTINUOUS
 62
    4
 10
1718.4061000000002
 20
1115.452
 11
1719.8672000000001
 21
1115.2053000000001
  0
LINE
  8
_0-0_LAYER001
  6
CONTINUOUS
 62
    4
 10
1719.8672000000001
 20
1115.2053000000001
 11
1721.3209000000002
 21
1114.8893
  0
LINE
  8
_0-0_LAYER001
  6
CONTINUOUS
 62
    4
 10
1721.3209000000002
 20
1114.8893
 11
1722.7629999999999
 21
1114.5108
  0
LINE
  8
_0-0_LAYER001
  6
CONTINUOUS
 62
    4
 10
1722.7629999999999
 20
1114.5108
 11
1724.1895
 21
1114.0766000000001
  0
LINE
  8
_0-0_LAYER001
  6
CONTINUOUS
 62
    4
 10
1724.1895
 20
1114.0766000000001
 11
1725.0079000000001
 21
1113.8019999999999
  0
LINE
  8
_0-0_LAYER001
  6
CONTINUOUS
 62
    4
 10
1725.0079000000001
 20
1113.8019999999999
 11
1727.5061999999998
 21
1112.8538000000001
  0
LINE
  8
_0-0_LAYER001
  6
CONTINUOUS
 62
    4
 10
1727.5061999999998
 20
1112.8538000000001
 11
1731.6651000000002
 21
1110.9202
  0
LINE
  8
_0-0_LAYER001
  6
CONTINUOUS
 62
    4
 10
1731.6651000000002
 20
1110.9202
 11
1735.6689000000001
 21
1108.6748
  0
LINE
  8
_0-0_LAYER001
  6
CONTINUOUS
 62
    4
 10
1735.6689000000001
 20
1108.6748
 11
1739.5558000000001
 21
1106.1946
  0
LINE
  8
_0-0_LAYER001
  6
CONTINUOUS
 62
    4
 10
1739.5558000000001
 20
1106.1946
 11
1743.3638000000001
 21
1103.5563999999999
  0
LINE
  8
_0-0_LAYER001
  6
CONTINUOUS
 62
    4
 10
1743.3638000000001
 20
1103.5563999999999
 11
1747.1309999999999
 21
1100.8372999999999
  0
LINE
  8
_0-0_LAYER001
  6
CONTINUOUS
 62
    4
 10
1747.1309999999999
 20
1100.8372999999999
 11
1749.3123999999998
 21
1099.2535
  0
LINE
  8
_0-0_LAYER001
  6
CONTINUOUS
 62
    4
 10
1749.3123999999998
 20
1099.2535
 11
1752.6439
 21
1096.8667
  0
LINE
  8
_0-0_LAYER001
  6
CONTINUOUS
 62
    4
 10
1752.6439
 20
1096.8667
 11
1758.4362000000001
 21
1092.8498
  0
LINE
  8
_0-0_LAYER001
  6
CONTINUOUS
 62
    4
 10
1758.4362000000001
 20
1092.8498
 11
1764.3083000000001
 21
1088.9931999999999
  0
LINE
  8
_0-0_LAYER001
  6
CONTINUOUS
 62
    4
 10
1764.3083000000001
 20
1088.9931999999999
 11
1770.2824999999998
 21
1085.3387
  0
LINE
  8
_0-0_LAYER001
  6
CONTINUOUS
 62
    4
 10
1770.2824999999998
 20
1085.3387
 11
1776.3807000000002
 21
1081.9281000000001
  0
LINE
  8
_0-0_LAYER001
  6
CONTINUOUS
 62
    4
 10
1776.3807000000002
 20
1081.9281000000001
 11
1782.625
 21
1078.8033
  0
LINE
  8
_0-0_LAYER001
  6
CONTINUOUS
 62
    4
 10
1782.625
 20
1078.8033
 11
1786.3222999999998
 21
1077.1383000000001
  0
LINE
  8
_0-0_LAYER001
  6
CONTINUOUS
 62
    4
 10
1786.3222999999998
 20
1077.1383000000001
 11
1789.3815
 21
1075.8671999999999
  0
LINE
  8
_0-0_LAYER001
  6
CONTINUOUS
 62
    4
 10
1789.3815
 20
1075.8671999999999
 11
1794.7420000000002
 21
1073.8651
  0
LINE
  8
_0-0_LAYER001
  6
CONTINUOUS
 62
    4
 10
1794.7420000000002
 20
1073.8651
 11
1800.1977000000002
 21
1072.1096
  0
LINE
  8
_0-0_LAYER001
  6
CONTINUOUS
 62
    4
 10
1800.1977000000002
 20
1072.1096
 11
1805.7327
 21
1070.6088
  0
LINE
  8
_0-0_LAYER001
  6
CONTINUOUS
 62
    4
 10
1805.7327
 20
1070.6088
 11
1811.3310000000001
 21
1069.3707999999999
  0
LINE
  8
_0-0_LAYER001
  6
CONTINUOUS
 62
    4
 10
1811.3310000000001
 20
1069.3707999999999
 11
1816.9767000000002
 21
1068.4036000000001
  0
LINE
  8
_0-0_LAYER001
  6
CONTINUOUS
 62
    4
 10
1816.9767000000002
 20
1068.4036000000001
 11
1820.2667000000001
 21
1067.9699000000001
  0
LINE
  8
_0-0_LAYER001
  6
CONTINUOUS
 62
    4
 10
1820.2667000000001
 20
1067.9699000000001
 11
1822.7860000000001
 21
1067.702
  0
LINE
  8
_0-0_LAYER001
  6
CONTINUOUS
 62
    4
 10
1822.7860000000001
 20
1067.702
 11
1827.1381000000001
 21
1067.3620000000001
  0
LINE
  8
_0-0_LAYER001
  6
CONTINUOUS
 62
    4
 10
1827.1381000000001
 20
1067.3620000000001
 11
1831.4983000000002
 21
1067.1626000000001
  0
LINE
  8
_0-0_LAYER001
  6
CONTINUOUS
 62
    4
 10
1831.4983000000002
 20
1067.1626000000001
 11
1835.8634999999999
 21
1067.0879
  0
LINE
  8
_0-0_LAYER001
  6
CONTINUOUS
 62
    4
 10
1835.8634999999999
 20
1067.0879
 11
1840.2305999999999
 21
1067.1223
  0
LINE
  8
_0-0_LAYER001
  6
CONTINUOUS
 62
    4
 10
1840.2305999999999
 20
1067.1223
 11
1844.5965000000001
 21
1067.2499
  0
LINE
  8
_0-0_LAYER001
  6
CONTINUOUS
 62
    4
 10
1844.5965000000001
 20
1067.2499
 11
1847.127
 21
1067.3603000000001
  0
LINE
  8
_0-0_LAYER001
  6
CONTINUOUS
 62
    4
 10
1847.127
 20
1067.3603000000001
 11
1851.8561
 21
1067.6285
  0
LINE
  8
_0-0_LAYER001
  6
CONTINUOUS
 62
    4
 10
1851.8561
 20
1067.6285
 11
1859.9942000000001
 21
1068.2594999999999
  0
LINE
  8
_0-0_LAYER001
  6
CONTINUOUS
 62
    4
 10
1859.9942000000001
 20
1068.2594999999999
 11
1868.1149999999998
 21
1069.0734
  0
LINE
  8
_0-0_LAYER001
  6
CONTINUOUS
 62
    4
 10
1868.1149999999998
 20
1069.0734
 11
1876.2208000000001
 21
1070.0346999999999
  0
LINE
  8
_0-0_LAYER001
  6
CONTINUOUS
 62
    4
 10
1876.2208000000001
 20
1070.0346999999999
 11
1884.3143
 21
1071.1078
  0
LINE
  8
_0-0_LAYER001
  6
CONTINUOUS
 62
    4
 10
1884.3143
 20
1071.1078
 11
1892.3978999999999
 21
1072.2574
  0
LINE
  8
_0-0_LAYER001
  6
CONTINUOUS
 62
    4
 10
1892.3978999999999
 20
1072.2574
 11
1897.0828000000001
 21
1072.9452000000001
  0
LINE
  8
_0-0_LAYER001
  6
CONTINUOUS
 62
    4
 10
1897.0828000000001
 20
1072.9452000000001
 11
1899.5176999999999
 21
1073.3061
  0
LINE
  8
_0-0_LAYER001
  6
CONTINUOUS
 62
    4
 10
1899.5176999999999
 20
1073.3061
 11
1903.7145999999998
 21
1073.9321
  0
LINE
  8
_0-0_LAYER001
  6
CONTINUOUS
 62
    4
 10
1903.7145999999998
 20
1073.9321
 11
1907.9104000000002
 21
1074.5622000000001
  0
LINE
  8
_0-0_LAYER001
  6
CONTINUOUS
 62
    4
 10
1907.9104000000002
 20
1074.5622000000001
 11
1912.1052
 21
1075.1954000000001
  0
LINE
  8
_0-0_LAYER001
  6
CONTINUOUS
 62
    4
 10
1912.1052
 20
1075.1954000000001
 11
1916.2993999999999
 21
1075.8309999999999
  0
LINE
  8
_0-0_LAYER001
  6
CONTINUOUS
 62
    4
 10
1916.2993999999999
 20
1075.8309999999999
 11
1920.4931000000001
 21
1076.4680000000001
  0
LINE
  8
_0-0_LAYER001
  6
CONTINUOUS
 62
    4
 10
1920.4931000000001
 20
1076.4680000000001
 11
1922.9254000000001
 21
1076.8378
  0
LINE
  8
_0-0_LAYER001
  6
CONTINUOUS
 62
    4
 10
1677.8886000000002
 20
1084.7342000000001
 11
1679.9504999999999
 21
1085.511
  0
LINE
  8
_0-0_LAYER001
  6
CONTINUOUS
 62
    4
 10
1679.9504999999999
 20
1085.511
 11
1683.5180999999998
 21
1086.8575000000001
  0
LINE
  8
_0-0_LAYER001
  6
CONTINUOUS
 62
    4
 10
1683.5180999999998
 20
1086.8575000000001
 11
1687.1100000000001
 21
1088.2198000000001
  0
LINE
  8
_0-0_LAYER001
  6
CONTINUOUS
 62
    4
 10
1687.1100000000001
 20
1088.2198000000001
 11
1690.7303000000002
 21
1089.6035999999999
  0
LINE
  8
_0-0_LAYER001
  6
CONTINUOUS
 62
    4
 10
1690.7303000000002
 20
1089.6035999999999
 11
1694.3833
 21
1091.0147999999999
  0
LINE
  8
_0-0_LAYER001
  6
CONTINUOUS
 62
    4
 10
1694.3833
 20
1091.0147999999999
 11
1698.0625
 21
1092.4550999999999
  0
LINE
  8
_0-0_LAYER001
  6
CONTINUOUS
 62
    4
 10
1698.0625
 20
1092.4550999999999
 11
1700.2177000000001
 21
1093.3091999999999
  0
LINE
  8
_0-0_LAYER001
  6
CONTINUOUS
 62
    4
 10
1700.2177000000001
 20
1093.3091999999999
 11
1702.2413000000001
 21
1094.1159
  0
LINE
  8
_0-0_LAYER001
  6
CONTINUOUS
 62
    4
 10
1702.2413000000001
 20
1094.1159
 11
1705.5131999999999
 21
1095.3873000000001
  0
LINE
  8
_0-0_LAYER001
  6
CONTINUOUS
 62
    4
 10
1705.5131999999999
 20
1095.3873000000001
 11
1708.4083000000001
 21
1096.4095
  0
LINE
  8
_0-0_LAYER001
  6
CONTINUOUS
 62
    4
 10
1708.4083000000001
 20
1096.4095
 11
1710.8764000000001
 21
1097.1292000000001
  0
LINE
  8
_0-0_LAYER001
  6
CONTINUOUS
 62
    4
 10
1710.8764000000001
 20
1097.1292000000001
 11
1712.8681000000001
 21
1097.5367000000001
  0
LINE
  8
_0-0_LAYER001
  6
CONTINUOUS
 62
    4
 10
1712.8681000000001
 20
1097.5367000000001
 11
1714.6473999999998
 21
1097.7011
  0
LINE
  8
_0-0_LAYER001
  6
CONTINUOUS
 62
    4
 10
1714.6473999999998
 20
1097.7011
 11
1715.3270000000002
 21
1097.6922999999999
  0
LINE
  8
_0-0_LAYER001
  6
CONTINUOUS
 62
    4
 10
1715.3270000000002
 20
1097.6922999999999
 11
1715.2509
 21
1097.6977999999999
  0
LINE
  8
_0-0_LAYER001
  6
CONTINUOUS
 62
    4
 10
1715.2509
 20
1097.6977999999999
 11
1715.8645000000001
 21
1097.6264000000001
  0
LINE
  8
_0-0_LAYER001
  6
CONTINUOUS
 62
    4
 10
1715.8645000000001
 20
1097.6264000000001
 11
1716.4549000000002
 21
1097.5266999999999
  0
LINE
  8
_0-0_LAYER001
  6
CONTINUOUS
 62
    4
 10
1716.4549000000002
 20
1097.5266999999999
 11
1717.1224000000002
 21
1097.3815999999999
  0
LINE
  8
_0-0_LAYER001
  6
CONTINUOUS
 62
    4
 10
1717.1224000000002
 20
1097.3815999999999
 11
1717.8559
 21
1097.1890000000001
  0
LINE
  8
_0-0_LAYER001
  6
CONTINUOUS
 62
    4
 10
1717.8559
 20
1097.1890000000001
 11
1718.7051000000001
 21
1096.9305999999999
  0
LINE
  8
_0-0_LAYER001
  6
CONTINUOUS
 62
    4
 10
1718.7051000000001
 20
1096.9305999999999
 11
1718.9492
 21
1096.8487
  0
LINE
  8
_0-0_LAYER001
  6
CONTINUOUS
 62
    4
 10
1718.9492
 20
1096.8487
 11
1720.5091000000002
 21
1096.2565999999999
  0
LINE
  8
_0-0_LAYER001
  6
CONTINUOUS
 62
    4
 10
1720.5091000000002
 20
1096.2565999999999
 11
1723.4567999999999
 21
1094.8861999999999
  0
LINE
  8
_0-0_LAYER001
  6
CONTINUOUS
 62
    4
 10
1723.4567999999999
 20
1094.8861999999999
 11
1726.4178000000002
 21
1093.2256
  0
LINE
  8
_0-0_LAYER001
  6
CONTINUOUS
 62
    4
 10
1726.4178000000002
 20
1093.2256
 11
1729.5855000000001
 21
1091.2041999999999
  0
LINE
  8
_0-0_LAYER001
  6
CONTINUOUS
 62
    4
 10
1729.5855000000001
 20
1091.2041999999999
 11
1732.9703
 21
1088.8593000000001
  0
LINE
  8
_0-0_LAYER001
  6
CONTINUOUS
 62
    4
 10
1732.9703
 20
1088.8593000000001
 11
1736.576
 21
1086.2568000000001
  0
LINE
  8
_0-0_LAYER001
  6
CONTINUOUS
 62
    4
 10
1736.576
 20
1086.2568000000001
 11
1738.7829999999999
 21
1084.6543999999999
  0
LINE
  8
_0-0_LAYER001
  6
CONTINUOUS
 62
    4
 10
1738.7829999999999
 20
1084.6543999999999
 11
1742.2728999999999
 21
1082.1541
  0
LINE
  8
_0-0_LAYER001
  6
CONTINUOUS
 62
    4
 10
1742.2728999999999
 20
1082.1541
 11
1748.3651
 21
1077.9291000000001
  0
LINE
  8
_0-0_LAYER001
  6
CONTINUOUS
 62
    4
 10
1748.3651
 20
1077.9291000000001
 11
1754.6689000000001
 21
1073.7891
  0
LINE
  8
_0-0_LAYER001
  6
CONTINUOUS
 62
    4
 10
1754.6689000000001
 20
1073.7891
 11
1761.1896000000002
 21
1069.8003000000001
  0
LINE
  8
_0-0_LAYER001
  6
CONTINUOUS
 62
    4
 10
1761.1896000000002
 20
1069.8003000000001
 11
1767.9555
 21
1066.0163
  0
LINE
  8
_0-0_LAYER001
  6
CONTINUOUS
 62
    4
 10
1767.9555
 20
1066.0163
 11
1774.8986
 21
1062.5418
  0
LINE
  8
_0-0_LAYER001
  6
CONTINUOUS
 62
    4
 10
1774.8986
 20
1062.5418
 11
1779.172
 21
1060.6174000000001
  0
LINE
  8
_0-0_LAYER001
  6
CONTINUOUS
 62
    4
 10
1779.172
 20
1060.6174000000001
 11
1782.7770999999998
 21
1059.1195
  0
LINE
  8
_0-0_LAYER001
  6
CONTINUOUS
 62
    4
 10
1782.7770999999998
 20
1059.1195
 11
1788.8330999999998
 21
1056.8575000000001
  0
LINE
  8
_0-0_LAYER001
  6
CONTINUOUS
 62
    4
 10
1788.8330999999998
 20
1056.8575000000001
 11
1795.0830000000001
 21
1054.8465000000001
  0
LINE
  8
_0-0_LAYER001
  6
CONTINUOUS
 62
    4
 10
1795.0830000000001
 20
1054.8465000000001
 11
1801.4317999999998
 21
1053.1251
  0
LINE
  8
_0-0_LAYER001
  6
CONTINUOUS
 62
    4
 10
1801.4317999999998
 20
1053.1251
 11
1807.866
 21
1051.7021999999999
  0
LINE
  8
_0-0_LAYER001
  6
CONTINUOUS
 62
    4
 10
1807.866
 20
1051.7021999999999
 11
1814.2797
 21
1050.6034
  0
LINE
  8
_0-0_LAYER001
  6
CONTINUOUS
 62
    4
 10
1814.2797
 20
1050.6034
 11
1818.1385
 21
1050.0947000000001
  0
LINE
  8
_0-0_LAYER001
  6
CONTINUOUS
 62
    4
 10
1818.1385
 20
1050.0947000000001
 11
1821.1331
 21
1049.7763
  0
LINE
  8
_0-0_LAYER001
  6
CONTINUOUS
 62
    4
 10
1821.1331
 20
1049.7763
 11
1826.0255000000002
 21
1049.3941
  0
LINE
  8
_0-0_LAYER001
  6
CONTINUOUS
 62
    4
 10
1826.0255000000002
 20
1049.3941
 11
1830.9331000000002
 21
1049.1695999999999
  0
LINE
  8
_0-0_LAYER001
  6
CONTINUOUS
 62
    4
 10
1830.9331000000002
 20
1049.1695999999999
 11
1835.7804000000001
 21
1049.0867000000001
  0
LINE
  8
_0-0_LAYER001
  6
CONTINUOUS
 62
    4
 10
1835.7804000000001
 20
1049.0867000000001
 11
1840.5643
 21
1049.1242999999999
  0
LINE
  8
_0-0_LAYER001
  6
CONTINUOUS
 62
    4
 10
1840.5643
 20
1049.1242999999999
 11
1845.252
 21
1049.2612999999999
  0
LINE
  8
_0-0_LAYER001
  6
CONTINUOUS
 62
    4
 10
1845.252
 20
1049.2612999999999
 11
1848.0291999999999
 21
1049.3825999999999
  0
LINE
  8
_0-0_LAYER001
  6
CONTINUOUS
 62
    4
 10
1848.0291999999999
 20
1049.3825999999999
 11
1853.0614999999998
 21
1049.6679999999999
  0
LINE
  8
_0-0_LAYER001
  6
CONTINUOUS
 62
    4
 10
1853.0614999999998
 20
1049.6679999999999
 11
1861.5877
 21
1050.329
  0
LINE
  8
_0-0_LAYER001
  6
CONTINUOUS
 62
    4
 10
1861.5877
 20
1050.329
 11
1870.0725000000002
 21
1051.1794
  0
LINE
  8
_0-0_LAYER001
  6
CONTINUOUS
 62
    4
 10
1870.0725000000002
 20
1051.1794
 11
1878.4639000000002
 21
1052.1745000000001
  0
LINE
  8
_0-0_LAYER001
  6
CONTINUOUS
 62
    4
 10
1878.4639000000002
 20
1052.1745000000001
 11
1886.7645000000002
 21
1053.2752
  0
LINE
  8
_0-0_LAYER001
  6
CONTINUOUS
 62
    4
 10
1886.7645000000002
 20
1053.2752
 11
1894.9722999999999
 21
1054.4423999999999
  0
LINE
  8
_0-0_LAYER001
  6
CONTINUOUS
 62
    4
 10
1894.9722999999999
 20
1054.4423999999999
 11
1899.7094000000002
 21
1055.1378999999999
  0
LINE
  8
_0-0_LAYER001
  6
CONTINUOUS
 62
    4
 10
1899.7094000000002
 20
1055.1378999999999
 11
1902.1648
 21
1055.5018
  0
LINE
  8
_0-0_LAYER001
  6
CONTINUOUS
 62
    4
 10
1902.1648
 20
1055.5018
 11
1906.3789000000002
 21
1056.1303
  0
LINE
  8
_0-0_LAYER001
  6
CONTINUOUS
 62
    4
 10
1906.3789000000002
 20
1056.1303
 11
1910.5904
 21
1056.7628
  0
LINE
  8
_0-0_LAYER001
  6
CONTINUOUS
 62
    4
 10
1910.5904
 20
1056.7628
 11
1914.7972
 21
1057.3978999999999
  0
LINE
  8
_0-0_LAYER001
  6
CONTINUOUS
 62
    4
 10
1914.7972
 20
1057.3978999999999
 11
1918.9994000000002
 21
1058.0346999999999
  0
LINE
  8
_0-0_LAYER001
  6
CONTINUOUS
 62
    4
 10
1918.9994000000002
 20
1058.0346999999999
 11
1923.1972999999998
 21
1058.6723
  0
LINE
  8
_0-0_LAYER001
  6
CONTINUOUS
 62
    4
 10
1923.1972999999998
 20
1058.6723
 11
1924.8150000000001
 21
1058.9182000000001
  0
LINE
  8
_0-0_LAYER001
  6
CONTINUOUS
 62
    4
 10
1672.3597
 20
1101.8842999999999
 11
1672.7856999999999
 21
1102.0473999999999
  0
ARC
  8
_0-0_LAYER001
  6
CONTINUOUS
 62
    4
 10
1673.4322999999999
 20
1099.0826
 40
3
 50
110.94902000000002
 51
178.70000000000002
  0
LINE
  8
_0-0_LAYER001
  6
CONTINUOUS
 62
    4
 10
1670.3238000000001
 20
1083.3116
 11
1670.3238000000001
 21
1099.0340000000001
  0
LINE
  8
_0-0_LAYER001
  6
CONTINUOUS
 62
    4
 10
1671.6777999999999
 20
1082.3762999999999
 11
1677.8526000000002
 21
1084.7135000000001
  0
ARC
  8
_0-0_LAYER001
  6
CONTINUOUS
 62
    4
 10
1671.3238000000001
 20
1083.3116
 40
1
 50
180
 51
290.73165999999998
  0
LINE
  8
_0-0_LAYER001
  6
CONTINUOUS
 62
    4
 10
1935.3238000000001
 20
1061.9893
 11
1935.3238000000001
 21
1079.1867
  0
LINE
  8
_0-0_LAYER001
  6
CONTINUOUS
 62
    4
 10
1923.0504000000001
 20
1076.8732
 11
1967.5046000000002
 21
1086.521
  0
LINE
  8
_0-0_LAYER001
  6
CONTINUOUS
 62
    4
 10
1929.7955999999999
 20
1057.0393999999999
 11
1968.4674
 21
1066.0894000000001
  0
LINE
  8
_0-0_LAYER001
  6
CONTINUOUS
 62
    4
 10
1968.4674
 20
1067.0459000000001
 11
1968.4674
 21
1066.0894000000001
  0
ARC
  8
_0-0_LAYER001
  6
CONTINUOUS
 62
    4
 10
1969.4674
 20
1067.0459000000001
 40
1
 50
102.72435
 51
180
  0
LINE
  8
_0-0_LAYER001
  6
CONTINUOUS
 62
    4
 10
1974.2844
 20
1069.1587999999999
 11
1969.2471
 21
1068.0213000000001
  0
ARC
  8
_0-0_LAYER001
  6
CONTINUOUS
 62
    4
 10
1974.5046000000002
 20
1068.1832999999999
 40
1
 50
0
 51
102.72435
  0
LINE
  8
_0-0_LAYER001
  6
CONTINUOUS
 62
    4
 10
1974.7166999999999
 20
1069.6672000000001
 11
1924.5828000000001
 21
1058.7867000000001
  0
ARC
  8
_0-0_LAYER001
  6
CONTINUOUS
 62
    4
 10
1974.5046000000002
 20
1070.6445000000001
 40
1
 50
282.24497000000002
 51
0
  0
LINE
  8
_0-0_LAYER001
  6
CONTINUOUS
 62
    4
 10
1974.7224999999999
 20
1048.9265
 11
1925.1385
 21
1037.8587
  0
LINE
  8
_0-0_LAYER001
  6
CONTINUOUS
 62
    4
 10
1975.5046000000002
 20
1049.9024999999999
 11
1975.5046000000002
 21
1068.1832999999999
  0
ARC
  8
_0-0_LAYER001
  6
CONTINUOUS
 62
    4
 10
1974.5046000000002
 20
1049.9024999999999
 40
1
 50
282.58296000000001
 51
0.0000000000000254
  0
LINE
  8
_0-0_LAYER001
  6
CONTINUOUS
 62
    4
 10
1967.5046000000002
 20
1087.9781
 11
1967.5046000000002
 21
1086.521
  0
ARC
  8
_0-0_LAYER001
  6
CONTINUOUS
 62
    4
 10
1968.5046000000002
 20
1087.9781
 40
1
 50
101.73308
 51
180
  0
LINE
  8
_0-0_LAYER001
  6
CONTINUOUS
 62
    4
 10
1974.3013000000001
 20
1090.2032999999999
 11
1968.3013000000001
 21
1088.9572000000001
  0
LINE
  8
_0-0_LAYER001
  6
CONTINUOUS
 62
    4
 10
1975.5046000000002
 20
1089.2242000000001
 11
1975.5046000000002
 21
1070.6445000000001
  0
ARC
  8
_0-0_LAYER001
  6
CONTINUOUS
 62
    4
 10
1974.5046000000002
 20
1089.2242000000001
 40
1
 50
0
 51
101.73308
  0
LINE
  8
_0-0_LAYER001
  6
DASHED1
 62
    2
 10
1774.7154999999998
 20
1061.7424000000001
 11
1790.7154999999998
 21
1061.7424000000001
  0
LINE
  8
_0-0_LAYER001
  6
DASHED1
 62
    2
 10
1790.7154999999998
 20
1061.7424000000001
 11
1790.7154999999998
 21
1058.7424000000001
  0
LINE
  8
_0-0_LAYER001
  6
DASHED1
 62
    2
 10
1774.7154999999998
 20
1061.7424000000001
 11
1774.7154999999998
 21
1058.7424000000001
  0
LINE
  8
_0-0_LAYER001
  6
DASHED1
 62
    2
 10
1774.7154999999998
 20
1058.7424000000001
 11
1790.7154999999998
 21
1058.7424000000001
  0
LINE
  8
_0-0_LAYER001
  6
DASHED1
 62
    2
 10
1785.7154999999998
 20
1003.8463999999999
 11
1782.6653000000001
 21
989.33739999999989
  0
LINE
  8
_0-0_LAYER001
  6
DASHED1
 62
    2
 10
1785.7154999999998
 20
1058.7424000000001
 11
1785.7154999999998
 21
1003.8463999999999
  0
LINE
  8
_0-0_LAYER001
  6
DASHED1
 62
    2
 10
1782.6653000000001
 20
989.33739999999989
 11
1779.7154999999998
 21
1003.5949000000001
  0
LINE
  8
_0-0_LAYER001
  6
DASHED1
 62
    2
 10
1779.7154999999998
 20
1058.7424000000001
 11
1779.7154999999998
 21
1003.5949000000001
  0
LINE
  8
_0-0_LAYER001
  6
DASHED1
 62
    2
 10
2039.7217000000001
 20
1059.0111999999999
 11
2055.7217000000001
 21
1059.0111999999999
  0
LINE
  8
_0-0_LAYER001
  6
DASHED1
 62
    2
 10
2055.7217000000001
 20
1059.0111999999999
 11
2055.7217000000001
 21
1056.0111999999999
  0
LINE
  8
_0-0_LAYER001
  6
DASHED1
 62
    2
 10
2039.7217000000001
 20
1059.0111999999999
 11
2039.7217000000001
 21
1056.0111999999999
  0
LINE
  8
_0-0_LAYER001
  6
DASHED1
 62
    2
 10
2039.7217000000001
 20
1056.0111999999999
 11
2055.7217000000001
 21
1056.0111999999999
  0
LINE
  8
_0-0_LAYER001
  6
DASHED1
 62
    2
 10
2050.7217000000001
 20
1001.1151
 11
2047.6716000000001
 21
986.60619999999994
  0
LINE
  8
_0-0_LAYER001
  6
DASHED1
 62
    2
 10
2050.7217000000001
 20
1056.0111999999999
 11
2050.7217000000001
 21
1001.1151
  0
LINE
  8
_0-0_LAYER001
  6
DASHED1
 62
    2
 10
2047.6716000000001
 20
986.60619999999994
 11
2044.7217000000001
 21
1000.8637000000001
  0
LINE
  8
_0-0_LAYER001
  6
DASHED1
 62
    2
 10
2044.7217000000001
 20
1056.0111999999999
 11
2044.7217000000001
 21
1000.8637000000001
  0
LINE
  8
_0-0_LAYER001
  6
CONTINUOUS
 62
    4
 10
1186.9733000000001
 20
1112.9362000000001
 11
1186.9733000000001
 21
1094.7311999999999
  0
LINE
  8
_0-0_LAYER001
  6
CONTINUOUS
 62
    4
 10
1186.9733000000001
 20
1090.5863999999999
 11
1186.9733000000001
 21
1071.1476
  0
LINE
  8
_0-0_LAYER001
  6
CONTINUOUS
 62
    4
 10
1670.1469000000002
 20
1059.1223
 11
1670.1469000000002
 21
1076.3196
  0
LINE
  8
_0-0_LAYER001
  6
CONTINUOUS
 62
    4
 10
1530.4203000000002
 20
1015.2828999999999
 11
1521.8847999999998
 21
1029.8162
  0
LINE
  8
_0-0_LAYER001
  6
CONTINUOUS
 62
    4
 10
1538.5882000000001
 20
1014.6325999999999
 11
1546.8944000000001
 21
1024.6981000000001
  0
ARC
  8
_0-0_LAYER001
  6
CONTINUOUS
 62
    4
 10
1534.7316999999998
 20
1017.8150000000001
 40
5
 50
210.42578
 51
320.47001
  0
LINE
  8
_0-0_LAYER001
  6
CONTINUOUS
 62
    4
 10
1614.5338000000002
 20
1014.1627000000001
 11
1607.2084
 21
1025.4688000000001
  0
LINE
  8
_0-0_LAYER001
  6
CONTINUOUS
 62
    4
 10
1623.0432999999998
 20
1014.3526999999999
 11
1631.9818
 21
1029.5983000000001
  0
ARC
  8
_0-0_LAYER001
  6
CONTINUOUS
 62
    4
 10
1618.73
 20
1016.8815
 40
5
 50
212.93986000000001
 51
329.61716000000001
  0
LINE
  8
_0-0_LAYER001
  6
CONTINUOUS
 62
    4
 10
1662.3254000000002
 20
1053.9103
 11
1664.7534999999998
 21
1054.3142
  0
LINE
  8
_0-0_LAYER001
  6
CONTINUOUS
 62
    4
 10
1658.1363000000001
 20
1053.2139999999999
 11
1662.3254000000002
 21
1053.9103
  0
LINE
  8
_0-0_LAYER001
  6
CONTINUOUS
 62
    4
 10
1653.9425000000001
 20
1052.5184999999999
 11
1658.1363000000001
 21
1053.2139999999999
  0
LINE
  8
_0-0_LAYER001
  6
CONTINUOUS
 62
    4
 10
1649.7438000000002
 20
1051.8244999999999
 11
1653.9425000000001
 21
1052.5184999999999
  0
LINE
  8
_0-0_LAYER001
  6
CONTINUOUS
 62
    4
 10
1645.5396999999998
 20
1051.133
 11
1649.7438000000002
 21
1051.8244999999999
  0
LINE
  8
_0-0_LAYER001
  6
CONTINUOUS
 62
    4
 10
1641.3328999999999
 20
1050.4454000000001
 11
1645.5396999999998
 21
1051.133
  0
LINE
  8
_0-0_LAYER001
  6
CONTINUOUS
 62
    4
 10
1638.8806
 20
1050.0469000000001
 11
1641.3328999999999
 21
1050.4454000000001
  0
LINE
  8
_0-0_LAYER001
  6
CONTINUOUS
 62
    4
 10
1634.1478000000002
 20
1049.2844
 11
1638.8806
 21
1050.0469000000001
  0
LINE
  8
_0-0_LAYER001
  6
CONTINUOUS
 62
    4
 10
1625.9434000000001
 20
1048.0005000000001
 11
1634.1478000000002
 21
1049.2844
  0
LINE
  8
_0-0_LAYER001
  6
CONTINUOUS
 62
    4
 10
1617.6359000000002
 20
1046.7807
 11
1625.9434000000001
 21
1048.0005000000001
  0
LINE
  8
_0-0_LAYER001
  6
CONTINUOUS
 62
    4
 10
1609.2276000000002
 20
1045.6642999999999
 11
1617.6359000000002
 21
1046.7807
  0
LINE
  8
_0-0_LAYER001
  6
CONTINUOUS
 62
    4
 10
1600.7150999999999
 20
1044.691
 11
1609.2276000000002
 21
1045.6642999999999
  0
LINE
  8
_0-0_LAYER001
  6
CONTINUOUS
 62
    4
 10
1592.1559000000002
 20
1043.9069999999999
 11
1600.7150999999999
 21
1044.691
  0
LINE
  8
_0-0_LAYER001
  6
CONTINUOUS
 62
    4
 10
1587.0944
 20
1043.5489
 11
1592.1559000000002
 21
1043.9069999999999
  0
LINE
  8
_0-0_LAYER001
  6
CONTINUOUS
 62
    4
 10
1584.2918
 20
1043.3873000000001
 11
1587.0944
 21
1043.5489
  0
LINE
  8
_0-0_LAYER001
  6
CONTINUOUS
 62
    4
 10
1579.5708
 20
1043.1833999999999
 11
1584.2918
 21
1043.3873000000001
  0
LINE
  8
_0-0_LAYER001
  6
CONTINUOUS
 62
    4
 10
1574.7415000000001
 20
1043.0779
 11
1579.5708
 21
1043.1833999999999
  0
LINE
  8
_0-0_LAYER001
  6
CONTINUOUS
 62
    4
 10
1569.8398999999999
 20
1043.0933
 11
1574.7415000000001
 21
1043.0779
  0
LINE
  8
_0-0_LAYER001
  6
CONTINUOUS
 62
    4
 10
1564.8688999999999
 20
1043.2511999999999
 11
1569.8398999999999
 21
1043.0933
  0
LINE
  8
_0-0_LAYER001
  6
CONTINUOUS
 62
    4
 10
1559.9115000000002
 20
1043.5689
 11
1564.8688999999999
 21
1043.2511999999999
  0
LINE
  8
_0-0_LAYER001
  6
CONTINUOUS
 62
    4
 10
1556.8598999999999
 20
1043.8504
 11
1559.9115000000002
 21
1043.5689
  0
LINE
  8
_0-0_LAYER001
  6
CONTINUOUS
 62
    4
 10
1552.931
 20
1044.3126
 11
1556.8598999999999
 21
1043.8504
  0
LINE
  8
_0-0_LAYER001
  6
CONTINUOUS
 62
    4
 10
1546.4171000000001
 20
1045.3352
 11
1552.931
 21
1044.3126
  0
LINE
  8
_0-0_LAYER001
  6
CONTINUOUS
 62
    4
 10
1539.8703999999998
 20
1046.6873000000001
 11
1546.4171000000001
 21
1045.3352
  0
LINE
  8
_0-0_LAYER001
  6
CONTINUOUS
 62
    4
 10
1533.4074999999998
 20
1048.3432
 11
1539.8703999999998
 21
1046.6873000000001
  0
LINE
  8
_0-0_LAYER001
  6
CONTINUOUS
 62
    4
 10
1527.0414999999998
 20
1050.2938999999999
 11
1533.4074999999998
 21
1048.3432
  0
LINE
  8
_0-0_LAYER001
  6
CONTINUOUS
 62
    4
 10
1520.8768
 20
1052.4988000000001
 11
1527.0414999999998
 21
1050.2938999999999
  0
LINE
  8
_0-0_LAYER001
  6
CONTINUOUS
 62
    4
 10
1517.1900999999998
 20
1053.9706000000001
 11
1520.8768
 21
1052.4988000000001
  0
LINE
  8
_0-0_LAYER001
  6
CONTINUOUS
 62
    4
 10
1512.8258999999998
 20
1055.8631
 11
1517.1900999999998
 21
1053.9706000000001
  0
LINE
  8
_0-0_LAYER001
  6
CONTINUOUS
 62
    4
 10
1505.7568000000001
 20
1059.2781
 11
1512.8258999999998
 21
1055.8631
  0
LINE
  8
_0-0_LAYER001
  6
CONTINUOUS
 62
    4
 10
1498.8638999999998
 20
1063.0077000000001
 11
1505.7568000000001
 21
1059.2781
  0
LINE
  8
_0-0_LAYER001
  6
CONTINUOUS
 62
    4
 10
1492.2269000000001
 20
1066.9413999999999
 11
1498.8638999999998
 21
1063.0077000000001
  0
LINE
  8
_0-0_LAYER001
  6
CONTINUOUS
 62
    4
 10
1485.8175999999999
 20
1071.0237999999999
 11
1492.2269000000001
 21
1066.9413999999999
  0
LINE
  8
_0-0_LAYER001
  6
CONTINUOUS
 62
    4
 10
1479.6334000000002
 20
1075.1858999999999
 11
1485.8175999999999
 21
1071.0237999999999
  0
LINE
  8
_0-0_LAYER001
  6
CONTINUOUS
 62
    4
 10
1476.0909999999999
 20
1077.6496999999999
 11
1479.6334000000002
 21
1075.1858999999999
  0
LINE
  8
_0-0_LAYER001
  6
CONTINUOUS
 62
    4
 10
1473.8589999999999
 20
1079.2230999999999
 11
1476.0909999999999
 21
1077.6496999999999
  0
LINE
  8
_0-0_LAYER001
  6
CONTINUOUS
 62
    4
 10
1470.2354999999998
 20
1081.7623000000001
 11
1473.8589999999999
 21
1079.2230999999999
  0
LINE
  8
_0-0_LAYER001
  6
CONTINUOUS
 62
    4
 10
1466.8658
 20
1084.0278000000001
 11
1470.2354999999998
 21
1081.7623000000001
  0
LINE
  8
_0-0_LAYER001
  6
CONTINUOUS
 62
    4
 10
1463.7507999999998
 20
1085.9549
 11
1466.8658
 21
1084.0278000000001
  0
LINE
  8
_0-0_LAYER001
  6
CONTINUOUS
 62
    4
 10
1460.8836000000001
 20
1087.5106000000001
 11
1463.7507999999998
 21
1085.9549
  0
LINE
  8
_0-0_LAYER001
  6
CONTINUOUS
 62
    4
 10
1458.0524999999998
 20
1088.7791
 11
1460.8836000000001
 21
1087.5106000000001
  0
LINE
  8
_0-0_LAYER001
  6
CONTINUOUS
 62
    4
 10
1456.5893000000001
 20
1089.3112000000001
 11
1458.0524999999998
 21
1088.7791
  0
LINE
  8
_0-0_LAYER001
  6
CONTINUOUS
 62
    4
 10
1456.4081999999999
 20
1089.3692000000001
 11
1456.5893000000001
 21
1089.3112000000001
  0
LINE
  8
_0-0_LAYER001
  6
CONTINUOUS
 62
    4
 10
1455.6199000000001
 20
1089.5971
 11
1456.4081999999999
 21
1089.3692000000001
  0
LINE
  8
_0-0_LAYER001
  6
CONTINUOUS
 62
    4
 10
1454.9627999999998
 20
1089.7598
 11
1455.6199000000001
 21
1089.5971
  0
LINE
  8
_0-0_LAYER001
  6
CONTINUOUS
 62
    4
 10
1454.3809999999999
 20
1089.8778
 11
1454.9627999999998
 21
1089.7598
  0
LINE
  8
_0-0_LAYER001
  6
CONTINUOUS
 62
    4
 10
1454.3409000000001
 20
1089.884
 11
1454.3809999999999
 21
1089.8778
  0
LINE
  8
_0-0_LAYER001
  6
CONTINUOUS
 62
    4
 10
1658.3148000000001
 20
1034.7228
 11
1659.9288999999999
 21
1034.9912999999999
  0
LINE
  8
_0-0_LAYER001
  6
CONTINUOUS
 62
    4
 10
1654.1262000000002
 20
1034.0265999999999
 11
1658.3148000000001
 21
1034.7228
  0
LINE
  8
_0-0_LAYER001
  6
CONTINUOUS
 62
    4
 10
1649.9333000000001
 20
1033.3312000000001
 11
1654.1262000000002
 21
1034.0265999999999
  0
LINE
  8
_0-0_LAYER001
  6
CONTINUOUS
 62
    4
 10
1645.7357999999999
 20
1032.6375
 11
1649.9333000000001
 21
1033.3312000000001
  0
LINE
  8
_0-0_LAYER001
  6
CONTINUOUS
 62
    4
 10
1641.5335
 20
1031.9463000000001
 11
1645.7357999999999
 21
1032.6375
  0
LINE
  8
_0-0_LAYER001
  6
CONTINUOUS
 62
    4
 10
1637.3285999999998
 20
1031.2589
 11
1641.5335
 21
1031.9463000000001
  0
LINE
  8
_0-0_LAYER001
  6
CONTINUOUS
 62
    4
 10
1634.8786
 20
1030.8607999999999
 11
1637.3285999999998
 21
1031.2589
  0
LINE
  8
_0-0_LAYER001
  6
CONTINUOUS
 62
    4
 10
1630.1516000000001
 20
1030.0993000000001
 11
1634.8786
 21
1030.8607999999999
  0
LINE
  8
_0-0_LAYER001
  6
CONTINUOUS
 62
    4
 10
1621.9609
 20
1028.8175000000001
 11
1630.1516000000001
 21
1030.0993000000001
  0
LINE
  8
_0-0_LAYER001
  6
CONTINUOUS
 62
    4
 10
1613.6763999999998
 20
1027.6011000000001
 11
1621.9609
 21
1028.8175000000001
  0
LINE
  8
_0-0_LAYER001
  6
CONTINUOUS
 62
    4
 10
1605.2997999999998
 20
1026.4889000000001
 11
1613.6763999999998
 21
1027.6011000000001
  0
LINE
  8
_0-0_LAYER001
  6
CONTINUOUS
 62
    4
 10
1596.8276000000001
 20
1025.5201999999999
 11
1605.2997999999998
 21
1026.4889000000001
  0
LINE
  8
_0-0_LAYER001
  6
CONTINUOUS
 62
    4
 10
1588.3114999999998
 20
1024.7401
 11
1596.8276000000001
 21
1025.5201999999999
  0
LINE
  8
_0-0_LAYER001
  6
CONTINUOUS
 62
    4
 10
1583.2837
 20
1024.3844999999999
 11
1588.3114999999998
 21
1024.7401
  0
LINE
  8
_0-0_LAYER001
  6
CONTINUOUS
 62
    4
 10
1580.5084999999999
 20
1024.2245
 11
1583.2837
 21
1024.3844999999999
  0
LINE
  8
_0-0_LAYER001
  6
CONTINUOUS
 62
    4
 10
1575.8231999999998
 20
1024.0219999999999
 11
1580.5084999999999
 21
1024.2245
  0
LINE
  8
_0-0_LAYER001
  6
CONTINUOUS
 62
    4
 10
1571.0403000000001
 20
1023.9176
 11
1575.8231999999998
 21
1024.0219999999999
  0
LINE
  8
_0-0_LAYER001
  6
CONTINUOUS
 62
    4
 10
1566.1922
 20
1023.9328
 11
1571.0403000000001
 21
1023.9176
  0
LINE
  8
_0-0_LAYER001
  6
CONTINUOUS
 62
    4
 10
1561.2820000000002
 20
1024.0888
 11
1566.1922
 21
1023.9328
  0
LINE
  8
_0-0_LAYER001
  6
CONTINUOUS
 62
    4
 10
1556.3847000000001
 20
1024.4025999999999
 11
1561.2820000000002
 21
1024.0888
  0
LINE
  8
_0-0_LAYER001
  6
CONTINUOUS
 62
    4
 10
1553.386
 20
1024.6792
 11
1556.3847000000001
 21
1024.4025999999999
  0
LINE
  8
_0-0_LAYER001
  6
CONTINUOUS
 62
    4
 10
1549.5203999999999
 20
1025.134
 11
1553.386
 21
1024.6792
  0
LINE
  8
_0-0_LAYER001
  6
CONTINUOUS
 62
    4
 10
1543.0920000000001
 20
1026.1431
 11
1549.5203999999999
 21
1025.134
  0
LINE
  8
_0-0_LAYER001
  6
CONTINUOUS
 62
    4
 10
1536.6386000000002
 20
1027.4760000000001
 11
1543.0920000000001
 21
1026.1431
  0
LINE
  8
_0-0_LAYER001
  6
CONTINUOUS
 62
    4
 10
1530.2664
 20
1029.1086
 11
1536.6386000000002
 21
1027.4760000000001
  0
LINE
  8
_0-0_LAYER001
  6
CONTINUOUS
 62
    4
 10
1523.9890999999998
 20
1031.0322000000001
 11
1530.2664
 21
1029.1086
  0
LINE
  8
_0-0_LAYER001
  6
CONTINUOUS
 62
    4
 10
1517.902
 20
1033.2094
 11
1523.9890999999998
 21
1031.0322000000001
  0
LINE
  8
_0-0_LAYER001
  6
CONTINUOUS
 62
    4
 10
1514.2763
 20
1034.6568
 11
1517.902
 21
1033.2094
  0
LINE
  8
_0-0_LAYER001
  6
CONTINUOUS
 62
    4
 10
1509.9765000000002
 20
1036.5214000000001
 11
1514.2763
 21
1034.6568
  0
LINE
  8
_0-0_LAYER001
  6
CONTINUOUS
 62
    4
 10
1502.9856
 20
1039.8986
 11
1509.9765000000002
 21
1036.5214000000001
  0
LINE
  8
_0-0_LAYER001
  6
CONTINUOUS
 62
    4
 10
1496.1675
 20
1043.5877
 11
1502.9856
 21
1039.8986
  0
LINE
  8
_0-0_LAYER001
  6
CONTINUOUS
 62
    4
 10
1489.5916999999999
 20
1047.4851000000001
 11
1496.1675
 21
1043.5877
  0
LINE
  8
_0-0_LAYER001
  6
CONTINUOUS
 62
    4
 10
1483.2307999999998
 20
1051.5367000000001
 11
1489.5916999999999
 21
1047.4851000000001
  0
LINE
  8
_0-0_LAYER001
  6
CONTINUOUS
 62
    4
 10
1477.0801999999999
 20
1055.6762000000001
 11
1483.2307999999998
 21
1051.5367000000001
  0
LINE
  8
_0-0_LAYER001
  6
CONTINUOUS
 62
    4
 10
1473.5556000000001
 20
1058.1276
 11
1477.0801999999999
 21
1055.6762000000001
  0
LINE
  8
_0-0_LAYER001
  6
CONTINUOUS
 62
    4
 10
1471.3265000000001
 20
1059.6990000000001
 11
1473.5556000000001
 21
1058.1276
  0
LINE
  8
_0-0_LAYER001
  6
CONTINUOUS
 62
    4
 10
1467.6848
 20
1062.2509
 11
1471.3265000000001
 21
1059.6990000000001
  0
LINE
  8
_0-0_LAYER001
  6
CONTINUOUS
 62
    4
 10
1464.2676999999999
 20
1064.5482999999999
 11
1467.6848
 21
1062.2509
  0
LINE
  8
_0-0_LAYER001
  6
CONTINUOUS
 62
    4
 10
1461.0720999999999
 20
1066.5253
 11
1464.2676999999999
 21
1064.5482999999999
  0
LINE
  8
_0-0_LAYER001
  6
CONTINUOUS
 62
    4
 10
1458.0880999999999
 20
1068.1443999999999
 11
1461.0720999999999
 21
1066.5253
  0
LINE
  8
_0-0_LAYER001
  6
CONTINUOUS
 62
    4
 10
1455.1215000000002
 20
1069.4735000000001
 11
1458.0880999999999
 21
1068.1443999999999
  0
LINE
  8
_0-0_LAYER001
  6
CONTINUOUS
 62
    4
 10
1454.3715999999999
 20
1069.7462
 11
1455.1215000000002
 21
1069.4735000000001
  0
LINE
  8
_0-0_LAYER001
  6
CONTINUOUS
 62
    4
 10
1454.7046999999998
 20
1089.7893999999999
 11
1454.5286000000001
 21
1069.6159
  0
LINE
  8
_0-0_LAYER001
  6
CONTINUOUS
 62
    4
 10
1655.0302999999999
 20
1024.3016
 11
1652.7849000000001
 21
1032.875
  0
ARC
  8
_0-0_LAYER001
  6
CONTINUOUS
 62
    4
 10
1657.9324000000001
 20
1025.0617
 40
3
 50
194.67639000000003
 51
270.00000000000006
  0
LINE
  8
_0-0_LAYER001
  6
CONTINUOUS
 62
    4
 10
1661.3748999999998
 20
1022.0572999999999
 11
1657.9571000000001
 21
1022.0572999999999
  0
LINE
  8
_0-0_LAYER001
  6
CONTINUOUS
 62
    4
 10
1664.3341
 20
1024.5642
 11
1666.2680999999998
 21
1036.1683
  0
ARC
  8
_0-0_LAYER001
  6
CONTINUOUS
 62
    4
 10
1661.3748999999998
 20
1025.0572999999999
 40
3
 50
270
 51
350.53766999999999
  0
LINE
  8
_0-0_LAYER001
  6
CONTINUOUS
 62
    4
 10
1407.6085
 20
1099.1795
 11
1408.4223999999999
 21
1099.4862000000001
  0
LINE
  8
_0-0_LAYER001
  6
CONTINUOUS
 62
    4
 10
1408.4223999999999
 20
1099.4862000000001
 11
1411.9717000000001
 21
1100.8258000000001
  0
LINE
  8
_0-0_LAYER001
  6
CONTINUOUS
 62
    4
 10
1411.9717000000001
 20
1100.8258000000001
 11
1415.5282999999999
 21
1102.1747
  0
LINE
  8
_0-0_LAYER001
  6
CONTINUOUS
 62
    4
 10
1415.5282999999999
 20
1102.1747
 11
1419.0969
 21
1103.5387000000001
  0
LINE
  8
_0-0_LAYER001
  6
CONTINUOUS
 62
    4
 10
1419.0969
 20
1103.5387000000001
 11
1422.6822999999999
 21
1104.9238
  0
LINE
  8
_0-0_LAYER001
  6
CONTINUOUS
 62
    4
 10
1422.6822999999999
 20
1104.9238
 11
1426.2889999999998
 21
1106.3358000000001
  0
LINE
  8
_0-0_LAYER001
  6
CONTINUOUS
 62
    4
 10
1426.2889999999998
 20
1106.3358000000001
 11
1428.3924999999999
 21
1107.1693
  0
LINE
  8
_0-0_LAYER001
  6
CONTINUOUS
 62
    4
 10
1428.3924999999999
 20
1107.1693
 11
1430.4719
 21
1107.9982
  0
LINE
  8
_0-0_LAYER001
  6
CONTINUOUS
 62
    4
 10
1430.4719
 20
1107.9982
 11
1434.0783999999999
 21
1109.3996999999999
  0
LINE
  8
_0-0_LAYER001
  6
CONTINUOUS
 62
    4
 10
1434.0783999999999
 20
1109.3996999999999
 11
1437.7111
 21
1110.6823999999999
  0
LINE
  8
_0-0_LAYER001
  6
CONTINUOUS
 62
    4
 10
1437.7111
 20
1110.6823999999999
 11
1441.3690999999999
 21
1111.749
  0
LINE
  8
_0-0_LAYER001
  6
CONTINUOUS
 62
    4
 10
1441.3690999999999
 20
1111.749
 11
1445.0511999999999
 21
1112.5023000000001
  0
LINE
  8
_0-0_LAYER001
  6
CONTINUOUS
 62
    4
 10
1445.0511999999999
 20
1112.5023000000001
 11
1448.7565
 21
1112.8448000000001
  0
LINE
  8
_0-0_LAYER001
  6
CONTINUOUS
 62
    4
 10
1448.7565
 20
1112.8448000000001
 11
1450.9158000000002
 21
1112.8169
  0
LINE
  8
_0-0_LAYER001
  6
CONTINUOUS
 62
    4
 10
1450.9158000000002
 20
1112.8169
 11
1451.7649000000001
 21
1112.7555
  0
LINE
  8
_0-0_LAYER001
  6
CONTINUOUS
 62
    4
 10
1451.7649000000001
 20
1112.7555
 11
1453.2293
 21
1112.5849000000001
  0
LINE
  8
_0-0_LAYER001
  6
CONTINUOUS
 62
    4
 10
1453.2293
 20
1112.5849000000001
 11
1454.6904
 21
1112.3381999999999
  0
LINE
  8
_0-0_LAYER001
  6
CONTINUOUS
 62
    4
 10
1454.6904
 20
1112.3381999999999
 11
1456.1441
 21
1112.0222000000001
  0
LINE
  8
_0-0_LAYER001
  6
CONTINUOUS
 62
    4
 10
1456.1441
 20
1112.0222000000001
 11
1457.5862000000002
 21
1111.6437000000001
  0
LINE
  8
_0-0_LAYER001
  6
CONTINUOUS
 62
    4
 10
1457.5862000000002
 20
1111.6437000000001
 11
1459.0126
 21
1111.2094999999999
  0
LINE
  8
_0-0_LAYER001
  6
CONTINUOUS
 62
    4
 10
1459.0126
 20
1111.2094999999999
 11
1459.8310999999999
 21
1110.9349
  0
LINE
  8
_0-0_LAYER001
  6
CONTINUOUS
 62
    4
 10
1459.8310999999999
 20
1110.9349
 11
1462.3292999999999
 21
1109.9866999999999
  0
LINE
  8
_0-0_LAYER001
  6
CONTINUOUS
 62
    4
 10
1462.3292999999999
 20
1109.9866999999999
 11
1466.4881999999998
 21
1108.0531000000001
  0
LINE
  8
_0-0_LAYER001
  6
CONTINUOUS
 62
    4
 10
1466.4881999999998
 20
1108.0531000000001
 11
1470.4920999999999
 21
1105.8078
  0
LINE
  8
_0-0_LAYER001
  6
CONTINUOUS
 62
    4
 10
1470.4920999999999
 20
1105.8078
 11
1474.3789000000002
 21
1103.3275000000001
  0
LINE
  8
_0-0_LAYER001
  6
CONTINUOUS
 62
    4
 10
1474.3789000000002
 20
1103.3275000000001
 11
1478.1869000000002
 21
1100.6893
  0
LINE
  8
_0-0_LAYER001
  6
CONTINUOUS
 62
    4
 10
1478.1869000000002
 20
1100.6893
 11
1481.9542000000001
 21
1097.9703
  0
LINE
  8
_0-0_LAYER001
  6
CONTINUOUS
 62
    4
 10
1481.9542000000001
 20
1097.9703
 11
1484.1354999999999
 21
1096.3865000000001
  0
LINE
  8
_0-0_LAYER001
  6
CONTINUOUS
 62
    4
 10
1484.1354999999999
 20
1096.3865000000001
 11
1487.4670999999998
 21
1093.9996000000001
  0
LINE
  8
_0-0_LAYER001
  6
CONTINUOUS
 62
    4
 10
1487.4670999999998
 20
1093.9996000000001
 11
1493.2593000000002
 21
1089.9827
  0
LINE
  8
_0-0_LAYER001
  6
CONTINUOUS
 62
    4
 10
1493.2593000000002
 20
1089.9827
 11
1499.1315
 21
1086.1261
  0
LINE
  8
_0-0_LAYER001
  6
CONTINUOUS
 62
    4
 10
1499.1315
 20
1086.1261
 11
1505.1055999999999
 21
1082.4716000000001
  0
LINE
  8
_0-0_LAYER001
  6
CONTINUOUS
 62
    4
 10
1505.1055999999999
 20
1082.4716000000001
 11
1511.2037999999998
 21
1079.0610999999999
  0
LINE
  8
_0-0_LAYER001
  6
CONTINUOUS
 62
    4
 10
1511.2037999999998
 20
1079.0610999999999
 11
1517.4481000000001
 21
1075.9363000000001
  0
LINE
  8
_0-0_LAYER001
  6
CONTINUOUS
 62
    4
 10
1517.4481000000001
 20
1075.9363000000001
 11
1521.1453999999999
 21
1074.2713000000001
  0
LINE
  8
_0-0_LAYER001
  6
CONTINUOUS
 62
    4
 10
1521.1453999999999
 20
1074.2713000000001
 11
1524.2046
 21
1073.0001999999999
  0
LINE
  8
_0-0_LAYER001
  6
CONTINUOUS
 62
    4
 10
1524.2046
 20
1073.0001999999999
 11
1529.5652
 21
1070.998
  0
LINE
  8
_0-0_LAYER001
  6
CONTINUOUS
 62
    4
 10
1529.5652
 20
1070.998
 11
1535.0209
 21
1069.2425000000001
  0
LINE
  8
_0-0_LAYER001
  6
CONTINUOUS
 62
    4
 10
1535.0209
 20
1069.2425000000001
 11
1540.5558000000001
 21
1067.7418
  0
LINE
  8
_0-0_LAYER001
  6
CONTINUOUS
 62
    4
 10
1540.5558000000001
 20
1067.7418
 11
1546.1541999999999
 21
1066.5037
  0
LINE
  8
_0-0_LAYER001
  6
CONTINUOUS
 62
    4
 10
1546.1541999999999
 20
1066.5037
 11
1551.7999
 21
1065.5364999999999
  0
LINE
  8
_0-0_LAYER001
  6
CONTINUOUS
 62
    4
 10
1551.7999
 20
1065.5364999999999
 11
1555.0898000000002
 21
1065.1027999999999
  0
LINE
  8
_0-0_LAYER001
  6
CONTINUOUS
 62
    4
 10
1555.0898000000002
 20
1065.1027999999999
 11
1557.6091000000001
 21
1064.8349000000001
  0
LINE
  8
_0-0_LAYER001
  6
CONTINUOUS
 62
    4
 10
1557.6091000000001
 20
1064.8349000000001
 11
1561.9612000000002
 21
1064.4948999999999
  0
LINE
  8
_0-0_LAYER001
  6
CONTINUOUS
 62
    4
 10
1561.9612000000002
 20
1064.4948999999999
 11
1566.3213999999998
 21
1064.2954999999999
  0
LINE
  8
_0-0_LAYER001
  6
CONTINUOUS
 62
    4
 10
1566.3213999999998
 20
1064.2954999999999
 11
1570.6866
 21
1064.2208000000001
  0
LINE
  8
_0-0_LAYER001
  6
CONTINUOUS
 62
    4
 10
1570.6866
 20
1064.2208000000001
 11
1575.0538000000001
 21
1064.2552000000001
  0
LINE
  8
_0-0_LAYER001
  6
CONTINUOUS
 62
    4
 10
1575.0538000000001
 20
1064.2552000000001
 11
1579.4196999999999
 21
1064.3828000000001
  0
LINE
  8
_0-0_LAYER001
  6
CONTINUOUS
 62
    4
 10
1579.4196999999999
 20
1064.3828000000001
 11
1581.9501
 21
1064.4933000000001
  0
LINE
  8
_0-0_LAYER001
  6
CONTINUOUS
 62
    4
 10
1581.9501
 20
1064.4933000000001
 11
1586.6792
 21
1064.7614000000001
  0
LINE
  8
_0-0_LAYER001
  6
CONTINUOUS
 62
    4
 10
1586.6792
 20
1064.7614000000001
 11
1594.8173999999999
 21
1065.3924
  0
LINE
  8
_0-0_LAYER001
  6
CONTINUOUS
 62
    4
 10
1594.8173999999999
 20
1065.3924
 11
1602.9380999999998
 21
1066.2063000000001
  0
LINE
  8
_0-0_LAYER001
  6
CONTINUOUS
 62
    4
 10
1602.9380999999998
 20
1066.2063000000001
 11
1611.0439999999999
 21
1067.1676
  0
LINE
  8
_0-0_LAYER001
  6
CONTINUOUS
 62
    4
 10
1611.0439999999999
 20
1067.1676
 11
1619.1374000000001
 21
1068.2408
  0
LINE
  8
_0-0_LAYER001
  6
CONTINUOUS
 62
    4
 10
1619.1374000000001
 20
1068.2408
 11
1627.221
 21
1069.3903
  0
LINE
  8
_0-0_LAYER001
  6
CONTINUOUS
 62
    4
 10
1627.221
 20
1069.3903
 11
1631.9059000000002
 21
1070.0780999999999
  0
LINE
  8
_0-0_LAYER001
  6
CONTINUOUS
 62
    4
 10
1631.9059000000002
 20
1070.0780999999999
 11
1634.3407999999999
 21
1070.4390000000001
  0
LINE
  8
_0-0_LAYER001
  6
CONTINUOUS
 62
    4
 10
1634.3407999999999
 20
1070.4390000000001
 11
1638.5378000000001
 21
1071.0650000000001
  0
LINE
  8
_0-0_LAYER001
  6
CONTINUOUS
 62
    4
 10
1638.5378000000001
 20
1071.0650000000001
 11
1642.7334999999998
 21
1071.6950999999999
  0
LINE
  8
_0-0_LAYER001
  6
CONTINUOUS
 62
    4
 10
1642.7334999999998
 20
1071.6950999999999
 11
1646.9283999999998
 21
1072.3284000000001
  0
LINE
  8
_0-0_LAYER001
  6
CONTINUOUS
 62
    4
 10
1646.9283999999998
 20
1072.3284000000001
 11
1651.1224999999999
 21
1072.9639
  0
LINE
  8
_0-0_LAYER001
  6
CONTINUOUS
 62
    4
 10
1651.1224999999999
 20
1072.9639
 11
1655.3163
 21
1073.6008999999999
  0
LINE
  8
_0-0_LAYER001
  6
CONTINUOUS
 62
    4
 10
1655.3163
 20
1073.6008999999999
 11
1657.7485999999999
 21
1073.9707000000001
  0
LINE
  8
_0-0_LAYER001
  6
CONTINUOUS
 62
    4
 10
1412.7117000000001
 20
1081.8670999999999
 11
1414.7736
 21
1082.6439
  0
LINE
  8
_0-0_LAYER001
  6
CONTINUOUS
 62
    4
 10
1414.7736
 20
1082.6439
 11
1418.3412000000001
 21
1083.9903999999999
  0
LINE
  8
_0-0_LAYER001
  6
CONTINUOUS
 62
    4
 10
1418.3412000000001
 20
1083.9903999999999
 11
1421.9331
 21
1085.3526999999999
  0
LINE
  8
_0-0_LAYER001
  6
CONTINUOUS
 62
    4
 10
1421.9331
 20
1085.3526999999999
 11
1425.5535
 21
1086.7365
  0
LINE
  8
_0-0_LAYER001
  6
CONTINUOUS
 62
    4
 10
1425.5535
 20
1086.7365
 11
1429.2065
 21
1088.1477
  0
LINE
  8
_0-0_LAYER001
  6
CONTINUOUS
 62
    4
 10
1429.2065
 20
1088.1477
 11
1432.8856000000001
 21
1089.588
  0
LINE
  8
_0-0_LAYER001
  6
CONTINUOUS
 62
    4
 10
1432.8856000000001
 20
1089.588
 11
1435.0408000000002
 21
1090.4421
  0
LINE
  8
_0-0_LAYER001
  6
CONTINUOUS
 62
    4
 10
1435.0408000000002
 20
1090.4421
 11
1437.0644000000002
 21
1091.2488000000001
  0
LINE
  8
_0-0_LAYER001
  6
CONTINUOUS
 62
    4
 10
1437.0644000000002
 20
1091.2488000000001
 11
1440.3362999999999
 21
1092.5201999999999
  0
LINE
  8
_0-0_LAYER001
  6
CONTINUOUS
 62
    4
 10
1440.3362999999999
 20
1092.5201999999999
 11
1443.2314000000001
 21
1093.5424
  0
LINE
  8
_0-0_LAYER001
  6
CONTINUOUS
 62
    4
 10
1443.2314000000001
 20
1093.5424
 11
1445.6995000000002
 21
1094.2620999999999
  0
LINE
  8
_0-0_LAYER001
  6
CONTINUOUS
 62
    4
 10
1445.6995000000002
 20
1094.2620999999999
 11
1447.6913
 21
1094.6695999999999
  0
LINE
  8
_0-0_LAYER001
  6
CONTINUOUS
 62
    4
 10
1447.6913
 20
1094.6695999999999
 11
1449.4706000000001
 21
1094.8340000000001
  0
LINE
  8
_0-0_LAYER001
  6
CONTINUOUS
 62
    4
 10
1449.4706000000001
 20
1094.8340000000001
 11
1450.1500999999998
 21
1094.8253
  0
LINE
  8
_0-0_LAYER001
  6
CONTINUOUS
 62
    4
 10
1450.1500999999998
 20
1094.8253
 11
1450.0740000000001
 21
1094.8308
  0
LINE
  8
_0-0_LAYER001
  6
CONTINUOUS
 62
    4
 10
1450.0740000000001
 20
1094.8308
 11
1450.6876999999999
 21
1094.7592999999999
  0
LINE
  8
_0-0_LAYER001
  6
CONTINUOUS
 62
    4
 10
1450.6876999999999
 20
1094.7592999999999
 11
1451.2781
 21
1094.6596
  0
LINE
  8
_0-0_LAYER001
  6
CONTINUOUS
 62
    4
 10
1451.2781
 20
1094.6596
 11
1451.9454999999998
 21
1094.5145
  0
LINE
  8
_0-0_LAYER001
  6
CONTINUOUS
 62
    4
 10
1451.9454999999998
 20
1094.5145
 11
1452.6790999999998
 21
1094.3219999999999
  0
LINE
  8
_0-0_LAYER001
  6
CONTINUOUS
 62
    4
 10
1452.6790999999998
 20
1094.3219999999999
 11
1453.5282000000002
 21
1094.0635
  0
LINE
  8
_0-0_LAYER001
  6
CONTINUOUS
 62
    4
 10
1453.5282000000002
 20
1094.0635
 11
1453.7723000000001
 21
1093.9816000000001
  0
LINE
  8
_0-0_LAYER001
  6
CONTINUOUS
 62
    4
 10
1453.7723000000001
 20
1093.9816000000001
 11
1455.3321999999998
 21
1093.3895
  0
LINE
  8
_0-0_LAYER001
  6
CONTINUOUS
 62
    4
 10
1455.3321999999998
 20
1093.3895
 11
1458.2799
 21
1092.0191
  0
LINE
  8
_0-0_LAYER001
  6
CONTINUOUS
 62
    4
 10
1458.2799
 20
1092.0191
 11
1461.241
 21
1090.3585
  0
LINE
  8
_0-0_LAYER001
  6
CONTINUOUS
 62
    4
 10
1461.241
 20
1090.3585
 11
1464.4087
 21
1088.3371
  0
LINE
  8
_0-0_LAYER001
  6
CONTINUOUS
 62
    4
 10
1464.4087
 20
1088.3371
 11
1467.7934
 21
1085.9921999999999
  0
LINE
  8
_0-0_LAYER001
  6
CONTINUOUS
 62
    4
 10
1467.7934
 20
1085.9921999999999
 11
1471.3991000000001
 21
1083.3896999999999
  0
LINE
  8
_0-0_LAYER001
  6
CONTINUOUS
 62
    4
 10
1471.3991000000001
 20
1083.3896999999999
 11
1473.6061
 21
1081.7873
  0
LINE
  8
_0-0_LAYER001
  6
CONTINUOUS
 62
    4
 10
1473.6061
 20
1081.7873
 11
1477.0961000000002
 21
1079.287
  0
LINE
  8
_0-0_LAYER001
  6
CONTINUOUS
 62
    4
 10
1477.0961000000002
 20
1079.287
 11
1483.1882000000001
 21
1075.0621000000001
  0
LINE
  8
_0-0_LAYER001
  6
CONTINUOUS
 62
    4
 10
1483.1882000000001
 20
1075.0621000000001
 11
1489.4920000000002
 21
1070.922
  0
LINE
  8
_0-0_LAYER001
  6
CONTINUOUS
 62
    4
 10
1489.4920000000002
 20
1070.922
 11
1496.0127000000002
 21
1066.9331999999999
  0
LINE
  8
_0-0_LAYER001
  6
CONTINUOUS
 62
    4
 10
1496.0127000000002
 20
1066.9331999999999
 11
1502.7786000000001
 21
1063.1492000000001
  0
LINE
  8
_0-0_LAYER001
  6
CONTINUOUS
 62
    4
 10
1502.7786000000001
 20
1063.1492000000001
 11
1509.7217000000001
 21
1059.6747
  0
LINE
  8
_0-0_LAYER001
  6
CONTINUOUS
 62
    4
 10
1509.7217000000001
 20
1059.6747
 11
1513.9951000000001
 21
1057.7502999999999
  0
LINE
  8
_0-0_LAYER001
  6
CONTINUOUS
 62
    4
 10
1513.9951000000001
 20
1057.7502999999999
 11
1517.6001999999999
 21
1056.2524000000001
  0
LINE
  8
_0-0_LAYER001
  6
CONTINUOUS
 62
    4
 10
1517.6001999999999
 20
1056.2524000000001
 11
1523.6563000000001
 21
1053.9903999999999
  0
LINE
  8
_0-0_LAYER001
  6
CONTINUOUS
 62
    4
 10
1523.6563000000001
 20
1053.9903999999999
 11
1529.9061000000002
 21
1051.9793999999999
  0
LINE
  8
_0-0_LAYER001
  6
CONTINUOUS
 62
    4
 10
1529.9061000000002
 20
1051.9793999999999
 11
1536.2548999999999
 21
1050.258
  0
LINE
  8
_0-0_LAYER001
  6
CONTINUOUS
 62
    4
 10
1536.2548999999999
 20
1050.258
 11
1542.6891000000001
 21
1048.8351
  0
LINE
  8
_0-0_LAYER001
  6
CONTINUOUS
 62
    4
 10
1542.6891000000001
 20
1048.8351
 11
1549.1028000000001
 21
1047.7363
  0
LINE
  8
_0-0_LAYER001
  6
CONTINUOUS
 62
    4
 10
1549.1028000000001
 20
1047.7363
 11
1552.9616000000001
 21
1047.2275999999999
  0
LINE
  8
_0-0_LAYER001
  6
CONTINUOUS
 62
    4
 10
1552.9616000000001
 20
1047.2275999999999
 11
1555.9562000000001
 21
1046.9092000000001
  0
LINE
  8
_0-0_LAYER001
  6
CONTINUOUS
 62
    4
 10
1555.9562000000001
 20
1046.9092000000001
 11
1560.8487
 21
1046.527
  0
LINE
  8
_0-0_LAYER001
  6
CONTINUOUS
 62
    4
 10
1560.8487
 20
1046.527
 11
1565.7561999999998
 21
1046.3025
  0
LINE
  8
_0-0_LAYER001
  6
CONTINUOUS
 62
    4
 10
1565.7561999999998
 20
1046.3025
 11
1570.6035999999999
 21
1046.2195999999999
  0
LINE
  8
_0-0_LAYER001
  6
CONTINUOUS
 62
    4
 10
1570.6035999999999
 20
1046.2195999999999
 11
1575.3874999999998
 21
1046.2573
  0
LINE
  8
_0-0_LAYER001
  6
CONTINUOUS
 62
    4
 10
1575.3874999999998
 20
1046.2573
 11
1580.0752000000002
 21
1046.3942
  0
LINE
  8
_0-0_LAYER001
  6
CONTINUOUS
 62
    4
 10
1580.0752000000002
 20
1046.3942
 11
1582.8523
 21
1046.5155
  0
LINE
  8
_0-0_LAYER001
  6
CONTINUOUS
 62
    4
 10
1582.8523
 20
1046.5155
 11
1587.8845999999999
 21
1046.8009
  0
LINE
  8
_0-0_LAYER001
  6
CONTINUOUS
 62
    4
 10
1587.8845999999999
 20
1046.8009
 11
1596.4108000000001
 21
1047.462
  0
LINE
  8
_0-0_LAYER001
  6
CONTINUOUS
 62
    4
 10
1596.4108000000001
 20
1047.462
 11
1604.8957
 21
1048.3123000000001
  0
LINE
  8
_0-0_LAYER001
  6
CONTINUOUS
 62
    4
 10
1604.8957
 20
1048.3123000000001
 11
1613.2869999999998
 21
1049.3074999999999
  0
LINE
  8
_0-0_LAYER001
  6
CONTINUOUS
 62
    4
 10
1613.2869999999998
 20
1049.3074999999999
 11
1621.5877
 21
1050.4081000000001
  0
LINE
  8
_0-0_LAYER001
  6
CONTINUOUS
 62
    4
 10
1621.5877
 20
1050.4081000000001
 11
1629.7954
 21
1051.5753
  0
LINE
  8
_0-0_LAYER001
  6
CONTINUOUS
 62
    4
 10
1629.7954
 20
1051.5753
 11
1634.5326
 21
1052.2708
  0
LINE
  8
_0-0_LAYER001
  6
CONTINUOUS
 62
    4
 10
1634.5326
 20
1052.2708
 11
1636.9879000000001
 21
1052.6347000000001
  0
LINE
  8
_0-0_LAYER001
  6
CONTINUOUS
 62
    4
 10
1636.9879000000001
 20
1052.6347000000001
 11
1641.2020000000002
 21
1053.2632000000001
  0
LINE
  8
_0-0_LAYER001
  6
CONTINUOUS
 62
    4
 10
1641.2020000000002
 20
1053.2632000000001
 11
1645.4135999999999
 21
1053.8957
  0
LINE
  8
_0-0_LAYER001
  6
CONTINUOUS
 62
    4
 10
1645.4135999999999
 20
1053.8957
 11
1649.6203
 21
1054.5308
  0
LINE
  8
_0-0_LAYER001
  6
CONTINUOUS
 62
    4
 10
1649.6203
 20
1054.5308
 11
1653.8225000000002
 21
1055.1676
  0
LINE
  8
_0-0_LAYER001
  6
CONTINUOUS
 62
    4
 10
1653.8225000000002
 20
1055.1676
 11
1658.0203999999999
 21
1055.8052
  0
LINE
  8
_0-0_LAYER001
  6
CONTINUOUS
 62
    4
 10
1658.0203999999999
 20
1055.8052
 11
1659.6381000000001
 21
1056.0510999999999
  0
LINE
  8
_0-0_LAYER001
  6
CONTINUOUS
 62
    4
 10
1407.1829
 20
1099.0172
 11
1407.6088999999999
 21
1099.1803
  0
ARC
  8
_0-0_LAYER001
  6
CONTINUOUS
 62
    4
 10
1408.2555
 20
1096.2155
 40
3
 50
110.94902000000002
 51
178.70000000000002
  0
LINE
  8
_0-0_LAYER001
  6
CONTINUOUS
 62
    4
 10
1405.1469
 20
1080.4445000000001
 11
1405.1469
 21
1096.1669999999999
  0
LINE
  8
_0-0_LAYER001
  6
CONTINUOUS
 62
    4
 10
1406.5009
 20
1079.5092
 11
1412.6758
 21
1081.8463999999999
  0
ARC
  8
_0-0_LAYER001
  6
CONTINUOUS
 62
    4
 10
1406.1469
 20
1080.4445000000001
 40
1
 50
180
 51
290.73165999999998
  0
LINE
  8
_0-0_LAYER001
  6
CONTINUOUS
 62
    4
 10
1657.8735000000001
 20
1074.0061000000001
 11
1702.3278
 21
1083.654
  0
LINE
  8
_0-0_LAYER001
  6
CONTINUOUS
 62
    4
 10
1664.6187
 20
1054.1723999999999
 11
1703.2905000000001
 21
1063.2222999999999
  0
LINE
  8
_0-0_LAYER001
  6
CONTINUOUS
 62
    4
 10
1703.2905000000001
 20
1064.1787999999999
 11
1703.2905000000001
 21
1063.2222999999999
  0
ARC
  8
_0-0_LAYER001
  6
CONTINUOUS
 62
    4
 10
1704.2905000000001
 20
1064.1787999999999
 40
1
 50
102.72435
 51
180
  0
LINE
  8
_0-0_LAYER001
  6
CONTINUOUS
 62
    4
 10
1709.1075000000001
 20
1066.2917
 11
1704.0702000000001
 21
1065.1541999999999
  0
ARC
  8
_0-0_LAYER001
  6
CONTINUOUS
 62
    4
 10
1709.3278
 20
1065.3162
 40
1
 50
0
 51
102.72435
  0
LINE
  8
_0-0_LAYER001
  6
CONTINUOUS
 62
    4
 10
1709.5399000000002
 20
1066.8001999999999
 11
1659.4059000000002
 21
1055.9195999999999
  0
ARC
  8
_0-0_LAYER001
  6
CONTINUOUS
 62
    4
 10
1709.3278
 20
1067.7773999999999
 40
1
 50
282.24497000000002
 51
0
  0
LINE
  8
_0-0_LAYER001
  6
CONTINUOUS
 62
    4
 10
1709.5455999999999
 20
1046.0594000000001
 11
1659.9616999999998
 21
1034.9916000000001
  0
LINE
  8
_0-0_LAYER001
  6
CONTINUOUS
 62
    4
 10
1710.3278
 20
1047.0354
 11
1710.3278
 21
1065.3162
  0
ARC
  8
_0-0_LAYER001
  6
CONTINUOUS
 62
    4
 10
1709.3278
 20
1047.0354
 40
1
 50
282.58296000000001
 51
0.0000000000000254
  0
LINE
  8
_0-0_LAYER001
  6
CONTINUOUS
 62
    4
 10
1702.3278
 20
1085.1110000000001
 11
1702.3278
 21
1083.654
  0
ARC
  8
_0-0_LAYER001
  6
CONTINUOUS
 62
    4
 10
1703.3278
 20
1085.1110000000001
 40
1
 50
101.73308
 51
180
  0
LINE
  8
_0-0_LAYER001
  6
CONTINUOUS
 62
    4
 10
1709.1244000000002
 20
1087.3362
 11
1703.1244000000002
 21
1086.0900999999999
  0
LINE
  8
_0-0_LAYER001
  6
CONTINUOUS
 62
    4
 10
1710.3278
 20
1086.3570999999999
 11
1710.3278
 21
1067.7773999999999
  0
ARC
  8
_0-0_LAYER001
  6
CONTINUOUS
 62
    4
 10
1709.3278
 20
1086.3570999999999
 40
1
 50
0
 51
101.73308
  0
LINE
  8
_0-0_LAYER001
  6
CONTINUOUS
 62
    4
 10
1265.5971999999999
 20
1015.4672
 11
1257.0617
 21
1030.0006000000001
  0
LINE
  8
_0-0_LAYER001
  6
CONTINUOUS
 62
    4
 10
1273.7651000000001
 20
1014.8169
 11
1282.0713000000001
 21
1024.8824
  0
ARC
  8
_0-0_LAYER001
  6
CONTINUOUS
 62
    4
 10
1269.9086
 20
1017.9992999999999
 40
5
 50
210.42578
 51
320.47001
  0
LINE
  8
_0-0_LAYER001
  6
CONTINUOUS
 62
    4
 10
1349.7107000000001
 20
1014.3471
 11
1342.3852999999999
 21
1025.6531
  0
LINE
  8
_0-0_LAYER001
  6
CONTINUOUS
 62
    4
 10
1358.2202000000002
 20
1014.537
 11
1367.1586
 21
1029.7827
  0
ARC
  8
_0-0_LAYER001
  6
CONTINUOUS
 62
    4
 10
1353.9069
 20
1017.0659000000001
 40
5
 50
212.93986000000001
 51
329.61716000000001
  0
LINE
  8
_0-0_LAYER001
  6
CONTINUOUS
 62
    4
 10
1397.5021999999999
 20
1054.0945999999999
 11
1399.9304000000002
 21
1054.4984999999999
  0
LINE
  8
_0-0_LAYER001
  6
CONTINUOUS
 62
    4
 10
1393.3132000000001
 20
1053.3984
 11
1397.5021999999999
 21
1054.0945999999999
  0
LINE
  8
_0-0_LAYER001
  6
CONTINUOUS
 62
    4
 10
1389.1194
 20
1052.7028
 11
1393.3132000000001
 21
1053.3984
  0
LINE
  8
_0-0_LAYER001
  6
CONTINUOUS
 62
    4
 10
1384.9205999999999
 20
1052.0088000000001
 11
1389.1194
 21
1052.7028
  0
LINE
  8
_0-0_LAYER001
  6
CONTINUOUS
 62
    4
 10
1380.7166000000002
 20
1051.3173999999999
 11
1384.9205999999999
 21
1052.0088000000001
  0
LINE
  8
_0-0_LAYER001
  6
CONTINUOUS
 62
    4
 10
1376.5097000000001
 20
1050.6297
 11
1380.7166000000002
 21
1051.3173999999999
  0
LINE
  8
_0-0_LAYER001
  6
CONTINUOUS
 62
    4
 10
1374.0573999999997
 20
1050.2311999999999
 11
1376.5097000000001
 21
1050.6297
  0
LINE
  8
_0-0_LAYER001
  6
CONTINUOUS
 62
    4
 10
1369.3246999999999
 20
1049.4688000000001
 11
1374.0573999999997
 21
1050.2311999999999
  0
LINE
  8
_0-0_LAYER001
  6
CONTINUOUS
 62
    4
 10
1361.1203
 20
1048.1849
 11
1369.3246999999999
 21
1049.4688000000001
  0
LINE
  8
_0-0_LAYER001
  6
CONTINUOUS
 62
    4
 10
1352.8127999999997
 20
1046.9650999999999
 11
1361.1203
 21
1048.1849
  0
LINE
  8
_0-0_LAYER001
  6
CONTINUOUS
 62
    4
 10
1344.4045000000001
 20
1045.8487
 11
1352.8127999999997
 21
1046.9650999999999
  0
LINE
  8
_0-0_LAYER001
  6
CONTINUOUS
 62
    4
 10
1335.8919000000001
 20
1044.8752999999999
 11
1344.4045000000001
 21
1045.8487
  0
LINE
  8
_0-0_LAYER001
  6
CONTINUOUS
 62
    4
 10
1327.3327999999997
 20
1044.0913
 11
1335.8919000000001
 21
1044.8752999999999
  0
LINE
  8
_0-0_LAYER001
  6
CONTINUOUS
 62
    4
 10
1322.2711999999999
 20
1043.7333000000001
 11
1327.3327999999997
 21
1044.0913
  0
LINE
  8
_0-0_LAYER001
  6
CONTINUOUS
 62
    4
 10
1319.4686999999999
 20
1043.5717
 11
1322.2711999999999
 21
1043.7333000000001
  0
LINE
  8
_0-0_LAYER001
  6
CONTINUOUS
 62
    4
 10
1314.7476000000001
 20
1043.3677
 11
1319.4686999999999
 21
1043.5717
  0
LINE
  8
_0-0_LAYER001
  6
CONTINUOUS
 62
    4
 10
1309.9184
 20
1043.2623000000001
 11
1314.7476000000001
 21
1043.3677
  0
LINE
  8
_0-0_LAYER001
  6
CONTINUOUS
 62
    4
 10
1305.0168000000003
 20
1043.2777000000001
 11
1309.9184
 21
1043.2623000000001
  0
LINE
  8
_0-0_LAYER001
  6
CONTINUOUS
 62
    4
 10
1300.0457000000001
 20
1043.4355
 11
1305.0168000000003
 21
1043.2777000000001
  0
LINE
  8
_0-0_LAYER001
  6
CONTINUOUS
 62
    4
 10
1295.0884000000001
 20
1043.7533000000001
 11
1300.0457000000001
 21
1043.4355
  0
LINE
  8
_0-0_LAYER001
  6
CONTINUOUS
 62
    4
 10
1292.0367000000001
 20
1044.0346999999999
 11
1295.0884000000001
 21
1043.7533000000001
  0
LINE
  8
_0-0_LAYER001
  6
CONTINUOUS
 62
    4
 10
1288.1079
 20
1044.4969000000001
 11
1292.0367000000001
 21
1044.0346999999999
  0
LINE
  8
_0-0_LAYER001
  6
CONTINUOUS
 62
    4
 10
1281.5939000000001
 20
1045.5195000000001
 11
1288.1079
 21
1044.4969000000001
  0
LINE
  8
_0-0_LAYER001
  6
CONTINUOUS
 62
    4
 10
1275.0473
 20
1046.8715999999999
 11
1281.5939000000001
 21
1045.5195000000001
  0
LINE
  8
_0-0_LAYER001
  6
CONTINUOUS
 62
    4
 10
1268.5844
 20
1048.5274999999999
 11
1275.0473
 21
1046.8715999999999
  0
LINE
  8
_0-0_LAYER001
  6
CONTINUOUS
 62
    4
 10
1262.2184
 20
1050.4782
 11
1268.5844
 21
1048.5274999999999
  0
LINE
  8
_0-0_LAYER001
  6
CONTINUOUS
 62
    4
 10
1256.0536
 20
1052.6831999999999
 11
1262.2184
 21
1050.4782
  0
LINE
  8
_0-0_LAYER001
  6
CONTINUOUS
 62
    4
 10
1252.367
 20
1054.1549
 11
1256.0536
 21
1052.6831999999999
  0
LINE
  8
_0-0_LAYER001
  6
CONTINUOUS
 62
    4
 10
1248.0027
 20
1056.0474999999999
 11
1252.367
 21
1054.1549
  0
LINE
  8
_0-0_LAYER001
  6
CONTINUOUS
 62
    4
 10
1240.9337
 20
1059.4623999999999
 11
1248.0027
 21
1056.0474999999999
  0
LINE
  8
_0-0_LAYER001
  6
CONTINUOUS
 62
    4
 10
1234.0408
 20
1063.192
 11
1240.9337
 21
1059.4623999999999
  0
LINE
  8
_0-0_LAYER001
  6
CONTINUOUS
 62
    4
 10
1227.4038
 20
1067.1257000000001
 11
1234.0408
 21
1063.192
  0
LINE
  8
_0-0_LAYER001
  6
CONTINUOUS
 62
    4
 10
1220.9944
 20
1071.2082
 11
1227.4038
 21
1067.1257000000001
  0
LINE
  8
_0-0_LAYER001
  6
CONTINUOUS
 62
    4
 10
1214.8101999999999
 20
1075.3703
 11
1220.9944
 21
1071.2082
  0
LINE
  8
_0-0_LAYER001
  6
CONTINUOUS
 62
    4
 10
1211.2679000000001
 20
1077.8340000000001
 11
1214.8101999999999
 21
1075.3703
  0
LINE
  8
_0-0_LAYER001
  6
CONTINUOUS
 62
    4
 10
1209.0359000000001
 20
1079.4075
 11
1211.2679000000001
 21
1077.8340000000001
  0
LINE
  8
_0-0_LAYER001
  6
CONTINUOUS
 62
    4
 10
1205.4123
 20
1081.9467
 11
1209.0359000000001
 21
1079.4075
  0
LINE
  8
_0-0_LAYER001
  6
CONTINUOUS
 62
    4
 10
1202.0427
 20
1084.2121999999999
 11
1205.4123
 21
1081.9467
  0
LINE
  8
_0-0_LAYER001
  6
CONTINUOUS
 62
    4
 10
1198.9277
 20
1086.1392000000001
 11
1202.0427
 21
1084.2121999999999
  0
LINE
  8
_0-0_LAYER001
  6
CONTINUOUS
 62
    4
 10
1196.0605
 20
1087.6949999999999
 11
1198.9277
 21
1086.1392000000001
  0
LINE
  8
_0-0_LAYER001
  6
CONTINUOUS
 62
    4
 10
1193.2293999999999
 20
1088.9634000000001
 11
1196.0605
 21
1087.6949999999999
  0
LINE
  8
_0-0_LAYER001
  6
CONTINUOUS
 62
    4
 10
1191.7662
 20
1089.4956
 11
1193.2293999999999
 21
1088.9634000000001
  0
LINE
  8
_0-0_LAYER001
  6
CONTINUOUS
 62
    4
 10
1191.5851
 20
1089.5535
 11
1191.7662
 21
1089.4956
  0
LINE
  8
_0-0_LAYER001
  6
CONTINUOUS
 62
    4
 10
1190.7968000000001
 20
1089.7815000000001
 11
1191.5851
 21
1089.5535
  0
LINE
  8
_0-0_LAYER001
  6
CONTINUOUS
 62
    4
 10
1190.1396
 20
1089.9441999999999
 11
1190.7968000000001
 21
1089.7815000000001
  0
LINE
  8
_0-0_LAYER001
  6
CONTINUOUS
 62
    4
 10
1186.9733000000001
 20
1090.5863999999999
 11
1190.1396
 21
1089.9441999999999
  0
LINE
  8
_0-0_LAYER001
  6
CONTINUOUS
 62
    4
 10
1393.4916000000001
 20
1034.9072000000001
 11
1395.1057000000001
 21
1035.1756
  0
LINE
  8
_0-0_LAYER001
  6
CONTINUOUS
 62
    4
 10
1389.3030000000001
 20
1034.211
 11
1393.4916000000001
 21
1034.9072000000001
  0
LINE
  8
_0-0_LAYER001
  6
CONTINUOUS
 62
    4
 10
1385.1100999999999
 20
1033.5155999999999
 11
1389.3030000000001
 21
1034.211
  0
LINE
  8
_0-0_LAYER001
  6
CONTINUOUS
 62
    4
 10
1380.9127000000001
 20
1032.8217999999999
 11
1385.1100999999999
 21
1033.5155999999999
  0
LINE
  8
_0-0_LAYER001
  6
CONTINUOUS
 62
    4
 10
1376.7103999999999
 20
1032.1306
 11
1380.9127000000001
 21
1032.8217999999999
  0
LINE
  8
_0-0_LAYER001
  6
CONTINUOUS
 62
    4
 10
1372.5054
 20
1031.4432999999999
 11
1376.7103999999999
 21
1032.1306
  0
LINE
  8
_0-0_LAYER001
  6
CONTINUOUS
 62
    4
 10
1370.0554
 20
1031.0451
 11
1372.5054
 21
1031.4432999999999
  0
LINE
  8
_0-0_LAYER001
  6
CONTINUOUS
 62
    4
 10
1365.3284000000003
 20
1030.2836
 11
1370.0554
 21
1031.0451
  0
LINE
  8
_0-0_LAYER001
  6
CONTINUOUS
 62
    4
 10
1357.1378
 20
1029.0019
 11
1365.3284000000003
 21
1030.2836
  0
LINE
  8
_0-0_LAYER001
  6
CONTINUOUS
 62
    4
 10
1348.8533000000002
 20
1027.7854
 11
1357.1378
 21
1029.0019
  0
LINE
  8
_0-0_LAYER001
  6
CONTINUOUS
 62
    4
 10
1340.4766999999997
 20
1026.6732999999999
 11
1348.8533000000002
 21
1027.7854
  0
LINE
  8
_0-0_LAYER001
  6
CONTINUOUS
 62
    4
 10
1332.0045
 20
1025.7045000000001
 11
1340.4766999999997
 21
1026.6732999999999
  0
LINE
  8
_0-0_LAYER001
  6
CONTINUOUS
 62
    4
 10
1323.4884
 20
1024.9245000000001
 11
1332.0045
 21
1025.7045000000001
  0
LINE
  8
_0-0_LAYER001
  6
CONTINUOUS
 62
    4
 10
1318.4604999999999
 20
1024.5688
 11
1323.4884
 21
1024.9245000000001
  0
LINE
  8
_0-0_LAYER001
  6
CONTINUOUS
 62
    4
 10
1315.6853000000001
 20
1024.4087999999999
 11
1318.4604999999999
 21
1024.5688
  0
LINE
  8
_0-0_LAYER001
  6
CONTINUOUS
 62
    4
 10
1311
 20
1024.2064
 11
1315.6853000000001
 21
1024.4087999999999
  0
LINE
  8
_0-0_LAYER001
  6
CONTINUOUS
 62
    4
 10
1306.2171000000001
 20
1024.1020000000001
 11
1311
 21
1024.2064
  0
LINE
  8
_0-0_LAYER001
  6
CONTINUOUS
 62
    4
 10
1301.3690999999999
 20
1024.1171999999999
 11
1306.2171000000001
 21
1024.1020000000001
  0
LINE
  8
_0-0_LAYER001
  6
CONTINUOUS
 62
    4
 10
1296.4589000000001
 20
1024.2731000000001
 11
1301.3690999999999
 21
1024.1171999999999
  0
LINE
  8
_0-0_LAYER001
  6
CONTINUOUS
 62
    4
 10
1291.5616
 20
1024.587
 11
1296.4589000000001
 21
1024.2731000000001
  0
LINE
  8
_0-0_LAYER001
  6
CONTINUOUS
 62
    4
 10
1288.5627999999999
 20
1024.8634999999999
 11
1291.5616
 21
1024.587
  0
LINE
  8
_0-0_LAYER001
  6
CONTINUOUS
 62
    4
 10
1284.6973
 20
1025.3182999999999
 11
1288.5627999999999
 21
1024.8634999999999
  0
LINE
  8
_0-0_LAYER001
  6
CONTINUOUS
 62
    4
 10
1278.2689
 20
1026.3275000000001
 11
1284.6973
 21
1025.3182999999999
  0
LINE
  8
_0-0_LAYER001
  6
CONTINUOUS
 62
    4
 10
1271.8154
 20
1027.6604
 11
1278.2689
 21
1026.3275000000001
  0
LINE
  8
_0-0_LAYER001
  6
CONTINUOUS
 62
    4
 10
1265.4431999999999
 20
1029.2929999999999
 11
1271.8154
 21
1027.6604
  0
LINE
  8
_0-0_LAYER001
  6
CONTINUOUS
 62
    4
 10
1259.1659
 20
1031.2165
 11
1265.4431999999999
 21
1029.2929999999999
  0
LINE
  8
_0-0_LAYER001
  6
CONTINUOUS
 62
    4
 10
1253.0788
 20
1033.3937000000001
 11
1259.1659
 21
1031.2165
  0
LINE
  8
_0-0_LAYER001
  6
CONTINUOUS
 62
    4
 10
1249.4531999999999
 20
1034.8411000000001
 11
1253.0788
 21
1033.3937000000001
  0
LINE
  8
_0-0_LAYER001
  6
CONTINUOUS
 62
    4
 10
1245.1532999999999
 20
1036.7057
 11
1249.4531999999999
 21
1034.8411000000001
  0
LINE
  8
_0-0_LAYER001
  6
CONTINUOUS
 62
    4
 10
1238.1623999999999
 20
1040.0829000000001
 11
1245.1532999999999
 21
1036.7057
  0
LINE
  8
_0-0_LAYER001
  6
CONTINUOUS
 62
    4
 10
1231.3443
 20
1043.7720999999999
 11
1238.1623999999999
 21
1040.0829000000001
  0
LINE
  8
_0-0_LAYER001
  6
CONTINUOUS
 62
    4
 10
1224.7686000000001
 20
1047.6694
 11
1231.3443
 21
1043.7720999999999
  0
LINE
  8
_0-0_LAYER001
  6
CONTINUOUS
 62
    4
 10
1218.4076
 20
1051.7211
 11
1224.7686000000001
 21
1047.6694
  0
LINE
  8
_0-0_LAYER001
  6
CONTINUOUS
 62
    4
 10
1212.2570000000001
 20
1055.8606
 11
1218.4076
 21
1051.7211
  0
LINE
  8
_0-0_LAYER001
  6
CONTINUOUS
 62
    4
 10
1208.7325000000001
 20
1058.3118999999999
 11
1212.2570000000001
 21
1055.8606
  0
LINE
  8
_0-0_LAYER001
  6
CONTINUOUS
 62
    4
 10
1206.5034000000001
 20
1059.8833999999999
 11
1208.7325000000001
 21
1058.3118999999999
  0
LINE
  8
_0-0_LAYER001
  6
CONTINUOUS
 62
    4
 10
1202.8616999999999
 20
1062.4351999999999
 11
1206.5034000000001
 21
1059.8833999999999
  0
LINE
  8
_0-0_LAYER001
  6
CONTINUOUS
 62
    4
 10
1199.4445000000001
 20
1064.7327
 11
1202.8616999999999
 21
1062.4351999999999
  0
LINE
  8
_0-0_LAYER001
  6
CONTINUOUS
 62
    4
 10
1196.2489
 20
1066.7095999999999
 11
1199.4445000000001
 21
1064.7327
  0
LINE
  8
_0-0_LAYER001
  6
CONTINUOUS
 62
    4
 10
1193.2650000000001
 20
1068.3287
 11
1196.2489
 21
1066.7095999999999
  0
LINE
  8
_0-0_LAYER001
  6
CONTINUOUS
 62
    4
 10
1186.9733000000001
 20
1071.1476
 11
1193.2650000000001
 21
1068.3287
  0
LINE
  8
_0-0_LAYER001
  6
CONTINUOUS
 62
    4
 10
1390.2071000000001
 20
1024.4858999999999
 11
1387.9617000000003
 21
1033.0592999999999
  0
ARC
  8
_0-0_LAYER001
  6
CONTINUOUS
 62
    4
 10
1393.1093000000001
 20
1025.2460000000001
 40
3
 50
194.67639000000003
 51
270.00000000000006
  0
LINE
  8
_0-0_LAYER001
  6
CONTINUOUS
 62
    4
 10
1396.5517
 20
1022.2417
 11
1393.1339
 21
1022.2417
  0
LINE
  8
_0-0_LAYER001
  6
CONTINUOUS
 62
    4
 10
1399.5109
 20
1024.7484999999999
 11
1401.4449
 21
1036.3525999999999
  0
ARC
  8
_0-0_LAYER001
  6
CONTINUOUS
 62
    4
 10
1396.5517
 20
1025.2417
 40
3
 50
270
 51
350.53766999999999
  0
LINE
  8
_0-0_LAYER001
  6
CONTINUOUS
 62
    4
 10
1186.9418000000001
 20
1112.9399000000001
 11
1188.4060999999999
 21
1112.7692999999999
  0
LINE
  8
_0-0_LAYER001
  6
CONTINUOUS
 62
    4
 10
1188.4060999999999
 20
1112.7692999999999
 11
1189.8671999999999
 21
1112.5225
  0
LINE
  8
_0-0_LAYER001
  6
CONTINUOUS
 62
    4
 10
1189.8671999999999
 20
1112.5225
 11
1191.3208999999999
 21
1112.2065
  0
LINE
  8
_0-0_LAYER001
  6
CONTINUOUS
 62
    4
 10
1191.3208999999999
 20
1112.2065
 11
1192.7629999999999
 21
1111.828
  0
LINE
  8
_0-0_LAYER001
  6
CONTINUOUS
 62
    4
 10
1192.7629999999999
 20
1111.828
 11
1194.1895
 21
1111.3939
  0
LINE
  8
_0-0_LAYER001
  6
CONTINUOUS
 62
    4
 10
1194.1895
 20
1111.3939
 11
1195.0079000000001
 21
1111.1193000000001
  0
LINE
  8
_0-0_LAYER001
  6
CONTINUOUS
 62
    4
 10
1195.0079000000001
 20
1111.1193000000001
 11
1197.5062
 21
1110.171
  0
LINE
  8
_0-0_LAYER001
  6
CONTINUOUS
 62
    4
 10
1197.5062
 20
1110.171
 11
1201.6650999999999
 21
1108.2375
  0
LINE
  8
_0-0_LAYER001
  6
CONTINUOUS
 62
    4
 10
1201.6650999999999
 20
1108.2375
 11
1205.6688999999999
 21
1105.9920999999999
  0
LINE
  8
_0-0_LAYER001
  6
CONTINUOUS
 62
    4
 10
1205.6688999999999
 20
1105.9920999999999
 11
1209.5558000000001
 21
1103.5118
  0
LINE
  8
_0-0_LAYER001
  6
CONTINUOUS
 62
    4
 10
1209.5558000000001
 20
1103.5118
 11
1213.3638000000001
 21
1100.8737000000001
  0
LINE
  8
_0-0_LAYER001
  6
CONTINUOUS
 62
    4
 10
1213.3638000000001
 20
1100.8737000000001
 11
1217.1310000000001
 21
1098.1546000000001
  0
LINE
  8
_0-0_LAYER001
  6
CONTINUOUS
 62
    4
 10
1217.1310000000001
 20
1098.1546000000001
 11
1219.3124
 21
1096.5708
  0
LINE
  8
_0-0_LAYER001
  6
CONTINUOUS
 62
    4
 10
1219.3124
 20
1096.5708
 11
1222.6439
 21
1094.184
  0
LINE
  8
_0-0_LAYER001
  6
CONTINUOUS
 62
    4
 10
1222.6439
 20
1094.184
 11
1228.4362000000001
 21
1090.1669999999999
  0
LINE
  8
_0-0_LAYER001
  6
CONTINUOUS
 62
    4
 10
1228.4362000000001
 20
1090.1669999999999
 11
1234.3082999999999
 21
1086.3104000000001
  0
LINE
  8
_0-0_LAYER001
  6
CONTINUOUS
 62
    4
 10
1234.3082999999999
 20
1086.3104000000001
 11
1240.2825
 21
1082.6559
  0
LINE
  8
_0-0_LAYER001
  6
CONTINUOUS
 62
    4
 10
1240.2825
 20
1082.6559
 11
1246.3806999999999
 21
1079.2454
  0
LINE
  8
_0-0_LAYER001
  6
CONTINUOUS
 62
    4
 10
1246.3806999999999
 20
1079.2454
 11
1252.625
 21
1076.1206
  0
LINE
  8
_0-0_LAYER001
  6
CONTINUOUS
 62
    4
 10
1252.625
 20
1076.1206
 11
1256.3223
 21
1074.4556
  0
LINE
  8
_0-0_LAYER001
  6
CONTINUOUS
 62
    4
 10
1256.3223
 20
1074.4556
 11
1259.3815
 21
1073.1845000000001
  0
LINE
  8
_0-0_LAYER001
  6
CONTINUOUS
 62
    4
 10
1259.3815
 20
1073.1845000000001
 11
1264.742
 21
1071.1822999999999
  0
LINE
  8
_0-0_LAYER001
  6
CONTINUOUS
 62
    4
 10
1264.742
 20
1071.1822999999999
 11
1270.1976999999999
 21
1069.4268999999999
  0
LINE
  8
_0-0_LAYER001
  6
CONTINUOUS
 62
    4
 10
1270.1976999999999
 20
1069.4268999999999
 11
1275.7327
 21
1067.9260999999999
  0
LINE
  8
_0-0_LAYER001
  6
CONTINUOUS
 62
    4
 10
1275.7327
 20
1067.9260999999999
 11
1281.3309999999999
 21
1066.6881000000001
  0
LINE
  8
_0-0_LAYER001
  6
CONTINUOUS
 62
    4
 10
1281.3309999999999
 20
1066.6881000000001
 11
1286.9766999999999
 21
1065.7209
  0
LINE
  8
_0-0_LAYER001
  6
CONTINUOUS
 62
    4
 10
1286.9766999999999
 20
1065.7209
 11
1290.2666999999999
 21
1065.2871
  0
LINE
  8
_0-0_LAYER001
  6
CONTINUOUS
 62
    4
 10
1290.2666999999999
 20
1065.2871
 11
1292.7860000000001
 21
1065.0192999999999
  0
LINE
  8
_0-0_LAYER001
  6
CONTINUOUS
 62
    4
 10
1292.7860000000001
 20
1065.0192999999999
 11
1297.1380999999999
 21
1064.6793
  0
LINE
  8
_0-0_LAYER001
  6
CONTINUOUS
 62
    4
 10
1297.1380999999999
 20
1064.6793
 11
1301.4983000000002
 21
1064.4798000000001
  0
LINE
  8
_0-0_LAYER001
  6
CONTINUOUS
 62
    4
 10
1301.4983000000002
 20
1064.4798000000001
 11
1305.8634999999999
 21
1064.4051999999999
  0
LINE
  8
_0-0_LAYER001
  6
CONTINUOUS
 62
    4
 10
1305.8634999999999
 20
1064.4051999999999
 11
1310.2306000000001
 21
1064.4395
  0
LINE
  8
_0-0_LAYER001
  6
CONTINUOUS
 62
    4
 10
1310.2306000000001
 20
1064.4395
 11
1314.5965000000001
 21
1064.5671
  0
LINE
  8
_0-0_LAYER001
  6
CONTINUOUS
 62
    4
 10
1314.5965000000001
 20
1064.5671
 11
1317.127
 21
1064.6776
  0
LINE
  8
_0-0_LAYER001
  6
CONTINUOUS
 62
    4
 10
1317.127
 20
1064.6776
 11
1321.8561
 21
1064.9458
  0
LINE
  8
_0-0_LAYER001
  6
CONTINUOUS
 62
    4
 10
1321.8561
 20
1064.9458
 11
1329.9942000000001
 21
1065.5768
  0
LINE
  8
_0-0_LAYER001
  6
CONTINUOUS
 62
    4
 10
1329.9942000000001
 20
1065.5768
 11
1338.115
 21
1066.3906999999999
  0
LINE
  8
_0-0_LAYER001
  6
CONTINUOUS
 62
    4
 10
1338.115
 20
1066.3906999999999
 11
1346.2208000000001
 21
1067.3518999999999
  0
LINE
  8
_0-0_LAYER001
  6
CONTINUOUS
 62
    4
 10
1346.2208000000001
 20
1067.3518999999999
 11
1354.3143
 21
1068.4250999999999
  0
LINE
  8
_0-0_LAYER001
  6
CONTINUOUS
 62
    4
 10
1354.3143
 20
1068.4250999999999
 11
1362.3978999999999
 21
1069.5746999999999
  0
LINE
  8
_0-0_LAYER001
  6
CONTINUOUS
 62
    4
 10
1362.3978999999999
 20
1069.5746999999999
 11
1367.0828000000001
 21
1070.2625
  0
LINE
  8
_0-0_LAYER001
  6
CONTINUOUS
 62
    4
 10
1367.0828000000001
 20
1070.2625
 11
1369.5177000000001
 21
1070.6233
  0
LINE
  8
_0-0_LAYER001
  6
CONTINUOUS
 62
    4
 10
1369.5177000000001
 20
1070.6233
 11
1373.7146000000002
 21
1071.2492999999999
  0
LINE
  8
_0-0_LAYER001
  6
CONTINUOUS
 62
    4
 10
1373.7146000000002
 20
1071.2492999999999
 11
1377.9104000000002
 21
1071.8794
  0
LINE
  8
_0-0_LAYER001
  6
CONTINUOUS
 62
    4
 10
1377.9104000000002
 20
1071.8794
 11
1382.1052
 21
1072.5127
  0
LINE
  8
_0-0_LAYER001
  6
CONTINUOUS
 62
    4
 10
1382.1052
 20
1072.5127
 11
1386.2994000000001
 21
1073.1483000000001
  0
LINE
  8
_0-0_LAYER001
  6
CONTINUOUS
 62
    4
 10
1386.2994000000001
 20
1073.1483000000001
 11
1390.4930999999999
 21
1073.7853
  0
LINE
  8
_0-0_LAYER001
  6
CONTINUOUS
 62
    4
 10
1390.4930999999999
 20
1073.7853
 11
1392.9254000000001
 21
1074.155
  0
LINE
  8
_0-0_LAYER001
  6
CONTINUOUS
 62
    4
 10
1186.9733000000001
 20
1094.7311999999999
 11
1187.1224
 21
1094.6987999999999
  0
LINE
  8
_0-0_LAYER001
  6
CONTINUOUS
 62
    4
 10
1187.1224
 20
1094.6987999999999
 11
1187.8559
 21
1094.5063
  0
LINE
  8
_0-0_LAYER001
  6
CONTINUOUS
 62
    4
 10
1187.8559
 20
1094.5063
 11
1188.7050999999999
 21
1094.2478000000001
  0
LINE
  8
_0-0_LAYER001
  6
CONTINUOUS
 62
    4
 10
1188.7050999999999
 20
1094.2478000000001
 11
1188.9492
 21
1094.1659999999999
  0
LINE
  8
_0-0_LAYER001
  6
CONTINUOUS
 62
    4
 10
1188.9492
 20
1094.1659999999999
 11
1190.5091
 21
1093.5739000000001
  0
LINE
  8
_0-0_LAYER001
  6
CONTINUOUS
 62
    4
 10
1190.5091
 20
1093.5739000000001
 11
1193.4567999999999
 21
1092.2034000000001
  0
LINE
  8
_0-0_LAYER001
  6
CONTINUOUS
 62
    4
 10
1193.4567999999999
 20
1092.2034000000001
 11
1196.4177999999999
 21
1090.5427999999999
  0
LINE
  8
_0-0_LAYER001
  6
CONTINUOUS
 62
    4
 10
1196.4177999999999
 20
1090.5427999999999
 11
1199.5854999999999
 21
1088.5215000000001
  0
LINE
  8
_0-0_LAYER001
  6
CONTINUOUS
 62
    4
 10
1199.5854999999999
 20
1088.5215000000001
 11
1202.9703
 21
1086.1766
  0
LINE
  8
_0-0_LAYER001
  6
CONTINUOUS
 62
    4
 10
1202.9703
 20
1086.1766
 11
1206.576
 21
1083.5741
  0
LINE
  8
_0-0_LAYER001
  6
CONTINUOUS
 62
    4
 10
1206.576
 20
1083.5741
 11
1208.7829999999999
 21
1081.9717000000001
  0
LINE
  8
_0-0_LAYER001
  6
CONTINUOUS
 62
    4
 10
1208.7829999999999
 20
1081.9717000000001
 11
1212.2728999999999
 21
1079.4713999999999
  0
LINE
  8
_0-0_LAYER001
  6
CONTINUOUS
 62
    4
 10
1212.2728999999999
 20
1079.4713999999999
 11
1218.3651
 21
1075.2464
  0
LINE
  8
_0-0_LAYER001
  6
CONTINUOUS
 62
    4
 10
1218.3651
 20
1075.2464
 11
1224.6688999999999
 21
1071.1062999999999
  0
LINE
  8
_0-0_LAYER001
  6
CONTINUOUS
 62
    4
 10
1224.6688999999999
 20
1071.1062999999999
 11
1231.1895999999999
 21
1067.1175000000001
  0
LINE
  8
_0-0_LAYER001
  6
CONTINUOUS
 62
    4
 10
1231.1895999999999
 20
1067.1175000000001
 11
1237.9555
 21
1063.3335999999999
  0
LINE
  8
_0-0_LAYER001
  6
CONTINUOUS
 62
    4
 10
1237.9555
 20
1063.3335999999999
 11
1244.8986
 21
1059.8590999999999
  0
LINE
  8
_0-0_LAYER001
  6
CONTINUOUS
 62
    4
 10
1244.8986
 20
1059.8590999999999
 11
1249.172
 21
1057.9346
  0
LINE
  8
_0-0_LAYER001
  6
CONTINUOUS
 62
    4
 10
1249.172
 20
1057.9346
 11
1252.7771
 21
1056.4367
  0
LINE
  8
_0-0_LAYER001
  6
CONTINUOUS
 62
    4
 10
1252.7771
 20
1056.4367
 11
1258.8331000000001
 21
1054.1748
  0
LINE
  8
_0-0_LAYER001
  6
CONTINUOUS
 62
    4
 10
1258.8331000000001
 20
1054.1748
 11
1265.0830000000001
 21
1052.1638
  0
LINE
  8
_0-0_LAYER001
  6
CONTINUOUS
 62
    4
 10
1265.0830000000001
 20
1052.1638
 11
1271.4318000000001
 21
1050.4422999999999
  0
LINE
  8
_0-0_LAYER001
  6
CONTINUOUS
 62
    4
 10
1271.4318000000001
 20
1050.4422999999999
 11
1277.866
 21
1049.0195000000001
  0
LINE
  8
_0-0_LAYER001
  6
CONTINUOUS
 62
    4
 10
1277.866
 20
1049.0195000000001
 11
1284.2797
 21
1047.9206999999999
  0
LINE
  8
_0-0_LAYER001
  6
CONTINUOUS
 62
    4
 10
1284.2797
 20
1047.9206999999999
 11
1288.1385
 21
1047.412
  0
LINE
  8
_0-0_LAYER001
  6
CONTINUOUS
 62
    4
 10
1288.1385
 20
1047.412
 11
1291.1331
 21
1047.0935999999999
  0
LINE
  8
_0-0_LAYER001
  6
CONTINUOUS
 62
    4
 10
1291.1331
 20
1047.0935999999999
 11
1296.0255000000002
 21
1046.7112999999999
  0
LINE
  8
_0-0_LAYER001
  6
CONTINUOUS
 62
    4
 10
1296.0255000000002
 20
1046.7112999999999
 11
1300.9331
 21
1046.4867999999999
  0
LINE
  8
_0-0_LAYER001
  6
CONTINUOUS
 62
    4
 10
1300.9331
 20
1046.4867999999999
 11
1305.7804000000001
 21
1046.404
  0
LINE
  8
_0-0_LAYER001
  6
CONTINUOUS
 62
    4
 10
1305.7804000000001
 20
1046.404
 11
1310.5643
 21
1046.4416000000001
  0
LINE
  8
_0-0_LAYER001
  6
CONTINUOUS
 62
    4
 10
1310.5643
 20
1046.4416000000001
 11
1315.252
 21
1046.5786000000001
  0
LINE
  8
_0-0_LAYER001
  6
CONTINUOUS
 62
    4
 10
1315.252
 20
1046.5786000000001
 11
1318.0291999999999
 21
1046.6998000000001
  0
LINE
  8
_0-0_LAYER001
  6
CONTINUOUS
 62
    4
 10
1318.0291999999999
 20
1046.6998000000001
 11
1323.0615
 21
1046.9852000000001
  0
LINE
  8
_0-0_LAYER001
  6
CONTINUOUS
 62
    4
 10
1323.0615
 20
1046.9852000000001
 11
1331.5877
 21
1047.6463000000001
  0
LINE
  8
_0-0_LAYER001
  6
CONTINUOUS
 62
    4
 10
1331.5877
 20
1047.6463000000001
 11
1340.0725
 21
1048.4966999999999
  0
LINE
  8
_0-0_LAYER001
  6
CONTINUOUS
 62
    4
 10
1340.0725
 20
1048.4966999999999
 11
1348.4638999999997
 21
1049.4918
  0
LINE
  8
_0-0_LAYER001
  6
CONTINUOUS
 62
    4
 10
1348.4638999999997
 20
1049.4918
 11
1356.7644999999998
 21
1050.5924
  0
LINE
  8
_0-0_LAYER001
  6
CONTINUOUS
 62
    4
 10
1356.7644999999998
 20
1050.5924
 11
1364.9722999999999
 21
1051.7597000000001
  0
LINE
  8
_0-0_LAYER001
  6
CONTINUOUS
 62
    4
 10
1364.9722999999999
 20
1051.7597000000001
 11
1369.7093999999997
 21
1052.4550999999999
  0
LINE
  8
_0-0_LAYER001
  6
CONTINUOUS
 62
    4
 10
1369.7093999999997
 20
1052.4550999999999
 11
1372.1648
 21
1052.819
  0
LINE
  8
_0-0_LAYER001
  6
CONTINUOUS
 62
    4
 10
1372.1648
 20
1052.819
 11
1376.3788999999999
 21
1053.4476
  0
LINE
  8
_0-0_LAYER001
  6
CONTINUOUS
 62
    4
 10
1376.3788999999999
 20
1053.4476
 11
1380.5904
 21
1054.0799999999999
  0
LINE
  8
_0-0_LAYER001
  6
CONTINUOUS
 62
    4
 10
1380.5904
 20
1054.0799999999999
 11
1384.7972
 21
1054.7150999999999
  0
LINE
  8
_0-0_LAYER001
  6
CONTINUOUS
 62
    4
 10
1384.7972
 20
1054.7150999999999
 11
1388.9993999999999
 21
1055.3518999999999
  0
LINE
  8
_0-0_LAYER001
  6
CONTINUOUS
 62
    4
 10
1388.9993999999999
 20
1055.3518999999999
 11
1393.1972999999998
 21
1055.9896000000001
  0
LINE
  8
_0-0_LAYER001
  6
CONTINUOUS
 62
    4
 10
1393.1972999999998
 20
1055.9896000000001
 11
1394.8150000000001
 21
1056.2355
  0
LINE
  8
_0-0_LAYER001
  6
CONTINUOUS
 62
    4
 10
1405.3237999999999
 20
1059.3065999999999
 11
1405.3237999999999
 21
1076.5039999999999
  0
LINE
  8
_0-0_LAYER001
  6
CONTINUOUS
 62
    4
 10
1393.0504000000001
 20
1074.1904
 11
1437.5046000000002
 21
1083.8382999999999
  0
LINE
  8
_0-0_LAYER001
  6
CONTINUOUS
 62
    4
 10
1399.7955999999999
 20
1054.3567
 11
1438.4674
 21
1063.4067
  0
LINE
  8
_0-0_LAYER001
  6
CONTINUOUS
 62
    4
 10
1438.4674
 20
1064.3631
 11
1438.4674
 21
1063.4067
  0
ARC
  8
_0-0_LAYER001
  6
CONTINUOUS
 62
    4
 10
1439.4674
 20
1064.3631
 40
1
 50
102.72435
 51
180
  0
LINE
  8
_0-0_LAYER001
  6
CONTINUOUS
 62
    4
 10
1444.2844
 20
1066.4760000000001
 11
1439.2471
 21
1065.3386
  0
ARC
  8
_0-0_LAYER001
  6
CONTINUOUS
 62
    4
 10
1444.5046000000002
 20
1065.5006000000001
 40
1
 50
0
 51
102.72435
  0
LINE
  8
_0-0_LAYER001
  6
CONTINUOUS
 62
    4
 10
1444.7166999999999
 20
1066.9845
 11
1394.5828000000001
 21
1056.104
  0
ARC
  8
_0-0_LAYER001
  6
CONTINUOUS
 62
    4
 10
1444.5046000000002
 20
1067.9617000000001
 40
1
 50
282.24497000000002
 51
0
  0
LINE
  8
_0-0_LAYER001
  6
CONTINUOUS
 62
    4
 10
1444.7224999999999
 20
1046.2438
 11
1395.1385
 21
1035.1759
  0
LINE
  8
_0-0_LAYER001
  6
CONTINUOUS
 62
    4
 10
1445.5046000000002
 20
1047.2197000000001
 11
1445.5046000000002
 21
1065.5006000000001
  0
ARC
  8
_0-0_LAYER001
  6
CONTINUOUS
 62
    4
 10
1444.5046000000002
 20
1047.2197000000001
 40
1
 50
282.58296000000001
 51
0.0000000000000254
  0
LINE
  8
_0-0_LAYER001
  6
CONTINUOUS
 62
    4
 10
1437.5046000000002
 20
1085.2953
 11
1437.5046000000002
 21
1083.8382999999999
  0
ARC
  8
_0-0_LAYER001
  6
CONTINUOUS
 62
    4
 10
1438.5046000000002
 20
1085.2953
 40
1
 50
101.73308
 51
180
  0
LINE
  8
_0-0_LAYER001
  6
CONTINUOUS
 62
    4
 10
1444.3013000000001
 20
1087.5206000000001
 11
1438.3013000000001
 21
1086.2744
  0
LINE
  8
_0-0_LAYER001
  6
CONTINUOUS
 62
    4
 10
1445.5046000000002
 20
1086.5415
 11
1445.5046000000002
 21
1067.9617000000001
  0
ARC
  8
_0-0_LAYER001
  6
CONTINUOUS
 62
    4
 10
1444.5046000000002
 20
1086.5415
 40
1
 50
0
 51
101.73308
  0
LINE
  8
_0-0_LAYER001
  6
DASHED1
 62
    2
 10
1260.7155
 20
1059.0597
 11
1260.7155
 21
1056.0597
  0
LINE
  8
_0-0_LAYER001
  6
DASHED1
 62
    2
 10
1509.7217000000001
 20
1056.3284000000001
 11
1525.7217000000001
 21
1056.3284000000001
  0
LINE
  8
_0-0_LAYER001
  6
DASHED1
 62
    2
 10
1525.7217000000001
 20
1056.3284000000001
 11
1525.7217000000001
 21
1053.3284000000001
  0
LINE
  8
_0-0_LAYER001
  6
DASHED1
 62
    2
 10
1509.7217000000001
 20
1056.3284000000001
 11
1509.7217000000001
 21
1053.3284000000001
  0
LINE
  8
_0-0_LAYER001
  6
DASHED1
 62
    2
 10
1509.7217000000001
 20
1053.3284000000001
 11
1525.7217000000001
 21
1053.3284000000001
  0
LINE
  8
_0-0_LAYER001
  6
DASHED1
 62
    2
 10
1520.7217000000001
 20
998.43239999999992
 11
1517.6716000000001
 21
983.9233999999999
  0
LINE
  8
_0-0_LAYER001
  6
DASHED1
 62
    2
 10
1520.7217000000001
 20
1053.3284000000001
 11
1520.7217000000001
 21
998.43239999999992
  0
LINE
  8
_0-0_LAYER001
  6
DASHED1
 62
    2
 10
1517.6716000000001
 20
983.9233999999999
 11
1514.7217000000001
 21
998.18090000000007
  0
LINE
  8
_0-0_LAYER001
  6
DASHED1
 62
    2
 10
1514.7217000000001
 20
1053.3284000000001
 11
1514.7217000000001
 21
998.18090000000007
  0
LINE
  8
_0-1_LAYER004
  6
CONTINUOUS
 62
   18
 10
869.4360999999999
 20
1345.0102999999999
 11
1016.4360999999999
 21
1345.0102999999999
  0
LINE
  8
_0-1_LAYER004
  6
CONTINUOUS
 62
   18
 10
1228.7366999999999
 20
1399.6030999999998
 11
1269.2366999999999
 21
1399.6030999999998
  0
LINE
  8
_0-1_LAYER004
  6
CONTINUOUS
 62
   18
 10
1284.1486
 20
1356.5808999999999
 11
1449.0808000000002
 21
1356.5808999999999
  0
LINE
  8
_0-1_LAYER004
  6
CONTINUOUS
 62
   18
 10
1449.0808000000002
 20
1356.5808999999999
 11
1284.1486
 21
1356.5808999999999
  0
LINE
  8
_0-1_LAYER004
  6
CONTINUOUS
 62
   18
 10
1145.2129
 20
1444.7982
 11
1145.2129
 21
774.9688000000001
  0
LINE
  8
_0-1_LAYER004
  6
CONTINUOUS
 62
   18
 10
944.56600000000003
 20
908.88709999999992
 11
1091.566
 21
908.88709999999992
  0
LINE
  8
_0-1_LAYER004
  6
CONTINUOUS
 62
   18
 10
1161.6029000000001
 20
853.67769999999996
 11
1161.6029000000001
 21
950.47769999999991
  0
LINE
  8
_0-1_LAYER004
  6
CONTINUOUS
 62
   18
 10
1151.6029000000001
 20
950.47769999999991
 11
1151.6029000000001
 21
1000.4776999999999
  0
LINE
  8
_0-1_LAYER004
  6
CONTINUOUS
 62
   18
 10
1150.0179000000001
 20
1000.4776999999999
 11
1150.0179000000001
 21
1446.7873
  0
LINE
  8
_0-1_LAYER004
  6
CONTINUOUS
 62
   18
 10
1173.0179000000001
 20
1444.7982
 11
1173.0179000000001
 21
1144.0324000000001
  0
LINE
  8
_0-1_LAYER004
  6
CONTINUOUS
 62
   18
 10
1173.0179000000001
 20
1144.0324000000001
 11
1185.0179000000001
 21
1144.0324000000001
  0
LINE
  8
_0-1_LAYER004
  6
CONTINUOUS
 62
   18
 10
1185.0179000000001
 20
1144.0324000000001
 11
1185.0179000000001
 21
1444.7982
  0
LINE
  8
_0-1_LAYER004
  6
CONTINUOUS
 62
   18
 10
1152.3408999999999
 20
1300.4776999999999
 11
1152.3408999999999
 21
1002.4776999999999
  0
LINE
  8
_0-1_LAYER004
  6
CONTINUOUS
 62
   18
 10
1152.3408999999999
 20
1002.4776999999999
 11
2100.5637999999999
 21
1002.4776999999999
  0
LINE
  8
_0-1_LAYER004
  6
CONTINUOUS
 62
   18
 10
2100.5637999999999
 20
1000.4776999999999
 11
1150.0179000000001
 21
1000.4776999999999
  0
LINE
  8
_0-1_LAYER004
  6
CONTINUOUS
 62
   18
 10
1151.6029000000001
 20
950.47769999999991
 11
2100.5637999999999
 21
950.47769999999991
  0
LINE
  8
_0-1_LAYER004
  6
CONTINUOUS
 62
   18
 10
2100.5637999999999
 20
850.47769999999991
 11
1161.6029000000001
 21
850.47769999999991
  0
LINE
  8
_0-1_LAYER004
  6
CONTINUOUS
 62
   18
 10
1161.6029000000001
 20
850.47769999999991
 11
1161.6029000000001
 21
853.67769999999996
  0
LINE
  8
_0-1_LAYER004
  6
CONTINUOUS
 62
   18
 10
1166.6029000000001
 20
858.69640000000004
 11
1166.6029000000001
 21
806.99639999999999
  0
LINE
  8
_0-1_LAYER004
  6
CONTINUOUS
 62
   18
 10
1166.6029000000001
 20
808.69640000000004
 11
1286.6029000000001
 21
808.69640000000004
  0
LINE
  8
_0-1_LAYER004
  6
CONTINUOUS
 62
   18
 10
1286.6029000000001
 20
806.99639999999999
 11
1286.6029000000001
 21
853.67769999999996
  0
LINE
  8
_0-1_LAYER004
  6
CONTINUOUS
 62
   18
 10
1184.8625999999999
 20
804.13480000000004
 11
1184.8625999999999
 21
752.4348
  0
LINE
  8
_0-1_LAYER004
  6
CONTINUOUS
 62
   18
 10
1184.8625999999999
 20
754.13480000000004
 11
1934.8625999999999
 21
754.13480000000004
  0
LINE
  8
_0-1_LAYER004
  6
CONTINUOUS
 62
   18
 10
1934.8625999999999
 20
752.4348
 11
1934.8625999999999
 21
804.13480000000004
  0
LINE
  8
_0-1_LAYER004
  6
CONTINUOUS
 62
   18
 10
1669.8625999999999
 20
751.63480000000004
 11
1669.8625999999999
 21
804.13480000000004
  0
LINE
  8
_0-1_LAYER004
  6
CONTINUOUS
 62
   18
 10
1404.8625999999999
 20
752.4348
 11
1404.8625999999999
 21
804.13480000000004
  0
LINE
  8
_0-1_LAYER004
  6
CONTINUOUS
 62
   18
 10
1723.154
 20
699.25440000000003
 11
1927.9767000000002
 21
699.25440000000003
  0
LINE
  8
_0-1_LAYER004
  6
CONTINUOUS
 62
   18
 10
1746.7793000000001
 20
609.42589999999996
 11
2067.7793000000001
 21
609.42589999999996
  0
LINE
  8
_0-1_LAYER004
  6
CONTINUOUS
 62
   18
 10
1288.6030000000001
 20
1006.4776999999999
 11
1288.6030000000001
 21
1021.4776999999999
  0
LINE
  8
_0-1_LAYER004
  6
CONTINUOUS
 62
   18
 10
1288.6030000000001
 20
1021.4776999999999
 11
2096.1922
 21
1021.4776999999999
  0
LINE
  8
_0-1_LAYER004
  6
CONTINUOUS
 62
   18
 10
2100.5637999999999
 20
1006.4776999999999
 11
1288.6030000000001
 21
1006.4776999999999
  0
LINE
  8
_0-1_LAYER004
  6
CONTINUOUS
 62
   18
 10
1286.6029000000001
 20
1022.2206000000001
 11
1286.6029000000001
 21
1004.4776999999999
  0
LINE
  8
_0-1_LAYER004
  6
CONTINUOUS
 62
   18
 10
1286.6029000000001
 20
1022.2206000000001
 11
1274.1809263536868
 21
1022.2206000000001
  0
LINE
  8
_0-1_LAYER004
  6
CONTINUOUS
 62
   18
 10
1286.6029000000001
 20
1004.4776999999999
 11
1170.6029000000001
 21
1004.4776999999999
  0
LINE
  8
_0-1_LAYER004
  6
CONTINUOUS
 62
   18
 10
1170.6029000000001
 20
1004.4776999999999
 11
1170.6029000000001
 21
1082.2129
  0
LINE
  8
_0-1_LAYER004
  6
CONTINUOUS
 62
   18
 10
1182.3408999999999
 20
1082.5121999999999
 11
1152.3408999999999
 21
1082.5121999999999
  0
LINE
  8
_0-1_LAYER004
  6
CONTINUOUS
 62
   18
 10
1153.3831
 20
1082.2129
 11
1153.3831
 21
1003.6079999999999
  0
LINE
  8
_0-1_LAYER004
  6
CONTINUOUS
 62
   18
 10
1153.3831
 20
1003.6079999999999
 11
1168.3831
 21
1003.6079999999999
  0
LINE
  8
_0-1_LAYER004
  6
CONTINUOUS
 62
   18
 10
1168.3831
 20
1003.6079999999999
 11
1168.3831
 21
1082.2129
  0
LINE
  8
_0-1_LAYER004
  6
CONTINUOUS
 62
   18
 10
1182.3408999999999
 20
1082.5121999999999
 11
1182.3408999999999
 21
1117.2222999999999
  0
LINE
  8
_0-1_LAYER004
  6
CONTINUOUS
 62
   18
 10
1176.3409999999999
 20
1099.5121999999999
 11
1176.3409999999999
 21
1105.5120999999999
  0
LINE
  8
_0-1_LAYER004
  6
CONTINUOUS
 62
   18
 10
1176.3409999999999
 20
1105.5120999999999
 11
1152.3408999999999
 21
1105.5120999999999
  0
LINE
  8
_0-1_LAYER004
  6
CONTINUOUS
 62
   18
 10
1152.3408999999999
 20
1105.5120999999999
 11
1109.3409999999999
 21
1105.5120999999999
  0
LINE
  8
_0-1_LAYER004
  6
CONTINUOUS
 62
   18
 10
1109.3409999999999
 20
1099.5121999999999
 11
1176.3409999999999
 21
1099.5121999999999
  0
LINE
  8
_0-1_LAYER004
  6
CONTINUOUS
 62
   18
 10
1173.0179000000001
 20
1164.5868
 11
1155.0179000000001
 21
1164.5868
  0
LINE
  8
_0-1_LAYER004
  6
CONTINUOUS
 62
   18
 10
1155.0179000000001
 20
1164.5868
 11
1155.0179000000001
 21
1204.5868
  0
LINE
  8
_0-1_LAYER004
  6
CONTINUOUS
 62
   18
 10
1155.0179000000001
 20
1204.5868
 11
1173.0179000000001
 21
1204.5868
  0
LINE
  8
_0-1_LAYER004
  6
CONTINUOUS
 62
   18
 10
1153.6029000000001
 20
1139.5518
 11
1153.6029000000001
 21
1289.5517999999997
  0
LINE
  8
_0-1_LAYER004
  6
CONTINUOUS
 62
   18
 10
1185.0179000000001
 20
1274.3839
 11
1275.0179000000001
 21
1274.3839
  0
LINE
  8
_0-1_LAYER004
  6
CONTINUOUS
 62
   18
 10
1275.0179000000001
 20
1276.0839000000001
 11
1275.0179000000001
 21
1212.1004
  0
LINE
  8
_0-1_LAYER004
  6
CONTINUOUS
 62
   18
 10
1004.7435000000002
 20
1289.5517999999997
 11
1056.4435000000001
 21
1289.5517999999997
  0
LINE
  8
_0-1_LAYER004
  6
CONTINUOUS
 62
   18
 10
1006.4435000000001
 20
1289.5517999999997
 11
1006.4435000000001
 21
1000.4776999999999
  0
LINE
  8
_0-1_LAYER004
  6
CONTINUOUS
 62
   18
 10
1004.7435000000002
 20
1000.4776999999999
 11
1056.4435000000001
 21
1000.4776999999999
  0
LINE
  8
_0-1_LAYER004
  6
CONTINUOUS
 62
   18
 10
1004.7435000000002
 20
1082.5121999999999
 11
1056.4435000000001
 21
1082.5121999999999
  0
LINE
  8
_0-1_LAYER004
  6
CONTINUOUS
 62
   18
 10
1004.7435000000002
 20
1139.5518
 11
1056.4435000000001
 21
1139.5518
  0
LINE
  8
_0-1_LAYER004
  6
CONTINUOUS
 62
   18
 10
925.76710000000003
 20
1000.4776999999999
 11
977.46710000000007
 21
1000.4776999999999
  0
LINE
  8
_0-1_LAYER004
  6
CONTINUOUS
 62
   18
 10
927.46710000000007
 20
1000.4776999999999
 11
927.46710000000007
 21
1300.4776999999999
  0
LINE
  8
_0-1_LAYER004
  6
CONTINUOUS
 62
   18
 10
924.96710000000007
 20
1300.4776999999999
 11
977.46710000000007
 21
1300.4776999999999
  0
LINE
  8
_0-1_LAYER004
  6
CONTINUOUS
 62
   18
 10
1016.4360999999999
 20
1345.0102999999999
 11
1162.9368999999999
 21
1091.2636
  0
LINE
  8
_0-1_LAYER004
  6
CONTINUOUS
 62
   18
 10
1162.9368999999999
 20
1091.2636
 11
1160.9956999999999
 21
1098.508
  0
LINE
  8
_0-1_LAYER004
  6
CONTINUOUS
 62
   18
 10
1162.9368999999999
 20
1091.2636
 11
1157.6335999999999
 21
1096.5669
  0
LINE
  8
_0-1_LAYER004
  6
CONTINUOUS
 62
   18
 10
1157.6335999999999
 20
1096.5669
 11
1162.9368999999999
 21
1091.2636
  0
LINE
  8
_0-1_LAYER004
  6
CONTINUOUS
 62
   18
 10
1176.3409999999999
 20
1105.5120999999999
 11
1182.3408999999999
 21
1108.5121999999999
  0
LINE
  8
_0-1_LAYER004
  6
CONTINUOUS
 62
   18
 10
1176.3409999999999
 20
1099.5121999999999
 11
1182.3408999999999
 21
1096.5120999999999
  0
LINE
  8
_0-1_LAYER004
  6
CONTINUOUS
 62
   18
 10
1161.9870000000001
 20
1107.0038999999999
 11
1162.1954000000001
 21
1098.1212
  0
LINE
  8
_0-1_LAYER004
  6
CONTINUOUS
 62
   18
 10
1162.1954000000001
 20
1098.1212
 11
1165.6370999999999
 21
1106.3601000000001
  0
LINE
  8
_0-1_LAYER004
  6
CONTINUOUS
 62
   18
 10
1165.6370999999999
 20
1106.3601000000001
 11
1170.3268
 21
1132.9535000000001
  0
LINE
  8
_0-1_LAYER004
  6
CONTINUOUS
 62
   18
 10
1170.3268
 20
1132.9535000000001
 11
1173.1628000000001
 21
1134.0721000000001
  0
LINE
  8
_0-1_LAYER004
  6
CONTINUOUS
 62
   18
 10
1166.6768999999999
 20
1133.5958000000001
 11
1164.3933999999999
 21
1135.6184000000001
  0
LINE
  8
_0-1_LAYER004
  6
CONTINUOUS
 62
   18
 10
1166.6768999999999
 20
1133.5958000000001
 11
1161.9870000000001
 21
1107.0038999999999
  0
LINE
  8
_0-1_LAYER004
  6
CONTINUOUS
 62
   18
 10
1152.3408999999999
 20
1122.5121999999999
 11
1154.9456
 21
1137.2843
  0
LINE
  8
_0-1_LAYER004
  6
CONTINUOUS
 62
   18
 10
1154.9456
 20
1137.2843
 11
1258.3504
 21
1119.0512000000001
  0
LINE
  8
_0-1_LAYER004
  6
CONTINUOUS
 62
   18
 10
1258.3504
 20
1119.0512000000001
 11
1255.7456999999999
 21
1104.2791
  0
LINE
  8
_0-1_LAYER004
  6
CONTINUOUS
 62
   18
 10
1255.7456999999999
 20
1104.2791
 11
1152.3408999999999
 21
1122.5121999999999
  0
LINE
  8
_0-1_LAYER004
  6
CONTINUOUS
 62
   18
 10
1152.3408999999999
 20
1122.5121999999999
 11
1258.3504
 21
1119.0512000000001
  0
LINE
  8
_0-1_LAYER004
  6
CONTINUOUS
 62
   18
 10
1269.7411999999999
 20
1100.0595000000001
 11
1275.0216
 21
1094.4591
  0
LINE
  8
_0-1_LAYER004
  6
CONTINUOUS
 62
   18
 10
1275.0216
 20
1094.4591
 11
1272.4353000000001
 21
1118.5985000000001
  0
LINE
  8
_0-1_LAYER004
  6
CONTINUOUS
 62
   18
 10
1272.4353000000001
 20
1118.5985000000001
 11
1153.6029000000001
 21
1139.5518
  0
LINE
  8
_0-1_LAYER004
  6
CONTINUOUS
 62
   18
 10
1173.0179000000001
 20
1164.5868
 11
1173.0179000000001
 21
1204.5868
  0
LINE
  8
_0-1_LAYER004
  6
CONTINUOUS
 62
   18
 10
1173.0179000000001
 20
1164.5868
 11
1155.0179000000001
 21
1204.5868
  0
LINE
  8
_0-1_LAYER004
  6
CONTINUOUS
 62
   18
 10
1169.9308000000001
 20
1187.6365000000001
 11
1169.9308000000001
 21
1180.1365000000001
  0
LINE
  8
_0-1_LAYER004
  6
CONTINUOUS
 62
   18
 10
1169.9308000000001
 20
1180.1365000000001
 11
1173.6808000000001
 21
1186.6316999999999
  0
LINE
  8
_0-1_LAYER004
  6
CONTINUOUS
 62
   18
 10
1169.9308000000001
 20
1180.1365000000001
 11
1228.7366999999999
 21
1399.6030999999998
  0
LINE
  8
_0-1_LAYER004
  6
CONTINUOUS
 62
   18
 10
1178.3527999999999
 20
1397.7498000000001
 11
1178.3527999999999
 21
1390.2498000000001
  0
LINE
  8
_0-1_LAYER004
  6
CONTINUOUS
 62
   18
 10
1178.3527999999999
 20
1390.2498000000001
 11
1182.1027999999999
 21
1396.7449999999999
  0
LINE
  8
_0-1_LAYER004
  6
CONTINUOUS
 62
   18
 10
1178.3527999999999
 20
1390.2498000000001
 11
1200.5454
 21
1473.0740000000001
  0
LINE
  8
_0-1_LAYER004
  6
CONTINUOUS
 62
   18
 10
1178.837
 20
1117.8402000000001
 11
1152.3408999999999
 21
1082.5121999999999
  0
LINE
  8
_0-1_LAYER004
  6
CONTINUOUS
 62
   18
 10
1170.6029000000001
 20
1082.2129
 11
1177.5556999999999
 21
1069.2225000000001
  0
LINE
  8
_0-1_LAYER004
  6
CONTINUOUS
 62
   18
 10
1168.3831
 20
1082.2129
 11
1153.3831
 21
1003.6079999999999
  0
LINE
  8
_0-1_LAYER004
  6
CONTINUOUS
 62
   18
 10
1159.5202999999999
 20
1026.5872999999999
 11
1154.2170000000001
 21
1021.2840000000001
  0
LINE
  8
_0-1_LAYER004
  6
CONTINUOUS
 62
   18
 10
1159.5202999999999
 20
1026.5872999999999
 11
1157.5790999999999
 21
1019.3429000000001
  0
LINE
  8
_0-1_LAYER004
  6
CONTINUOUS
 62
   18
 10
1159.5202999999999
 20
1026.5872999999999
 11
1091.566
 21
908.88709999999992
  0
LINE
  8
_0-1_LAYER004
  6
CONTINUOUS
 62
   18
 10
1206.3234
 20
999.17440000000011
 11
1211.6267
 21
1004.4776999999999
  0
LINE
  8
_0-1_LAYER004
  6
CONTINUOUS
 62
   18
 10
1211.6267
 20
1004.4776999999999
 11
1209.6856
 21
997.2331999999999
  0
LINE
  8
_0-1_LAYER004
  6
CONTINUOUS
 62
   18
 10
1211.6267
 20
1004.4776999999999
 11
1103.7067
 21
817.55469999999991
  0
LINE
  8
_0-1_LAYER004
  6
CONTINUOUS
 62
   18
 10
1361.297
 20
1000.4776999999999
 11
1311.2969000000001
 21
950.47769999999991
  0
LINE
  8
_0-1_LAYER004
  6
CONTINUOUS
 62
   18
 10
1315.5396000000001
 20
950.47769999999991
 11
1365.5396000000001
 21
1000.4776999999999
  0
LINE
  8
_0-1_LAYER004
  6
CONTINUOUS
 62
   18
 10
1573.4288999999999
 20
1000.4776999999999
 11
1523.4290999999998
 21
950.47769999999991
  0
LINE
  8
_0-1_LAYER004
  6
CONTINUOUS
 62
   18
 10
1527.6716999999999
 20
950.47769999999991
 11
1577.6714999999999
 21
1000.4776999999999
  0
LINE
  8
_0-1_LAYER004
  6
CONTINUOUS
 62
   18
 10
1789.8036999999999
 20
1000.4776999999999
 11
1739.8038000000001
 21
950.47769999999991
  0
LINE
  8
_0-1_LAYER004
  6
CONTINUOUS
 62
   18
 10
1735.5612000000001
 20
950.47769999999991
 11
1785.5610000000001
 21
1000.4776999999999
  0
LINE
  8
_0-1_LAYER004
  6
CONTINUOUS
 62
   18
 10
1639.9157
 20
1008.2462
 11
1639.9157
 21
1000.7462
  0
LINE
  8
_0-1_LAYER004
  6
CONTINUOUS
 62
   18
 10
1639.9157
 20
1008.2462
 11
1643.6657
 21
1001.751
  0
LINE
  8
_0-1_LAYER004
  6
CONTINUOUS
 62
   18
 10
1639.9157
 20
1008.2462
 11
1746.7793000000001
 21
609.42589999999996
  0
LINE
  8
_0-1_LAYER004
  6
CONTINUOUS
 62
   18
 10
1997.6931
 20
1000.4776999999999
 11
1947.6932999999999
 21
950.47769999999991
  0
LINE
  8
_0-1_LAYER004
  6
CONTINUOUS
 62
   18
 10
1951.9360000000001
 20
950.47769999999991
 11
2001.9358000000002
 21
1000.4776999999999
  0
TEXT
  8
_0-2_LAYER006
 62
    7
 10
1623.3877792098069
 20
698.40744126592972
 40
20
 41
1
 50
0
  1
：
  0
TEXT
  8
_0-2_LAYER006
 62
    7
 10
1304.4017422767672
 20
1324.4058737827711
 40
20
 41
1
 50
0
  1
雨押水切カラー鋼板0.35ｍｍ以上
  0
TEXT
  8
_0-2_LAYER006
 62
    7
 10
1735.7695150566537
 20
708.92068393269687
 40
20
 41
1
 50
0
  1
瓦桟：15x30以上
  0
TEXT
  8
_0-2_LAYER006
 62
    7
 10
1740.2044461582077
 20
673.44123512026624
 40
20
 41
1
 50
0
  1
下葺材：ルーフィング
  0
TEXT
  8
_0-2_LAYER006
 62
    7
 10
1745.5263634800722
 20
645.05767607032203
 40
20
 41
1
 50
0
  1
野地板：ALCパネル　t＝50
  0
TEXT
  8
_0-2_LAYER006
 62
    7
 10
1753.5092394628691
 20
611.352199698513
 40
20
 41
1
 50
0
  1
　鋼製：C100x50x20x2.3
  0
TEXT
  8
_0-2_LAYER006
 62
    7
 10
1221.3175072764122
 20
1281.9137822534485
 40
20
 41
1
 50
0
  1
90
  0
TEXT
  8
_0-2_LAYER006
 62
    7
 10
1545.9544639101509
 20
767.46177447320702
 40
20
 41
1
 50
0
  1
265
  0
TEXT
  8
_0-2_LAYER006
 62
    7
 10
1764.1530741065981
 20
767.46177447320702
 40
20
 41
1
 50
0
  1
265
  0
TEXT
  8
_0-2_LAYER006
 62
    7
 10
1218.0648399925678
 20
815.12834474702049
 40
20
 41
1
 50
0
  1
120
  0
TEXT
  8
_0-2_LAYER006
 62
    7
 10
1286.4354449277312
 20
757.52845154821841
 40
20
 41
1
 50
0
  1
220
  0
TEXT
  8
_0-2_LAYER006
 62
    7
 10
916.1944364777321
 20
1045.143053528129
 40
20
 41
1
 50
90
  1
下葺き材立上がり寸法
  0
TEXT
  8
_0-2_LAYER006
 62
    7
 10
1037.9906977472783
 20
1100.7292739481834
 40
20
 41
1
 50
90
  1
57
  0
TEXT
  8
_0-2_LAYER006
 62
    7
 10
1036.840191848238
 20
1195.0707576695024
 40
20
 41
1
 50
90
  1
150
  0
TEXT
  8
_0-2_LAYER006
 62
    7
 10
1000.0240030789428
 20
1019.0433551163096
 40
20
 41
1
 50
90
  1
水切り鉄板立上がり寸法
  0
TEXT
  8
_0-2_LAYER006
 62
    7
 10
954.00376711732383
 20
1136.394956818438
 40
20
 41
1
 50
90
  1
300
  0
TEXT
  8
_0-2_LAYER006
 62
    7
 10
1038.7335146248774
 20
1035.8378986399493
 40
20
 41
1
 50
90
  1
83
  0
TEXT
  8
_0-0_LAYER001
 62
    7
 10
1289.6006526627275
 20
1365.1010173146278
 40
20
 41
1
 50
0
  1
笠木：15x105
  0
TEXT
  8
_0-0_LAYER001
 62
    7
 10
1230.0197073787381
 20
1405.8669272457787
 40
20
 41
1
 50
0
  1
胴　縁
  0
TEXT
  8
_0-0_LAYER001
 62
    7
 10
1197.0933955112705
 20
1479.5591490443971
 40
20
 41
1
 50
0
  1
外壁　防火サイディング
  0
TEXT
  8
_0-0_LAYER001
 62
    7
 10
869.39819644932845
 20
1350.9897407999988
 40
20
 41
1
 50
0
  1
下地材：40x30
  0
LINE
  8
_0-0_LAYER001
  6
CONTINUOUS
 62
    2
 10
1730.0630000000001
 20
669.38779999999997
 11
1963.6044461582078
 21
669.38779999999997
  0
LINE
  8
_0-1_LAYER004
  6
CONTINUOUS
 62
   18
 10
1730.0630000000001
 20
669.38779999999997
 11
1962.2381665267139
 21
669.38779999999997
  0
LINE
  8
_0-0_LAYER001
  6
CONTINUOUS
 62
    2
 10
1739.6061
 20
639.29250000000002
 11
2031.2266294871229
 21
639.29250000000002
  0
LINE
  8
_0-1_LAYER004
  6
CONTINUOUS
 62
   18
 10
1739.6061
 20
639.29250000000002
 11
2021.8191118107034
 21
639.29250000000002
  0
LINE
  8
_0-0_LAYER001
  6
CONTINUOUS
 62
    2
 10
1304.4040999999997
 20
1320.2959000000001
 11
1640.8146459157181
 21
1320.2959000000001
  0
LINE
  8
_0-1_LAYER004
  6
CONTINUOUS
 62
   18
 10
1304.4040999999997
 20
1320.2959000000001
 11
1637.678806690245
 21
1320.2959000000001
  0
LINE
  8
_0-0_LAYER001
  6
CONTINUOUS
 62
    2
 10
1200.5454
 20
1473.0740000000001
 11
1444.8246943236475
 21
1473.0740000000001
  0
LINE
  8
_0-1_LAYER004
  6
CONTINUOUS
 62
   18
 10
1200.5454
 20
1473.0740000000001
 11
1447.9605335491206
 21
1473.0740000000001
  0
TEXT
  8
_0-0_LAYER001
 62
    7
 10
946.22625747341999
 20
919.81184729744359
 40
20
 41
1
 50
0
  1
下地：15x145
  0
TEXT
  8
_0-0_LAYER001
 62
    7
 10
791.00221581250014
 20
821.03291169503996
 40
20
 41
1
 50
0
  1
捨谷　カラー鋼板0.35ｍｍ以上
  0
LINE
  8
_0-0_LAYER001
  6
CONTINUOUS
 62
    2
 10
1103.7067
 20
817.55469999999991
 11
791.00221581250014
 21
817.55469999999991
  0
LINE
  8
_0-1_LAYER004
  6
CONTINUOUS
 62
   18
 10
1103.7067
 20
817.55469999999991
 11
794.13805503797323
 21
817.55469999999991
  0
LINE
  8
_0-0_LAYER001
  6
CONTINUOUS
 62
    2
 10
1219.3674073055304
 20
1114.8141596331427
 11
1284.1486
 21
1356.5808999999999
  0
LINE
  8
_0-1_LAYER004
  6
CONTINUOUS
 62
   18
 10
1219.2549316381092
 20
1114.3943946619843
 11
1284.1486
 21
1356.5808999999999
  0
LINE
  8
_0-0_LAYER001
  6
CONTINUOUS
 62
    2
 10
1251.3553815401349
 20
1122.3154480332394
 11
1251.3553815401349
 21
1129.8154480332394
  0
LINE
  8
_0-0_LAYER001
  6
CONTINUOUS
 62
    2
 10
1255.1053815401349
 20
1128.8106480332394
 11
1251.3553815401349
 21
1122.3154480332394
  0
LINE
  8
_0-0_LAYER001
  6
CONTINUOUS
 62
    2
 10
1251.3553815401349
 20
1122.3154480332394
 11
1304.4040999999997
 21
1320.2959000000001
  0
LINE
  8
_0-1_LAYER004
  6
CONTINUOUS
 62
   18
 10
1304.4040999999997
 20
1320.2959000000001
 11
1251.3553815401349
 21
1122.3154480332391
  0
LINE
  8
_0-1_LAYER004
  6
CONTINUOUS
 62
   18
 10
1251.3553815401349
 20
1122.3154480332394
 11
1251.3553815401349
 21
1129.8154480332394
  0
LINE
  8
_0-1_LAYER004
  6
CONTINUOUS
 62
   18
 10
1251.3553815401349
 20
1122.3154480332394
 11
1255.1053815401349
 21
1128.8106480332394
  0
LINE
  8
_0-0_LAYER001
  6
CONTINUOUS
 62
    2
 10
1255.1053815401349
 20
1128.8106480332394
 11
1251.3553815401349
 21
1122.3154480332394
  0
LINE
  8
_0-0_LAYER001
  6
CONTINUOUS
 62
    2
 10
1251.3553815401349
 20
1122.3154480332394
 11
1251.3553815401349
 21
1129.8154480332394
  0
LINE
  8
_0-2_LAYER006
  6
CONTINUOUS
 62
    7
 10
1251.3553815401349
 20
1122.3154480332391
 11
1251.3553815401349
 21
1129.8154480332394
  0
LINE
  8
_0-2_LAYER006
  6
CONTINUOUS
 62
    7
 10
1251.3553815401349
 20
1122.3154480332391
 11
1255.1053815401349
 21
1128.8106480332394
  0
ENDSEC
  0
EOF
