  0
SECTION
  2
HEADER
  9
$ACADVER
  1
AC1009
  9
$INSBASE
 10
0
 20
0
 30
0
  9
$EXTMIN
 10
0
 20
0
  9
$EXTMAX
 10
2970
 20
2100
  9
$LIMMIN
 10
0
 20
0
  9
$LIMMAX
 10
2970
 20
2100
  9
$LTSCALE
 40
10
  0
ENDSEC
  0
SECTION
  2
TABLES
  0
TABLE
  2
LTYPE
 70
     9
  0
LTYPE
  2
CONTINUOUS
 70
    64
  3
実線
 72
    65
 73
     0
 40
0.0
  0
LTYPE
  2
DASHED1
 70
    64
  3
--  --  --  --  --  --  --  --  
 72
    65
 73
     2
 40
2.5
 49
1.25
 49
-1.25
  0
LTYPE
  2
DASHED2
 70
    64
  3
----    ----    ----    ----    
 72
    65
 73
     2
 40
5.0
 49
2.5
 49
-2.5
  0
LTYPE
  2
DASHED3
 70
    64
  3
------  ------  ------  ------  
 72
    65
 73
     2
 40
5.0
 49
3.75
 49
-1.25
  0
LTYPE
  2
CENTER1
 70
    64
  3
----- - ----- - ----- - ----- - 
 72
    65
 73
     4
 40
10.0
 49
6.25
 49
-1.25
 49
1.25
 49
-1.25
  0
LTYPE
  2
CENTER2
 70
    64
  3
----------  --  ----------  --  
 72
    65
 73
     4
 40
20.0
 49
12.5
 49
-2.5
 49
2.5
 49
-2.5
  0
LTYPE
  2
PHANTOM1
 70
    64
  3
--- - - --- - - --- - - --- - - 
 72
    65
 73
     6
 40
10.0
 49
3.25
 49
-1.25
 49
1.25
 49
-1.25
 49
1.25
 49
-1.25
  0
LTYPE
  2
PHANTOM2
 70
    64
  3
--------  -  -  --------  -  -  
 72
    65
 73
     6
 40
20.0
 49
10.0
 49
-2.5
 49
1.25
 49
-2.5
 49
1.25
 49
-2.5
  0
LTYPE
  2
DOT
 70
    64
  3
-   -   -   -   -   -   -   -   
 72
    65
 73
     2
 40
2.5
 49
0.625
 49
-1.875
  0
LTYPE
  2
DUMMY
 70
    64
  3
ダミー
 72
    65
 73
     0
 40
0.0
  0
LTYPE
  2
RAND1
 70
    64
  3
ランダム線1
 72
    65
 73
     4
 40
10.0
 49
1.0
 49
-2.0
 49
3.0
 49
-4.0
  0
LTYPE
  2
RAND2
 70
    64
  3
ランダム線2
 72
    65
 73
     4
 40
14.0
 49
2.0
 49
-3.0
 49
4.0
 49
-5.0
  0
LTYPE
  2
RAND3
 70
    64
  3
ランダム線3
 72
    65
 73
     4
 40
18.0
 49
3.0
 49
-4.0
 49
5.0
 49
-6.0
  0
LTYPE
  2
RAND4
 70
    64
  3
ランダム線4
 72
    65
 73
     4
 40
22.0
 49
4.0
 49
-5.0
 49
6.0
 49
-7.0
  0
LTYPE
  2
RAND5
 70
    64
  3
ランダム線5
 72
    65
 73
     4
 40
26.0
 49
5.0
 49
-6.0
 49
7.0
 49
-8.0
  0
LTYPE
  2
LONG1
 70
    64
  3
----------  --  ----------  --  
 72
    65
 73
     4
 40
40.0
 49
32.5
 49
-2.5
 49
2.5
 49
-2.5
  0
LTYPE
  2
LONG2
 70
    64
  3
--------  -  -  --------  -  -  
 72
    65
 73
     6
 40
40.0
 49
30.0
 49
-2.5
 49
1.25
 49
-2.5
 49
1.25
 49
-2.5
  0
LTYPE
  2
LONG3
 70
    64
  3
+++++++++++++++..+++++++++++++++
 72
    65
 73
     2
 40
40.0
 49
37.5
 49
-2.5
  0
LTYPE
  2
LONG4
 70
    64
  3
+++++++++++++++..+++++++++++++++
 72
    65
 73
     2
 40
80.0
 49
75.0
 49
-5.0
  0
LTYPE
  2
LONG5
 70
    64
  3
----------  --  ----------  --  
 72
    65
 73
     4
 40
60.0
 49
37.5
 49
-7.5
 49
7.5
 49
-7.5
  0
LTYPE
  2
dashed
 70
   64
  3
-------   -------------   ------
 72
   65
 73
    2
 40
7.5
 49
6
 49
-1.5
  0
LTYPE
  2
dashed_spaced
 70
   64
  3
----        --------        ----
 72
   65
 73
    2
 40
12
 49
6
 49
-6
  0
LTYPE
  2
long_dashed_dotted
 70
   64
  3
------------- --- --------------
 72
   65
 73
    4
 40
15.25
 49
12
 49
-1.5
 49
0.25
 49
-1.5
  0
LTYPE
  2
long_dashed_double-dotted
 70
   64
  3
----------- --- --- ------------
 72
   65
 73
    6
 40
17
 49
12
 49
-1.5
 49
0.25
 49
-1.5
 49
0.25
 49
-1.5
  0
LTYPE
  2
long_dashed_triplicate-dotted
 70
   64
  3
--------- --- --- --- ----------
 72
   65
 73
    8
 40
18.75
 49
12
 49
-1.5
 49
0.25
 49
-1.5
 49
0.25
 49
-1.5
 49
0.25
 49
-1.5
  0
LTYPE
  2
dotted
 70
   64
  3
   -       -       -       -    
 72
   65
 73
    2
 40
1.75
 49
0.25
 49
-1.5
  0
LTYPE
  2
chain
 70
   64
  3
-------------- -- --------------
 72
   65
 73
    4
 40
18.5
 49
12
 49
-1.5
 49
3.5
 49
-1.5
  0
LTYPE
  2
chain_double_dash
 70
   64
  3
------------ -- -- -------------
 72
   65
 73
    6
 40
23.5
 49
12
 49
-1.5
 49
3.5
 49
-1.5
 49
3.5
 49
-1.5
  0
LTYPE
  2
dashed_dotted
 70
   64
  3
-----------     -     ----------
 72
   65
 73
    4
 40
9.25
 49
6
 49
-1.5
 49
0.25
 49
-1.5
  0
LTYPE
  2
double-dashed_dotted
 70
   64
  3
------   -----------   -   -----
 72
   65
 73
    6
 40
16.75
 49
6
 49
-1.5
 49
6
 49
-1.5
 49
0.25
 49
-1.5
  0
LTYPE
  2
dashed_double-dotted
 70
   64
  3
---------    -    -    ---------
 72
   65
 73
    6
 40
11
 49
6
 49
-1.5
 49
0.25
 49
-1.5
 49
0.25
 49
-1.5
  0
LTYPE
  2
double-dashed_double-dotted
 70
   64
  3
-----   ---------   -   -   ----
 72
   65
 73
    8
 40
18.5
 49
6
 49
-1.5
 49
6
 49
-1.5
 49
0.25
 49
-1.5
 49
0.25
 49
-1.5
  0
LTYPE
  2
dashed_triplicate-dotted
 70
   64
  3
-------    -    -    -    ------
 72
   65
 73
    8
 40
12.75
 49
6
 49
-1.5
 49
0.25
 49
-1.5
 49
0.25
 49
-1.5
 49
0.25
 49
-1.5
  0
LTYPE
  2
double-dashed_triplicate-dotted
 70
   64
  3
-----  ---------  -  -  -  -----
 72
   65
 73
   10
 40
20.25
 49
6
 49
-1.5
 49
6
 49
-1.5
 49
0.25
 49
-1.5
 49
0.25
 49
-1.5
 49
0.25
 49
-1.5
  0
LTYPE
  2
undefined
 70
   64
  3
--------------------------------
 72
   65
 73
    0
 40
0
  0
LTYPE
  2
HIDDEN
 70
   64
  3
----        --------        ----
 72
   65
 73
    0
 40
0
  0
LTYPE
  2
DASHED
 70
   64
  3
-------   -------------   ------
 72
   65
 73
    0
 40
0
  0
LTYPE
  2
CENTER
 70
   64
  3
------------   ---   -----------
 72
   65
 73
    0
 40
0
  0
LTYPE
  2
PHANTOM
 70
   64
  3
---------   ---   ---   --------
 72
   65
 73
    0
 40
0
  0
ENDTAB
  0
TABLE
  2
STYLE
  5
3
100
AcDbSymbolTable
 70
     1
  0
STYLE
  5
10
100
AcDbSymbolTableRecord
100
AcDbTextStyleTableRecord
  2
STANDARD
 70
     0
 40
0.0
 41
1.0
 50
0.0
 71
     0
 42
0.2
  3
txt
  4
bigfont.shx
  0
STYLE
  5
26
100
AcDbSymbolTableRecord
100
AcDbTextStyleTableRecord
  2
TATEGAKI
 70
    68
 40
0.0
 41
1.0
 50
0.0
 71
     0
 42
1.0
  3
txt
  4
bigfont.shx
  0
ENDTAB
  0
TABLE
  2
LAYER
 70
    4
  0
LAYER
  2
_0-0_LAYER001
 70
   64
 62
    7
  6
CONTINUOUS
  0
LAYER
  2
_0-1_LAYER004
 70
   64
 62
    7
  6
CONTINUOUS
  0
LAYER
  2
_0-2_ADD_LINE
 70
   64
 62
    7
  6
CONTINUOUS
  0
LAYER
  2
ADD_LINE
 70
   64
 62
    7
  6
CONTINUOUS
  0
ENDTAB
  0
ENDSEC
  0
SECTION
  2
BLOCKS
  0
ENDSEC
  0
SECTION
  2
ENTITIES
  0
LINE
  8
_0-0_LAYER001
  6
CONTINUOUS
 62
    2
 10
1901.0962
 20
979.43910000000005
 11
1801.0962
 21
1079.4389000000001
  0
LINE
  8
_0-0_LAYER001
  6
CONTINUOUS
 62
    2
 10
1717.4232999999999
 20
1158.7674999999999
 11
1717.4232999999999
 21
1151.2674999999999
  0
LINE
  8
_0-0_LAYER001
  6
CONTINUOUS
 62
    2
 10
1801.0962
 20
950.07559999999989
 11
852.13539999999978
 21
950.07559999999989
  0
LINE
  8
_0-0_LAYER001
  6
CONTINUOUS
 62
    2
 10
852.13539999999978
 20
971.07559999999989
 11
1679.0961000000002
 21
971.07559999999989
  0
LINE
  8
_0-0_LAYER001
  6
CONTINUOUS
 62
    2
 10
2079.8571000000002
 20
950.07559999999989
 11
2027.3571000000004
 21
950.07559999999989
  0
CIRCLE
  8
_0-0_LAYER001
  6
CONTINUOUS
 62
    2
 10
2077.3571000000002
 20
950.07559999999989
 40
1.6999999999999997
  0
LINE
  8
_0-0_LAYER001
  6
CONTINUOUS
 62
    2
 10
2077.3571000000002
 20
950.07559999999989
 11
2077.3571000000002
 21
1150.0755999999999
  0
CIRCLE
  8
_0-0_LAYER001
  6
CONTINUOUS
 62
    2
 10
2077.3571000000002
 20
1150.0755999999999
 40
1.6999999999999997
  0
LINE
  8
_0-0_LAYER001
  6
CONTINUOUS
 62
    2
 10
2079.8571000000002
 20
1150.0755999999999
 11
2027.3571000000004
 21
1150.0755999999999
  0
LINE
  8
_0-0_LAYER001
  6
CONTINUOUS
 62
    1
 10
1801.0962
 20
930.07559999999989
 11
852.13539999999978
 21
930.07559999999989
  0
LINE
  8
_0-0_LAYER001
  6
CONTINUOUS
 62
    1
 10
1801.0962
 20
935.07559999999989
 11
852.13539999999978
 21
935.07559999999989
  0
LINE
  8
_0-0_LAYER001
  6
CONTINUOUS
 62
    1
 10
1801.0962
 20
940.07559999999989
 11
852.13539999999978
 21
940.07559999999989
  0
LINE
  8
_0-0_LAYER001
  6
CONTINUOUS
 62
    1
 10
1801.0962
 20
945.07559999999989
 11
852.13539999999978
 21
945.07559999999989
  0
LINE
  8
_0-0_LAYER001
  6
CONTINUOUS
 62
    2
 10
852.13539999999978
 20
956.07559999999989
 11
1679.0961000000002
 21
956.07559999999989
  0
LINE
  8
_0-0_LAYER001
  6
CONTINUOUS
 62
    2
 10
1379.8384000000001
 20
998.67679999999996
 11
1379.8384000000001
 21
991.17679999999996
  0
LINE
  8
_0-0_LAYER001
  6
CONTINUOUS
 62
    2
 10
1379.8384000000001
 20
991.17679999999996
 11
1376.0884000000001
 21
997.67200000000003
  0
LINE
  8
_0-0_LAYER001
  6
CONTINUOUS
 62
    2
 10
1379.8384000000001
 20
991.17679999999996
 11
1352.7419
 21
1092.3022000000001
  0
LINE
  8
_0-0_LAYER001
  6
CONTINUOUS
 62
    2
 10
1352.7419
 20
1092.3022000000001
 11
1312.2419
 21
1092.3022000000001
  0
LINE
  8
_0-0_LAYER001
  6
CONTINUOUS
 62
    2
 10
1759.6502
 20
946.83120000000008
 11
1757.7091
 21
954.07559999999989
  0
LINE
  8
_0-0_LAYER001
  6
CONTINUOUS
 62
    2
 10
1757.7091
 20
954.07559999999989
 11
1763.0124000000001
 21
948.77230000000009
  0
LINE
  8
_0-0_LAYER001
  6
CONTINUOUS
 62
    2
 10
1757.7091
 20
954.07559999999989
 11
1873.5120999999999
 21
753.49890000000005
  0
LINE
  8
_0-0_LAYER001
  6
CONTINUOUS
 62
    2
 10
1681.0962
 20
769.91390000000001
 11
1681.0962
 21
822.41390000000001
  0
CIRCLE
  8
_0-0_LAYER001
  6
CONTINUOUS
 62
    2
 10
1681.0962
 20
772.41390000000001
 40
1.6999999999999997
  0
LINE
  8
_0-0_LAYER001
  6
CONTINUOUS
 62
    2
 10
1681.0962
 20
772.41390000000001
 11
1801.0962
 21
772.41390000000001
  0
CIRCLE
  8
_0-0_LAYER001
  6
CONTINUOUS
 62
    2
 10
1801.0962
 20
772.41390000000001
 40
1.6999999999999997
  0
LINE
  8
_0-0_LAYER001
  6
CONTINUOUS
 62
    2
 10
1801.0962
 20
769.91390000000001
 11
1801.0962
 21
822.41390000000001
  0
LINE
  8
_0-0_LAYER001
  6
CONTINUOUS
 62
    2
 10
1766.2105999999999
 20
1044.2185999999999
 11
1764.2694999999999
 21
1051.463
  0
LINE
  8
_0-0_LAYER001
  6
CONTINUOUS
 62
    2
 10
1764.2694999999999
 20
1051.463
 11
1769.5727999999999
 21
1046.1596999999999
  0
LINE
  8
_0-0_LAYER001
  6
CONTINUOUS
 62
    2
 10
1764.2694999999999
 20
1051.463
 11
1911.6167999999998
 21
796.25
  0
LINE
  8
_0-0_LAYER001
  6
CONTINUOUS
 62
    2
 10
1911.6167999999998
 20
796.25
 11
1992.6945999999998
 21
796.25
  0
LINE
  8
_0-0_LAYER001
  6
CONTINUOUS
 62
    2
 10
1870.7440999999999
 20
954.91529999999989
 11
1868.8029000000001
 21
962.1597999999999
  0
LINE
  8
_0-0_LAYER001
  6
CONTINUOUS
 62
    2
 10
1868.8029000000001
 20
962.1597999999999
 11
1874.1062000000002
 21
956.8565000000001
  0
LINE
  8
_0-0_LAYER001
  6
CONTINUOUS
 62
    2
 10
1868.8029000000001
 20
962.1597999999999
 11
1932.8487
 21
851.22929999999997
  0
LINE
  8
_0-0_LAYER001
  6
CONTINUOUS
 62
    2
 10
1932.8487
 20
851.22929999999997
 11
2171.6329999999998
 21
851.22929999999997
  0
LINE
  8
_0-0_LAYER001
  6
CONTINUOUS
 62
    2
 10
1172.6692
 20
1292.2215000000001
 11
967.84649999999999
 21
1292.2215000000001
  0
LINE
  8
_0-0_LAYER001
  6
CONTINUOUS
 62
    2
 10
1262.5427999999999
 20
964.30829999999992
 11
1262.5427999999999
 21
956.80829999999992
  0
LINE
  8
_0-0_LAYER001
  6
CONTINUOUS
 62
    2
 10
1262.5427999999999
 20
956.80829999999992
 11
1258.7927999999999
 21
963.30349999999999
  0
LINE
  8
_0-0_LAYER001
  6
CONTINUOUS
 62
    2
 10
1262.5427999999999
 20
956.80829999999992
 11
1172.6692
 21
1292.2215000000001
  0
LINE
  8
_0-0_LAYER001
  6
CONTINUOUS
 62
    2
 10
1188.5559000000001
 20
1232.2596000000001
 11
856.22990000000004
 21
1232.2596000000001
  0
LINE
  8
_0-0_LAYER001
  6
CONTINUOUS
 62
    2
 10
1178.7247
 20
1262.3549
 11
835.96000000000004
 21
1262.3549
  0
CIRCLE
  8
_0-0_LAYER001
  6
CONTINUOUS
 62
    2
 10
1754.0075999999999
 20
1063.8338000000001
 40
0.8999999999999999
  0
CIRCLE
  8
_0-0_LAYER001
  6
CONTINUOUS
 62
    2
 10
1762.5232999999998
 20
1060.6797999999999
 40
0.8999999999999999
  0
CIRCLE
  8
_0-0_LAYER001
  6
CONTINUOUS
 62
    2
 10
1744.2303999999999
 20
1055.9489000000001
 40
0.8999999999999999
  0
CIRCLE
  8
_0-0_LAYER001
  6
CONTINUOUS
 62
    2
 10
1728.1453000000001
 20
1060.9952000000001
 40
0.8999999999999999
  0
CIRCLE
  8
_0-0_LAYER001
  6
CONTINUOUS
 62
    2
 10
1757.0462000000002
 20
1047.903
 40
0.8999999999999999
  0
CIRCLE
  8
_0-0_LAYER001
  6
CONTINUOUS
 62
    2
 10
1740.9801000000002
 20
1068.3507999999999
 40
0.8999999999999999
  0
CIRCLE
  8
_0-0_LAYER001
  6
CONTINUOUS
 62
    2
 10
1727.4699000000001
 20
1069.0811000000001
 40
0.8999999999999999
  0
CIRCLE
  8
_0-0_LAYER001
  6
CONTINUOUS
 62
    2
 10
1734.4076
 20
1050.0939000000001
 40
0.8999999999999999
  0
LINE
  8
_0-0_LAYER001
  6
CONTINUOUS
 62
    2
 10
1707.5419999999999
 20
1350.7914000000003
 11
1707.5419999999999
 21
1298.2914000000001
  0
CIRCLE
  8
_0-0_LAYER001
  6
CONTINUOUS
 62
    2
 10
1707.5419999999999
 20
1348.2914000000001
 40
1.6999999999999997
  0
LINE
  8
_0-0_LAYER001
  6
CONTINUOUS
 62
    2
 10
1707.5419999999999
 20
1348.2914000000001
 11
1799.0962
 21
1348.2914000000001
  0
CIRCLE
  8
_0-0_LAYER001
  6
CONTINUOUS
 62
    2
 10
1799.0962
 20
1348.2914000000001
 40
1.6999999999999997
  0
LINE
  8
_0-0_LAYER001
  6
CONTINUOUS
 62
    2
 10
1799.0962
 20
1350.7914000000003
 11
1799.0962
 21
1298.2914000000001
  0
LINE
  8
_0-0_LAYER001
  6
CONTINUOUS
 62
    3
 10
1766.0744
 20
1139.3017
 11
1766.0853000000002
 21
1138.836
  0
LINE
  8
_0-0_LAYER001
  6
CONTINUOUS
 62
    3
 10
1766.0853000000002
 20
1138.836
 11
1766.1151
 21
1137.5721000000001
  0
LINE
  8
_0-0_LAYER001
  6
CONTINUOUS
 62
    3
 10
1766.1151
 20
1137.5721000000001
 11
1766.1590000000001
 21
1135.7094999999999
  0
LINE
  8
_0-0_LAYER001
  6
CONTINUOUS
 62
    3
 10
1766.1590000000001
 20
1135.7094999999999
 11
1766.2123000000001
 21
1133.4477999999999
  0
LINE
  8
_0-0_LAYER001
  6
CONTINUOUS
 62
    3
 10
1766.2123000000001
 20
1133.4477999999999
 11
1766.2703000000001
 21
1130.9865
  0
LINE
  8
_0-0_LAYER001
  6
CONTINUOUS
 62
    3
 10
1766.2703000000001
 20
1130.9865
 11
1766.3283000000001
 21
1128.5252
  0
LINE
  8
_0-0_LAYER001
  6
CONTINUOUS
 62
    3
 10
1766.3283000000001
 20
1128.5252
 11
1766.3816000000002
 21
1126.2635
  0
LINE
  8
_0-0_LAYER001
  6
CONTINUOUS
 62
    3
 10
1766.3816000000002
 20
1126.2635
 11
1766.4255000000001
 21
1124.4009000000001
  0
LINE
  8
_0-0_LAYER001
  6
CONTINUOUS
 62
    3
 10
1766.4255000000001
 20
1124.4009000000001
 11
1766.4553000000001
 21
1123.1369999999999
  0
LINE
  8
_0-0_LAYER001
  6
CONTINUOUS
 62
    3
 10
1766.4553000000001
 20
1123.1369999999999
 11
1766.4663
 21
1122.6713
  0
LINE
  8
_0-0_LAYER001
  6
CONTINUOUS
 62
    3
 10
1766.4663
 20
1122.6713
 11
1765.3186000000001
 21
1122.6641999999999
  0
LINE
  8
_0-0_LAYER001
  6
CONTINUOUS
 62
    3
 10
1765.3186000000001
 20
1122.6641999999999
 11
1761.9472000000001
 21
1122.4891
  0
LINE
  8
_0-0_LAYER001
  6
CONTINUOUS
 62
    3
 10
1761.9472000000001
 20
1122.4891
 11
1756.4593
 21
1121.9158
  0
LINE
  8
_0-0_LAYER001
  6
CONTINUOUS
 62
    3
 10
1756.4593
 20
1121.9158
 11
1748.962
 21
1120.7136
  0
LINE
  8
_0-0_LAYER001
  6
CONTINUOUS
 62
    3
 10
1748.962
 20
1120.7136
 11
1739.5625
 21
1118.6523
  0
LINE
  8
_0-0_LAYER001
  6
CONTINUOUS
 62
    3
 10
1739.5625
 20
1118.6523
 11
1728.3681999999999
 21
1115.5014000000001
  0
LINE
  8
_0-0_LAYER001
  6
CONTINUOUS
 62
    3
 10
1728.3681999999999
 20
1115.5014000000001
 11
1715.4863
 21
1111.0304000000001
  0
LINE
  8
_0-0_LAYER001
  6
CONTINUOUS
 62
    3
 10
1715.4863
 20
1111.0304000000001
 11
1701.0239000000001
 21
1105.009
  0
LINE
  8
_0-0_LAYER001
  6
CONTINUOUS
 62
    3
 10
1701.0239000000001
 20
1105.009
 11
1685.0882999999999
 21
1097.2066
  0
LINE
  8
_0-0_LAYER001
  6
CONTINUOUS
 62
    3
 10
1685.0882999999999
 20
1097.2066
 11
1667.7867000000001
 21
1087.3929000000001
  0
LINE
  8
_0-0_LAYER001
  6
CONTINUOUS
 62
    3
 10
1667.7867000000001
 20
1087.3929000000001
 11
1667.7687999999998
 21
1088.1507999999999
  0
LINE
  8
_0-0_LAYER001
  6
CONTINUOUS
 62
    3
 10
1667.7687999999998
 20
1088.1507999999999
 11
1667.7204000000002
 21
1090.2076999999999
  0
LINE
  8
_0-0_LAYER001
  6
CONTINUOUS
 62
    3
 10
1667.7204000000002
 20
1090.2076999999999
 11
1667.6489000000001
 21
1093.2391
  0
LINE
  8
_0-0_LAYER001
  6
CONTINUOUS
 62
    3
 10
1667.6489000000001
 20
1093.2391
 11
1667.5621999999998
 21
1096.9199000000001
  0
LINE
  8
_0-0_LAYER001
  6
CONTINUOUS
 62
    3
 10
1667.5621999999998
 20
1096.9199000000001
 11
1667.4677999999999
 21
1100.9256
  0
LINE
  8
_0-0_LAYER001
  6
CONTINUOUS
 62
    3
 10
1667.4677999999999
 20
1100.9256
 11
1667.3733999999999
 21
1104.9313
  0
LINE
  8
_0-0_LAYER001
  6
CONTINUOUS
 62
    3
 10
1667.3733999999999
 20
1104.9313
 11
1667.2865999999999
 21
1108.6122
  0
LINE
  8
_0-0_LAYER001
  6
CONTINUOUS
 62
    3
 10
1667.2865999999999
 20
1108.6122
 11
1667.2152000000001
 21
1111.6434999999999
  0
LINE
  8
_0-0_LAYER001
  6
CONTINUOUS
 62
    3
 10
1667.2152000000001
 20
1111.6434999999999
 11
1667.1667000000002
 21
1113.7004999999999
  0
LINE
  8
_0-0_LAYER001
  6
CONTINUOUS
 62
    3
 10
1667.1667000000002
 20
1113.7004999999999
 11
1667.1489000000001
 21
1114.4583
  0
LINE
  8
_0-0_LAYER001
  6
CONTINUOUS
 62
    3
 10
1667.1489000000001
 20
1114.4583
 11
1668.8017
 21
1115.0835999999999
  0
LINE
  8
_0-0_LAYER001
  6
CONTINUOUS
 62
    3
 10
1668.8017
 20
1115.0835999999999
 11
1673.4652000000001
 21
1116.7918999999999
  0
LINE
  8
_0-0_LAYER001
  6
CONTINUOUS
 62
    3
 10
1673.4652000000001
 20
1116.7918999999999
 11
1680.6970000000001
 21
1119.3318999999999
  0
LINE
  8
_0-0_LAYER001
  6
CONTINUOUS
 62
    3
 10
1680.6970000000001
 20
1119.3318999999999
 11
1690.0549000000001
 21
1122.4526000000001
  0
LINE
  8
_0-0_LAYER001
  6
CONTINUOUS
 62
    3
 10
1690.0549000000001
 20
1122.4526000000001
 11
1701.0963000000002
 21
1125.9027000000001
  0
LINE
  8
_0-0_LAYER001
  6
CONTINUOUS
 62
    3
 10
1701.0963000000002
 20
1125.9027000000001
 11
1713.3789000000002
 21
1129.431
  0
LINE
  8
_0-0_LAYER001
  6
CONTINUOUS
 62
    3
 10
1713.3789000000002
 20
1129.431
 11
1726.4603999999999
 21
1132.7862
  0
LINE
  8
_0-0_LAYER001
  6
CONTINUOUS
 62
    3
 10
1726.4603999999999
 20
1132.7862
 11
1739.8984
 21
1135.7172
  0
LINE
  8
_0-0_LAYER001
  6
CONTINUOUS
 62
    3
 10
1739.8984
 20
1135.7172
 11
1753.2505000000001
 21
1137.9728
  0
LINE
  8
_0-0_LAYER001
  6
CONTINUOUS
 62
    3
 10
1766.0744
 20
1139.3017
 11
1753.1386000000002
 21
1137.9539
  0
LINE
  8
_0-0_LAYER001
  6
CONTINUOUS
 62
    2
 10
1686.5646000000002
 20
1126.3206
 11
1710.1466
 21
1134.9039
  0
LINE
  8
_0-0_LAYER001
  6
CONTINUOUS
 62
    2
 10
1686.5646000000002
 20
1126.3206
 11
1692.4771999999998
 21
1127.3408999999999
  0
LINE
  8
_0-0_LAYER001
  6
CONTINUOUS
 62
    2
 10
1712.4634999999998
 20
1133.2816
 11
1801.0962
 21
1148.9099000000001
  0
LINE
  8
_0-0_LAYER001
  6
CONTINUOUS
 62
    2
 10
1709.8588
 20
1148.0536999999999
 11
1798.4915000000001
 21
1163.682
  0
LINE
  8
_0-0_LAYER001
  6
CONTINUOUS
 62
    2
 10
1709.8588
 20
1148.0536999999999
 11
1712.4634999999998
 21
1133.2816
  0
LINE
  8
_0-0_LAYER001
  6
CONTINUOUS
 62
    2
 10
1798.4915000000001
 20
1163.682
 11
1801.0962
 21
1148.9099000000001
  0
LINE
  8
_0-0_LAYER001
  6
CONTINUOUS
 62
    2
 10
1801.0962
 20
1148.9099000000001
 11
1709.8588
 21
1148.0536999999999
  0
LINE
  8
_0-0_LAYER001
  6
CONTINUOUS
 62
    2
 10
1707.5419999999999
 20
1149.6759999999999
 11
1710.1466
 21
1134.9039
  0
LINE
  8
_0-0_LAYER001
  6
CONTINUOUS
 62
    2
 10
1849.0962000000002
 20
1128.9099000000001
 11
1844.0961000000002
 21
1131.9099000000001
  0
LINE
  8
_0-0_LAYER001
  6
CONTINUOUS
 62
    2
 10
1844.0961000000002
 20
1125.9100000000001
 11
1849.0962000000002
 21
1128.9099000000001
  0
LINE
  8
_0-0_LAYER001
  6
CONTINUOUS
 62
    2
 10
1843.0212000000001
 20
1125.9100000000001
 11
1845.8701999999998
 21
1130.846
  0
LINE
  8
_0-0_LAYER001
  6
CONTINUOUS
 62
    2
 10
1777.0961000000002
 20
1125.9100000000001
 11
1777.0961000000002
 21
1131.9099000000001
  0
LINE
  8
_0-0_LAYER001
  6
CONTINUOUS
 62
    2
 10
1771.0962
 20
1122.9099000000001
 11
1771.0962
 21
1134.9100000000001
  0
LINE
  8
_0-0_LAYER001
  6
CONTINUOUS
 62
    2
 10
1779.9830999999999
 20
1125.9100000000001
 11
1783.4461999999999
 21
1131.9099000000001
  0
LINE
  8
_0-0_LAYER001
  6
CONTINUOUS
 62
    2
 10
1771.0962
 20
1122.9099000000001
 11
1777.0961000000002
 21
1125.9100000000001
  0
LINE
  8
_0-0_LAYER001
  6
CONTINUOUS
 62
    2
 10
1777.0961000000002
 20
1131.9099000000001
 11
1771.0962
 21
1134.9100000000001
  0
LINE
  8
_0-0_LAYER001
  6
CONTINUOUS
 62
    2
 10
1844.0961000000002
 20
1131.9099000000001
 11
1834.0810999999999
 21
1131.9099000000001
  0
LINE
  8
_0-0_LAYER001
  6
CONTINUOUS
 62
    2
 10
1825.4292
 20
1127.4371000000001
 11
1827.3231999999998
 21
1130.7180000000001
  0
LINE
  8
_0-0_LAYER001
  6
CONTINUOUS
 62
    2
 10
1833.8132000000001
 20
1125.9590000000001
 11
1837.2480999999998
 21
1131.9099000000001
  0
LINE
  8
_0-0_LAYER001
  6
CONTINUOUS
 62
    2
 10
1844.0961000000002
 20
1125.9100000000001
 11
1834.0891999999999
 21
1125.9100000000001
  0
LINE
  8
_0-0_LAYER001
  6
CONTINUOUS
 62
    2
 10
1841.9450999999999
 20
1135.633
 11
1842.3452000000002
 21
1133.3669
  0
LINE
  8
_0-0_LAYER001
  6
CONTINUOUS
 62
    2
 10
1841.7721999999999
 20
1122.2201
 11
1842.1700999999998
 21
1124.4849999999999
  0
LINE
  8
_0-0_LAYER001
  6
CONTINUOUS
 62
    2
 10
1837.3519999999999
 20
1134.6189999999999
 11
1839.0261999999998
 21
1134.9139
  0
LINE
  8
_0-0_LAYER001
  6
CONTINUOUS
 62
    2
 10
1833.0191
 20
1133.855
 11
1834.6921000000002
 21
1134.1500000000001
  0
LINE
  8
_0-0_LAYER001
  6
CONTINUOUS
 62
    2
 10
1828.6860999999999
 20
1133.0908999999999
 11
1830.3591000000001
 21
1133.386
  0
LINE
  8
_0-0_LAYER001
  6
CONTINUOUS
 62
    2
 10
1828.3899999999999
 20
1134.7639999999999
 11
1819.2961000000003
 21
1133.1611
  0
LINE
  8
_0-0_LAYER001
  6
CONTINUOUS
 62
    2
 10
1832.7231000000002
 20
1135.5279
 11
1830.0641000000001
 21
1135.0589
  0
LINE
  8
_0-0_LAYER001
  6
CONTINUOUS
 62
    2
 10
1837.0560999999998
 20
1136.2920999999999
 11
1834.3971000000001
 21
1135.8231000000001
  0
LINE
  8
_0-0_LAYER001
  6
CONTINUOUS
 62
    2
 10
1840.2080000000001
 20
1136.8479
 11
1838.7302
 21
1136.5869
  0
LINE
  8
_0-0_LAYER001
  6
CONTINUOUS
 62
    2
 10
1839.0261999999998
 20
1134.9139
 11
1838.7302
 21
1136.588
  0
LINE
  8
_0-0_LAYER001
  6
CONTINUOUS
 62
    2
 10
1837.3519999999999
 20
1134.6189999999999
 11
1837.0560999999998
 21
1136.2929999999999
  0
LINE
  8
_0-0_LAYER001
  6
CONTINUOUS
 62
    2
 10
1834.6932000000002
 20
1134.1500000000001
 11
1834.3971000000001
 21
1135.8241
  0
LINE
  8
_0-0_LAYER001
  6
CONTINUOUS
 62
    2
 10
1833.0191
 20
1133.855
 11
1832.7231000000002
 21
1135.5289
  0
LINE
  8
_0-0_LAYER001
  6
CONTINUOUS
 62
    2
 10
1830.3602000000001
 20
1133.386
 11
1830.0641000000001
 21
1135.0599
  0
LINE
  8
_0-0_LAYER001
  6
CONTINUOUS
 62
    2
 10
1828.6860999999999
 20
1133.0908999999999
 11
1828.3899999999999
 21
1134.7650000000001
  0
LINE
  8
_0-0_LAYER001
  6
CONTINUOUS
 62
    2
 10
1837.1772000000001
 20
1123.2329
 11
1838.8512000000001
 21
1122.9380000000001
  0
LINE
  8
_0-0_LAYER001
  6
CONTINUOUS
 62
    2
 10
1832.8442
 20
1123.9970000000001
 11
1834.5180999999998
 21
1123.702
  0
LINE
  8
_0-0_LAYER001
  6
CONTINUOUS
 62
    2
 10
1828.5111999999999
 20
1124.761
 11
1830.1851000000001
 21
1124.4658999999999
  0
LINE
  8
_0-0_LAYER001
  6
CONTINUOUS
 62
    2
 10
1828.5122000000001
 20
1124.761
 11
1828.2161000000001
 21
1123.088
  0
LINE
  8
_0-0_LAYER001
  6
CONTINUOUS
 62
    2
 10
1830.1860999999999
 20
1124.4658999999999
 11
1829.8899999999999
 21
1122.7929999999999
  0
LINE
  8
_0-0_LAYER001
  6
CONTINUOUS
 62
    2
 10
1832.8452000000004
 20
1123.9970000000001
 11
1832.5491000000002
 21
1122.3240000000001
  0
LINE
  8
_0-0_LAYER001
  6
CONTINUOUS
 62
    2
 10
1834.5191
 20
1123.702
 11
1834.2231000000004
 21
1122.029
  0
LINE
  8
_0-0_LAYER001
  6
CONTINUOUS
 62
    2
 10
1837.1781000000001
 20
1123.2329
 11
1836.8822
 21
1121.5599999999999
  0
LINE
  8
_0-0_LAYER001
  6
CONTINUOUS
 62
    2
 10
1838.8522
 20
1122.9380000000001
 11
1838.5560999999998
 21
1121.2650000000001
  0
LINE
  8
_0-0_LAYER001
  6
CONTINUOUS
 62
    2
 10
1828.2161000000001
 20
1123.088
 11
1819.2961000000003
 21
1124.6599000000001
  0
LINE
  8
_0-0_LAYER001
  6
CONTINUOUS
 62
    2
 10
1832.5491000000002
 20
1122.3240000000001
 11
1829.8899999999999
 21
1122.7929999999999
  0
LINE
  8
_0-0_LAYER001
  6
CONTINUOUS
 62
    2
 10
1836.8822
 20
1121.5599999999999
 11
1834.2231000000004
 21
1122.029
  0
LINE
  8
_0-0_LAYER001
  6
CONTINUOUS
 62
    2
 10
1840.0331999999999
 20
1121.0039999999999
 11
1838.5560999999998
 21
1121.2639999999999
  0
LINE
  8
_0-0_LAYER001
  6
CONTINUOUS
 62
    2
 10
1817.0722000000001
 20
1128.9110000000001
 11
1842.3452000000002
 21
1133.3669
  0
LINE
  8
_0-0_LAYER001
  6
CONTINUOUS
 62
    2
 10
1817.0722000000001
 20
1128.9110000000001
 11
1842.1700999999998
 21
1124.4849999999999
  0
LINE
  8
_0-0_LAYER001
  6
CONTINUOUS
 62
    2
 10
1801.0962
 20
1133.1600000000001
 11
1819.2961000000003
 21
1133.1600000000001
  0
LINE
  8
_0-0_LAYER001
  6
CONTINUOUS
 62
    2
 10
1801.0962
 20
1124.6599000000001
 11
1819.2961000000003
 21
1124.6599000000001
  0
LINE
  8
_0-0_LAYER001
  6
CONTINUOUS
 62
    2
 10
1801.0962
 20
1124.6599000000001
 11
1801.0962
 21
1133.1600000000001
  0
LINE
  8
_0-0_LAYER001
  6
CONTINUOUS
 62
    2
 10
1771.0962
 20
1108.9099000000001
 11
1801.0962
 21
1108.9099000000001
  0
LINE
  8
_0-0_LAYER001
  6
CONTINUOUS
 62
    2
 10
1801.0962
 20
1131.9099000000001
 11
1777.0961000000002
 21
1131.9099000000001
  0
LINE
  8
_0-0_LAYER001
  6
CONTINUOUS
 62
    2
 10
1801.0962
 20
1125.9100000000001
 11
1777.0961000000002
 21
1125.9100000000001
  0
LINE
  8
_0-0_LAYER001
  6
CONTINUOUS
 62
    2
 10
1785.7062999999998
 20
1125.9100000000001
 11
1789.1693
 21
1131.9099000000001
  0
LINE
  8
_0-0_LAYER001
  6
CONTINUOUS
 62
    2
 10
1791.4294
 20
1125.9100000000001
 11
1794.8924999999999
 21
1131.9099000000001
  0
LINE
  8
_0-0_LAYER001
  6
CONTINUOUS
 62
    2
 10
1797.1525000000001
 20
1125.9100000000001
 11
1800.6156000000001
 21
1131.9099000000001
  0
LINE
  8
_0-0_LAYER001
  6
CONTINUOUS
 62
    2
 10
1771.0962
 20
1108.9099000000001
 11
1771.0962
 21
1143.6201000000001
  0
LINE
  8
_0-0_LAYER001
  6
CONTINUOUS
 62
    2
 10
1801.0962
 20
1108.9099000000001
 11
1774.6001999999999
 21
1144.2380000000001
  0
LINE
  8
_0-0_LAYER001
  6
CONTINUOUS
 62
    2
 10
1707.5419999999999
 20
1149.6759999999999
 11
1799.0962
 21
1165.8194000000001
  0
LINE
  8
_0-0_LAYER001
  6
CONTINUOUS
 62
    2
 10
1780.2743
 20
1160.4699000000001
 11
1789.0437999999999
 21
1162.0161000000001
  0
LINE
  8
_0-0_LAYER001
  6
CONTINUOUS
 62
    2
 10
1787.8000000000002
 20
1132.7579000000001
 11
1791.2417
 21
1124.5189
  0
LINE
  8
_0-0_LAYER001
  6
CONTINUOUS
 62
    2
 10
1786.7602000000002
 20
1159.9935
 11
1791.4501
 21
1133.4016999999999
  0
LINE
  8
_0-0_LAYER001
  6
CONTINUOUS
 62
    2
 10
1791.2417
 20
1124.5189
 11
1791.4501
 21
1133.4016999999999
  0
LINE
  8
_0-0_LAYER001
  6
CONTINUOUS
 62
    2
 10
1783.1102999999998
 20
1159.3512000000001
 11
1780.2743
 21
1160.4699000000001
  0
LINE
  8
_0-0_LAYER001
  6
CONTINUOUS
 62
    2
 10
1786.7602000000002
 20
1159.9935
 11
1789.0437999999999
 21
1162.0161000000001
  0
LINE
  8
_0-0_LAYER001
  6
CONTINUOUS
 62
    2
 10
1783.1102999999998
 20
1159.3512000000001
 11
1787.8000000000002
 21
1132.7579000000001
  0
ARC
  8
_0-0_LAYER001
  6
CONTINUOUS
 62
    2
 10
1840.4600999999998
 20
1135.366
 40
1.5050000000000003
 50
10.451269999999999
 51
99.637527999999989
  0
ARC
  8
_0-0_LAYER001
  6
CONTINUOUS
 62
    2
 10
1840.2921999999999
 20
1122.4829999999999
 40
1.4969999999999999
 50
259.83899000000008
 51
350.14733000000001
  0
CIRCLE
  8
_0-0_LAYER001
  6
CONTINUOUS
 62
    2
 10
1726.1433000000002
 20
1108.0513000000001
 40
0.8999999999999999
  0
CIRCLE
  8
_0-0_LAYER001
  6
CONTINUOUS
 62
    2
 10
1727.2206999999999
 20
1077.3067000000001
 40
0.8999999999999999
  0
LINE
  8
_0-0_LAYER001
  6
CONTINUOUS
 62
    3
 10
1750.4718
 20
1104.1713999999999
 11
1750.4828000000002
 21
1103.7058
  0
LINE
  8
_0-0_LAYER001
  6
CONTINUOUS
 62
    3
 10
1750.4828000000002
 20
1103.7058
 11
1750.5126
 21
1102.4419
  0
LINE
  8
_0-0_LAYER001
  6
CONTINUOUS
 62
    3
 10
1750.5126
 20
1102.4419
 11
1750.5564000000002
 21
1100.5793000000001
  0
LINE
  8
_0-0_LAYER001
  6
CONTINUOUS
 62
    3
 10
1750.5564000000002
 20
1100.5793000000001
 11
1750.6098000000002
 21
1098.3175000000001
  0
LINE
  8
_0-0_LAYER001
  6
CONTINUOUS
 62
    3
 10
1750.6098000000002
 20
1098.3175000000001
 11
1750.6678000000002
 21
1095.8561999999999
  0
LINE
  8
_0-0_LAYER001
  6
CONTINUOUS
 62
    3
 10
1750.6678000000002
 20
1095.8561999999999
 11
1750.7258000000002
 21
1093.3949
  0
LINE
  8
_0-0_LAYER001
  6
CONTINUOUS
 62
    3
 10
1750.7258000000002
 20
1093.3949
 11
1750.7791000000002
 21
1091.1332
  0
LINE
  8
_0-0_LAYER001
  6
CONTINUOUS
 62
    3
 10
1750.7791000000002
 20
1091.1332
 11
1750.8230000000001
 21
1089.2706000000001
  0
LINE
  8
_0-0_LAYER001
  6
CONTINUOUS
 62
    3
 10
1750.8230000000001
 20
1089.2706000000001
 11
1750.8526999999999
 21
1088.0066999999999
  0
LINE
  8
_0-0_LAYER001
  6
CONTINUOUS
 62
    3
 10
1750.8526999999999
 20
1088.0066999999999
 11
1750.8636999999999
 21
1087.5410999999999
  0
LINE
  8
_0-0_LAYER001
  6
CONTINUOUS
 62
    3
 10
1750.8636999999999
 20
1087.5410999999999
 11
1749.7161000000001
 21
1087.5338999999999
  0
LINE
  8
_0-0_LAYER001
  6
CONTINUOUS
 62
    3
 10
1749.7161000000001
 20
1087.5338999999999
 11
1746.3447000000001
 21
1087.3588999999999
  0
LINE
  8
_0-0_LAYER001
  6
CONTINUOUS
 62
    3
 10
1746.3447000000001
 20
1087.3588999999999
 11
1740.8566999999998
 21
1086.7855
  0
LINE
  8
_0-0_LAYER001
  6
CONTINUOUS
 62
    3
 10
1740.8566999999998
 20
1086.7855
 11
1733.3593999999998
 21
1085.5834
  0
LINE
  8
_0-0_LAYER001
  6
CONTINUOUS
 62
    3
 10
1733.3593999999998
 20
1085.5834
 11
1723.96
 21
1083.5220999999999
  0
LINE
  8
_0-0_LAYER001
  6
CONTINUOUS
 62
    3
 10
1723.96
 20
1083.5220999999999
 11
1712.7656999999999
 21
1080.3711000000001
  0
LINE
  8
_0-0_LAYER001
  6
CONTINUOUS
 62
    3
 10
1712.7656999999999
 20
1080.3711000000001
 11
1699.8836999999999
 21
1075.9001000000001
  0
LINE
  8
_0-0_LAYER001
  6
CONTINUOUS
 62
    3
 10
1699.8836999999999
 20
1075.9001000000001
 11
1685.4213
 21
1069.8787
  0
LINE
  8
_0-0_LAYER001
  6
CONTINUOUS
 62
    3
 10
1685.4213
 20
1069.8787
 11
1669.4857000000002
 21
1062.0762999999999
  0
LINE
  8
_0-0_LAYER001
  6
CONTINUOUS
 62
    3
 10
1669.4857000000002
 20
1062.0762999999999
 11
1652.1840999999999
 21
1052.2627
  0
LINE
  8
_0-0_LAYER001
  6
CONTINUOUS
 62
    3
 10
1652.1840999999999
 20
1052.2627
 11
1652.1662999999999
 21
1053.0205000000001
  0
LINE
  8
_0-0_LAYER001
  6
CONTINUOUS
 62
    3
 10
1652.1662999999999
 20
1053.0205000000001
 11
1652.1178
 21
1055.0775000000001
  0
LINE
  8
_0-0_LAYER001
  6
CONTINUOUS
 62
    3
 10
1652.1178
 20
1055.0775000000001
 11
1652.0464000000002
 21
1058.1088
  0
LINE
  8
_0-0_LAYER001
  6
CONTINUOUS
 62
    3
 10
1652.0464000000002
 20
1058.1088
 11
1651.9596000000001
 21
1061.7897
  0
LINE
  8
_0-0_LAYER001
  6
CONTINUOUS
 62
    3
 10
1651.9596000000001
 20
1061.7897
 11
1651.8652000000002
 21
1065.7954
  0
LINE
  8
_0-0_LAYER001
  6
CONTINUOUS
 62
    3
 10
1651.8652000000002
 20
1065.7954
 11
1651.7707999999998
 21
1069.8009999999999
  0
LINE
  8
_0-0_LAYER001
  6
CONTINUOUS
 62
    3
 10
1651.7707999999998
 20
1069.8009999999999
 11
1651.6840999999999
 21
1073.4819
  0
LINE
  8
_0-0_LAYER001
  6
CONTINUOUS
 62
    3
 10
1651.6840999999999
 20
1073.4819
 11
1651.6125999999999
 21
1076.5133000000001
  0
LINE
  8
_0-0_LAYER001
  6
CONTINUOUS
 62
    3
 10
1651.6125999999999
 20
1076.5133000000001
 11
1651.5641999999998
 21
1078.5702000000001
  0
LINE
  8
_0-0_LAYER001
  6
CONTINUOUS
 62
    3
 10
1651.5641999999998
 20
1078.5702000000001
 11
1651.5463
 21
1079.3280999999999
  0
LINE
  8
_0-0_LAYER001
  6
CONTINUOUS
 62
    3
 10
1651.5463
 20
1079.3280999999999
 11
1653.1990999999998
 21
1079.9532999999999
  0
LINE
  8
_0-0_LAYER001
  6
CONTINUOUS
 62
    3
 10
1653.1990999999998
 20
1079.9532999999999
 11
1657.8625999999999
 21
1081.6615999999999
  0
LINE
  8
_0-0_LAYER001
  6
CONTINUOUS
 62
    3
 10
1657.8625999999999
 20
1081.6615999999999
 11
1665.0945000000002
 21
1084.2017000000001
  0
LINE
  8
_0-0_LAYER001
  6
CONTINUOUS
 62
    3
 10
1665.0945000000002
 20
1084.2017000000001
 11
1674.4522999999999
 21
1087.3224
  0
LINE
  8
_0-0_LAYER001
  6
CONTINUOUS
 62
    3
 10
1674.4522999999999
 20
1087.3224
 11
1685.4937
 21
1090.7724000000001
  0
LINE
  8
_0-0_LAYER001
  6
CONTINUOUS
 62
    3
 10
1685.4937
 20
1090.7724000000001
 11
1697.7763
 21
1094.3007
  0
LINE
  8
_0-0_LAYER001
  6
CONTINUOUS
 62
    3
 10
1697.7763
 20
1094.3007
 11
1710.8578000000002
 21
1097.6559999999999
  0
LINE
  8
_0-0_LAYER001
  6
CONTINUOUS
 62
    3
 10
1710.8578000000002
 20
1097.6559999999999
 11
1724.2957999999999
 21
1100.587
  0
LINE
  8
_0-0_LAYER001
  6
CONTINUOUS
 62
    3
 10
1724.2957999999999
 20
1100.587
 11
1737.6478999999999
 21
1102.8425
  0
LINE
  8
_0-0_LAYER001
  6
CONTINUOUS
 62
    3
 10
1750.4718
 20
1104.1713999999999
 11
1737.5360000000001
 21
1102.8235999999999
  0
CIRCLE
  8
_0-0_LAYER001
  6
CONTINUOUS
 62
    2
 10
1773.6936999999998
 20
1061.0499
 40
0.8999999999999999
  0
CIRCLE
  8
_0-0_LAYER001
  6
CONTINUOUS
 62
    2
 10
1782.2093
 20
1057.8959
 40
0.8999999999999999
  0
CIRCLE
  8
_0-0_LAYER001
  6
CONTINUOUS
 62
    2
 10
1743.8544000000002
 20
1074.7157999999999
 40
0.8999999999999999
  0
CIRCLE
  8
_0-0_LAYER001
  6
CONTINUOUS
 62
    2
 10
1743.1790000000001
 20
1082.8017
 40
0.8999999999999999
  0
CIRCLE
  8
_0-0_LAYER001
  6
CONTINUOUS
 62
    2
 10
1756.009
 20
1104.6334999999999
 40
0.8999999999999999
  0
CIRCLE
  8
_0-0_LAYER001
  6
CONTINUOUS
 62
    2
 10
1764.5246999999999
 20
1101.4795999999999
 40
0.8999999999999999
  0
CIRCLE
  8
_0-0_LAYER001
  6
CONTINUOUS
 62
    2
 10
1770.8181
 20
1048.2547
 40
0.8999999999999999
  0
CIRCLE
  8
_0-0_LAYER001
  6
CONTINUOUS
 62
    2
 10
1779.3337000000001
 20
1045.1007
 40
0.8999999999999999
  0
ARC
  8
_0-0_LAYER001
  6
CONTINUOUS
 62
    2
 10
1697.567
 20
1108.9758999999999
 40
20.334565000000005
 50
328.67859000000004
 51
7.1318930000000442
  0
ARC
  8
_0-0_LAYER001
  6
CONTINUOUS
 62
    2
 10
1648.4776000000002
 20
1088.6612
 40
68.977193
 50
338.19537000000003
 51
354.35825
  0
LINE
  8
_0-0_LAYER001
  6
CONTINUOUS
 62
    4
 10
1794.6246000000001
 20
1022.4532999999999
 11
1794.6246000000001
 21
1007.3788999999999
  0
LINE
  8
_0-0_LAYER001
  6
CONTINUOUS
 62
    4
 10
1651.7601
 20
1050.0749000000001
 11
1651.7601
 21
1032.3588999999999
  0
ARC
  8
_0-0_LAYER001
  6
CONTINUOUS
 62
    4
 10
1826.9160999999999
 20
1191.1169
 40
171.72701000000001
 50
228.22927000000001
 51
259.16158999999999
  0
LINE
  8
_0-0_LAYER001
  6
CONTINUOUS
 62
    4
 10
1655.4837000000002
 20
1035.0599
 11
1691.6738
 21
1051.2162000000001
  0
LINE
  8
_0-0_LAYER001
  6
CONTINUOUS
 62
    4
 10
1655.4837000000002
 20
1035.0599
 11
1655.4837000000002
 21
1033.4467
  0
LINE
  8
_0-0_LAYER001
  6
CONTINUOUS
 62
    4
 10
1651.7601
 20
1032.3588999999999
 11
1655.4756000000002
 21
1033.4735000000001
  0
ARC
  8
_0-0_LAYER001
  6
CONTINUOUS
 62
    4
 10
1697.3506000000002
 20
1034.7177999999999
 40
17.566393000000001
 50
69.918021999999993
 51
110.08197
  0
ARC
  8
_0-0_LAYER001
  6
CONTINUOUS
 62
    4
 10
1833.1576
 20
1204.6387
 40
200.99046999999999
 50
229.91572000000002
 51
258.94353000000001
  0
LINE
  8
_0-0_LAYER001
  6
CONTINUOUS
 62
    4
 10
1651.7601
 20
1050.0749000000001
 11
1685.9969000000001
 21
1065.0535
  0
ARC
  8
_0-0_LAYER001
  6
CONTINUOUS
 62
    4
 10
1697.6102999999998
 20
1042.5744
 40
25.304210000000005
 50
53.942641000000009
 51
117.01753000000001
  0
LINE
  8
_0-0_LAYER001
  6
CONTINUOUS
 62
    2
 10
1801.0962
 20
1275.0195000000001
 11
1801.0962
 21
1369.0779
  0
LINE
  8
_0-0_LAYER001
  6
CONTINUOUS
 62
    2
 10
1759.8921999999998
 20
1139.4108000000001
 11
1777.6307000000002
 21
1139.4108000000001
  0
LINE
  8
_0-0_LAYER001
  6
CONTINUOUS
 62
    2
 10
1777.6307000000002
 20
1139.4108000000001
 11
1777.6307000000002
 21
1121.9452000000001
  0
LINE
  8
_0-0_LAYER001
  6
CONTINUOUS
 62
    2
 10
1777.6307000000002
 20
1121.9452000000001
 11
1759.8921999999998
 21
1121.9452000000001
  0
LINE
  8
_0-0_LAYER001
  6
CONTINUOUS
 62
    2
 10
1759.8921999999998
 20
1121.9452000000001
 11
1759.8921999999998
 21
1139.4108000000001
  0
LINE
  8
_0-0_LAYER001
  6
CONTINUOUS
 62
    2
 10
1743.5354000000002
 20
1104.8924999999999
 11
1743.5354000000002
 21
1085.7574
  0
LINE
  8
_0-0_LAYER001
  6
CONTINUOUS
 62
    2
 10
1743.5354000000002
 20
1085.7574
 11
1750.8636999999999
 21
1087.5410999999999
  0
LINE
  8
_0-0_LAYER001
  6
CONTINUOUS
 62
    2
 10
1750.8636999999999
 20
1087.5410999999999
 11
1777.3107
 21
1111.1851999999999
  0
LINE
  8
_0-0_LAYER001
  6
CONTINUOUS
 62
    2
 10
1743.5354000000002
 20
1104.8924999999999
 11
1775.3843000000002
 21
1115.4232
  0
LINE
  8
_0-0_LAYER001
  6
CONTINUOUS
 62
    2
 10
1775.3843000000002
 20
1115.4232
 11
1777.3107
 21
1111.1851999999999
  0
LINE
  8
_0-0_LAYER001
  6
CONTINUOUS
 62
    4
 10
1685.3551000000002
 20
1013.3544999999999
 11
1685.3551000000002
 21
1012.3979999999999
  0
ARC
  8
_0-0_LAYER001
  6
CONTINUOUS
 62
    4
 10
1686.3551000000004
 20
1013.3544999999999
 40
1.0000000000000002
 50
102.72435
 51
180
  0
LINE
  8
_0-0_LAYER001
  6
CONTINUOUS
 62
    4
 10
1691.1720999999998
 20
1015.4674
 11
1686.1349
 21
1014.3299
  0
ARC
  8
_0-0_LAYER001
  6
CONTINUOUS
 62
    4
 10
1691.3924000000002
 20
1014.4919
 40
1.0000000000000002
 50
0
 51
102.72435
  0
ARC
  8
_0-0_LAYER001
  6
CONTINUOUS
 62
    4
 10
1691.3924000000002
 20
1016.9530999999999
 40
1.0000000000000002
 50
282.24497000000002
 51
0
  0
LINE
  8
_0-0_LAYER001
  6
CONTINUOUS
 62
    4
 10
1684.3924000000002
 20
1034.2867000000001
 11
1684.3924000000002
 21
1032.8296
  0
ARC
  8
_0-0_LAYER001
  6
CONTINUOUS
 62
    4
 10
1685.3924000000002
 20
1034.2867000000001
 40
1.0000000000000002
 50
101.73308
 51
180
  0
LINE
  8
_0-0_LAYER001
  6
CONTINUOUS
 62
    4
 10
1691.1889999999999
 20
1036.5119
 11
1685.1890000000001
 21
1035.2657999999999
  0
LINE
  8
_0-0_LAYER001
  6
CONTINUOUS
 62
    4
 10
1692.3924000000002
 20
1035.5328
 11
1692.3924000000002
 21
1016.9530999999999
  0
ARC
  8
_0-0_LAYER001
  6
CONTINUOUS
 62
    4
 10
1691.3924000000002
 20
1035.5328
 40
1.0000000000000002
 50
0
 51
101.73308
  0
LINE
  8
_0-0_LAYER001
  6
CONTINUOUS
 62
    2
 10
1738.2750000000001
 20
1151.241
 11
1738.2750000000001
 21
1143.741
  0
LINE
  8
_0-0_LAYER001
  6
CONTINUOUS
 62
    2
 10
1738.2750000000001
 20
1143.741
 11
1734.5250000000001
 21
1150.2362000000001
  0
LINE
  8
_0-0_LAYER001
  6
CONTINUOUS
 62
    2
 10
1738.2750000000001
 20
1143.741
 11
1677.0353
 21
1372.2909
  0
LINE
  8
_0-0_LAYER001
  6
CONTINUOUS
 62
    2
 10
1677.0353
 20
1372.2909
 11
1530.0353
 21
1372.2909
  0
LINE
  8
_0-0_LAYER001
  6
CONTINUOUS
 62
    2
 10
1717.4232999999999
 20
1151.2674999999999
 11
1713.6732999999999
 21
1157.7627
  0
LINE
  8
_0-0_LAYER001
  6
CONTINUOUS
 62
    2
 10
1717.4232999999999
 20
1151.2674999999999
 11
1670.6165999999998
 21
1325.9525000000003
  0
LINE
  8
_0-0_LAYER001
  6
CONTINUOUS
 62
    2
 10
1674.8917999999999
 20
1104.3149000000001
 11
1674.8917999999999
 21
1096.8149000000001
  0
LINE
  8
_0-0_LAYER001
  6
CONTINUOUS
 62
    2
 10
1674.8917999999999
 20
1096.8149000000001
 11
1671.1417999999999
 21
1103.3100999999999
  0
LINE
  8
_0-0_LAYER001
  6
CONTINUOUS
 62
    2
 10
1674.8917999999999
 20
1096.8149000000001
 11
1650.0639999999999
 21
1189.4737
  0
LINE
  8
_0-0_LAYER001
  6
CONTINUOUS
 62
    2
 10
1650.0639999999999
 20
1189.4737
 11
1536.0639999999999
 21
1189.4737
  0
LINE
  8
_0-0_LAYER001
  6
CONTINUOUS
 62
    2
 10
1810.1514000000002
 20
1276.8936000000003
 11
1806.4014000000002
 21
1270.3984
  0
LINE
  8
_0-0_LAYER001
  6
CONTINUOUS
 62
    2
 10
1806.4014000000002
 20
1270.3984
 11
1806.4014000000002
 21
1277.8984
  0
LINE
  8
_0-0_LAYER001
  6
CONTINUOUS
 62
    2
 10
1806.4014000000002
 20
1270.3984
 11
1836.9782
 21
1384.5124000000001
  0
LINE
  8
_0-0_LAYER001
  6
CONTINUOUS
 62
    2
 10
1796.4171999999999
 20
1140.2674999999999
 11
1792.6671999999999
 21
1133.7723000000001
  0
LINE
  8
_0-0_LAYER001
  6
CONTINUOUS
 62
    2
 10
1792.6671999999999
 20
1133.7723000000001
 11
1792.6671999999999
 21
1141.2723000000001
  0
LINE
  8
_0-0_LAYER001
  6
CONTINUOUS
 62
    2
 10
1792.6671999999999
 20
1133.7723000000001
 11
1849.7809000000002
 21
1346.9234000000001
  0
LINE
  8
_0-0_LAYER001
  6
CONTINUOUS
 62
    2
 10
1849.7809000000002
 20
1346.9234000000001
 11
1996.7809000000002
 21
1346.9234000000001
  0
LINE
  8
_0-0_LAYER001
  6
CONTINUOUS
 62
    2
 10
1993.9245000000003
 20
950.07559999999989
 11
1941.4245000000001
 21
950.07559999999989
  0
CIRCLE
  8
_0-0_LAYER001
  6
CONTINUOUS
 62
    2
 10
1991.4245000000001
 20
950.07559999999989
 40
1.6999999999999997
  0
LINE
  8
_0-0_LAYER001
  6
CONTINUOUS
 62
    2
 10
1991.4245000000001
 20
950.07559999999989
 11
1991.4245000000001
 21
1081.6495
  0
CIRCLE
  8
_0-0_LAYER001
  6
CONTINUOUS
 62
    2
 10
1991.4245000000001
 20
1081.6495
 40
1.6999999999999997
  0
LINE
  8
_0-0_LAYER001
  6
CONTINUOUS
 62
    2
 10
1993.9245000000003
 20
1081.6495
 11
1941.4245000000001
 21
1081.6495
  0
LINE
  8
_0-0_LAYER001
  6
CONTINUOUS
 62
    2
 10
1679.0961000000002
 20
971.07559999999989
 11
1679.0961000000002
 21
956.07559999999989
  0
LINE
  8
_0-0_LAYER001
  6
CONTINUOUS
 62
    2
 10
1681.0962
 20
954.07559999999989
 11
1797.0962
 21
954.07559999999989
  0
LINE
  8
_0-0_LAYER001
  6
DASHED3
 62
    2
 10
852.13539999999978
 20
952.07559999999989
 11
1799.0962
 21
952.07559999999989
  0
LINE
  8
_0-0_LAYER001
  6
CONTINUOUS
 62
    2
 10
1801.0962
 20
925.07559999999989
 11
852.13539999999978
 21
925.07559999999989
  0
LINE
  8
_0-0_LAYER001
  6
CONTINUOUS
 62
    2
 10
1801.0962
 20
975.07559999999989
 11
1801.0962
 21
925.07559999999989
  0
LINE
  8
_0-0_LAYER001
  6
CONTINUOUS
 62
    2
 10
1801.0962
 20
925.07559999999989
 11
1901.0962
 21
925.07559999999989
  0
LINE
  8
_0-0_LAYER001
  6
CONTINUOUS
 62
    2
 10
1791.0962
 20
825.07559999999989
 11
852.13539999999978
 21
825.07559999999989
  0
LINE
  8
_0-0_LAYER001
  6
CONTINUOUS
 62
    2
 10
1791.0962
 20
925.07559999999989
 11
1791.0962
 21
825.07559999999989
  0
LINE
  8
_0-0_LAYER001
  6
DASHED1
 62
    1
 10
1791.0962
 20
828.27559999999994
 11
852.13539999999978
 21
828.27559999999994
  0
LINE
  8
_0-0_LAYER001
  6
DASHED1
 62
    1
 10
1791.0962
 20
921.87560000000008
 11
852.13539999999978
 21
921.87560000000008
  0
LINE
  8
_0-0_LAYER001
  6
DASHED1
 62
    1
 10
1791.0962
 20
905.07559999999989
 11
852.13539999999978
 21
905.07559999999989
  0
LINE
  8
_0-0_LAYER001
  6
DASHED1
 62
    1
 10
1791.0962
 20
845.07559999999989
 11
852.13539999999978
 21
845.07559999999989
  0
LINE
  8
_0-0_LAYER001
  6
CONTINUOUS
 62
    2
 10
1901.0962
 20
975.19640000000004
 11
1801.0962
 21
1075.1964
  0
LINE
  8
_0-0_LAYER001
  6
CONTINUOUS
 62
    2
 10
1901.0962
 20
1191.4391000000001
 11
1801.0962
 21
1291.4387999999999
  0
LINE
  8
_0-0_LAYER001
  6
CONTINUOUS
 62
    2
 10
1901.0962
 20
1187.1964
 11
1801.0962
 21
1287.1964
  0
LINE
  8
_0-0_LAYER001
  6
CONTINUOUS
 62
    2
 10
1901.0962
 20
1311.5265999999999
 11
1901.0962
 21
1051.1794
  0
LINE
  8
_0-0_LAYER001
  6
CONTINUOUS
 62
    2
 10
1901.0962
 20
1054.0744
 11
1901.0962
 21
925.07559999999989
  0
LINE
  8
_0-0_LAYER001
  6
CONTINUOUS
 62
    2
 10
1681.0962
 20
971.81850000000009
 11
1681.0962
 21
954.07559999999989
  0
LINE
  8
_0-0_LAYER001
  6
CONTINUOUS
 62
    2
 10
1675.0965000000001
 20
970.81840000000011
 11
1676.7262000000001
 21
971.81840000000011
  0
LINE
  8
_0-0_LAYER001
  6
CONTINUOUS
 62
    2
 10
1670.4661999999998
 20
971.81850000000009
 11
1676.7262000000001
 21
971.81840000000011
  0
LINE
  8
_0-0_LAYER001
  6
CONTINUOUS
 62
    2
 10
1672.0963999999999
 20
970.81860000000006
 11
1670.4661999999998
 21
971.81850000000009
  0
LINE
  8
_0-0_LAYER001
  6
CONTINUOUS
 62
    2
 10
1798.4962
 20
1254.2194
 11
1795.7167000000002
 21
1238.8690999999999
  0
LINE
  8
_0-0_LAYER001
  6
CONTINUOUS
 62
    2
 10
1816.6961999999999
 20
1254.2194
 11
1816.6961999999999
 21
1275.0195000000001
  0
LINE
  8
_0-0_LAYER001
  6
CONTINUOUS
 62
    2
 10
1814.6161999999999
 20
1256.2994000000001
 11
1814.6161999999999
 21
1271.8995
  0
LINE
  8
_0-0_LAYER001
  6
CONTINUOUS
 62
    2
 10
1814.6161999999999
 20
1256.2994000000001
 11
1803.5212999999999
 21
1267.3942999999999
  0
LINE
  8
_0-0_LAYER001
  6
CONTINUOUS
 62
    2
 10
1810.2037999999998
 20
1256.2994000000001
 11
1803.6274000000001
 21
1262.876
  0
LINE
  8
_0-0_LAYER001
  6
CONTINUOUS
 62
    2
 10
1805.7914999999998
 20
1256.2994000000001
 11
1802.9949000000001
 21
1259.0961
  0
LINE
  8
_0-0_LAYER001
  6
CONTINUOUS
 62
    2
 10
1803.3301000000004
 20
1260.6134
 11
1814.6161999999999
 21
1271.8994
  0
LINE
  8
_0-0_LAYER001
  6
CONTINUOUS
 62
    2
 10
1803.6831999999999
 20
1265.3788
 11
1813.3238999999999
 21
1275.0195000000001
  0
LINE
  8
_0-0_LAYER001
  6
CONTINUOUS
 62
    2
 10
1803.1943000000001
 20
1269.3024
 11
1808.9114
 21
1275.0195000000001
  0
LINE
  8
_0-0_LAYER001
  6
CONTINUOUS
 62
    2
 10
1807.8409000000001
 20
1256.2994000000001
 11
1812.9679000000001
 21
1261.4264000000001
  0
LINE
  8
_0-0_LAYER001
  6
CONTINUOUS
 62
    2
 10
1812.2532000000001
 20
1256.2994000000001
 11
1814.3013999999998
 21
1258.3475000000001
  0
LINE
  8
_0-0_LAYER001
  6
CONTINUOUS
 62
    2
 10
1812.7026999999998
 20
1262.6251999999999
 11
1801.8377
 21
1273.4902999999999
  0
LINE
  8
_0-0_LAYER001
  6
CONTINUOUS
 62
    2
 10
1812.7685000000001
 20
1266.9718
 11
1804.721
 21
1275.0195000000001
  0
LINE
  8
_0-0_LAYER001
  6
CONTINUOUS
 62
    2
 10
1803.4285
 20
1256.2994000000001
 11
1812.5637999999999
 21
1265.4348
  0
LINE
  8
_0-0_LAYER001
  6
CONTINUOUS
 62
    2
 10
1802.1696999999999
 20
1272.6903
 11
1804.4989
 21
1275.0195000000001
  0
LINE
  8
_0-0_LAYER001
  6
CONTINUOUS
 62
    2
 10
1813.9245000000001
 20
1270.2284999999999
 11
1809.1334999999999
 21
1275.0195000000001
  0
LINE
  8
_0-0_LAYER001
  6
CONTINUOUS
 62
    2
 10
1814.6161999999999
 20
1273.9491
 11
1813.5459000000003
 21
1275.0195000000001
  0
LINE
  8
_0-0_LAYER001
  6
CONTINUOUS
 62
    2
 10
1814.6161999999999
 20
1271.8994
 11
1814.6161999999999
 21
1275.0195000000001
  0
LINE
  8
_0-0_LAYER001
  6
CONTINUOUS
 62
    2
 10
1799.0962
 20
1165.8194000000001
 11
1799.0962
 21
1254.2194
  0
LINE
  8
_0-0_LAYER001
  6
CONTINUOUS
 62
    2
 10
1814.6161999999999
 20
1256.2994000000001
 11
1796.6961999999999
 21
1256.2994000000001
  0
LINE
  8
_0-0_LAYER001
  6
CONTINUOUS
 62
    2
 10
1796.6961999999999
 20
1223.8195000000001
 11
1796.6961999999999
 21
1256.2994000000001
  0
LINE
  8
_0-0_LAYER001
  6
CONTINUOUS
 62
    2
 10
1797.0962
 20
1081.6495
 11
1797.0962
 21
954.07559999999989
  0
LINE
  8
_0-0_LAYER001
  6
CONTINUOUS
 62
    2
 10
1797.0962
 20
1081.6495
 11
1789.5962
 21
1068.6591000000001
  0
LINE
  8
_0-0_LAYER001
  6
DASHED3
 62
    2
 10
1799.0962
 20
1150.0755999999999
 11
1799.0962
 21
952.07559999999989
  0
LINE
  8
_0-0_LAYER001
  6
CONTINUOUS
 62
    2
 10
1801.0962
 20
1219.385
 11
1801.0962
 21
950.07559999999989
  0
LINE
  8
_0-0_LAYER001
  6
CONTINUOUS
 62
    2
 10
1816.6961999999999
 20
1254.2194
 11
1801.0962
 21
1254.2194
  0
LINE
  8
_0-0_LAYER001
  6
CONTINUOUS
 62
    2
 10
1816.6961999999999
 20
1275.0195000000001
 11
1801.0962
 21
1275.0195000000001
  0
LINE
  8
_0-0_LAYER001
  6
CONTINUOUS
 62
    2
 10
1801.0962
 20
1176.0827999999999
 11
1801.0962
 21
1254.2194
  0
CIRCLE
  8
_0-0_LAYER001
  6
CONTINUOUS
 62
    2
 10
1776.5403000000001
 20
1091.2954999999999
 40
0.8999999999999999
  0
CIRCLE
  8
_0-0_LAYER001
  6
CONTINUOUS
 62
    2
 10
1785.056
 20
1088.1415
 40
0.8999999999999999
  0
CIRCLE
  8
_0-0_LAYER001
  6
CONTINUOUS
 62
    2
 10
1766.7631000000003
 20
1083.4105999999999
 40
0.8999999999999999
  0
CIRCLE
  8
_0-0_LAYER001
  6
CONTINUOUS
 62
    2
 10
1733.3312999999998
 20
1103.5959
 40
0.8999999999999999
  0
CIRCLE
  8
_0-0_LAYER001
  6
CONTINUOUS
 62
    2
 10
1747.1514999999999
 20
1109.7786000000001
 40
0.8999999999999999
  0
ARC
  8
_0-0_LAYER001
  6
CONTINUOUS
 62
    2
 10
1781.5963000000002
 20
1264.6194
 40
22.099882999999998
 50
337.88465000000002
 51
28.072639999999978
  0
CIRCLE
  8
_0-0_LAYER001
  6
CONTINUOUS
 62
    2
 10
1789.4376000000002
 20
1096.5427999999999
 40
0.8999999999999999
  0
CIRCLE
  8
_0-0_LAYER001
  6
CONTINUOUS
 62
    2
 10
1779.5789
 20
1075.3648000000001
 40
0.8999999999999999
  0
CIRCLE
  8
_0-0_LAYER001
  6
CONTINUOUS
 62
    2
 10
1763.5128
 20
1095.8125
 40
0.8999999999999999
  0
CIRCLE
  8
_0-0_LAYER001
  6
CONTINUOUS
 62
    2
 10
1756.9403000000002
 20
1077.5555999999999
 40
0.8999999999999999
  0
CIRCLE
  8
_0-0_LAYER001
  6
CONTINUOUS
 62
    2
 10
1751.8798999999999
 20
1116.4884999999999
 40
0.8999999999999999
  0
CIRCLE
  8
_0-0_LAYER001
  6
CONTINUOUS
 62
    2
 10
1744.9423000000002
 20
1116.8536999999999
 40
0.8999999999999999
  0
LINE
  8
_0-0_LAYER001
  6
CONTINUOUS
 62
    2
 10
1993.9245000000003
 20
1081.6495
 11
1941.4245000000001
 21
1081.6495
  0
CIRCLE
  8
_0-0_LAYER001
  6
CONTINUOUS
 62
    2
 10
1991.4245000000001
 20
1081.6495
 40
1.6999999999999997
  0
LINE
  8
_0-0_LAYER001
  6
CONTINUOUS
 62
    2
 10
1991.4245000000001
 20
1081.6495
 11
1991.4245000000001
 21
1165.8194000000001
  0
CIRCLE
  8
_0-0_LAYER001
  6
CONTINUOUS
 62
    2
 10
1991.4245000000001
 20
1165.8194000000001
 40
1.6999999999999997
  0
LINE
  8
_0-0_LAYER001
  6
CONTINUOUS
 62
    2
 10
1993.9245000000003
 20
1165.8194000000001
 11
1941.4245000000001
 21
1165.8194000000001
  0
CIRCLE
  8
_0-0_LAYER001
  6
CONTINUOUS
 62
    2
 10
1991.4245000000001
 20
1165.8194000000001
 40
1.6999999999999997
  0
LINE
  8
_0-0_LAYER001
  6
CONTINUOUS
 62
    2
 10
1991.4245000000001
 20
1165.8194000000001
 11
1991.4245000000001
 21
1256.2994000000001
  0
CIRCLE
  8
_0-0_LAYER001
  6
CONTINUOUS
 62
    2
 10
1991.4245000000001
 20
1256.2994000000001
 40
1.6999999999999997
  0
LINE
  8
_0-0_LAYER001
  6
CONTINUOUS
 62
    2
 10
1993.9245000000003
 20
1256.2994000000001
 11
1941.4245000000001
 21
1256.2994000000001
  0
CIRCLE
  8
_0-0_LAYER001
  6
CONTINUOUS
 62
    2
 10
1991.4245000000001
 20
1256.2994000000001
 40
1.6999999999999997
  0
LINE
  8
_0-0_LAYER001
  6
CONTINUOUS
 62
    2
 10
1991.4245000000001
 20
1256.2994000000001
 11
1991.4245000000001
 21
1275.0195000000001
  0
CIRCLE
  8
_0-0_LAYER001
  6
CONTINUOUS
 62
    2
 10
1991.4245000000001
 20
1275.0195000000001
 40
1.6999999999999997
  0
LINE
  8
_0-0_LAYER001
  6
CONTINUOUS
 62
    2
 10
1993.9245000000003
 20
1275.0195000000001
 11
1941.4245000000001
 21
1275.0195000000001
  0
LINE
  8
_0-0_LAYER001
  6
CONTINUOUS
 62
    2
 10
856.92730000000006
 20
697.98749999999984
 11
856.92730000000006
 21
750.48749999999984
  0
CIRCLE
  8
_0-0_LAYER001
  6
CONTINUOUS
 62
    2
 10
856.92730000000006
 20
700.48749999999984
 40
1.6999999999999997
  0
LINE
  8
_0-0_LAYER001
  6
CONTINUOUS
 62
    2
 10
856.92730000000006
 20
700.48749999999984
 11
1121.9273000000001
 21
700.48749999999984
  0
CIRCLE
  8
_0-0_LAYER001
  6
CONTINUOUS
 62
    2
 10
1121.9273000000001
 20
700.48749999999984
 40
1.6999999999999997
  0
LINE
  8
_0-0_LAYER001
  6
CONTINUOUS
 62
    2
 10
1121.9273000000001
 20
697.98749999999984
 11
1121.9273000000001
 21
750.48749999999984
  0
CIRCLE
  8
_0-0_LAYER001
  6
CONTINUOUS
 62
    2
 10
1121.9273000000001
 20
700.48749999999984
 40
1.6999999999999997
  0
LINE
  8
_0-0_LAYER001
  6
CONTINUOUS
 62
    2
 10
1121.9273000000001
 20
700.48749999999984
 11
1386.9273000000001
 21
700.48749999999984
  0
CIRCLE
  8
_0-0_LAYER001
  6
CONTINUOUS
 62
    2
 10
1386.9273000000001
 20
700.48749999999984
 40
1.6999999999999997
  0
LINE
  8
_0-0_LAYER001
  6
CONTINUOUS
 62
    2
 10
1386.9273000000001
 20
697.98749999999984
 11
1386.9273000000001
 21
750.48749999999984
  0
CIRCLE
  8
_0-0_LAYER001
  6
CONTINUOUS
 62
    2
 10
1386.9273000000001
 20
700.48749999999984
 40
1.6999999999999997
  0
LINE
  8
_0-0_LAYER001
  6
CONTINUOUS
 62
    2
 10
1386.9273000000001
 20
700.48749999999984
 11
1691.9272999999998
 21
700.48749999999984
  0
CIRCLE
  8
_0-0_LAYER001
  6
CONTINUOUS
 62
    2
 10
1691.9272999999998
 20
700.48749999999984
 40
1.6999999999999997
  0
LINE
  8
_0-0_LAYER001
  6
CONTINUOUS
 62
    2
 10
1691.9272999999998
 20
697.98749999999984
 11
1691.9272999999998
 21
750.48749999999984
  0
LINE
  8
_0-0_LAYER001
  6
CONTINUOUS
 62
    4
 10
1512.4848999999999
 20
964.45859999999993
 11
1503.9495000000002
 21
978.99189999999999
  0
LINE
  8
_0-0_LAYER001
  6
CONTINUOUS
 62
    4
 10
1520.6527999999998
 20
963.80829999999992
 11
1528.9589999999998
 21
973.87380000000007
  0
ARC
  8
_0-0_LAYER001
  6
CONTINUOUS
 62
    4
 10
1516.7964000000002
 20
966.99070000000006
 40
5
 50
210.42578
 51
320.47001
  0
LINE
  8
_0-0_LAYER001
  6
CONTINUOUS
 62
    4
 10
1596.5983999999999
 20
963.33840000000009
 11
1589.2730000000001
 21
974.64450000000011
  0
LINE
  8
_0-0_LAYER001
  6
CONTINUOUS
 62
    4
 10
1605.1080000000002
 20
963.52829999999994
 11
1614.0464000000002
 21
978.77399999999989
  0
ARC
  8
_0-0_LAYER001
  6
CONTINUOUS
 62
    4
 10
1600.7946000000002
 20
966.05719999999997
 40
5
 50
212.93986000000001
 51
329.61716000000001
  0
LINE
  8
_0-0_LAYER001
  6
CONTINUOUS
 62
    4
 10
1644.3899999999999
 20
1003.086
 11
1646.8181
 21
1003.4898000000001
  0
LINE
  8
_0-0_LAYER001
  6
CONTINUOUS
 62
    4
 10
1640.201
 20
1002.3896999999999
 11
1644.3899999999999
 21
1003.086
  0
LINE
  8
_0-0_LAYER001
  6
CONTINUOUS
 62
    4
 10
1636.0072
 20
1001.6941999999999
 11
1640.201
 21
1002.3896999999999
  0
LINE
  8
_0-0_LAYER001
  6
CONTINUOUS
 62
    4
 10
1631.8083999999999
 20
1001.0001999999999
 11
1636.0072
 21
1001.6941999999999
  0
LINE
  8
_0-0_LAYER001
  6
CONTINUOUS
 62
    4
 10
1627.6043
 20
1000.3087
 11
1631.8083999999999
 21
1001.0001999999999
  0
LINE
  8
_0-0_LAYER001
  6
CONTINUOUS
 62
    4
 10
1623.3975
 20
999.62110000000007
 11
1627.6043
 21
1000.3087
  0
LINE
  8
_0-0_LAYER001
  6
CONTINUOUS
 62
    4
 10
1620.9452000000001
 20
999.22250000000008
 11
1623.3975
 21
999.62110000000007
  0
LINE
  8
_0-0_LAYER001
  6
CONTINUOUS
 62
    4
 10
1616.2123999999999
 20
998.46010000000001
 11
1620.9452000000001
 21
999.22250000000008
  0
LINE
  8
_0-0_LAYER001
  6
CONTINUOUS
 62
    4
 10
1608.0079999999998
 20
997.17620000000011
 11
1616.2123999999999
 21
998.46010000000001
  0
LINE
  8
_0-0_LAYER001
  6
CONTINUOUS
 62
    4
 10
1599.7004999999999
 20
995.95640000000003
 11
1608.0079999999998
 21
997.17620000000011
  0
LINE
  8
_0-0_LAYER001
  6
CONTINUOUS
 62
    4
 10
1591.2923000000001
 20
994.83999999999992
 11
1599.7004999999999
 21
995.95640000000003
  0
LINE
  8
_0-0_LAYER001
  6
CONTINUOUS
 62
    4
 10
1582.7797
 20
993.86660000000006
 11
1591.2923000000001
 21
994.83999999999992
  0
LINE
  8
_0-0_LAYER001
  6
CONTINUOUS
 62
    4
 10
1574.2204999999999
 20
993.08259999999996
 11
1582.7797
 21
993.86660000000006
  0
LINE
  8
_0-0_LAYER001
  6
CONTINUOUS
 62
    4
 10
1569.1590000000001
 20
992.72460000000001
 11
1574.2204999999999
 21
993.08259999999996
  0
LINE
  8
_0-0_LAYER001
  6
CONTINUOUS
 62
    4
 10
1566.3564000000001
 20
992.5630000000001
 11
1569.1590000000001
 21
992.72460000000001
  0
LINE
  8
_0-0_LAYER001
  6
CONTINUOUS
 62
    4
 10
1561.6354000000001
 20
992.3590999999999
 11
1566.3564000000001
 21
992.5630000000001
  0
LINE
  8
_0-0_LAYER001
  6
CONTINUOUS
 62
    4
 10
1556.8062
 20
992.25360000000001
 11
1561.6354000000001
 21
992.3590999999999
  0
LINE
  8
_0-0_LAYER001
  6
CONTINUOUS
 62
    4
 10
1551.9045000000001
 20
992.26900000000001
 11
1556.8062
 21
992.25360000000001
  0
LINE
  8
_0-0_LAYER001
  6
CONTINUOUS
 62
    4
 10
1546.9335000000001
 20
992.42689999999993
 11
1551.9045000000001
 21
992.26900000000001
  0
LINE
  8
_0-0_LAYER001
  6
CONTINUOUS
 62
    4
 10
1541.9760999999999
 20
992.74459999999999
 11
1546.9335000000001
 21
992.42689999999993
  0
LINE
  8
_0-0_LAYER001
  6
CONTINUOUS
 62
    4
 10
1538.9245000000001
 20
993.02600000000007
 11
1541.9760999999999
 21
992.74459999999999
  0
LINE
  8
_0-0_LAYER001
  6
CONTINUOUS
 62
    4
 10
1534.9956000000002
 20
993.48829999999998
 11
1538.9245000000001
 21
993.02600000000007
  0
LINE
  8
_0-0_LAYER001
  6
CONTINUOUS
 62
    4
 10
1528.4816999999998
 20
994.51080000000002
 11
1534.9956000000002
 21
993.48829999999998
  0
LINE
  8
_0-0_LAYER001
  6
CONTINUOUS
 62
    4
 10
1521.9349999999999
 20
995.86300000000006
 11
1528.4816999999998
 21
994.51080000000002
  0
LINE
  8
_0-0_LAYER001
  6
CONTINUOUS
 62
    4
 10
1515.4721
 20
997.51880000000006
 11
1521.9349999999999
 21
995.86300000000006
  0
LINE
  8
_0-0_LAYER001
  6
CONTINUOUS
 62
    4
 10
1509.1062000000002
 20
999.46949999999993
 11
1515.4721
 21
997.51880000000006
  0
LINE
  8
_0-0_LAYER001
  6
CONTINUOUS
 62
    4
 10
1502.9414000000002
 20
1001.6745000000001
 11
1509.1062000000002
 21
999.46949999999993
  0
LINE
  8
_0-0_LAYER001
  6
CONTINUOUS
 62
    4
 10
1499.2548000000002
 20
1003.1463000000001
 11
1502.9414000000002
 21
1001.6745000000001
  0
LINE
  8
_0-0_LAYER001
  6
CONTINUOUS
 62
    4
 10
1494.8905
 20
1005.0388
 11
1499.2548000000002
 21
1003.1463000000001
  0
LINE
  8
_0-0_LAYER001
  6
CONTINUOUS
 62
    4
 10
1487.8213999999998
 20
1008.4538
 11
1494.8905
 21
1005.0388
  0
LINE
  8
_0-0_LAYER001
  6
CONTINUOUS
 62
    4
 10
1480.9285
 20
1012.1833999999999
 11
1487.8213999999998
 21
1008.4538
  0
LINE
  8
_0-0_LAYER001
  6
CONTINUOUS
 62
    4
 10
1474.2914999999998
 20
1016.117
 11
1480.9285
 21
1012.1833999999999
  0
LINE
  8
_0-0_LAYER001
  6
CONTINUOUS
 62
    4
 10
1467.8822
 20
1020.1994999999999
 11
1474.2914999999998
 21
1016.117
  0
LINE
  8
_0-0_LAYER001
  6
CONTINUOUS
 62
    4
 10
1461.6979999999999
 20
1024.3616
 11
1467.8822
 21
1020.1994999999999
  0
LINE
  8
_0-0_LAYER001
  6
CONTINUOUS
 62
    4
 10
1458.1556999999998
 20
1026.8253
 11
1461.6979999999999
 21
1024.3616
  0
LINE
  8
_0-0_LAYER001
  6
CONTINUOUS
 62
    4
 10
1455.9236999999998
 20
1028.3987999999999
 11
1458.1556999999998
 21
1026.8253
  0
LINE
  8
_0-0_LAYER001
  6
CONTINUOUS
 62
    4
 10
1452.3000999999999
 20
1030.9380000000001
 11
1455.9236999999998
 21
1028.3987999999999
  0
LINE
  8
_0-0_LAYER001
  6
CONTINUOUS
 62
    4
 10
1448.9304000000002
 20
1033.2035000000001
 11
1452.3000999999999
 21
1030.9380000000001
  0
LINE
  8
_0-0_LAYER001
  6
CONTINUOUS
 62
    4
 10
1445.8154
 20
1035.1306
 11
1448.9304000000002
 21
1033.2035000000001
  0
LINE
  8
_0-0_LAYER001
  6
CONTINUOUS
 62
    4
 10
1442.9481999999998
 20
1036.6863000000001
 11
1445.8154
 21
1035.1306
  0
LINE
  8
_0-0_LAYER001
  6
CONTINUOUS
 62
    4
 10
1440.1170999999999
 20
1037.9548
 11
1442.9481999999998
 21
1036.6863000000001
  0
LINE
  8
_0-0_LAYER001
  6
CONTINUOUS
 62
    4
 10
1438.6538999999998
 20
1038.4869000000001
 11
1440.1170999999999
 21
1037.9548
  0
LINE
  8
_0-0_LAYER001
  6
CONTINUOUS
 62
    4
 10
1438.4728
 20
1038.5449000000001
 11
1438.6538999999998
 21
1038.4869000000001
  0
LINE
  8
_0-0_LAYER001
  6
CONTINUOUS
 62
    4
 10
1437.6844999999998
 20
1038.7728
 11
1438.4728
 21
1038.5449000000001
  0
LINE
  8
_0-0_LAYER001
  6
CONTINUOUS
 62
    4
 10
1437.0273999999999
 20
1038.9355
 11
1437.6844999999998
 21
1038.7728
  0
LINE
  8
_0-0_LAYER001
  6
CONTINUOUS
 62
    4
 10
1436.4456
 20
1039.0535
 11
1437.0273999999999
 21
1038.9355
  0
LINE
  8
_0-0_LAYER001
  6
CONTINUOUS
 62
    4
 10
1436.4054999999998
 20
1039.0597
 11
1436.4456
 21
1039.0535
  0
LINE
  8
_0-0_LAYER001
  6
CONTINUOUS
 62
    4
 10
1640.3793999999998
 20
983.89850000000001
 11
1641.9935
 21
984.16699999999992
  0
LINE
  8
_0-0_LAYER001
  6
CONTINUOUS
 62
    4
 10
1636.1907999999999
 20
983.20229999999992
 11
1640.3793999999998
 21
983.89850000000001
  0
LINE
  8
_0-0_LAYER001
  6
CONTINUOUS
 62
    4
 10
1631.9978999999998
 20
982.50690000000009
 11
1636.1907999999999
 21
983.20229999999992
  0
LINE
  8
_0-0_LAYER001
  6
CONTINUOUS
 62
    4
 10
1627.8004000000001
 20
981.81310000000008
 11
1631.9978999999998
 21
982.50690000000009
  0
LINE
  8
_0-0_LAYER001
  6
CONTINUOUS
 62
    4
 10
1623.5981000000002
 20
981.1219000000001
 11
1627.8004000000001
 21
981.81310000000008
  0
LINE
  8
_0-0_LAYER001
  6
CONTINUOUS
 62
    4
 10
1619.3932
 20
980.43460000000005
 11
1623.5981000000002
 21
981.1219000000001
  0
LINE
  8
_0-0_LAYER001
  6
CONTINUOUS
 62
    4
 10
1616.9432000000002
 20
980.03649999999993
 11
1619.3932
 21
980.43460000000005
  0
LINE
  8
_0-0_LAYER001
  6
CONTINUOUS
 62
    4
 10
1612.2161999999998
 20
979.27500000000009
 11
1616.9432000000002
 21
980.03649999999993
  0
LINE
  8
_0-0_LAYER001
  6
CONTINUOUS
 62
    4
 10
1604.0255000000002
 20
977.99319999999989
 11
1612.2161999999998
 21
979.27500000000009
  0
LINE
  8
_0-0_LAYER001
  6
CONTINUOUS
 62
    4
 10
1595.741
 20
976.77680000000009
 11
1604.0255000000002
 21
977.99319999999989
  0
LINE
  8
_0-0_LAYER001
  6
CONTINUOUS
 62
    4
 10
1587.3643999999999
 20
975.66460000000006
 11
1595.741
 21
976.77680000000009
  0
LINE
  8
_0-0_LAYER001
  6
CONTINUOUS
 62
    4
 10
1578.8923
 20
974.69579999999996
 11
1587.3643999999999
 21
975.66460000000006
  0
LINE
  8
_0-0_LAYER001
  6
CONTINUOUS
 62
    4
 10
1570.3762000000002
 20
973.91579999999999
 11
1578.8923
 21
974.69579999999996
  0
LINE
  8
_0-0_LAYER001
  6
CONTINUOUS
 62
    4
 10
1565.3483000000001
 20
973.5601999999999
 11
1570.3762000000002
 21
973.91579999999999
  0
LINE
  8
_0-0_LAYER001
  6
CONTINUOUS
 62
    4
 10
1562.5731000000001
 20
973.40010000000007
 11
1565.3483000000001
 21
973.5601999999999
  0
LINE
  8
_0-0_LAYER001
  6
CONTINUOUS
 62
    4
 10
1557.8878
 20
973.19769999999994
 11
1562.5731000000001
 21
973.40010000000007
  0
LINE
  8
_0-0_LAYER001
  6
CONTINUOUS
 62
    4
 10
1553.1048999999998
 20
973.0933
 11
1557.8878
 21
973.19769999999994
  0
LINE
  8
_0-0_LAYER001
  6
CONTINUOUS
 62
    4
 10
1548.2568000000001
 20
973.10850000000005
 11
1553.1048999999998
 21
973.0933
  0
LINE
  8
_0-0_LAYER001
  6
CONTINUOUS
 62
    4
 10
1543.3467000000001
 20
973.26440000000002
 11
1548.2568000000001
 21
973.10850000000005
  0
LINE
  8
_0-0_LAYER001
  6
CONTINUOUS
 62
    4
 10
1538.4494
 20
973.5782999999999
 11
1543.3467000000001
 21
973.26440000000002
  0
LINE
  8
_0-0_LAYER001
  6
CONTINUOUS
 62
    4
 10
1535.4506000000001
 20
973.85490000000004
 11
1538.4494
 21
973.5782999999999
  0
LINE
  8
_0-0_LAYER001
  6
CONTINUOUS
 62
    4
 10
1531.5850999999998
 20
974.30970000000002
 11
1535.4506000000001
 21
973.85490000000004
  0
LINE
  8
_0-0_LAYER001
  6
CONTINUOUS
 62
    4
 10
1525.1565999999998
 20
975.31880000000001
 11
1531.5850999999998
 21
974.30970000000002
  0
LINE
  8
_0-0_LAYER001
  6
CONTINUOUS
 62
    4
 10
1518.7031999999999
 20
976.65169999999989
 11
1525.1565999999998
 21
975.31880000000001
  0
LINE
  8
_0-0_LAYER001
  6
CONTINUOUS
 62
    4
 10
1512.3310000000001
 20
978.28430000000003
 11
1518.7031999999999
 21
976.65169999999989
  0
LINE
  8
_0-0_LAYER001
  6
CONTINUOUS
 62
    4
 10
1506.0536999999999
 20
980.20790000000011
 11
1512.3310000000001
 21
978.28430000000003
  0
LINE
  8
_0-0_LAYER001
  6
CONTINUOUS
 62
    4
 10
1499.9666000000002
 20
982.38499999999999
 11
1506.0536999999999
 21
980.20790000000011
  0
LINE
  8
_0-0_LAYER001
  6
CONTINUOUS
 62
    4
 10
1496.3409000000001
 20
983.83249999999998
 11
1499.9666000000002
 21
982.38499999999999
  0
LINE
  8
_0-0_LAYER001
  6
CONTINUOUS
 62
    4
 10
1492.0410999999999
 20
985.69699999999989
 11
1496.3409000000001
 21
983.83249999999998
  0
LINE
  8
_0-0_LAYER001
  6
CONTINUOUS
 62
    4
 10
1485.0502000000001
 20
989.07429999999999
 11
1492.0410999999999
 21
985.69699999999989
  0
LINE
  8
_0-0_LAYER001
  6
CONTINUOUS
 62
    4
 10
1478.2321000000002
 20
992.76340000000005
 11
1485.0502000000001
 21
989.07429999999999
  0
LINE
  8
_0-0_LAYER001
  6
CONTINUOUS
 62
    4
 10
1471.6563000000001
 20
996.66080000000011
 11
1478.2321000000002
 21
992.76340000000005
  0
LINE
  8
_0-0_LAYER001
  6
CONTINUOUS
 62
    4
 10
1465.2954
 20
1000.7123999999999
 11
1471.6563000000001
 21
996.66080000000011
  0
LINE
  8
_0-0_LAYER001
  6
CONTINUOUS
 62
    4
 10
1459.1448
 20
1004.8518999999999
 11
1465.2954
 21
1000.7123999999999
  0
LINE
  8
_0-0_LAYER001
  6
CONTINUOUS
 62
    4
 10
1455.6203
 20
1007.3033
 11
1459.1448
 21
1004.8518999999999
  0
LINE
  8
_0-0_LAYER001
  6
CONTINUOUS
 62
    4
 10
1453.3910999999998
 20
1008.8747000000001
 11
1455.6203
 21
1007.3033
  0
LINE
  8
_0-0_LAYER001
  6
CONTINUOUS
 62
    4
 10
1449.7494000000002
 20
1011.4266
 11
1453.3910999999998
 21
1008.8747000000001
  0
LINE
  8
_0-0_LAYER001
  6
CONTINUOUS
 62
    4
 10
1446.3323
 20
1013.7239999999999
 11
1449.7494000000002
 21
1011.4266
  0
LINE
  8
_0-0_LAYER001
  6
CONTINUOUS
 62
    4
 10
1443.1367
 20
1015.7009
 11
1446.3323
 21
1013.7239999999999
  0
LINE
  8
_0-0_LAYER001
  6
CONTINUOUS
 62
    4
 10
1440.1527000000001
 20
1017.3199999999999
 11
1443.1367
 21
1015.7009
  0
LINE
  8
_0-0_LAYER001
  6
CONTINUOUS
 62
    4
 10
1437.1862000000001
 20
1018.6492000000001
 11
1440.1527000000001
 21
1017.3199999999999
  0
LINE
  8
_0-0_LAYER001
  6
CONTINUOUS
 62
    4
 10
1436.4362000000001
 20
1018.9219000000001
 11
1437.1862000000001
 21
1018.6492000000001
  0
LINE
  8
_0-0_LAYER001
  6
CONTINUOUS
 62
    4
 10
1436.7692999999999
 20
1038.9650999999999
 11
1436.5931999999998
 21
1018.7916
  0
LINE
  8
_0-0_LAYER001
  6
CONTINUOUS
 62
    4
 10
1637.0949000000001
 20
973.47730000000001
 11
1634.8494999999998
 21
982.05070000000001
  0
ARC
  8
_0-0_LAYER001
  6
CONTINUOUS
 62
    4
 10
1639.9969999999998
 20
974.2373
 40
3.0000000000000004
 50
194.67639000000003
 51
270.00000000000006
  0
LINE
  8
_0-0_LAYER001
  6
CONTINUOUS
 62
    4
 10
1643.4395
 20
971.23299999999995
 11
1640.0216999999998
 21
971.23299999999995
  0
LINE
  8
_0-0_LAYER001
  6
CONTINUOUS
 62
    4
 10
1646.3987000000002
 20
973.73980000000006
 11
1648.3326999999999
 21
985.34400000000005
  0
ARC
  8
_0-0_LAYER001
  6
CONTINUOUS
 62
    4
 10
1643.4395
 20
974.23299999999995
 40
3.0000000000000004
 50
270
 51
350.53766999999999
  0
LINE
  8
_0-0_LAYER001
  6
CONTINUOUS
 62
    4
 10
1389.6731
 20
1048.3552
 11
1390.4870000000001
 21
1048.6619000000001
  0
LINE
  8
_0-0_LAYER001
  6
CONTINUOUS
 62
    4
 10
1390.4870000000001
 20
1048.6619000000001
 11
1394.0363
 21
1050.0015000000001
  0
LINE
  8
_0-0_LAYER001
  6
CONTINUOUS
 62
    4
 10
1394.0363
 20
1050.0015000000001
 11
1397.5929000000001
 21
1051.3504
  0
LINE
  8
_0-0_LAYER001
  6
CONTINUOUS
 62
    4
 10
1397.5929000000001
 20
1051.3504
 11
1401.1615999999999
 21
1052.7144000000001
  0
LINE
  8
_0-0_LAYER001
  6
CONTINUOUS
 62
    4
 10
1401.1615999999999
 20
1052.7144000000001
 11
1404.7469000000001
 21
1054.0995
  0
LINE
  8
_0-0_LAYER001
  6
CONTINUOUS
 62
    4
 10
1404.7469000000001
 20
1054.0995
 11
1408.3535999999999
 21
1055.5114000000001
  0
LINE
  8
_0-0_LAYER001
  6
CONTINUOUS
 62
    4
 10
1408.3535999999999
 20
1055.5114000000001
 11
1410.4571000000001
 21
1056.345
  0
LINE
  8
_0-0_LAYER001
  6
CONTINUOUS
 62
    4
 10
1410.4571000000001
 20
1056.345
 11
1412.5364999999999
 21
1057.1739
  0
LINE
  8
_0-0_LAYER001
  6
CONTINUOUS
 62
    4
 10
1412.5364999999999
 20
1057.1739
 11
1416.143
 21
1058.5753999999999
  0
LINE
  8
_0-0_LAYER001
  6
CONTINUOUS
 62
    4
 10
1416.143
 20
1058.5753999999999
 11
1419.7757999999999
 21
1059.8580999999999
  0
LINE
  8
_0-0_LAYER001
  6
CONTINUOUS
 62
    4
 10
1419.7757999999999
 20
1059.8580999999999
 11
1423.4337
 21
1060.9247
  0
LINE
  8
_0-0_LAYER001
  6
CONTINUOUS
 62
    4
 10
1423.4337
 20
1060.9247
 11
1427.1158
 21
1061.6778999999999
  0
LINE
  8
_0-0_LAYER001
  6
CONTINUOUS
 62
    4
 10
1427.1158
 20
1061.6778999999999
 11
1430.8211000000001
 21
1062.0205000000001
  0
LINE
  8
_0-0_LAYER001
  6
CONTINUOUS
 62
    4
 10
1430.8211000000001
 20
1062.0205000000001
 11
1432.9803999999999
 21
1061.9926
  0
LINE
  8
_0-0_LAYER001
  6
CONTINUOUS
 62
    4
 10
1432.9803999999999
 20
1061.9926
 11
1433.8296
 21
1061.9312
  0
LINE
  8
_0-0_LAYER001
  6
CONTINUOUS
 62
    4
 10
1433.8296
 20
1061.9312
 11
1435.2939000000001
 21
1061.7606000000001
  0
LINE
  8
_0-0_LAYER001
  6
CONTINUOUS
 62
    4
 10
1435.2939000000001
 20
1061.7606000000001
 11
1436.7550000000001
 21
1061.5138999999999
  0
LINE
  8
_0-0_LAYER001
  6
CONTINUOUS
 62
    4
 10
1436.7550000000001
 20
1061.5138999999999
 11
1438.2087000000001
 21
1061.1978999999999
  0
LINE
  8
_0-0_LAYER001
  6
CONTINUOUS
 62
    4
 10
1438.2087000000001
 20
1061.1978999999999
 11
1439.6507999999999
 21
1060.8194000000001
  0
LINE
  8
_0-0_LAYER001
  6
CONTINUOUS
 62
    4
 10
1439.6507999999999
 20
1060.8194000000001
 11
1441.0772000000002
 21
1060.3851999999999
  0
LINE
  8
_0-0_LAYER001
  6
CONTINUOUS
 62
    4
 10
1441.0772000000002
 20
1060.3851999999999
 11
1441.8957
 21
1060.1106
  0
LINE
  8
_0-0_LAYER001
  6
CONTINUOUS
 62
    4
 10
1441.8957
 20
1060.1106
 11
1444.3939999999998
 21
1059.1623999999999
  0
LINE
  8
_0-0_LAYER001
  6
CONTINUOUS
 62
    4
 10
1444.3939999999998
 20
1059.1623999999999
 11
1448.5529000000001
 21
1057.2288000000001
  0
LINE
  8
_0-0_LAYER001
  6
CONTINUOUS
 62
    4
 10
1448.5529000000001
 20
1057.2288000000001
 11
1452.5567000000001
 21
1054.9834000000001
  0
LINE
  8
_0-0_LAYER001
  6
CONTINUOUS
 62
    4
 10
1452.5567000000001
 20
1054.9834000000001
 11
1456.4434999999999
 21
1052.5032000000001
  0
LINE
  8
_0-0_LAYER001
  6
CONTINUOUS
 62
    4
 10
1456.4434999999999
 20
1052.5032000000001
 11
1460.2514999999999
 21
1049.865
  0
LINE
  8
_0-0_LAYER001
  6
CONTINUOUS
 62
    4
 10
1460.2514999999999
 20
1049.865
 11
1464.0187999999998
 21
1047.1459
  0
LINE
  8
_0-0_LAYER001
  6
CONTINUOUS
 62
    4
 10
1464.0187999999998
 20
1047.1459
 11
1466.2001
 21
1045.5621000000001
  0
LINE
  8
_0-0_LAYER001
  6
CONTINUOUS
 62
    4
 10
1466.2001
 20
1045.5621000000001
 11
1469.5317
 21
1043.1753000000001
  0
LINE
  8
_0-0_LAYER001
  6
CONTINUOUS
 62
    4
 10
1469.5317
 20
1043.1753000000001
 11
1475.3238999999999
 21
1039.1584
  0
LINE
  8
_0-0_LAYER001
  6
CONTINUOUS
 62
    4
 10
1475.3238999999999
 20
1039.1584
 11
1481.1961000000001
 21
1035.3018
  0
LINE
  8
_0-0_LAYER001
  6
CONTINUOUS
 62
    4
 10
1481.1961000000001
 20
1035.3018
 11
1487.1703000000002
 21
1031.6473000000001
  0
LINE
  8
_0-0_LAYER001
  6
CONTINUOUS
 62
    4
 10
1487.1703000000002
 20
1031.6473000000001
 11
1493.2685000000001
 21
1028.2366999999999
  0
LINE
  8
_0-0_LAYER001
  6
CONTINUOUS
 62
    4
 10
1493.2685000000001
 20
1028.2366999999999
 11
1499.5127000000002
 21
1025.1119000000001
  0
LINE
  8
_0-0_LAYER001
  6
CONTINUOUS
 62
    4
 10
1499.5127000000002
 20
1025.1119000000001
 11
1503.21
 21
1023.4468999999999
  0
LINE
  8
_0-0_LAYER001
  6
CONTINUOUS
 62
    4
 10
1503.21
 20
1023.4468999999999
 11
1506.2692999999999
 21
1022.1758
  0
LINE
  8
_0-0_LAYER001
  6
CONTINUOUS
 62
    4
 10
1506.2692999999999
 20
1022.1758
 11
1511.6298000000002
 21
1020.1737000000001
  0
LINE
  8
_0-0_LAYER001
  6
CONTINUOUS
 62
    4
 10
1511.6298000000002
 20
1020.1737000000001
 11
1517.0855000000001
 21
1018.4182000000001
  0
LINE
  8
_0-0_LAYER001
  6
CONTINUOUS
 62
    4
 10
1517.0855000000001
 20
1018.4182000000001
 11
1522.6205
 21
1016.9174
  0
LINE
  8
_0-0_LAYER001
  6
CONTINUOUS
 62
    4
 10
1522.6205
 20
1016.9174
 11
1528.2188000000001
 21
1015.6794
  0
LINE
  8
_0-0_LAYER001
  6
CONTINUOUS
 62
    4
 10
1528.2188000000001
 20
1015.6794
 11
1533.8645000000001
 21
1014.7121999999999
  0
LINE
  8
_0-0_LAYER001
  6
CONTINUOUS
 62
    4
 10
1533.8645000000001
 20
1014.7121999999999
 11
1537.1545000000001
 21
1014.2784999999999
  0
LINE
  8
_0-0_LAYER001
  6
CONTINUOUS
 62
    4
 10
1537.1545000000001
 20
1014.2784999999999
 11
1539.6738
 21
1014.0106000000001
  0
LINE
  8
_0-0_LAYER001
  6
CONTINUOUS
 62
    4
 10
1539.6738
 20
1014.0106000000001
 11
1544.0259000000001
 21
1013.6705999999999
  0
LINE
  8
_0-0_LAYER001
  6
CONTINUOUS
 62
    4
 10
1544.0259000000001
 20
1013.6705999999999
 11
1548.3861000000002
 21
1013.4712
  0
LINE
  8
_0-0_LAYER001
  6
CONTINUOUS
 62
    4
 10
1548.3861000000002
 20
1013.4712
 11
1552.7512999999999
 21
1013.3965000000001
  0
LINE
  8
_0-0_LAYER001
  6
CONTINUOUS
 62
    4
 10
1552.7512999999999
 20
1013.3965000000001
 11
1557.1183999999998
 21
1013.4309000000001
  0
LINE
  8
_0-0_LAYER001
  6
CONTINUOUS
 62
    4
 10
1557.1183999999998
 20
1013.4309000000001
 11
1561.4843000000001
 21
1013.5583999999999
  0
LINE
  8
_0-0_LAYER001
  6
CONTINUOUS
 62
    4
 10
1561.4843000000001
 20
1013.5583999999999
 11
1564.0147000000002
 21
1013.6688999999999
  0
LINE
  8
_0-0_LAYER001
  6
CONTINUOUS
 62
    4
 10
1564.0147000000002
 20
1013.6688999999999
 11
1568.7438000000002
 21
1013.9371000000001
  0
LINE
  8
_0-0_LAYER001
  6
CONTINUOUS
 62
    4
 10
1568.7438000000002
 20
1013.9371000000001
 11
1576.8820000000001
 21
1014.5681
  0
LINE
  8
_0-0_LAYER001
  6
CONTINUOUS
 62
    4
 10
1576.8820000000001
 20
1014.5681
 11
1585.0028000000002
 21
1015.3820000000001
  0
LINE
  8
_0-0_LAYER001
  6
CONTINUOUS
 62
    4
 10
1585.0028000000002
 20
1015.3820000000001
 11
1593.1086
 21
1016.3433
  0
LINE
  8
_0-0_LAYER001
  6
CONTINUOUS
 62
    4
 10
1593.1086
 20
1016.3433
 11
1601.2021
 21
1017.4164000000001
  0
LINE
  8
_0-0_LAYER001
  6
CONTINUOUS
 62
    4
 10
1601.2021
 20
1017.4164000000001
 11
1609.2856000000002
 21
1018.566
  0
LINE
  8
_0-0_LAYER001
  6
CONTINUOUS
 62
    4
 10
1609.2856000000002
 20
1018.566
 11
1613.9704999999999
 21
1019.2538
  0
LINE
  8
_0-0_LAYER001
  6
CONTINUOUS
 62
    4
 10
1613.9704999999999
 20
1019.2538
 11
1616.4054000000001
 21
1019.6147000000001
  0
LINE
  8
_0-0_LAYER001
  6
CONTINUOUS
 62
    4
 10
1616.4054000000001
 20
1019.6147000000001
 11
1620.6024000000002
 21
1020.2407000000001
  0
LINE
  8
_0-0_LAYER001
  6
CONTINUOUS
 62
    4
 10
1620.6024000000002
 20
1020.2407000000001
 11
1624.7982000000002
 21
1020.8706999999999
  0
LINE
  8
_0-0_LAYER001
  6
CONTINUOUS
 62
    4
 10
1624.7982000000002
 20
1020.8706999999999
 11
1628.9929999999999
 21
1021.5039999999999
  0
LINE
  8
_0-0_LAYER001
  6
CONTINUOUS
 62
    4
 10
1628.9929999999999
 20
1021.5039999999999
 11
1633.1871999999998
 21
1022.1396
  0
LINE
  8
_0-0_LAYER001
  6
CONTINUOUS
 62
    4
 10
1633.1871999999998
 20
1022.1396
 11
1637.3809000000001
 21
1022.7765999999999
  0
LINE
  8
_0-0_LAYER001
  6
CONTINUOUS
 62
    4
 10
1637.3809000000001
 20
1022.7765999999999
 11
1639.8132000000001
 21
1023.1464000000001
  0
LINE
  8
_0-0_LAYER001
  6
CONTINUOUS
 62
    4
 10
1394.7763
 20
1031.0427999999999
 11
1396.8381999999999
 21
1031.8196
  0
LINE
  8
_0-0_LAYER001
  6
CONTINUOUS
 62
    4
 10
1396.8381999999999
 20
1031.8196
 11
1400.4058
 21
1033.1660999999999
  0
LINE
  8
_0-0_LAYER001
  6
CONTINUOUS
 62
    4
 10
1400.4058
 20
1033.1660999999999
 11
1403.9976999999999
 21
1034.5283999999999
  0
LINE
  8
_0-0_LAYER001
  6
CONTINUOUS
 62
    4
 10
1403.9976999999999
 20
1034.5283999999999
 11
1407.6180999999999
 21
1035.9122
  0
LINE
  8
_0-0_LAYER001
  6
CONTINUOUS
 62
    4
 10
1407.6180999999999
 20
1035.9122
 11
1411.2710999999999
 21
1037.3234
  0
LINE
  8
_0-0_LAYER001
  6
CONTINUOUS
 62
    4
 10
1411.2710999999999
 20
1037.3234
 11
1414.9503
 21
1038.7637
  0
LINE
  8
_0-0_LAYER001
  6
CONTINUOUS
 62
    4
 10
1414.9503
 20
1038.7637
 11
1417.1054999999999
 21
1039.6178
  0
LINE
  8
_0-0_LAYER001
  6
CONTINUOUS
 62
    4
 10
1417.1054999999999
 20
1039.6178
 11
1419.1289999999999
 21
1040.4244000000001
  0
LINE
  8
_0-0_LAYER001
  6
CONTINUOUS
 62
    4
 10
1419.1289999999999
 20
1040.4244000000001
 11
1422.4009000000001
 21
1041.6958999999999
  0
LINE
  8
_0-0_LAYER001
  6
CONTINUOUS
 62
    4
 10
1422.4009000000001
 20
1041.6958999999999
 11
1425.2960000000003
 21
1042.7181
  0
LINE
  8
_0-0_LAYER001
  6
CONTINUOUS
 62
    4
 10
1425.2960000000003
 20
1042.7181
 11
1427.7642000000001
 21
1043.4377999999999
  0
LINE
  8
_0-0_LAYER001
  6
CONTINUOUS
 62
    4
 10
1427.7642000000001
 20
1043.4377999999999
 11
1429.7559000000001
 21
1043.8452
  0
LINE
  8
_0-0_LAYER001
  6
CONTINUOUS
 62
    4
 10
1429.7559000000001
 20
1043.8452
 11
1431.5351999999998
 21
1044.0097000000001
  0
LINE
  8
_0-0_LAYER001
  6
CONTINUOUS
 62
    4
 10
1431.5351999999998
 20
1044.0097000000001
 11
1432.2147
 21
1044.0009
  0
LINE
  8
_0-0_LAYER001
  6
CONTINUOUS
 62
    4
 10
1432.2147
 20
1044.0009
 11
1432.1386000000002
 21
1044.0064
  0
LINE
  8
_0-0_LAYER001
  6
CONTINUOUS
 62
    4
 10
1432.1386000000002
 20
1044.0064
 11
1432.7523000000001
 21
1043.9349999999999
  0
LINE
  8
_0-0_LAYER001
  6
CONTINUOUS
 62
    4
 10
1432.7523000000001
 20
1043.9349999999999
 11
1433.3427000000001
 21
1043.8353
  0
LINE
  8
_0-0_LAYER001
  6
CONTINUOUS
 62
    4
 10
1433.3427000000001
 20
1043.8353
 11
1434.0101
 21
1043.6902
  0
LINE
  8
_0-0_LAYER001
  6
CONTINUOUS
 62
    4
 10
1434.0101
 20
1043.6902
 11
1434.7437
 21
1043.4975999999999
  0
LINE
  8
_0-0_LAYER001
  6
CONTINUOUS
 62
    4
 10
1434.7437
 20
1043.4975999999999
 11
1435.5927999999999
 21
1043.2392
  0
LINE
  8
_0-0_LAYER001
  6
CONTINUOUS
 62
    4
 10
1435.5927999999999
 20
1043.2392
 11
1435.8368999999998
 21
1043.1573000000001
  0
LINE
  8
_0-0_LAYER001
  6
CONTINUOUS
 62
    4
 10
1435.8368999999998
 20
1043.1573000000001
 11
1437.3968
 21
1042.5652
  0
LINE
  8
_0-0_LAYER001
  6
CONTINUOUS
 62
    4
 10
1437.3968
 20
1042.5652
 11
1440.3445000000002
 21
1041.1948
  0
LINE
  8
_0-0_LAYER001
  6
CONTINUOUS
 62
    4
 10
1440.3445000000002
 20
1041.1948
 11
1443.3056000000001
 21
1039.5342000000001
  0
LINE
  8
_0-0_LAYER001
  6
CONTINUOUS
 62
    4
 10
1443.3056000000001
 20
1039.5342000000001
 11
1446.4733000000001
 21
1037.5128
  0
LINE
  8
_0-0_LAYER001
  6
CONTINUOUS
 62
    4
 10
1446.4733000000001
 20
1037.5128
 11
1449.8580000000002
 21
1035.1678999999999
  0
LINE
  8
_0-0_LAYER001
  6
CONTINUOUS
 62
    4
 10
1449.8580000000002
 20
1035.1678999999999
 11
1453.4636999999998
 21
1032.5654
  0
LINE
  8
_0-0_LAYER001
  6
CONTINUOUS
 62
    4
 10
1453.4636999999998
 20
1032.5654
 11
1455.6707000000001
 21
1030.963
  0
LINE
  8
_0-0_LAYER001
  6
CONTINUOUS
 62
    4
 10
1455.6707000000001
 20
1030.963
 11
1459.1606999999999
 21
1028.4627
  0
LINE
  8
_0-0_LAYER001
  6
CONTINUOUS
 62
    4
 10
1459.1606999999999
 20
1028.4627
 11
1465.2529
 21
1024.2376999999999
  0
LINE
  8
_0-0_LAYER001
  6
CONTINUOUS
 62
    4
 10
1465.2529
 20
1024.2376999999999
 11
1471.5565999999999
 21
1020.0977
  0
LINE
  8
_0-0_LAYER001
  6
CONTINUOUS
 62
    4
 10
1471.5565999999999
 20
1020.0977
 11
1478.0772999999999
 21
1016.1088999999999
  0
LINE
  8
_0-0_LAYER001
  6
CONTINUOUS
 62
    4
 10
1478.0772999999999
 20
1016.1088999999999
 11
1484.8433
 21
1012.3249000000001
  0
LINE
  8
_0-0_LAYER001
  6
CONTINUOUS
 62
    4
 10
1484.8433
 20
1012.3249000000001
 11
1491.7863000000002
 21
1008.8504
  0
LINE
  8
_0-0_LAYER001
  6
CONTINUOUS
 62
    4
 10
1491.7863000000002
 20
1008.8504
 11
1496.0596999999998
 21
1006.9259999999999
  0
LINE
  8
_0-0_LAYER001
  6
CONTINUOUS
 62
    4
 10
1496.0596999999998
 20
1006.9259999999999
 11
1499.6648
 21
1005.4281000000001
  0
LINE
  8
_0-0_LAYER001
  6
CONTINUOUS
 62
    4
 10
1499.6648
 20
1005.4281000000001
 11
1505.7208999999998
 21
1003.1660999999999
  0
LINE
  8
_0-0_LAYER001
  6
CONTINUOUS
 62
    4
 10
1505.7208999999998
 20
1003.1660999999999
 11
1511.9708000000001
 21
1001.1550999999999
  0
LINE
  8
_0-0_LAYER001
  6
CONTINUOUS
 62
    4
 10
1511.9708000000001
 20
1001.1550999999999
 11
1518.3195000000001
 21
999.43370000000004
  0
LINE
  8
_0-0_LAYER001
  6
CONTINUOUS
 62
    4
 10
1518.3195000000001
 20
999.43370000000004
 11
1524.7537000000002
 21
998.01080000000002
  0
LINE
  8
_0-0_LAYER001
  6
CONTINUOUS
 62
    4
 10
1524.7537000000002
 20
998.01080000000002
 11
1531.1673999999998
 21
996.91200000000003
  0
LINE
  8
_0-0_LAYER001
  6
CONTINUOUS
 62
    4
 10
1531.1673999999998
 20
996.91200000000003
 11
1535.0263
 21
996.40329999999994
  0
LINE
  8
_0-0_LAYER001
  6
CONTINUOUS
 62
    4
 10
1535.0263
 20
996.40329999999994
 11
1538.0209
 21
996.08490000000006
  0
LINE
  8
_0-0_LAYER001
  6
CONTINUOUS
 62
    4
 10
1538.0209
 20
996.08490000000006
 11
1542.9133000000002
 21
995.70270000000005
  0
LINE
  8
_0-0_LAYER001
  6
CONTINUOUS
 62
    4
 10
1542.9133000000002
 20
995.70270000000005
 11
1547.8208
 21
995.47820000000002
  0
LINE
  8
_0-0_LAYER001
  6
CONTINUOUS
 62
    4
 10
1547.8208
 20
995.47820000000002
 11
1552.6682000000001
 21
995.39529999999991
  0
LINE
  8
_0-0_LAYER001
  6
CONTINUOUS
 62
    4
 10
1552.6682000000001
 20
995.39529999999991
 11
1557.4521
 21
995.43290000000002
  0
LINE
  8
_0-0_LAYER001
  6
CONTINUOUS
 62
    4
 10
1557.4521
 20
995.43290000000002
 11
1562.1397999999999
 21
995.56989999999996
  0
LINE
  8
_0-0_LAYER001
  6
CONTINUOUS
 62
    4
 10
1562.1397999999999
 20
995.56989999999996
 11
1564.9169000000002
 21
995.69119999999998
  0
LINE
  8
_0-0_LAYER001
  6
CONTINUOUS
 62
    4
 10
1564.9169000000002
 20
995.69119999999998
 11
1569.9493000000002
 21
995.97659999999996
  0
LINE
  8
_0-0_LAYER001
  6
CONTINUOUS
 62
    4
 10
1569.9493000000002
 20
995.97659999999996
 11
1578.4753999999998
 21
996.63760000000002
  0
LINE
  8
_0-0_LAYER001
  6
CONTINUOUS
 62
    4
 10
1578.4753999999998
 20
996.63760000000002
 11
1586.9603000000002
 21
997.48800000000006
  0
LINE
  8
_0-0_LAYER001
  6
CONTINUOUS
 62
    4
 10
1586.9603000000002
 20
997.48800000000006
 11
1595.3516
 21
998.48309999999992
  0
LINE
  8
_0-0_LAYER001
  6
CONTINUOUS
 62
    4
 10
1595.3516
 20
998.48309999999992
 11
1603.6523000000002
 21
999.58380000000011
  0
LINE
  8
_0-0_LAYER001
  6
CONTINUOUS
 62
    4
 10
1603.6523000000002
 20
999.58380000000011
 11
1611.8600999999999
 21
1000.751
  0
LINE
  8
_0-0_LAYER001
  6
CONTINUOUS
 62
    4
 10
1611.8600999999999
 20
1000.751
 11
1616.5972000000002
 21
1001.4465
  0
LINE
  8
_0-0_LAYER001
  6
CONTINUOUS
 62
    4
 10
1616.5972000000002
 20
1001.4465
 11
1619.0524999999998
 21
1001.8104000000001
  0
LINE
  8
_0-0_LAYER001
  6
CONTINUOUS
 62
    4
 10
1619.0524999999998
 20
1001.8104000000001
 11
1623.2667000000001
 21
1002.4389000000001
  0
LINE
  8
_0-0_LAYER001
  6
CONTINUOUS
 62
    4
 10
1623.2667000000001
 20
1002.4389000000001
 11
1627.4782
 21
1003.0714
  0
LINE
  8
_0-0_LAYER001
  6
CONTINUOUS
 62
    4
 10
1627.4782
 20
1003.0714
 11
1631.6849000000002
 21
1003.7065
  0
LINE
  8
_0-0_LAYER001
  6
CONTINUOUS
 62
    4
 10
1631.6849000000002
 20
1003.7065
 11
1635.8870999999999
 21
1004.3433
  0
LINE
  8
_0-0_LAYER001
  6
CONTINUOUS
 62
    4
 10
1635.8870999999999
 20
1004.3433
 11
1640.085
 21
1004.9809
  0
LINE
  8
_0-0_LAYER001
  6
CONTINUOUS
 62
    4
 10
1640.085
 20
1004.9809
 11
1641.7026999999998
 21
1005.2267999999999
  0
LINE
  8
_0-0_LAYER001
  6
CONTINUOUS
 62
    4
 10
1389.2474999999999
 20
1048.1929
 11
1389.6735000000001
 21
1048.356
  0
ARC
  8
_0-0_LAYER001
  6
CONTINUOUS
 62
    4
 10
1390.3200999999999
 20
1045.3912
 40
3.0000000000000004
 50
110.94902000000002
 51
178.70000000000002
  0
LINE
  8
_0-0_LAYER001
  6
CONTINUOUS
 62
    4
 10
1387.2114999999999
 20
1029.6201000000001
 11
1387.2114999999999
 21
1045.3425999999999
  0
LINE
  8
_0-0_LAYER001
  6
CONTINUOUS
 62
    4
 10
1388.5654999999999
 20
1028.6849
 11
1394.7404000000001
 21
1031.0220999999999
  0
ARC
  8
_0-0_LAYER001
  6
CONTINUOUS
 62
    4
 10
1388.2114999999999
 20
1029.6201000000001
 40
1.0000000000000002
 50
180
 51
290.73165999999998
  0
LINE
  8
_0-0_LAYER001
  6
CONTINUOUS
 62
    4
 10
1639.9380999999998
 20
1023.1817000000001
 11
1684.3924000000002
 21
1032.8296
  0
LINE
  8
_0-0_LAYER001
  6
CONTINUOUS
 62
    4
 10
1646.6833000000001
 20
1003.348
 11
1685.3551000000002
 21
1012.3979999999999
  0
LINE
  8
_0-0_LAYER001
  6
CONTINUOUS
 62
    4
 10
1685.3551000000002
 20
1013.3544999999999
 11
1685.3551000000002
 21
1012.3979999999999
  0
ARC
  8
_0-0_LAYER001
  6
CONTINUOUS
 62
    4
 10
1686.3551000000004
 20
1013.3544999999999
 40
1.0000000000000002
 50
102.72435
 51
180
  0
LINE
  8
_0-0_LAYER001
  6
CONTINUOUS
 62
    4
 10
1691.1720999999998
 20
1015.4674
 11
1686.1349
 21
1014.3299
  0
ARC
  8
_0-0_LAYER001
  6
CONTINUOUS
 62
    4
 10
1691.3924000000002
 20
1014.4919
 40
1.0000000000000002
 50
0
 51
102.72435
  0
LINE
  8
_0-0_LAYER001
  6
CONTINUOUS
 62
    4
 10
1691.6044999999999
 20
1015.9757999999999
 11
1641.4704999999999
 21
1005.0953
  0
LINE
  8
_0-0_LAYER001
  6
CONTINUOUS
 62
    4
 10
1691.6102000000001
 20
995.2351000000001
 11
1642.0263
 21
984.16730000000007
  0
LINE
  8
_0-0_LAYER001
  6
CONTINUOUS
 62
    4
 10
1692.3924000000002
 20
996.21109999999999
 11
1692.3924000000002
 21
1014.4919
  0
ARC
  8
_0-0_LAYER001
  6
CONTINUOUS
 62
    4
 10
1691.3924000000002
 20
996.21109999999999
 40
1.0000000000000002
 50
282.58296000000001
 51
0.0000000000000254
  0
LINE
  8
_0-0_LAYER001
  6
CONTINUOUS
 62
    4
 10
1247.6618000000001
 20
964.64290000000005
 11
1239.1262999999999
 21
979.17630000000008
  0
LINE
  8
_0-0_LAYER001
  6
CONTINUOUS
 62
    4
 10
1255.8297
 20
963.99260000000004
 11
1264.1359
 21
974.05809999999997
  0
ARC
  8
_0-0_LAYER001
  6
CONTINUOUS
 62
    4
 10
1251.9731999999999
 20
967.17499999999995
 40
5
 50
210.42578
 51
320.47001
  0
LINE
  8
_0-0_LAYER001
  6
CONTINUOUS
 62
    4
 10
1331.7752999999998
 20
963.52279999999996
 11
1324.4499000000001
 21
974.8288
  0
LINE
  8
_0-0_LAYER001
  6
CONTINUOUS
 62
    4
 10
1340.2847999999999
 20
963.71270000000004
 11
1349.2233000000001
 21
978.95839999999998
  0
ARC
  8
_0-0_LAYER001
  6
CONTINUOUS
 62
    4
 10
1335.9715000000001
 20
966.24160000000006
 40
5
 50
212.93986000000001
 51
329.61716000000001
  0
LINE
  8
_0-0_LAYER001
  6
CONTINUOUS
 62
    4
 10
1379.5669
 20
1003.2702999999999
 11
1381.9949999999999
 21
1003.6741999999999
  0
LINE
  8
_0-0_LAYER001
  6
CONTINUOUS
 62
    4
 10
1375.3778
 20
1002.5741
 11
1379.5669
 21
1003.2702999999999
  0
LINE
  8
_0-0_LAYER001
  6
CONTINUOUS
 62
    4
 10
1371.1840000000002
 20
1001.8785
 11
1375.3778
 21
1002.5741
  0
LINE
  8
_0-0_LAYER001
  6
CONTINUOUS
 62
    4
 10
1366.9852000000001
 20
1001.1845000000001
 11
1371.1840000000002
 21
1001.8785
  0
LINE
  8
_0-0_LAYER001
  6
CONTINUOUS
 62
    4
 10
1362.7811999999999
 20
1000.4929999999999
 11
1366.9852000000001
 21
1001.1845000000001
  0
LINE
  8
_0-0_LAYER001
  6
CONTINUOUS
 62
    4
 10
1358.5744
 20
999.80539999999996
 11
1362.7811999999999
 21
1000.4929999999999
  0
LINE
  8
_0-0_LAYER001
  6
CONTINUOUS
 62
    4
 10
1356.1221
 20
999.40689999999995
 11
1358.5744
 21
999.80539999999996
  0
LINE
  8
_0-0_LAYER001
  6
CONTINUOUS
 62
    4
 10
1351.3893000000003
 20
998.64439999999991
 11
1356.1221
 21
999.40689999999995
  0
LINE
  8
_0-0_LAYER001
  6
CONTINUOUS
 62
    4
 10
1343.1849
 20
997.36059999999998
 11
1351.3893000000003
 21
998.64439999999991
  0
LINE
  8
_0-0_LAYER001
  6
CONTINUOUS
 62
    4
 10
1334.8774000000001
 20
996.14069999999992
 11
1343.1849
 21
997.36059999999998
  0
LINE
  8
_0-0_LAYER001
  6
CONTINUOUS
 62
    4
 10
1326.4690999999998
 20
995.02430000000004
 11
1334.8774000000001
 21
996.14069999999992
  0
LINE
  8
_0-0_LAYER001
  6
CONTINUOUS
 62
    4
 10
1317.9565
 20
994.05099999999993
 11
1326.4690999999998
 21
995.02430000000004
  0
LINE
  8
_0-0_LAYER001
  6
CONTINUOUS
 62
    4
 10
1309.3974000000001
 20
993.26700000000005
 11
1317.9565
 21
994.05099999999993
  0
LINE
  8
_0-0_LAYER001
  6
CONTINUOUS
 62
    4
 10
1304.3359
 20
992.90900000000011
 11
1309.3974000000001
 21
993.26700000000005
  0
LINE
  8
_0-0_LAYER001
  6
CONTINUOUS
 62
    4
 10
1301.5333000000001
 20
992.74739999999997
 11
1304.3359
 21
992.90900000000011
  0
LINE
  8
_0-0_LAYER001
  6
CONTINUOUS
 62
    4
 10
1296.8123000000001
 20
992.54340000000002
 11
1301.5333000000001
 21
992.74739999999997
  0
LINE
  8
_0-0_LAYER001
  6
CONTINUOUS
 62
    4
 10
1291.9829999999999
 20
992.4380000000001
 11
1296.8123000000001
 21
992.54340000000002
  0
LINE
  8
_0-0_LAYER001
  6
CONTINUOUS
 62
    4
 10
1287.0814
 20
992.4532999999999
 11
1291.9829999999999
 21
992.4380000000001
  0
LINE
  8
_0-0_LAYER001
  6
CONTINUOUS
 62
    4
 10
1282.1104
 20
992.61120000000005
 11
1287.0814
 21
992.4532999999999
  0
LINE
  8
_0-0_LAYER001
  6
CONTINUOUS
 62
    4
 10
1277.153
 20
992.92900000000009
 11
1282.1104
 21
992.61120000000005
  0
LINE
  8
_0-0_LAYER001
  6
CONTINUOUS
 62
    4
 10
1274.1013
 20
993.21039999999994
 11
1277.153
 21
992.92900000000009
  0
LINE
  8
_0-0_LAYER001
  6
CONTINUOUS
 62
    4
 10
1270.1724999999999
 20
993.6726000000001
 11
1274.1013
 21
993.21039999999994
  0
LINE
  8
_0-0_LAYER001
  6
CONTINUOUS
 62
    4
 10
1263.6585
 20
994.69520000000011
 11
1270.1724999999999
 21
993.6726000000001
  0
LINE
  8
_0-0_LAYER001
  6
CONTINUOUS
 62
    4
 10
1257.1119000000001
 20
996.04729999999995
 11
1263.6585
 21
994.69520000000011
  0
LINE
  8
_0-0_LAYER001
  6
CONTINUOUS
 62
    4
 10
1250.6489999999999
 20
997.70319999999992
 11
1257.1119000000001
 21
996.04729999999995
  0
LINE
  8
_0-0_LAYER001
  6
CONTINUOUS
 62
    4
 10
1244.2829999999999
 20
999.65390000000002
 11
1250.6489999999999
 21
997.70319999999992
  0
LINE
  8
_0-0_LAYER001
  6
CONTINUOUS
 62
    4
 10
1238.1183000000001
 20
1001.8588
 11
1244.2829999999999
 21
999.65390000000002
  0
LINE
  8
_0-0_LAYER001
  6
CONTINUOUS
 62
    4
 10
1234.4315999999999
 20
1003.3306
 11
1238.1183000000001
 21
1001.8588
  0
LINE
  8
_0-0_LAYER001
  6
CONTINUOUS
 62
    4
 10
1230.0672999999999
 20
1005.2230999999999
 11
1234.4315999999999
 21
1003.3306
  0
LINE
  8
_0-0_LAYER001
  6
CONTINUOUS
 62
    4
 10
1222.9982999999997
 20
1008.6380999999999
 11
1230.0672999999999
 21
1005.2230999999999
  0
LINE
  8
_0-0_LAYER001
  6
CONTINUOUS
 62
    4
 10
1216.1053999999999
 20
1012.3677
 11
1222.9982999999997
 21
1008.6380999999999
  0
LINE
  8
_0-0_LAYER001
  6
CONTINUOUS
 62
    4
 10
1209.4684
 20
1016.3014000000001
 11
1216.1053999999999
 21
1012.3677
  0
LINE
  8
_0-0_LAYER001
  6
CONTINUOUS
 62
    4
 10
1203.0590999999999
 20
1020.3838000000001
 11
1209.4684
 21
1016.3014000000001
  0
LINE
  8
_0-0_LAYER001
  6
CONTINUOUS
 62
    4
 10
1196.8749
 20
1024.546
 11
1203.0590999999999
 21
1020.3838000000001
  0
LINE
  8
_0-0_LAYER001
  6
CONTINUOUS
 62
    4
 10
1193.3325
 20
1027.0097000000001
 11
1196.8749
 21
1024.546
  0
LINE
  8
_0-0_LAYER001
  6
CONTINUOUS
 62
    4
 10
1191.1005
 20
1028.5832
 11
1193.3325
 21
1027.0097000000001
  0
LINE
  8
_0-0_LAYER001
  6
CONTINUOUS
 62
    4
 10
1187.4768999999999
 20
1031.1223
 11
1191.1005
 21
1028.5832
  0
LINE
  8
_0-0_LAYER001
  6
CONTINUOUS
 62
    4
 10
1184.1072999999999
 20
1033.3878
 11
1187.4768999999999
 21
1031.1223
  0
LINE
  8
_0-0_LAYER001
  6
CONTINUOUS
 62
    4
 10
1180.9922999999999
 20
1035.3149000000001
 11
1184.1072999999999
 21
1033.3878
  0
LINE
  8
_0-0_LAYER001
  6
CONTINUOUS
 62
    4
 10
1178.1251
 20
1036.8706999999999
 11
1180.9922999999999
 21
1035.3149000000001
  0
LINE
  8
_0-0_LAYER001
  6
CONTINUOUS
 62
    4
 10
1175.2940000000001
 20
1038.1391000000001
 11
1178.1251
 21
1036.8706999999999
  0
LINE
  8
_0-0_LAYER001
  6
CONTINUOUS
 62
    4
 10
1173.8308
 20
1038.6712
 11
1175.2940000000001
 21
1038.1391000000001
  0
LINE
  8
_0-0_LAYER001
  6
CONTINUOUS
 62
    4
 10
1173.6496999999999
 20
1038.7292
 11
1173.8308
 21
1038.6712
  0
LINE
  8
_0-0_LAYER001
  6
CONTINUOUS
 62
    4
 10
1172.8613999999998
 20
1038.9571000000001
 11
1173.6496999999999
 21
1038.7292
  0
LINE
  8
_0-0_LAYER001
  6
CONTINUOUS
 62
    4
 10
1172.2041999999999
 20
1039.1197999999999
 11
1172.8613999999998
 21
1038.9571000000001
  0
LINE
  8
_0-0_LAYER001
  6
CONTINUOUS
 62
    4
 10
1171.6224
 20
1039.2378000000001
 11
1172.2041999999999
 21
1039.1197999999999
  0
LINE
  8
_0-0_LAYER001
  6
CONTINUOUS
 62
    4
 10
1171.5824
 20
1039.2439999999999
 11
1171.6224
 21
1039.2378000000001
  0
LINE
  8
_0-0_LAYER001
  6
CONTINUOUS
 62
    4
 10
1375.5562
 20
984.08279999999991
 11
1377.1703
 21
984.35130000000004
  0
LINE
  8
_0-0_LAYER001
  6
CONTINUOUS
 62
    4
 10
1371.3677000000002
 20
983.38670000000002
 11
1375.5562
 21
984.08279999999991
  0
LINE
  8
_0-0_LAYER001
  6
CONTINUOUS
 62
    4
 10
1367.1748
 20
982.69119999999998
 11
1371.3677000000002
 21
983.38670000000002
  0
LINE
  8
_0-0_LAYER001
  6
CONTINUOUS
 62
    4
 10
1362.9773
 20
981.99749999999995
 11
1367.1748
 21
982.69119999999998
  0
LINE
  8
_0-0_LAYER001
  6
CONTINUOUS
 62
    4
 10
1358.7750000000001
 20
981.30629999999996
 11
1362.9773
 21
981.99749999999995
  0
LINE
  8
_0-0_LAYER001
  6
CONTINUOUS
 62
    4
 10
1354.5700999999999
 20
980.61899999999991
 11
1358.7750000000001
 21
981.30629999999996
  0
LINE
  8
_0-0_LAYER001
  6
CONTINUOUS
 62
    4
 10
1352.1199999999999
 20
980.22080000000005
 11
1354.5700999999999
 21
980.61899999999991
  0
LINE
  8
_0-0_LAYER001
  6
CONTINUOUS
 62
    4
 10
1347.3930999999998
 20
979.45929999999998
 11
1352.1199999999999
 21
980.22080000000005
  0
LINE
  8
_0-0_LAYER001
  6
CONTINUOUS
 62
    4
 10
1339.2023999999997
 20
978.17759999999998
 11
1347.3930999999998
 21
979.45929999999998
  0
LINE
  8
_0-0_LAYER001
  6
CONTINUOUS
 62
    4
 10
1330.9178999999999
 20
976.96109999999999
 11
1339.2023999999997
 21
978.17759999999998
  0
LINE
  8
_0-0_LAYER001
  6
CONTINUOUS
 62
    4
 10
1322.5413000000001
 20
975.84889999999996
 11
1330.9178999999999
 21
976.96109999999999
  0
LINE
  8
_0-0_LAYER001
  6
CONTINUOUS
 62
    4
 10
1314.0690999999997
 20
974.88020000000006
 11
1322.5413000000001
 21
975.84889999999996
  0
LINE
  8
_0-0_LAYER001
  6
CONTINUOUS
 62
    4
 10
1305.5530000000001
 20
974.10010000000011
 11
1314.0690999999997
 21
974.88020000000006
  0
LINE
  8
_0-0_LAYER001
  6
CONTINUOUS
 62
    4
 10
1300.5252
 20
973.74450000000002
 11
1305.5530000000001
 21
974.10010000000011
  0
LINE
  8
_0-0_LAYER001
  6
CONTINUOUS
 62
    4
 10
1297.75
 20
973.58449999999993
 11
1300.5252
 21
973.74450000000002
  0
LINE
  8
_0-0_LAYER001
  6
CONTINUOUS
 62
    4
 10
1293.0646999999999
 20
973.38210000000004
 11
1297.75
 21
973.58449999999993
  0
LINE
  8
_0-0_LAYER001
  6
CONTINUOUS
 62
    4
 10
1288.2817
 20
973.27759999999989
 11
1293.0646999999999
 21
973.38210000000004
  0
LINE
  8
_0-0_LAYER001
  6
CONTINUOUS
 62
    4
 10
1283.4337
 20
973.29279999999994
 11
1288.2817
 21
973.27759999999989
  0
LINE
  8
_0-0_LAYER001
  6
CONTINUOUS
 62
    4
 10
1278.5235
 20
973.44879999999989
 11
1283.4337
 21
973.29279999999994
  0
LINE
  8
_0-0_LAYER001
  6
CONTINUOUS
 62
    4
 10
1273.6261999999999
 20
973.7627
 11
1278.5235
 21
973.44879999999989
  0
LINE
  8
_0-0_LAYER001
  6
CONTINUOUS
 62
    4
 10
1270.6275000000001
 20
974.03919999999994
 11
1273.6261999999999
 21
973.7627
  0
LINE
  8
_0-0_LAYER001
  6
CONTINUOUS
 62
    4
 10
1266.7619
 20
974.49399999999991
 11
1270.6275000000001
 21
974.03919999999994
  0
LINE
  8
_0-0_LAYER001
  6
CONTINUOUS
 62
    4
 10
1260.3335
 20
975.5030999999999
 11
1266.7619
 21
974.49399999999991
  0
LINE
  8
_0-0_LAYER001
  6
CONTINUOUS
 62
    4
 10
1253.8800000000001
 20
976.83600000000001
 11
1260.3335
 21
975.5030999999999
  0
LINE
  8
_0-0_LAYER001
  6
CONTINUOUS
 62
    4
 10
1247.5079000000001
 20
978.4686999999999
 11
1253.8800000000001
 21
976.83600000000001
  0
LINE
  8
_0-0_LAYER001
  6
CONTINUOUS
 62
    4
 10
1241.2304999999997
 20
980.3922
 11
1247.5079000000001
 21
978.4686999999999
  0
LINE
  8
_0-0_LAYER001
  6
CONTINUOUS
 62
    4
 10
1235.1434999999999
 20
982.56940000000009
 11
1241.2304999999997
 21
980.3922
  0
LINE
  8
_0-0_LAYER001
  6
CONTINUOUS
 62
    4
 10
1231.5178000000001
 20
984.0168000000001
 11
1235.1434999999999
 21
982.56940000000009
  0
LINE
  8
_0-0_LAYER001
  6
CONTINUOUS
 62
    4
 10
1227.2179000000001
 20
985.88139999999999
 11
1231.5178000000001
 21
984.0168000000001
  0
LINE
  8
_0-0_LAYER001
  6
CONTINUOUS
 62
    4
 10
1220.2271000000001
 20
989.25859999999989
 11
1227.2179000000001
 21
985.88139999999999
  0
LINE
  8
_0-0_LAYER001
  6
CONTINUOUS
 62
    4
 10
1213.4088999999999
 20
992.94779999999992
 11
1220.2271000000001
 21
989.25859999999989
  0
LINE
  8
_0-0_LAYER001
  6
CONTINUOUS
 62
    4
 10
1206.8332
 20
996.8451
 11
1213.4088999999999
 21
992.94779999999992
  0
LINE
  8
_0-0_LAYER001
  6
CONTINUOUS
 62
    4
 10
1200.4721999999999
 20
1000.8968
 11
1206.8332
 21
996.8451
  0
LINE
  8
_0-0_LAYER001
  6
CONTINUOUS
 62
    4
 10
1194.3217
 20
1005.0362
 11
1200.4721999999999
 21
1000.8968
  0
LINE
  8
_0-0_LAYER001
  6
CONTINUOUS
 62
    4
 10
1190.7971
 20
1007.4875999999999
 11
1194.3217
 21
1005.0362
  0
LINE
  8
_0-0_LAYER001
  6
CONTINUOUS
 62
    4
 10
1188.568
 20
1009.059
 11
1190.7971
 21
1007.4875999999999
  0
LINE
  8
_0-0_LAYER001
  6
CONTINUOUS
 62
    4
 10
1184.9263000000001
 20
1011.6108999999999
 11
1188.568
 21
1009.059
  0
LINE
  8
_0-0_LAYER001
  6
CONTINUOUS
 62
    4
 10
1181.5092
 20
1013.9083000000001
 11
1184.9263000000001
 21
1011.6108999999999
  0
LINE
  8
_0-0_LAYER001
  6
CONTINUOUS
 62
    4
 10
1178.3135
 20
1015.8852999999999
 11
1181.5092
 21
1013.9083000000001
  0
LINE
  8
_0-0_LAYER001
  6
CONTINUOUS
 62
    4
 10
1175.3296
 20
1017.5044
 11
1178.3135
 21
1015.8852999999999
  0
LINE
  8
_0-0_LAYER001
  6
CONTINUOUS
 62
    4
 10
1172.3630000000001
 20
1018.8335
 11
1175.3296
 21
1017.5044
  0
LINE
  8
_0-0_LAYER001
  6
CONTINUOUS
 62
    4
 10
1171.6131
 20
1019.1062999999999
 11
1172.3630000000001
 21
1018.8335
  0
LINE
  8
_0-0_LAYER001
  6
CONTINUOUS
 62
    4
 10
1171.9460999999999
 20
1039.1494
 11
1171.7701
 21
1018.9758999999999
  0
LINE
  8
_0-0_LAYER001
  6
CONTINUOUS
 62
    4
 10
1372.2718
 20
973.66159999999991
 11
1370.0263
 21
982.2349999999999
  0
ARC
  8
_0-0_LAYER001
  6
CONTINUOUS
 62
    4
 10
1375.1739
 20
974.4217000000001
 40
3.0000000000000004
 50
194.67639000000003
 51
270.00000000000006
  0
LINE
  8
_0-0_LAYER001
  6
CONTINUOUS
 62
    4
 10
1378.6164000000003
 20
971.41740000000004
 11
1375.1985
 21
971.41740000000004
  0
LINE
  8
_0-0_LAYER001
  6
CONTINUOUS
 62
    4
 10
1381.5754999999999
 20
973.92419999999993
 11
1383.5096000000001
 21
985.52829999999994
  0
ARC
  8
_0-0_LAYER001
  6
CONTINUOUS
 62
    4
 10
1378.6164000000003
 20
974.41740000000004
 40
3.0000000000000004
 50
270
 51
350.53766999999999
  0
LINE
  8
_0-0_LAYER001
  6
CONTINUOUS
 62
    4
 10
1124.8499999999999
 20
1048.5396000000001
 11
1125.6639
 21
1048.8462
  0
LINE
  8
_0-0_LAYER001
  6
CONTINUOUS
 62
    4
 10
1125.6639
 20
1048.8462
 11
1129.2130999999999
 21
1050.1858
  0
LINE
  8
_0-0_LAYER001
  6
CONTINUOUS
 62
    4
 10
1129.2130999999999
 20
1050.1858
 11
1132.7698
 21
1051.5346999999999
  0
LINE
  8
_0-0_LAYER001
  6
CONTINUOUS
 62
    4
 10
1132.7698
 20
1051.5346999999999
 11
1136.3384000000001
 21
1052.8987
  0
LINE
  8
_0-0_LAYER001
  6
CONTINUOUS
 62
    4
 10
1136.3384000000001
 20
1052.8987
 11
1139.9238
 21
1054.2837999999999
  0
LINE
  8
_0-0_LAYER001
  6
CONTINUOUS
 62
    4
 10
1139.9238
 20
1054.2837999999999
 11
1143.5304999999998
 21
1055.6958
  0
LINE
  8
_0-0_LAYER001
  6
CONTINUOUS
 62
    4
 10
1143.5304999999998
 20
1055.6958
 11
1145.634
 21
1056.5293999999999
  0
LINE
  8
_0-0_LAYER001
  6
CONTINUOUS
 62
    4
 10
1145.634
 20
1056.5293999999999
 11
1147.7134000000001
 21
1057.3583000000001
  0
LINE
  8
_0-0_LAYER001
  6
CONTINUOUS
 62
    4
 10
1147.7134000000001
 20
1057.3583000000001
 11
1151.3199
 21
1058.7597000000001
  0
LINE
  8
_0-0_LAYER001
  6
CONTINUOUS
 62
    4
 10
1151.3199
 20
1058.7597000000001
 11
1154.9526000000001
 21
1060.0424
  0
LINE
  8
_0-0_LAYER001
  6
CONTINUOUS
 62
    4
 10
1154.9526000000001
 20
1060.0424
 11
1158.6106
 21
1061.1089999999999
  0
LINE
  8
_0-0_LAYER001
  6
CONTINUOUS
 62
    4
 10
1158.6106
 20
1061.1089999999999
 11
1162.2927
 21
1061.8623
  0
LINE
  8
_0-0_LAYER001
  6
CONTINUOUS
 62
    4
 10
1162.2927
 20
1061.8623
 11
1165.998
 21
1062.2048
  0
LINE
  8
_0-0_LAYER001
  6
CONTINUOUS
 62
    4
 10
1165.998
 20
1062.2048
 11
1168.1572000000001
 21
1062.1768999999999
  0
LINE
  8
_0-0_LAYER001
  6
CONTINUOUS
 62
    4
 10
1168.1572000000001
 20
1062.1768999999999
 11
1169.0064
 21
1062.1155000000001
  0
LINE
  8
_0-0_LAYER001
  6
CONTINUOUS
 62
    4
 10
1169.0064
 20
1062.1155000000001
 11
1170.4707000000001
 21
1061.9449
  0
LINE
  8
_0-0_LAYER001
  6
CONTINUOUS
 62
    4
 10
1170.4707000000001
 20
1061.9449
 11
1171.9318000000001
 21
1061.6982
  0
LINE
  8
_0-0_LAYER001
  6
CONTINUOUS
 62
    4
 10
1171.9318000000001
 20
1061.6982
 11
1173.3854999999999
 21
1061.3822
  0
LINE
  8
_0-0_LAYER001
  6
CONTINUOUS
 62
    4
 10
1173.3854999999999
 20
1061.3822
 11
1174.8277
 21
1061.0037
  0
LINE
  8
_0-0_LAYER001
  6
CONTINUOUS
 62
    4
 10
1174.8277
 20
1061.0037
 11
1176.2541000000001
 21
1060.5696
  0
LINE
  8
_0-0_LAYER001
  6
CONTINUOUS
 62
    4
 10
1176.2541000000001
 20
1060.5696
 11
1177.0726
 21
1060.2949000000001
  0
LINE
  8
_0-0_LAYER001
  6
CONTINUOUS
 62
    4
 10
1177.0726
 20
1060.2949000000001
 11
1179.5708
 21
1059.3467000000001
  0
LINE
  8
_0-0_LAYER001
  6
CONTINUOUS
 62
    4
 10
1179.5708
 20
1059.3467000000001
 11
1183.7297000000001
 21
1057.4132
  0
LINE
  8
_0-0_LAYER001
  6
CONTINUOUS
 62
    4
 10
1183.7297000000001
 20
1057.4132
 11
1187.7335
 21
1055.1677999999999
  0
LINE
  8
_0-0_LAYER001
  6
CONTINUOUS
 62
    4
 10
1187.7335
 20
1055.1677999999999
 11
1191.6203999999998
 21
1052.6875
  0
LINE
  8
_0-0_LAYER001
  6
CONTINUOUS
 62
    4
 10
1191.6203999999998
 20
1052.6875
 11
1195.4284
 21
1050.0494000000001
  0
LINE
  8
_0-0_LAYER001
  6
CONTINUOUS
 62
    4
 10
1195.4284
 20
1050.0494000000001
 11
1199.1957
 21
1047.3303000000001
  0
LINE
  8
_0-0_LAYER001
  6
CONTINUOUS
 62
    4
 10
1199.1957
 20
1047.3303000000001
 11
1201.377
 21
1045.7465
  0
LINE
  8
_0-0_LAYER001
  6
CONTINUOUS
 62
    4
 10
1201.377
 20
1045.7465
 11
1204.7085999999999
 21
1043.3597
  0
LINE
  8
_0-0_LAYER001
  6
CONTINUOUS
 62
    4
 10
1204.7085999999999
 20
1043.3597
 11
1210.5008
 21
1039.3426999999999
  0
LINE
  8
_0-0_LAYER001
  6
CONTINUOUS
 62
    4
 10
1210.5008
 20
1039.3426999999999
 11
1216.373
 21
1035.4861000000001
  0
LINE
  8
_0-0_LAYER001
  6
CONTINUOUS
 62
    4
 10
1216.373
 20
1035.4861000000001
 11
1222.3471
 21
1031.8316
  0
LINE
  8
_0-0_LAYER001
  6
CONTINUOUS
 62
    4
 10
1222.3471
 20
1031.8316
 11
1228.4453000000001
 21
1028.4211
  0
LINE
  8
_0-0_LAYER001
  6
CONTINUOUS
 62
    4
 10
1228.4453000000001
 20
1028.4211
 11
1234.6895999999999
 21
1025.2963
  0
LINE
  8
_0-0_LAYER001
  6
CONTINUOUS
 62
    4
 10
1234.6895999999999
 20
1025.2963
 11
1238.3869
 21
1023.6313
  0
LINE
  8
_0-0_LAYER001
  6
CONTINUOUS
 62
    4
 10
1238.3869
 20
1023.6313
 11
1241.4460999999999
 21
1022.3602000000001
  0
LINE
  8
_0-0_LAYER001
  6
CONTINUOUS
 62
    4
 10
1241.4460999999999
 20
1022.3602000000001
 11
1246.8067000000001
 21
1020.3579999999999
  0
LINE
  8
_0-0_LAYER001
  6
CONTINUOUS
 62
    4
 10
1246.8067000000001
 20
1020.3579999999999
 11
1252.2624000000001
 21
1018.6025
  0
LINE
  8
_0-0_LAYER001
  6
CONTINUOUS
 62
    4
 10
1252.2624000000001
 20
1018.6025
 11
1257.7973
 21
1017.1017999999999
  0
LINE
  8
_0-0_LAYER001
  6
CONTINUOUS
 62
    4
 10
1257.7973
 20
1017.1017999999999
 11
1263.3956000000001
 21
1015.8638000000001
  0
LINE
  8
_0-0_LAYER001
  6
CONTINUOUS
 62
    4
 10
1263.3956000000001
 20
1015.8638000000001
 11
1269.0414000000001
 21
1014.8966
  0
LINE
  8
_0-0_LAYER001
  6
CONTINUOUS
 62
    4
 10
1269.0414000000001
 20
1014.8966
 11
1272.3313000000001
 21
1014.4628
  0
LINE
  8
_0-0_LAYER001
  6
CONTINUOUS
 62
    4
 10
1272.3313000000001
 20
1014.4628
 11
1274.8506
 21
1014.1949999999999
  0
LINE
  8
_0-0_LAYER001
  6
CONTINUOUS
 62
    4
 10
1274.8506
 20
1014.1949999999999
 11
1279.2027
 21
1013.8549
  0
LINE
  8
_0-0_LAYER001
  6
CONTINUOUS
 62
    4
 10
1279.2027
 20
1013.8549
 11
1283.5628999999999
 21
1013.6555000000001
  0
LINE
  8
_0-0_LAYER001
  6
CONTINUOUS
 62
    4
 10
1283.5628999999999
 20
1013.6555000000001
 11
1287.9281000000001
 21
1013.5808999999999
  0
LINE
  8
_0-0_LAYER001
  6
CONTINUOUS
 62
    4
 10
1287.9281000000001
 20
1013.5808999999999
 11
1292.2952
 21
1013.6152
  0
LINE
  8
_0-0_LAYER001
  6
CONTINUOUS
 62
    4
 10
1292.2952
 20
1013.6152
 11
1296.6611
 21
1013.7428
  0
LINE
  8
_0-0_LAYER001
  6
CONTINUOUS
 62
    4
 10
1296.6611
 20
1013.7428
 11
1299.1916000000001
 21
1013.8533
  0
LINE
  8
_0-0_LAYER001
  6
CONTINUOUS
 62
    4
 10
1299.1916000000001
 20
1013.8533
 11
1303.9206999999999
 21
1014.1215
  0
LINE
  8
_0-0_LAYER001
  6
CONTINUOUS
 62
    4
 10
1303.9206999999999
 20
1014.1215
 11
1312.0589
 21
1014.7525000000001
  0
LINE
  8
_0-0_LAYER001
  6
CONTINUOUS
 62
    4
 10
1312.0589
 20
1014.7525000000001
 11
1320.1795999999999
 21
1015.5663
  0
LINE
  8
_0-0_LAYER001
  6
CONTINUOUS
 62
    4
 10
1320.1795999999999
 20
1015.5663
 11
1328.2855
 21
1016.5275999999999
  0
LINE
  8
_0-0_LAYER001
  6
CONTINUOUS
 62
    4
 10
1328.2855
 20
1016.5275999999999
 11
1336.3788999999999
 21
1017.6007999999999
  0
LINE
  8
_0-0_LAYER001
  6
CONTINUOUS
 62
    4
 10
1336.3788999999999
 20
1017.6007999999999
 11
1344.4625000000001
 21
1018.7503999999999
  0
LINE
  8
_0-0_LAYER001
  6
CONTINUOUS
 62
    4
 10
1344.4625000000001
 20
1018.7503999999999
 11
1349.1473999999998
 21
1019.4381000000001
  0
LINE
  8
_0-0_LAYER001
  6
CONTINUOUS
 62
    4
 10
1349.1473999999998
 20
1019.4381000000001
 11
1351.5823
 21
1019.799
  0
LINE
  8
_0-0_LAYER001
  6
CONTINUOUS
 62
    4
 10
1351.5823
 20
1019.799
 11
1355.7791999999999
 21
1020.425
  0
LINE
  8
_0-0_LAYER001
  6
CONTINUOUS
 62
    4
 10
1355.7791999999999
 20
1020.425
 11
1359.9749999999999
 21
1021.0551
  0
LINE
  8
_0-0_LAYER001
  6
CONTINUOUS
 62
    4
 10
1359.9749999999999
 20
1021.0551
 11
1364.1697999999999
 21
1021.6884
  0
LINE
  8
_0-0_LAYER001
  6
CONTINUOUS
 62
    4
 10
1364.1697999999999
 20
1021.6884
 11
1368.364
 21
1022.3240000000001
  0
LINE
  8
_0-0_LAYER001
  6
CONTINUOUS
 62
    4
 10
1368.364
 20
1022.3240000000001
 11
1372.5578
 21
1022.961
  0
LINE
  8
_0-0_LAYER001
  6
CONTINUOUS
 62
    4
 10
1372.5578
 20
1022.961
 11
1374.9901
 21
1023.3307
  0
LINE
  8
_0-0_LAYER001
  6
CONTINUOUS
 62
    4
 10
1129.9531999999999
 20
1031.2271000000001
 11
1132.0151000000001
 21
1032.0039999999999
  0
LINE
  8
_0-0_LAYER001
  6
CONTINUOUS
 62
    4
 10
1132.0151000000001
 20
1032.0039999999999
 11
1135.5826999999999
 21
1033.3505
  0
LINE
  8
_0-0_LAYER001
  6
CONTINUOUS
 62
    4
 10
1135.5826999999999
 20
1033.3505
 11
1139.1746000000001
 21
1034.7127
  0
LINE
  8
_0-0_LAYER001
  6
CONTINUOUS
 62
    4
 10
1139.1746000000001
 20
1034.7127
 11
1142.7950000000001
 21
1036.0965000000001
  0
LINE
  8
_0-0_LAYER001
  6
CONTINUOUS
 62
    4
 10
1142.7950000000001
 20
1036.0965000000001
 11
1146.4478999999999
 21
1037.5077000000001
  0
LINE
  8
_0-0_LAYER001
  6
CONTINUOUS
 62
    4
 10
1146.4478999999999
 20
1037.5077000000001
 11
1150.1270999999999
 21
1038.9481000000001
  0
LINE
  8
_0-0_LAYER001
  6
CONTINUOUS
 62
    4
 10
1150.1270999999999
 20
1038.9481000000001
 11
1152.2822999999999
 21
1039.8021000000001
  0
LINE
  8
_0-0_LAYER001
  6
CONTINUOUS
 62
    4
 10
1152.2822999999999
 20
1039.8021000000001
 11
1154.3058999999998
 21
1040.6088
  0
LINE
  8
_0-0_LAYER001
  6
CONTINUOUS
 62
    4
 10
1154.3058999999998
 20
1040.6088
 11
1157.5778
 21
1041.8802000000001
  0
LINE
  8
_0-0_LAYER001
  6
CONTINUOUS
 62
    4
 10
1157.5778
 20
1041.8802000000001
 11
1160.4729
 21
1042.9024999999999
  0
LINE
  8
_0-0_LAYER001
  6
CONTINUOUS
 62
    4
 10
1160.4729
 20
1042.9024999999999
 11
1162.941
 21
1043.6221
  0
LINE
  8
_0-0_LAYER001
  6
CONTINUOUS
 62
    4
 10
1162.941
 20
1043.6221
 11
1164.9328
 21
1044.0296000000001
  0
LINE
  8
_0-0_LAYER001
  6
CONTINUOUS
 62
    4
 10
1164.9328
 20
1044.0296000000001
 11
1166.7121
 21
1044.1940999999999
  0
LINE
  8
_0-0_LAYER001
  6
CONTINUOUS
 62
    4
 10
1166.7121
 20
1044.1940999999999
 11
1167.3915999999999
 21
1044.1853000000001
  0
LINE
  8
_0-0_LAYER001
  6
CONTINUOUS
 62
    4
 10
1167.3915999999999
 20
1044.1853000000001
 11
1167.3154999999999
 21
1044.1908000000001
  0
LINE
  8
_0-0_LAYER001
  6
CONTINUOUS
 62
    4
 10
1167.3154999999999
 20
1044.1908000000001
 11
1167.9291000000001
 21
1044.1193000000001
  0
LINE
  8
_0-0_LAYER001
  6
CONTINUOUS
 62
    4
 10
1167.9291000000001
 20
1044.1193000000001
 11
1168.5195000000001
 21
1044.0196000000001
  0
LINE
  8
_0-0_LAYER001
  6
CONTINUOUS
 62
    4
 10
1168.5195000000001
 20
1044.0196000000001
 11
1169.1869999999999
 21
1043.8744999999999
  0
LINE
  8
_0-0_LAYER001
  6
CONTINUOUS
 62
    4
 10
1169.1869999999999
 20
1043.8744999999999
 11
1169.9204999999999
 21
1043.682
  0
LINE
  8
_0-0_LAYER001
  6
CONTINUOUS
 62
    4
 10
1169.9204999999999
 20
1043.682
 11
1170.7697000000001
 21
1043.4235000000001
  0
LINE
  8
_0-0_LAYER001
  6
CONTINUOUS
 62
    4
 10
1170.7697000000001
 20
1043.4235000000001
 11
1171.0137999999999
 21
1043.3416
  0
LINE
  8
_0-0_LAYER001
  6
CONTINUOUS
 62
    4
 10
1171.0137999999999
 20
1043.3416
 11
1172.5736999999999
 21
1042.7496000000001
  0
LINE
  8
_0-0_LAYER001
  6
CONTINUOUS
 62
    4
 10
1172.5736999999999
 20
1042.7496000000001
 11
1175.5214000000001
 21
1041.3791000000001
  0
LINE
  8
_0-0_LAYER001
  6
CONTINUOUS
 62
    4
 10
1175.5214000000001
 20
1041.3791000000001
 11
1178.4825000000001
 21
1039.7184999999999
  0
LINE
  8
_0-0_LAYER001
  6
CONTINUOUS
 62
    4
 10
1178.4825000000001
 20
1039.7184999999999
 11
1181.6502
 21
1037.6972000000001
  0
LINE
  8
_0-0_LAYER001
  6
CONTINUOUS
 62
    4
 10
1181.6502
 20
1037.6972000000001
 11
1185.0349000000001
 21
1035.3523
  0
LINE
  8
_0-0_LAYER001
  6
CONTINUOUS
 62
    4
 10
1185.0349000000001
 20
1035.3523
 11
1188.6405999999999
 21
1032.7498000000001
  0
LINE
  8
_0-0_LAYER001
  6
CONTINUOUS
 62
    4
 10
1188.6405999999999
 20
1032.7498000000001
 11
1190.8476000000001
 21
1031.1474000000001
  0
LINE
  8
_0-0_LAYER001
  6
CONTINUOUS
 62
    4
 10
1190.8476000000001
 20
1031.1474000000001
 11
1194.3375000000001
 21
1028.6469999999999
  0
LINE
  8
_0-0_LAYER001
  6
CONTINUOUS
 62
    4
 10
1194.3375000000001
 20
1028.6469999999999
 11
1200.4296999999999
 21
1024.4221
  0
LINE
  8
_0-0_LAYER001
  6
CONTINUOUS
 62
    4
 10
1200.4296999999999
 20
1024.4221
 11
1206.7335
 21
1020.2819999999999
  0
LINE
  8
_0-0_LAYER001
  6
CONTINUOUS
 62
    4
 10
1206.7335
 20
1020.2819999999999
 11
1213.2542000000001
 21
1016.2932000000001
  0
LINE
  8
_0-0_LAYER001
  6
CONTINUOUS
 62
    4
 10
1213.2542000000001
 20
1016.2932000000001
 11
1220.0200999999997
 21
1012.5092
  0
LINE
  8
_0-0_LAYER001
  6
CONTINUOUS
 62
    4
 10
1220.0200999999997
 20
1012.5092
 11
1226.9631999999999
 21
1009.0346999999999
  0
LINE
  8
_0-0_LAYER001
  6
CONTINUOUS
 62
    4
 10
1226.9631999999999
 20
1009.0346999999999
 11
1231.2366
 21
1007.1103000000001
  0
LINE
  8
_0-0_LAYER001
  6
CONTINUOUS
 62
    4
 10
1231.2366
 20
1007.1103000000001
 11
1234.8416999999999
 21
1005.6124
  0
LINE
  8
_0-0_LAYER001
  6
CONTINUOUS
 62
    4
 10
1234.8416999999999
 20
1005.6124
 11
1240.8978
 21
1003.3505
  0
LINE
  8
_0-0_LAYER001
  6
CONTINUOUS
 62
    4
 10
1240.8978
 20
1003.3505
 11
1247.1476
 21
1001.3394000000001
  0
LINE
  8
_0-0_LAYER001
  6
CONTINUOUS
 62
    4
 10
1247.1476
 20
1001.3394000000001
 11
1253.4964
 21
999.61799999999994
  0
LINE
  8
_0-0_LAYER001
  6
CONTINUOUS
 62
    4
 10
1253.4964
 20
999.61799999999994
 11
1259.9305999999999
 21
998.19509999999991
  0
LINE
  8
_0-0_LAYER001
  6
CONTINUOUS
 62
    4
 10
1259.9305999999999
 20
998.19509999999991
 11
1266.3443
 21
997.0963999999999
  0
LINE
  8
_0-0_LAYER001
  6
CONTINUOUS
 62
    4
 10
1266.3443
 20
997.0963999999999
 11
1270.2030999999999
 21
996.58760000000007
  0
LINE
  8
_0-0_LAYER001
  6
CONTINUOUS
 62
    4
 10
1270.2030999999999
 20
996.58760000000007
 11
1273.1976999999999
 21
996.26919999999996
  0
LINE
  8
_0-0_LAYER001
  6
CONTINUOUS
 62
    4
 10
1273.1976999999999
 20
996.26919999999996
 11
1278.0902000000001
 21
995.88699999999994
  0
LINE
  8
_0-0_LAYER001
  6
CONTINUOUS
 62
    4
 10
1278.0902000000001
 20
995.88699999999994
 11
1282.9976999999999
 21
995.66249999999991
  0
LINE
  8
_0-0_LAYER001
  6
CONTINUOUS
 62
    4
 10
1282.9976999999999
 20
995.66249999999991
 11
1287.8451
 21
995.57960000000003
  0
LINE
  8
_0-0_LAYER001
  6
CONTINUOUS
 62
    4
 10
1287.8451
 20
995.57960000000003
 11
1292.6289999999999
 21
995.61729999999989
  0
LINE
  8
_0-0_LAYER001
  6
CONTINUOUS
 62
    4
 10
1292.6289999999999
 20
995.61729999999989
 11
1297.3166000000001
 21
995.75430000000006
  0
LINE
  8
_0-0_LAYER001
  6
CONTINUOUS
 62
    4
 10
1297.3166000000001
 20
995.75430000000006
 11
1300.0938000000001
 21
995.8755000000001
  0
LINE
  8
_0-0_LAYER001
  6
CONTINUOUS
 62
    4
 10
1300.0938000000001
 20
995.8755000000001
 11
1305.1261
 21
996.16090000000008
  0
LINE
  8
_0-0_LAYER001
  6
CONTINUOUS
 62
    4
 10
1305.1261
 20
996.16090000000008
 11
1313.6523
 21
996.82199999999989
  0
LINE
  8
_0-0_LAYER001
  6
CONTINUOUS
 62
    4
 10
1313.6523
 20
996.82199999999989
 11
1322.1371999999999
 21
997.67239999999993
  0
LINE
  8
_0-0_LAYER001
  6
CONTINUOUS
 62
    4
 10
1322.1371999999999
 20
997.67239999999993
 11
1330.5284999999999
 21
998.66750000000002
  0
LINE
  8
_0-0_LAYER001
  6
CONTINUOUS
 62
    4
 10
1330.5284999999999
 20
998.66750000000002
 11
1338.8291999999999
 21
999.7681
  0
LINE
  8
_0-0_LAYER001
  6
CONTINUOUS
 62
    4
 10
1338.8291999999999
 20
999.7681
 11
1347.0369000000001
 21
1000.9354000000001
  0
LINE
  8
_0-0_LAYER001
  6
CONTINUOUS
 62
    4
 10
1347.0369000000001
 20
1000.9354000000001
 11
1351.7741000000001
 21
1001.6307999999999
  0
LINE
  8
_0-0_LAYER001
  6
CONTINUOUS
 62
    4
 10
1351.7741000000001
 20
1001.6307999999999
 11
1354.2293999999997
 21
1001.9947
  0
LINE
  8
_0-0_LAYER001
  6
CONTINUOUS
 62
    4
 10
1354.2293999999997
 20
1001.9947
 11
1358.4435000000003
 21
1002.6233
  0
LINE
  8
_0-0_LAYER001
  6
CONTINUOUS
 62
    4
 10
1358.4435000000003
 20
1002.6233
 11
1362.6550999999999
 21
1003.2556999999999
  0
LINE
  8
_0-0_LAYER001
  6
CONTINUOUS
 62
    4
 10
1362.6550999999999
 20
1003.2556999999999
 11
1366.8617999999997
 21
1003.8907999999999
  0
LINE
  8
_0-0_LAYER001
  6
CONTINUOUS
 62
    4
 10
1366.8617999999997
 20
1003.8907999999999
 11
1371.0640000000001
 21
1004.5275999999999
  0
LINE
  8
_0-0_LAYER001
  6
CONTINUOUS
 62
    4
 10
1371.0640000000001
 20
1004.5275999999999
 11
1375.2619
 21
1005.1651999999999
  0
LINE
  8
_0-0_LAYER001
  6
CONTINUOUS
 62
    4
 10
1375.2619
 20
1005.1651999999999
 11
1376.8796
 21
1005.4112
  0
LINE
  8
_0-0_LAYER001
  6
CONTINUOUS
 62
    4
 10
1124.4242999999999
 20
1048.3771999999999
 11
1124.8503000000001
 21
1048.5402999999999
  0
ARC
  8
_0-0_LAYER001
  6
CONTINUOUS
 62
    4
 10
1125.4970000000001
 20
1045.5754999999999
 40
3.0000000000000004
 50
110.94902000000002
 51
178.70000000000002
  0
LINE
  8
_0-0_LAYER001
  6
CONTINUOUS
 62
    4
 10
1122.3884
 20
1029.8045
 11
1122.3884
 21
1045.527
  0
LINE
  8
_0-0_LAYER001
  6
CONTINUOUS
 62
    4
 10
1123.7424000000001
 20
1028.8692000000001
 11
1129.9172000000001
 21
1031.2064
  0
ARC
  8
_0-0_LAYER001
  6
CONTINUOUS
 62
    4
 10
1123.3884
 20
1029.8045
 40
1.0000000000000002
 50
180
 51
290.73165999999998
  0
LINE
  8
_0-0_LAYER001
  6
CONTINUOUS
 62
    4
 10
1387.3884
 20
1008.4822999999999
 11
1387.3884
 21
1025.6796999999999
  0
LINE
  8
_0-0_LAYER001
  6
CONTINUOUS
 62
    4
 10
1375.1150000000002
 20
1023.3661
 11
1419.5693000000001
 21
1033.0139999999999
  0
LINE
  8
_0-0_LAYER001
  6
CONTINUOUS
 62
    4
 10
1381.8602000000001
 20
1003.5324000000001
 11
1420.5320000000002
 21
1012.5823
  0
LINE
  8
_0-0_LAYER001
  6
CONTINUOUS
 62
    4
 10
1420.5320000000002
 20
1013.5388
 11
1420.5320000000002
 21
1012.5823
  0
ARC
  8
_0-0_LAYER001
  6
CONTINUOUS
 62
    4
 10
1421.5319999999999
 20
1013.5388
 40
1.0000000000000002
 50
102.72435
 51
180
  0
LINE
  8
_0-0_LAYER001
  6
CONTINUOUS
 62
    4
 10
1426.3489999999999
 20
1015.6516999999999
 11
1421.3117
 21
1014.5143
  0
ARC
  8
_0-0_LAYER001
  6
CONTINUOUS
 62
    4
 10
1426.5693000000001
 20
1014.6763000000001
 40
1.0000000000000002
 50
0
 51
102.72435
  0
LINE
  8
_0-0_LAYER001
  6
CONTINUOUS
 62
    4
 10
1426.7813000000001
 20
1016.1602
 11
1376.6473999999998
 21
1005.2796000000001
  0
ARC
  8
_0-0_LAYER001
  6
CONTINUOUS
 62
    4
 10
1426.5693000000001
 20
1017.1374000000001
 40
1.0000000000000002
 50
282.24497000000002
 51
0
  0
LINE
  8
_0-0_LAYER001
  6
CONTINUOUS
 62
    4
 10
1426.7871
 20
995.4194
 11
1377.2030999999997
 21
984.35159999999996
  0
LINE
  8
_0-0_LAYER001
  6
CONTINUOUS
 62
    4
 10
1427.5693000000001
 20
996.39540000000011
 11
1427.5693000000001
 21
1014.6763000000001
  0
ARC
  8
_0-0_LAYER001
  6
CONTINUOUS
 62
    4
 10
1426.5693000000001
 20
996.39540000000011
 40
1.0000000000000002
 50
282.58296000000001
 51
0.0000000000000254
  0
LINE
  8
_0-0_LAYER001
  6
CONTINUOUS
 62
    4
 10
1419.5693000000001
 20
1034.471
 11
1419.5693000000001
 21
1033.0139999999999
  0
ARC
  8
_0-0_LAYER001
  6
CONTINUOUS
 62
    4
 10
1420.5693000000001
 20
1034.471
 40
1.0000000000000002
 50
101.73308
 51
180
  0
LINE
  8
_0-0_LAYER001
  6
CONTINUOUS
 62
    4
 10
1426.3659000000002
 20
1036.6963000000001
 11
1420.3658999999998
 21
1035.4501
  0
LINE
  8
_0-0_LAYER001
  6
CONTINUOUS
 62
    4
 10
1427.5693000000001
 20
1035.7172
 11
1427.5693000000001
 21
1017.1374000000001
  0
ARC
  8
_0-0_LAYER001
  6
CONTINUOUS
 62
    4
 10
1426.5693000000001
 20
1035.7172
 40
1.0000000000000002
 50
0
 51
101.73308
  0
LINE
  8
_0-0_LAYER001
  6
DASHED1
 62
    2
 10
1226.7800999999999
 20
1008.2354
 11
1242.7800999999999
 21
1008.2354
  0
LINE
  8
_0-0_LAYER001
  6
DASHED1
 62
    2
 10
1242.7800999999999
 20
1008.2354
 11
1242.7800999999999
 21
1005.2354
  0
LINE
  8
_0-0_LAYER001
  6
DASHED1
 62
    2
 10
1226.7800999999999
 20
1008.2354
 11
1226.7800999999999
 21
1005.2354
  0
LINE
  8
_0-0_LAYER001
  6
DASHED1
 62
    2
 10
1226.7800999999999
 20
1005.2354
 11
1242.7800999999999
 21
1005.2354
  0
LINE
  8
_0-0_LAYER001
  6
DASHED1
 62
    2
 10
1237.7800999999999
 20
950.33930000000009
 11
1234.73
 21
935.83040000000005
  0
LINE
  8
_0-0_LAYER001
  6
DASHED1
 62
    2
 10
1237.7800999999999
 20
1005.2354
 11
1237.7800999999999
 21
950.33930000000009
  0
LINE
  8
_0-0_LAYER001
  6
DASHED1
 62
    2
 10
1234.73
 20
935.83040000000005
 11
1231.7800999999999
 21
950.08789999999999
  0
LINE
  8
_0-0_LAYER001
  6
DASHED1
 62
    2
 10
1231.7800999999999
 20
1005.2354
 11
1231.7800999999999
 21
950.08789999999999
  0
LINE
  8
_0-0_LAYER001
  6
DASHED1
 62
    2
 10
1491.7864
 20
1005.5041000000001
 11
1507.7864
 21
1005.5041000000001
  0
LINE
  8
_0-0_LAYER001
  6
DASHED1
 62
    2
 10
1507.7864
 20
1005.5041000000001
 11
1507.7864
 21
1002.5041000000001
  0
LINE
  8
_0-0_LAYER001
  6
DASHED1
 62
    2
 10
1491.7864
 20
1005.5041000000001
 11
1491.7864
 21
1002.5041000000001
  0
LINE
  8
_0-0_LAYER001
  6
DASHED1
 62
    2
 10
1491.7864
 20
1002.5041000000001
 11
1507.7864
 21
1002.5041000000001
  0
LINE
  8
_0-0_LAYER001
  6
DASHED1
 62
    2
 10
1502.7864
 20
947.60799999999995
 11
1499.7361999999998
 21
933.09909999999991
  0
LINE
  8
_0-0_LAYER001
  6
DASHED1
 62
    2
 10
1502.7864
 20
1002.5041000000001
 11
1502.7864
 21
947.60799999999995
  0
LINE
  8
_0-0_LAYER001
  6
DASHED1
 62
    2
 10
1499.7361999999998
 20
933.09909999999991
 11
1496.7864
 21
947.35660000000007
  0
LINE
  8
_0-0_LAYER001
  6
DASHED1
 62
    2
 10
1496.7864
 20
1002.5041000000001
 11
1496.7864
 21
947.35660000000007
  0
LINE
  8
_0-0_LAYER001
  6
CONTINUOUS
 62
    4
 10
1122.2114999999999
 20
1005.6152
 11
1122.2114999999999
 21
1022.8126
  0
LINE
  8
_0-0_LAYER001
  6
CONTINUOUS
 62
    4
 10
982.48489999999993
 20
961.77579999999989
 11
973.94949999999994
 21
976.30919999999992
  0
LINE
  8
_0-0_LAYER001
  6
CONTINUOUS
 62
    4
 10
990.65280000000007
 20
961.1255000000001
 11
998.95899999999995
 21
971.19100000000003
  0
ARC
  8
_0-0_LAYER001
  6
CONTINUOUS
 62
    4
 10
986.79639999999995
 20
964.30790000000002
 40
5
 50
210.42578
 51
320.47001
  0
LINE
  8
_0-0_LAYER001
  6
CONTINUOUS
 62
    4
 10
1066.5984000000001
 20
960.65570000000002
 11
1059.2729999999999
 21
971.96170000000006
  0
LINE
  8
_0-0_LAYER001
  6
CONTINUOUS
 62
    4
 10
1075.1079999999999
 20
960.8456000000001
 11
1084.0463999999999
 21
976.09130000000005
  0
ARC
  8
_0-0_LAYER001
  6
CONTINUOUS
 62
    4
 10
1070.7945999999997
 20
963.3744999999999
 40
5
 50
212.93986000000001
 51
329.61716000000001
  0
LINE
  8
_0-0_LAYER001
  6
CONTINUOUS
 62
    4
 10
1114.3900000000001
 20
1000.4032
 11
1116.8181
 21
1000.8071
  0
LINE
  8
_0-0_LAYER001
  6
CONTINUOUS
 62
    4
 10
1110.201
 20
999.70700000000011
 11
1114.3900000000001
 21
1000.4032
  0
LINE
  8
_0-0_LAYER001
  6
CONTINUOUS
 62
    4
 10
1106.0072
 20
999.01140000000009
 11
1110.201
 21
999.70700000000011
  0
LINE
  8
_0-0_LAYER001
  6
CONTINUOUS
 62
    4
 10
1101.8083999999999
 20
998.31739999999991
 11
1106.0072
 21
999.01140000000009
  0
LINE
  8
_0-0_LAYER001
  6
CONTINUOUS
 62
    4
 10
1097.6043
 20
997.62599999999998
 11
1101.8083999999999
 21
998.31739999999991
  0
LINE
  8
_0-0_LAYER001
  6
CONTINUOUS
 62
    4
 10
1093.3975
 20
996.93830000000003
 11
1097.6043
 21
997.62599999999998
  0
LINE
  8
_0-0_LAYER001
  6
CONTINUOUS
 62
    4
 10
1090.9452000000001
 20
996.53980000000001
 11
1093.3975
 21
996.93830000000003
  0
LINE
  8
_0-0_LAYER001
  6
CONTINUOUS
 62
    4
 10
1086.2123999999999
 20
995.77739999999994
 11
1090.9452000000001
 21
996.53980000000001
  0
LINE
  8
_0-0_LAYER001
  6
CONTINUOUS
 62
    4
 10
1078.008
 20
994.49350000000004
 11
1086.2123999999999
 21
995.77739999999994
  0
LINE
  8
_0-0_LAYER001
  6
CONTINUOUS
 62
    4
 10
1069.7004999999999
 20
993.27369999999996
 11
1078.008
 21
994.49350000000004
  0
LINE
  8
_0-0_LAYER001
  6
CONTINUOUS
 62
    4
 10
1061.2923000000001
 20
992.15730000000008
 11
1069.7004999999999
 21
993.27369999999996
  0
LINE
  8
_0-0_LAYER001
  6
CONTINUOUS
 62
    4
 10
1052.7797
 20
991.18389999999999
 11
1061.2923000000001
 21
992.15730000000008
  0
LINE
  8
_0-0_LAYER001
  6
CONTINUOUS
 62
    4
 10
1044.2204999999999
 20
990.39989999999989
 11
1052.7797
 21
991.18389999999999
  0
LINE
  8
_0-0_LAYER001
  6
CONTINUOUS
 62
    4
 10
1039.1589999999999
 20
990.04189999999994
 11
1044.2204999999999
 21
990.39989999999989
  0
LINE
  8
_0-0_LAYER001
  6
CONTINUOUS
 62
    4
 10
1036.3563999999999
 20
989.88030000000003
 11
1039.1589999999999
 21
990.04189999999994
  0
LINE
  8
_0-0_LAYER001
  6
CONTINUOUS
 62
    4
 10
1031.6353999999999
 20
989.67630000000008
 11
1036.3563999999999
 21
989.88030000000003
  0
LINE
  8
_0-0_LAYER001
  6
CONTINUOUS
 62
    4
 10
1026.8062
 20
989.57089999999994
 11
1031.6353999999999
 21
989.67630000000008
  0
LINE
  8
_0-0_LAYER001
  6
CONTINUOUS
 62
    4
 10
1021.9045
 20
989.58629999999994
 11
1026.8062
 21
989.57089999999994
  0
LINE
  8
_0-0_LAYER001
  6
CONTINUOUS
 62
    4
 10
1016.9335000000001
 20
989.74409999999989
 11
1021.9045
 21
989.58629999999994
  0
LINE
  8
_0-0_LAYER001
  6
CONTINUOUS
 62
    4
 10
1011.9761
 20
990.06189999999992
 11
1016.9335000000001
 21
989.74409999999989
  0
LINE
  8
_0-0_LAYER001
  6
CONTINUOUS
 62
    4
 10
1008.9245
 20
990.3433
 11
1011.9761
 21
990.06189999999992
  0
LINE
  8
_0-0_LAYER001
  6
CONTINUOUS
 62
    4
 10
1004.9956
 20
990.80549999999994
 11
1008.9245
 21
990.3433
  0
LINE
  8
_0-0_LAYER001
  6
CONTINUOUS
 62
    4
 10
998.48169999999993
 20
991.82809999999995
 11
1004.9956
 21
990.80549999999994
  0
LINE
  8
_0-0_LAYER001
  6
CONTINUOUS
 62
    4
 10
991.93499999999995
 20
993.18020000000001
 11
998.48169999999993
 21
991.82809999999995
  0
LINE
  8
_0-0_LAYER001
  6
CONTINUOUS
 62
    4
 10
985.47209999999995
 20
994.83609999999999
 11
991.93499999999995
 21
993.18020000000001
  0
LINE
  8
_0-0_LAYER001
  6
CONTINUOUS
 62
    4
 10
979.10619999999994
 20
996.78680000000008
 11
985.47209999999995
 21
994.83609999999999
  0
LINE
  8
_0-0_LAYER001
  6
CONTINUOUS
 62
    4
 10
972.94139999999982
 20
998.99180000000001
 11
979.10619999999994
 21
996.78680000000008
  0
LINE
  8
_0-0_LAYER001
  6
CONTINUOUS
 62
    4
 10
969.25479999999993
 20
1000.4635000000001
 11
972.94139999999982
 21
998.99180000000001
  0
LINE
  8
_0-0_LAYER001
  6
CONTINUOUS
 62
    4
 10
964.89049999999997
 20
1002.356
 11
969.25479999999993
 21
1000.4635000000001
  0
LINE
  8
_0-0_LAYER001
  6
CONTINUOUS
 62
    4
 10
957.82140000000004
 20
1005.771
 11
964.89049999999997
 21
1002.356
  0
LINE
  8
_0-0_LAYER001
  6
CONTINUOUS
 62
    4
 10
950.92849999999999
 20
1009.5006000000001
 11
957.82140000000004
 21
1005.771
  0
LINE
  8
_0-0_LAYER001
  6
CONTINUOUS
 62
    4
 10
944.29149999999993
 20
1013.4342999999999
 11
950.92849999999999
 21
1009.5006000000001
  0
LINE
  8
_0-0_LAYER001
  6
CONTINUOUS
 62
    4
 10
937.88220000000001
 20
1017.5168000000001
 11
944.29149999999993
 21
1013.4342999999999
  0
LINE
  8
_0-0_LAYER001
  6
CONTINUOUS
 62
    4
 10
931.69800000000009
 20
1021.6789000000001
 11
937.88220000000001
 21
1017.5168000000001
  0
LINE
  8
_0-0_LAYER001
  6
CONTINUOUS
 62
    4
 10
928.15569999999991
 20
1024.1425999999999
 11
931.69800000000009
 21
1021.6789000000001
  0
LINE
  8
_0-0_LAYER001
  6
CONTINUOUS
 62
    4
 10
925.92370000000005
 20
1025.7161000000001
 11
928.15569999999991
 21
1024.1425999999999
  0
LINE
  8
_0-0_LAYER001
  6
CONTINUOUS
 62
    4
 10
922.30009999999993
 20
1028.2553
 11
925.92370000000005
 21
1025.7161000000001
  0
LINE
  8
_0-0_LAYER001
  6
CONTINUOUS
 62
    4
 10
918.93039999999985
 20
1030.5208
 11
922.30009999999993
 21
1028.2553
  0
LINE
  8
_0-0_LAYER001
  6
CONTINUOUS
 62
    4
 10
915.81539999999995
 20
1032.4477999999999
 11
918.93039999999985
 21
1030.5208
  0
LINE
  8
_0-0_LAYER001
  6
CONTINUOUS
 62
    4
 10
912.94820000000004
 20
1034.0036
 11
915.81539999999995
 21
1032.4477999999999
  0
LINE
  8
_0-0_LAYER001
  6
CONTINUOUS
 62
    4
 10
910.11709999999994
 20
1035.2719999999999
 11
912.94820000000004
 21
1034.0036
  0
LINE
  8
_0-0_LAYER001
  6
CONTINUOUS
 62
    4
 10
908.65389999999991
 20
1035.8042
 11
910.11709999999994
 21
1035.2719999999999
  0
LINE
  8
_0-0_LAYER001
  6
CONTINUOUS
 62
    4
 10
908.47280000000001
 20
1035.8621000000001
 11
908.65389999999991
 21
1035.8042
  0
LINE
  8
_0-0_LAYER001
  6
CONTINUOUS
 62
    4
 10
907.68450000000007
 20
1036.0900999999999
 11
908.47280000000001
 21
1035.8621000000001
  0
LINE
  8
_0-0_LAYER001
  6
CONTINUOUS
 62
    4
 10
907.02739999999994
 20
1036.2528
 11
907.68450000000007
 21
1036.0900999999999
  0
LINE
  8
_0-0_LAYER001
  6
CONTINUOUS
 62
    4
 10
906.44559999999979
 20
1036.3707999999999
 11
907.02739999999994
 21
1036.2528
  0
LINE
  8
_0-0_LAYER001
  6
CONTINUOUS
 62
    4
 10
906.40550000000007
 20
1036.3769
 11
906.44559999999979
 21
1036.3707999999999
  0
LINE
  8
_0-0_LAYER001
  6
CONTINUOUS
 62
    4
 10
1110.3793999999998
 20
981.21569999999997
 11
1111.9935
 21
981.4842000000001
  0
LINE
  8
_0-0_LAYER001
  6
CONTINUOUS
 62
    4
 10
1106.1907999999999
 20
980.51960000000008
 11
1110.3793999999998
 21
981.21569999999997
  0
LINE
  8
_0-0_LAYER001
  6
CONTINUOUS
 62
    4
 10
1101.9979000000001
 20
979.82420000000002
 11
1106.1907999999999
 21
980.51960000000008
  0
LINE
  8
_0-0_LAYER001
  6
CONTINUOUS
 62
    4
 10
1097.8004000000001
 20
979.13040000000001
 11
1101.9979000000001
 21
979.82420000000002
  0
LINE
  8
_0-0_LAYER001
  6
CONTINUOUS
 62
    4
 10
1093.5980999999997
 20
978.43920000000003
 11
1097.8004000000001
 21
979.13040000000001
  0
LINE
  8
_0-0_LAYER001
  6
CONTINUOUS
 62
    4
 10
1089.3932
 20
977.75189999999998
 11
1093.5980999999997
 21
978.43920000000003
  0
LINE
  8
_0-0_LAYER001
  6
CONTINUOUS
 62
    4
 10
1086.9431999999999
 20
977.35369999999989
 11
1089.3932
 21
977.75189999999998
  0
LINE
  8
_0-0_LAYER001
  6
CONTINUOUS
 62
    4
 10
1082.2162000000001
 20
976.59220000000005
 11
1086.9431999999999
 21
977.35369999999989
  0
LINE
  8
_0-0_LAYER001
  6
CONTINUOUS
 62
    4
 10
1074.0255
 20
975.31050000000005
 11
1082.2162000000001
 21
976.59220000000005
  0
LINE
  8
_0-0_LAYER001
  6
CONTINUOUS
 62
    4
 10
1065.741
 20
974.09400000000005
 11
1074.0255
 21
975.31050000000005
  0
LINE
  8
_0-0_LAYER001
  6
CONTINUOUS
 62
    4
 10
1057.3643999999999
 20
972.9819
 11
1065.741
 21
974.09400000000005
  0
LINE
  8
_0-0_LAYER001
  6
CONTINUOUS
 62
    4
 10
1048.8923
 20
972.01309999999989
 11
1057.3643999999999
 21
972.9819
  0
LINE
  8
_0-0_LAYER001
  6
CONTINUOUS
 62
    4
 10
1040.3761999999999
 20
971.23299999999995
 11
1048.8923
 21
972.01309999999989
  0
LINE
  8
_0-0_LAYER001
  6
CONTINUOUS
 62
    4
 10
1035.3483000000001
 20
970.87740000000008
 11
1040.3761999999999
 21
971.23299999999995
  0
LINE
  8
_0-0_LAYER001
  6
CONTINUOUS
 62
    4
 10
1032.5731000000001
 20
970.7174
 11
1035.3483000000001
 21
970.87740000000008
  0
LINE
  8
_0-0_LAYER001
  6
CONTINUOUS
 62
    4
 10
1027.8878
 20
970.5150000000001
 11
1032.5731000000001
 21
970.7174
  0
LINE
  8
_0-0_LAYER001
  6
CONTINUOUS
 62
    4
 10
1023.1049
 20
970.41059999999993
 11
1027.8878
 21
970.5150000000001
  0
LINE
  8
_0-0_LAYER001
  6
CONTINUOUS
 62
    4
 10
1018.2568000000001
 20
970.42579999999998
 11
1023.1049
 21
970.41059999999993
  0
LINE
  8
_0-0_LAYER001
  6
CONTINUOUS
 62
    4
 10
1013.3467000000001
 20
970.58169999999996
 11
1018.2568000000001
 21
970.42579999999998
  0
LINE
  8
_0-0_LAYER001
  6
CONTINUOUS
 62
    4
 10
1008.4493999999997
 20
970.89560000000006
 11
1013.3467000000001
 21
970.58169999999996
  0
LINE
  8
_0-0_LAYER001
  6
CONTINUOUS
 62
    4
 10
1005.4505999999998
 20
971.1721
 11
1008.4493999999997
 21
970.89560000000006
  0
LINE
  8
_0-0_LAYER001
  6
CONTINUOUS
 62
    4
 10
1001.5851
 20
971.62689999999998
 11
1005.4505999999998
 21
971.1721
  0
LINE
  8
_0-0_LAYER001
  6
CONTINUOUS
 62
    4
 10
995.15660000000003
 20
972.63609999999994
 11
1001.5851
 21
971.62689999999998
  0
LINE
  8
_0-0_LAYER001
  6
CONTINUOUS
 62
    4
 10
988.70319999999992
 20
973.96900000000005
 11
995.15660000000003
 21
972.63609999999994
  0
LINE
  8
_0-0_LAYER001
  6
CONTINUOUS
 62
    4
 10
982.33099999999979
 20
975.60159999999996
 11
988.70319999999992
 21
973.96900000000005
  0
LINE
  8
_0-0_LAYER001
  6
CONTINUOUS
 62
    4
 10
976.05369999999994
 20
977.52510000000007
 11
982.33099999999979
 21
975.60159999999996
  0
LINE
  8
_0-0_LAYER001
  6
CONTINUOUS
 62
    4
 10
969.96659999999997
 20
979.70229999999992
 11
976.05369999999994
 21
977.52510000000007
  0
LINE
  8
_0-0_LAYER001
  6
CONTINUOUS
 62
    4
 10
966.34089999999992
 20
981.14969999999994
 11
969.96659999999997
 21
979.70229999999992
  0
LINE
  8
_0-0_LAYER001
  6
CONTINUOUS
 62
    4
 10
962.04109999999991
 20
983.01430000000005
 11
966.34089999999992
 21
981.14969999999994
  0
LINE
  8
_0-0_LAYER001
  6
CONTINUOUS
 62
    4
 10
955.0501999999999
 20
986.39149999999995
 11
962.04109999999991
 21
983.01430000000005
  0
LINE
  8
_0-0_LAYER001
  6
CONTINUOUS
 62
    4
 10
948.23209999999995
 20
990.08069999999998
 11
955.0501999999999
 21
986.39149999999995
  0
LINE
  8
_0-0_LAYER001
  6
CONTINUOUS
 62
    4
 10
941.6563000000001
 20
993.97800000000007
 11
948.23209999999995
 21
990.08069999999998
  0
LINE
  8
_0-0_LAYER001
  6
CONTINUOUS
 62
    4
 10
935.29539999999997
 20
998.02970000000005
 11
941.6563000000001
 21
993.97800000000007
  0
LINE
  8
_0-0_LAYER001
  6
CONTINUOUS
 62
    4
 10
929.14480000000003
 20
1002.1692
 11
935.29539999999997
 21
998.02970000000005
  0
LINE
  8
_0-0_LAYER001
  6
CONTINUOUS
 62
    4
 10
925.62029999999993
 20
1004.6205
 11
929.14480000000003
 21
1002.1692
  0
LINE
  8
_0-0_LAYER001
  6
CONTINUOUS
 62
    4
 10
923.39110000000005
 20
1006.192
 11
925.62029999999993
 21
1004.6205
  0
LINE
  8
_0-0_LAYER001
  6
CONTINUOUS
 62
    4
 10
919.7493999999997
 20
1008.7438
 11
923.39110000000005
 21
1006.192
  0
LINE
  8
_0-0_LAYER001
  6
CONTINUOUS
 62
    4
 10
916.33230000000003
 20
1011.0413000000001
 11
919.7493999999997
 21
1008.7438
  0
LINE
  8
_0-0_LAYER001
  6
CONTINUOUS
 62
    4
 10
913.13670000000002
 20
1013.0182
 11
916.33230000000003
 21
1011.0413000000001
  0
LINE
  8
_0-0_LAYER001
  6
CONTINUOUS
 62
    4
 10
910.15269999999998
 20
1014.6373000000001
 11
913.13670000000002
 21
1013.0182
  0
LINE
  8
_0-0_LAYER001
  6
CONTINUOUS
 62
    4
 10
907.1862000000001
 20
1015.9664
 11
910.15269999999998
 21
1014.6373000000001
  0
LINE
  8
_0-0_LAYER001
  6
CONTINUOUS
 62
    4
 10
906.43619999999999
 20
1016.2392
 11
907.1862000000001
 21
1015.9664
  0
LINE
  8
_0-0_LAYER001
  6
CONTINUOUS
 62
    4
 10
906.76929999999982
 20
1036.2823000000001
 11
906.59319999999991
 21
1016.1088999999999
  0
LINE
  8
_0-0_LAYER001
  6
CONTINUOUS
 62
    4
 10
1107.0949000000001
 20
970.79449999999997
 11
1104.8495
 21
979.36789999999996
  0
ARC
  8
_0-0_LAYER001
  6
CONTINUOUS
 62
    4
 10
1109.9970000000001
 20
971.55459999999994
 40
3.0000000000000004
 50
194.67639000000003
 51
270.00000000000006
  0
LINE
  8
_0-0_LAYER001
  6
CONTINUOUS
 62
    4
 10
1113.4395
 20
968.55030000000011
 11
1110.0217
 21
968.55030000000011
  0
LINE
  8
_0-0_LAYER001
  6
CONTINUOUS
 62
    4
 10
1116.3987
 20
971.05709999999999
 11
1118.3326999999999
 21
982.66120000000001
  0
ARC
  8
_0-0_LAYER001
  6
CONTINUOUS
 62
    4
 10
1113.4395
 20
971.55030000000011
 40
3.0000000000000004
 50
270
 51
350.53766999999999
  0
LINE
  8
_0-0_LAYER001
  6
CONTINUOUS
 62
    4
 10
859.67309999999998
 20
1045.6724999999999
 11
860.48699999999997
 21
1045.9791
  0
LINE
  8
_0-0_LAYER001
  6
CONTINUOUS
 62
    4
 10
860.48699999999997
 20
1045.9791
 11
864.03629999999998
 21
1047.3187
  0
LINE
  8
_0-0_LAYER001
  6
CONTINUOUS
 62
    4
 10
864.03629999999998
 20
1047.3187
 11
867.5929000000001
 21
1048.6676
  0
LINE
  8
_0-0_LAYER001
  6
CONTINUOUS
 62
    4
 10
867.5929000000001
 20
1048.6676
 11
871.16159999999979
 21
1050.0316
  0
LINE
  8
_0-0_LAYER001
  6
CONTINUOUS
 62
    4
 10
871.16159999999979
 20
1050.0316
 11
874.7469000000001
 21
1051.4167
  0
LINE
  8
_0-0_LAYER001
  6
CONTINUOUS
 62
    4
 10
874.7469000000001
 20
1051.4167
 11
878.3535999999998
 21
1052.8287
  0
LINE
  8
_0-0_LAYER001
  6
CONTINUOUS
 62
    4
 10
878.3535999999998
 20
1052.8287
 11
880.45710000000008
 21
1053.6623
  0
LINE
  8
_0-0_LAYER001
  6
CONTINUOUS
 62
    4
 10
880.45710000000008
 20
1053.6623
 11
882.53649999999993
 21
1054.4911999999999
  0
LINE
  8
_0-0_LAYER001
  6
CONTINUOUS
 62
    4
 10
882.53649999999993
 20
1054.4911999999999
 11
886.14300000000003
 21
1055.8925999999999
  0
LINE
  8
_0-0_LAYER001
  6
CONTINUOUS
 62
    4
 10
886.14300000000003
 20
1055.8925999999999
 11
889.77579999999989
 21
1057.1753000000001
  0
LINE
  8
_0-0_LAYER001
  6
CONTINUOUS
 62
    4
 10
889.77579999999989
 20
1057.1753000000001
 11
893.43369999999993
 21
1058.242
  0
LINE
  8
_0-0_LAYER001
  6
CONTINUOUS
 62
    4
 10
893.43369999999993
 20
1058.242
 11
897.11580000000004
 21
1058.9952000000001
  0
LINE
  8
_0-0_LAYER001
  6
CONTINUOUS
 62
    4
 10
897.11580000000004
 20
1058.9952000000001
 11
900.82109999999966
 21
1059.3377
  0
LINE
  8
_0-0_LAYER001
  6
CONTINUOUS
 62
    4
 10
900.82109999999966
 20
1059.3377
 11
902.98039999999992
 21
1059.3098
  0
LINE
  8
_0-0_LAYER001
  6
CONTINUOUS
 62
    4
 10
902.98039999999992
 20
1059.3098
 11
903.82960000000003
 21
1059.2483999999999
  0
LINE
  8
_0-0_LAYER001
  6
CONTINUOUS
 62
    4
 10
903.82960000000003
 20
1059.2483999999999
 11
905.29389999999978
 21
1059.0779
  0
LINE
  8
_0-0_LAYER001
  6
CONTINUOUS
 62
    4
 10
905.29389999999978
 20
1059.0779
 11
906.755
 21
1058.8311000000001
  0
LINE
  8
_0-0_LAYER001
  6
CONTINUOUS
 62
    4
 10
906.755
 20
1058.8311000000001
 11
908.20869999999991
 21
1058.5151000000001
  0
LINE
  8
_0-0_LAYER001
  6
CONTINUOUS
 62
    4
 10
908.20869999999991
 20
1058.5151000000001
 11
909.65079999999989
 21
1058.1366
  0
LINE
  8
_0-0_LAYER001
  6
CONTINUOUS
 62
    4
 10
909.65079999999989
 20
1058.1366
 11
911.07719999999995
 21
1057.7025000000001
  0
LINE
  8
_0-0_LAYER001
  6
CONTINUOUS
 62
    4
 10
911.07719999999995
 20
1057.7025000000001
 11
911.89570000000003
 21
1057.4278999999999
  0
LINE
  8
_0-0_LAYER001
  6
CONTINUOUS
 62
    4
 10
911.89570000000003
 20
1057.4278999999999
 11
914.39399999999989
 21
1056.4795999999999
  0
LINE
  8
_0-0_LAYER001
  6
CONTINUOUS
 62
    4
 10
914.39399999999989
 20
1056.4795999999999
 11
918.55289999999979
 21
1054.5461
  0
LINE
  8
_0-0_LAYER001
  6
CONTINUOUS
 62
    4
 10
918.55289999999979
 20
1054.5461
 11
922.55670000000009
 21
1052.3007
  0
LINE
  8
_0-0_LAYER001
  6
CONTINUOUS
 62
    4
 10
922.55670000000009
 20
1052.3007
 11
926.44350000000009
 21
1049.8204000000001
  0
LINE
  8
_0-0_LAYER001
  6
CONTINUOUS
 62
    4
 10
926.44350000000009
 20
1049.8204000000001
 11
930.25149999999996
 21
1047.1822999999999
  0
LINE
  8
_0-0_LAYER001
  6
CONTINUOUS
 62
    4
 10
930.25149999999996
 20
1047.1822999999999
 11
934.01880000000006
 21
1044.4631999999999
  0
LINE
  8
_0-0_LAYER001
  6
CONTINUOUS
 62
    4
 10
934.01880000000006
 20
1044.4631999999999
 11
936.20009999999991
 21
1042.8794
  0
LINE
  8
_0-0_LAYER001
  6
CONTINUOUS
 62
    4
 10
936.20009999999991
 20
1042.8794
 11
939.5317
 21
1040.4926
  0
LINE
  8
_0-0_LAYER001
  6
CONTINUOUS
 62
    4
 10
939.5317
 20
1040.4926
 11
945.32390000000009
 21
1036.4756
  0
LINE
  8
_0-0_LAYER001
  6
CONTINUOUS
 62
    4
 10
945.32390000000009
 20
1036.4756
 11
951.19609999999977
 21
1032.6189999999999
  0
LINE
  8
_0-0_LAYER001
  6
CONTINUOUS
 62
    4
 10
951.19609999999977
 20
1032.6189999999999
 11
957.1703
 21
1028.9645
  0
LINE
  8
_0-0_LAYER001
  6
CONTINUOUS
 62
    4
 10
957.1703
 20
1028.9645
 11
963.26849999999979
 21
1025.5540000000001
  0
LINE
  8
_0-0_LAYER001
  6
CONTINUOUS
 62
    4
 10
963.26849999999979
 20
1025.5540000000001
 11
969.5127
 21
1022.4292
  0
LINE
  8
_0-0_LAYER001
  6
CONTINUOUS
 62
    4
 10
969.5127
 20
1022.4292
 11
973.21000000000004
 21
1020.7642000000001
  0
LINE
  8
_0-0_LAYER001
  6
CONTINUOUS
 62
    4
 10
973.21000000000004
 20
1020.7642000000001
 11
976.26929999999993
 21
1019.4930999999999
  0
LINE
  8
_0-0_LAYER001
  6
CONTINUOUS
 62
    4
 10
976.26929999999993
 20
1019.4930999999999
 11
981.6297999999997
 21
1017.4909
  0
LINE
  8
_0-0_LAYER001
  6
CONTINUOUS
 62
    4
 10
981.6297999999997
 20
1017.4909
 11
987.08549999999968
 21
1015.7355
  0
LINE
  8
_0-0_LAYER001
  6
CONTINUOUS
 62
    4
 10
987.08549999999968
 20
1015.7355
 11
992.62049999999988
 21
1014.2347
  0
LINE
  8
_0-0_LAYER001
  6
CONTINUOUS
 62
    4
 10
992.62049999999988
 20
1014.2347
 11
998.21879999999987
 21
1012.9966999999999
  0
LINE
  8
_0-0_LAYER001
  6
CONTINUOUS
 62
    4
 10
998.21879999999987
 20
1012.9966999999999
 11
1003.8644999999998
 21
1012.0295000000001
  0
LINE
  8
_0-0_LAYER001
  6
CONTINUOUS
 62
    4
 10
1003.8644999999998
 20
1012.0295000000001
 11
1007.1545000000001
 21
1011.5957000000001
  0
LINE
  8
_0-0_LAYER001
  6
CONTINUOUS
 62
    4
 10
1007.1545000000001
 20
1011.5957000000001
 11
1009.6737999999999
 21
1011.3279
  0
LINE
  8
_0-0_LAYER001
  6
CONTINUOUS
 62
    4
 10
1009.6737999999999
 20
1011.3279
 11
1014.0259000000001
 21
1010.9879000000001
  0
LINE
  8
_0-0_LAYER001
  6
CONTINUOUS
 62
    4
 10
1014.0259000000001
 20
1010.9879000000001
 11
1018.3860999999999
 21
1010.7883999999999
  0
LINE
  8
_0-0_LAYER001
  6
CONTINUOUS
 62
    4
 10
1018.3860999999999
 20
1010.7883999999999
 11
1022.7512999999999
 21
1010.7138
  0
LINE
  8
_0-0_LAYER001
  6
CONTINUOUS
 62
    4
 10
1022.7512999999999
 20
1010.7138
 11
1027.1183999999998
 21
1010.7481
  0
LINE
  8
_0-0_LAYER001
  6
CONTINUOUS
 62
    4
 10
1027.1183999999998
 20
1010.7481
 11
1031.4843000000001
 21
1010.8757000000001
  0
LINE
  8
_0-0_LAYER001
  6
CONTINUOUS
 62
    4
 10
1031.4843000000001
 20
1010.8757000000001
 11
1034.0146999999999
 21
1010.9862000000001
  0
LINE
  8
_0-0_LAYER001
  6
CONTINUOUS
 62
    4
 10
1034.0146999999999
 20
1010.9862000000001
 11
1038.7438
 21
1011.2544
  0
LINE
  8
_0-0_LAYER001
  6
CONTINUOUS
 62
    4
 10
1038.7438
 20
1011.2544
 11
1046.8820000000001
 21
1011.8853999999999
  0
LINE
  8
_0-0_LAYER001
  6
CONTINUOUS
 62
    4
 10
1046.8820000000001
 20
1011.8853999999999
 11
1055.0028
 21
1012.6993
  0
LINE
  8
_0-0_LAYER001
  6
CONTINUOUS
 62
    4
 10
1055.0028
 20
1012.6993
 11
1063.1086
 21
1013.6605
  0
LINE
  8
_0-0_LAYER001
  6
CONTINUOUS
 62
    4
 10
1063.1086
 20
1013.6605
 11
1071.2021
 21
1014.7337
  0
LINE
  8
_0-0_LAYER001
  6
CONTINUOUS
 62
    4
 10
1071.2021
 20
1014.7337
 11
1079.2855999999999
 21
1015.8833
  0
LINE
  8
_0-0_LAYER001
  6
CONTINUOUS
 62
    4
 10
1079.2855999999999
 20
1015.8833
 11
1083.9704999999999
 21
1016.5710999999999
  0
LINE
  8
_0-0_LAYER001
  6
CONTINUOUS
 62
    4
 10
1083.9704999999999
 20
1016.5710999999999
 11
1086.4054000000001
 21
1016.9319
  0
LINE
  8
_0-0_LAYER001
  6
CONTINUOUS
 62
    4
 10
1086.4054000000001
 20
1016.9319
 11
1090.6024
 21
1017.5579
  0
LINE
  8
_0-0_LAYER001
  6
CONTINUOUS
 62
    4
 10
1090.6024
 20
1017.5579
 11
1094.7982
 21
1018.1880000000001
  0
LINE
  8
_0-0_LAYER001
  6
CONTINUOUS
 62
    4
 10
1094.7982
 20
1018.1880000000001
 11
1098.9929999999999
 21
1018.8213000000001
  0
LINE
  8
_0-0_LAYER001
  6
CONTINUOUS
 62
    4
 10
1098.9929999999999
 20
1018.8213000000001
 11
1103.1872000000001
 21
1019.4568999999999
  0
LINE
  8
_0-0_LAYER001
  6
CONTINUOUS
 62
    4
 10
1103.1872000000001
 20
1019.4568999999999
 11
1107.3809000000001
 21
1020.0939000000001
  0
LINE
  8
_0-0_LAYER001
  6
CONTINUOUS
 62
    4
 10
1107.3809000000001
 20
1020.0939000000001
 11
1109.8132000000001
 21
1020.4636
  0
LINE
  8
_0-0_LAYER001
  6
CONTINUOUS
 62
    4
 10
864.77629999999999
 20
1028.3599999999999
 11
866.83819999999992
 21
1029.1369
  0
LINE
  8
_0-0_LAYER001
  6
CONTINUOUS
 62
    4
 10
866.83819999999992
 20
1029.1369
 11
870.40579999999989
 21
1030.4834000000001
  0
LINE
  8
_0-0_LAYER001
  6
CONTINUOUS
 62
    4
 10
870.40579999999989
 20
1030.4834000000001
 11
873.9976999999999
 21
1031.8456000000001
  0
LINE
  8
_0-0_LAYER001
  6
CONTINUOUS
 62
    4
 10
873.9976999999999
 20
1031.8456000000001
 11
877.61809999999991
 21
1033.2293999999999
  0
LINE
  8
_0-0_LAYER001
  6
CONTINUOUS
 62
    4
 10
877.61809999999991
 20
1033.2293999999999
 11
881.27109999999993
 21
1034.6405999999999
  0
LINE
  8
_0-0_LAYER001
  6
CONTINUOUS
 62
    4
 10
881.27109999999993
 20
1034.6405999999999
 11
884.95029999999986
 21
1036.0809999999999
  0
LINE
  8
_0-0_LAYER001
  6
CONTINUOUS
 62
    4
 10
884.95029999999986
 20
1036.0809999999999
 11
887.10549999999989
 21
1036.9350999999999
  0
LINE
  8
_0-0_LAYER001
  6
CONTINUOUS
 62
    4
 10
887.10549999999989
 20
1036.9350999999999
 11
889.12899999999979
 21
1037.7417
  0
LINE
  8
_0-0_LAYER001
  6
CONTINUOUS
 62
    4
 10
889.12899999999979
 20
1037.7417
 11
892.40090000000009
 21
1039.0130999999999
  0
LINE
  8
_0-0_LAYER001
  6
CONTINUOUS
 62
    4
 10
892.40090000000009
 20
1039.0130999999999
 11
895.29599999999982
 21
1040.0354
  0
LINE
  8
_0-0_LAYER001
  6
CONTINUOUS
 62
    4
 10
895.29599999999982
 20
1040.0354
 11
897.76420000000007
 21
1040.7551000000001
  0
LINE
  8
_0-0_LAYER001
  6
CONTINUOUS
 62
    4
 10
897.76420000000007
 20
1040.7551000000001
 11
899.75590000000011
 21
1041.1624999999999
  0
LINE
  8
_0-0_LAYER001
  6
CONTINUOUS
 62
    4
 10
899.75590000000011
 20
1041.1624999999999
 11
901.5351999999998
 21
1041.327
  0
LINE
  8
_0-0_LAYER001
  6
CONTINUOUS
 62
    4
 10
901.5351999999998
 20
1041.327
 11
902.21469999999977
 21
1041.3181999999999
  0
LINE
  8
_0-0_LAYER001
  6
CONTINUOUS
 62
    4
 10
902.21469999999977
 20
1041.3181999999999
 11
902.13859999999977
 21
1041.3236999999999
  0
LINE
  8
_0-0_LAYER001
  6
CONTINUOUS
 62
    4
 10
902.13859999999977
 20
1041.3236999999999
 11
902.7523000000001
 21
1041.2521999999999
  0
LINE
  8
_0-0_LAYER001
  6
CONTINUOUS
 62
    4
 10
902.7523000000001
 20
1041.2521999999999
 11
903.3426999999997
 21
1041.1524999999999
  0
LINE
  8
_0-0_LAYER001
  6
CONTINUOUS
 62
    4
 10
903.3426999999997
 20
1041.1524999999999
 11
904.01009999999985
 21
1041.0074
  0
LINE
  8
_0-0_LAYER001
  6
CONTINUOUS
 62
    4
 10
904.01009999999985
 20
1041.0074
 11
904.74369999999999
 21
1040.8149000000001
  0
LINE
  8
_0-0_LAYER001
  6
CONTINUOUS
 62
    4
 10
904.74369999999999
 20
1040.8149000000001
 11
905.5927999999999
 21
1040.5563999999999
  0
LINE
  8
_0-0_LAYER001
  6
CONTINUOUS
 62
    4
 10
905.5927999999999
 20
1040.5563999999999
 11
905.8368999999999
 21
1040.4745
  0
LINE
  8
_0-0_LAYER001
  6
CONTINUOUS
 62
    4
 10
905.8368999999999
 20
1040.4745
 11
907.39679999999998
 21
1039.8824999999999
  0
LINE
  8
_0-0_LAYER001
  6
CONTINUOUS
 62
    4
 10
907.39679999999998
 20
1039.8824999999999
 11
910.34449999999993
 21
1038.5119999999999
  0
LINE
  8
_0-0_LAYER001
  6
CONTINUOUS
 62
    4
 10
910.34449999999993
 20
1038.5119999999999
 11
913.30559999999991
 21
1036.8514
  0
LINE
  8
_0-0_LAYER001
  6
CONTINUOUS
 62
    4
 10
913.30559999999991
 20
1036.8514
 11
916.47330000000011
 21
1034.8300999999999
  0
LINE
  8
_0-0_LAYER001
  6
CONTINUOUS
 62
    4
 10
916.47330000000011
 20
1034.8300999999999
 11
919.85799999999983
 21
1032.4852000000001
  0
LINE
  8
_0-0_LAYER001
  6
CONTINUOUS
 62
    4
 10
919.85799999999983
 20
1032.4852000000001
 11
923.4636999999999
 21
1029.8827000000001
  0
LINE
  8
_0-0_LAYER001
  6
CONTINUOUS
 62
    4
 10
923.4636999999999
 20
1029.8827000000001
 11
925.67069999999967
 21
1028.2802999999999
  0
LINE
  8
_0-0_LAYER001
  6
CONTINUOUS
 62
    4
 10
925.67069999999967
 20
1028.2802999999999
 11
929.16069999999991
 21
1025.78
  0
LINE
  8
_0-0_LAYER001
  6
CONTINUOUS
 62
    4
 10
929.16069999999991
 20
1025.78
 11
935.25289999999984
 21
1021.5550000000001
  0
LINE
  8
_0-0_LAYER001
  6
CONTINUOUS
 62
    4
 10
935.25289999999984
 20
1021.5550000000001
 11
941.55659999999989
 21
1017.4149
  0
LINE
  8
_0-0_LAYER001
  6
CONTINUOUS
 62
    4
 10
941.55659999999989
 20
1017.4149
 11
948.07729999999992
 21
1013.4260999999999
  0
LINE
  8
_0-0_LAYER001
  6
CONTINUOUS
 62
    4
 10
948.07729999999992
 20
1013.4260999999999
 11
954.8433
 21
1009.6421
  0
LINE
  8
_0-0_LAYER001
  6
CONTINUOUS
 62
    4
 10
954.8433
 20
1009.6421
 11
961.78629999999998
 21
1006.1677
  0
LINE
  8
_0-0_LAYER001
  6
CONTINUOUS
 62
    4
 10
961.78629999999998
 20
1006.1677
 11
966.05970000000002
 21
1004.2431999999999
  0
LINE
  8
_0-0_LAYER001
  6
CONTINUOUS
 62
    4
 10
966.05970000000002
 20
1004.2431999999999
 11
969.6647999999999
 21
1002.7453
  0
LINE
  8
_0-0_LAYER001
  6
CONTINUOUS
 62
    4
 10
969.6647999999999
 20
1002.7453
 11
975.72090000000003
 21
1000.4834000000001
  0
LINE
  8
_0-0_LAYER001
  6
CONTINUOUS
 62
    4
 10
975.72090000000003
 20
1000.4834000000001
 11
981.97080000000005
 21
998.47240000000011
  0
LINE
  8
_0-0_LAYER001
  6
CONTINUOUS
 62
    4
 10
981.97080000000005
 20
998.47240000000011
 11
988.31950000000006
 21
996.7509
  0
LINE
  8
_0-0_LAYER001
  6
CONTINUOUS
 62
    4
 10
988.31950000000006
 20
996.7509
 11
994.75369999999998
 21
995.32809999999995
  0
LINE
  8
_0-0_LAYER001
  6
CONTINUOUS
 62
    4
 10
994.75369999999998
 20
995.32809999999995
 11
1001.1673999999999
 21
994.22929999999997
  0
LINE
  8
_0-0_LAYER001
  6
CONTINUOUS
 62
    4
 10
1001.1673999999999
 20
994.22929999999997
 11
1005.0263
 21
993.7206000000001
  0
LINE
  8
_0-0_LAYER001
  6
CONTINUOUS
 62
    4
 10
1005.0263
 20
993.7206000000001
 11
1008.0209
 21
993.40219999999999
  0
LINE
  8
_0-0_LAYER001
  6
CONTINUOUS
 62
    4
 10
1008.0209
 20
993.40219999999999
 11
1012.9132999999999
 21
993.01990000000001
  0
LINE
  8
_0-0_LAYER001
  6
CONTINUOUS
 62
    4
 10
1012.9132999999999
 20
993.01990000000001
 11
1017.8208
 21
992.79539999999997
  0
LINE
  8
_0-0_LAYER001
  6
CONTINUOUS
 62
    4
 10
1017.8208
 20
992.79539999999997
 11
1022.6682
 21
992.71260000000007
  0
LINE
  8
_0-0_LAYER001
  6
CONTINUOUS
 62
    4
 10
1022.6682
 20
992.71260000000007
 11
1027.4521
 21
992.75019999999995
  0
LINE
  8
_0-0_LAYER001
  6
CONTINUOUS
 62
    4
 10
1027.4521
 20
992.75019999999995
 11
1032.1397999999999
 21
992.88719999999989
  0
LINE
  8
_0-0_LAYER001
  6
CONTINUOUS
 62
    4
 10
1032.1397999999999
 20
992.88719999999989
 11
1034.9168999999999
 21
993.00839999999994
  0
LINE
  8
_0-0_LAYER001
  6
CONTINUOUS
 62
    4
 10
1034.9168999999999
 20
993.00839999999994
 11
1039.9492999999998
 21
993.29379999999992
  0
LINE
  8
_0-0_LAYER001
  6
CONTINUOUS
 62
    4
 10
1039.9492999999998
 20
993.29379999999992
 11
1048.4754
 21
993.95489999999995
  0
LINE
  8
_0-0_LAYER001
  6
CONTINUOUS
 62
    4
 10
1048.4754
 20
993.95489999999995
 11
1056.9603
 21
994.80529999999999
  0
LINE
  8
_0-0_LAYER001
  6
CONTINUOUS
 62
    4
 10
1056.9603
 20
994.80529999999999
 11
1065.3516
 21
995.80040000000008
  0
LINE
  8
_0-0_LAYER001
  6
CONTINUOUS
 62
    4
 10
1065.3516
 20
995.80040000000008
 11
1073.6523
 21
996.90100000000007
  0
LINE
  8
_0-0_LAYER001
  6
CONTINUOUS
 62
    4
 10
1073.6523
 20
996.90100000000007
 11
1081.8601000000001
 21
998.06829999999991
  0
LINE
  8
_0-0_LAYER001
  6
CONTINUOUS
 62
    4
 10
1081.8601000000001
 20
998.06829999999991
 11
1086.5971999999999
 21
998.76369999999997
  0
LINE
  8
_0-0_LAYER001
  6
CONTINUOUS
 62
    4
 10
1086.5971999999999
 20
998.76369999999997
 11
1089.0525
 21
999.12760000000003
  0
LINE
  8
_0-0_LAYER001
  6
CONTINUOUS
 62
    4
 10
1089.0525
 20
999.12760000000003
 11
1093.2666999999997
 21
999.75620000000004
  0
LINE
  8
_0-0_LAYER001
  6
CONTINUOUS
 62
    4
 10
1093.2666999999997
 20
999.75620000000004
 11
1097.4782
 21
1000.3886
  0
LINE
  8
_0-0_LAYER001
  6
CONTINUOUS
 62
    4
 10
1097.4782
 20
1000.3886
 11
1101.6849
 21
1001.0237
  0
LINE
  8
_0-0_LAYER001
  6
CONTINUOUS
 62
    4
 10
1101.6849
 20
1001.0237
 11
1105.8870999999999
 21
1001.6605
  0
LINE
  8
_0-0_LAYER001
  6
CONTINUOUS
 62
    4
 10
1105.8870999999999
 20
1001.6605
 11
1110.085
 21
1002.2982
  0
LINE
  8
_0-0_LAYER001
  6
CONTINUOUS
 62
    4
 10
1110.085
 20
1002.2982
 11
1111.7027
 21
1002.5441000000001
  0
LINE
  8
_0-0_LAYER001
  6
CONTINUOUS
 62
    4
 10
859.24749999999995
 20
1045.5101
 11
859.6735000000001
 21
1045.6732
  0
ARC
  8
_0-0_LAYER001
  6
CONTINUOUS
 62
    4
 10
860.32009999999991
 20
1042.7084
 40
3.0000000000000004
 50
110.94902000000002
 51
178.70000000000002
  0
LINE
  8
_0-0_LAYER001
  6
CONTINUOUS
 62
    4
 10
857.21149999999989
 20
1026.9374
 11
857.21149999999989
 21
1042.6599000000001
  0
LINE
  8
_0-0_LAYER001
  6
CONTINUOUS
 62
    4
 10
858.56549999999982
 20
1026.0021999999999
 11
864.74039999999991
 21
1028.3393000000001
  0
ARC
  8
_0-0_LAYER001
  6
CONTINUOUS
 62
    4
 10
858.21149999999989
 20
1026.9374
 40
1.0000000000000002
 50
180
 51
290.73165999999998
  0
LINE
  8
_0-0_LAYER001
  6
CONTINUOUS
 62
    4
 10
1109.9380999999998
 20
1020.499
 11
1154.3923999999997
 21
1030.1469
  0
LINE
  8
_0-0_LAYER001
  6
CONTINUOUS
 62
    4
 10
1116.6832999999999
 20
1000.6652999999999
 11
1155.3550999999998
 21
1009.7153000000001
  0
LINE
  8
_0-0_LAYER001
  6
CONTINUOUS
 62
    4
 10
1155.3550999999998
 20
1010.6717000000001
 11
1155.3550999999998
 21
1009.7153000000001
  0
ARC
  8
_0-0_LAYER001
  6
CONTINUOUS
 62
    4
 10
1156.3551
 20
1010.6717000000001
 40
1.0000000000000002
 50
102.72435
 51
180
  0
LINE
  8
_0-0_LAYER001
  6
CONTINUOUS
 62
    4
 10
1161.1721
 20
1012.7846
 11
1156.1349
 21
1011.6472000000001
  0
ARC
  8
_0-0_LAYER001
  6
CONTINUOUS
 62
    4
 10
1161.3924
 20
1011.8091999999999
 40
1.0000000000000002
 50
0
 51
102.72435
  0
LINE
  8
_0-0_LAYER001
  6
CONTINUOUS
 62
    4
 10
1161.6044999999999
 20
1013.2931000000001
 11
1111.4704999999999
 21
1002.4124999999999
  0
ARC
  8
_0-0_LAYER001
  6
CONTINUOUS
 62
    4
 10
1161.3924
 20
1014.2702999999999
 40
1.0000000000000002
 50
282.24497000000002
 51
0
  0
LINE
  8
_0-0_LAYER001
  6
CONTINUOUS
 62
    4
 10
1161.6102000000001
 20
992.55240000000003
 11
1112.0263
 21
981.48450000000003
  0
LINE
  8
_0-0_LAYER001
  6
CONTINUOUS
 62
    4
 10
1162.3924
 20
993.52829999999994
 11
1162.3924
 21
1011.8091999999999
  0
ARC
  8
_0-0_LAYER001
  6
CONTINUOUS
 62
    4
 10
1161.3924
 20
993.52829999999994
 40
1.0000000000000002
 50
282.58296000000001
 51
0.0000000000000254
  0
LINE
  8
_0-0_LAYER001
  6
CONTINUOUS
 62
    4
 10
1154.3923999999997
 20
1031.6039000000001
 11
1154.3923999999997
 21
1030.1469
  0
ARC
  8
_0-0_LAYER001
  6
CONTINUOUS
 62
    4
 10
1155.3924
 20
1031.6039000000001
 40
1.0000000000000002
 50
101.73308
 51
180
  0
LINE
  8
_0-0_LAYER001
  6
CONTINUOUS
 62
    4
 10
1161.1889999999999
 20
1033.8291999999999
 11
1155.1890000000001
 21
1032.5830000000001
  0
LINE
  8
_0-0_LAYER001
  6
CONTINUOUS
 62
    4
 10
1162.3924
 20
1032.8501000000001
 11
1162.3924
 21
1014.2702999999999
  0
ARC
  8
_0-0_LAYER001
  6
CONTINUOUS
 62
    4
 10
1161.3924
 20
1032.8501000000001
 40
1.0000000000000002
 50
0
 51
101.73308
  0
LINE
  8
_0-0_LAYER001
  6
CONTINUOUS
 62
    4
 10
852.13539999999978
 20
974.60040000000004
 11
853.50960000000009
 21
982.8456000000001
  0
LINE
  8
_0-0_LAYER001
  6
CONTINUOUS
 62
    4
 10
857.38839999999993
 20
1005.7995000000001
 11
857.38839999999993
 21
1022.9969000000001
  0
LINE
  8
_0-0_LAYER001
  6
CONTINUOUS
 62
    4
 10
852.13539999999978
 20
1022.2070000000001
 11
889.5693
 21
1030.3312000000001
  0
LINE
  8
_0-0_LAYER001
  6
CONTINUOUS
 62
    4
 10
852.13539999999978
 20
1000.914
 11
890.5319999999997
 21
1009.8996
  0
LINE
  8
_0-0_LAYER001
  6
CONTINUOUS
 62
    4
 10
890.5319999999997
 20
1010.8561
 11
890.5319999999997
 21
1009.8996
  0
ARC
  8
_0-0_LAYER001
  6
CONTINUOUS
 62
    4
 10
891.53199999999993
 20
1010.8561
 40
1.0000000000000002
 50
102.72435
 51
180
  0
LINE
  8
_0-0_LAYER001
  6
CONTINUOUS
 62
    4
 10
896.34899999999993
 20
1012.9690000000001
 11
891.31169999999997
 21
1011.8315
  0
ARC
  8
_0-0_LAYER001
  6
CONTINUOUS
 62
    4
 10
896.5693
 20
1011.9935
 40
1.0000000000000002
 50
0
 51
102.72435
  0
LINE
  8
_0-0_LAYER001
  6
CONTINUOUS
 62
    4
 10
896.7813000000001
 20
1013.4774
 11
852.13539999999978
 21
1003.7879
  0
ARC
  8
_0-0_LAYER001
  6
CONTINUOUS
 62
    4
 10
896.5693
 20
1014.4547
 40
1.0000000000000002
 50
282.24497000000002
 51
0
  0
LINE
  8
_0-0_LAYER001
  6
CONTINUOUS
 62
    4
 10
896.78710000000001
 20
992.73669999999993
 11
852.13539999999978
 21
982.76980000000003
  0
LINE
  8
_0-0_LAYER001
  6
CONTINUOUS
 62
    4
 10
897.56930000000011
 20
993.71270000000004
 11
897.56930000000011
 21
1011.9935
  0
ARC
  8
_0-0_LAYER001
  6
CONTINUOUS
 62
    4
 10
896.5693
 20
993.71270000000004
 40
1.0000000000000002
 50
282.58296000000001
 51
0.0000000000000254
  0
LINE
  8
_0-0_LAYER001
  6
CONTINUOUS
 62
    4
 10
889.5693
 20
1031.7882999999999
 11
889.5693
 21
1030.3312000000001
  0
ARC
  8
_0-0_LAYER001
  6
CONTINUOUS
 62
    4
 10
890.56930000000011
 20
1031.7882999999999
 40
1.0000000000000002
 50
101.73308
 51
180
  0
LINE
  8
_0-0_LAYER001
  6
CONTINUOUS
 62
    4
 10
896.36589999999978
 20
1034.0135
 11
890.3658999999999
 21
1032.7674
  0
LINE
  8
_0-0_LAYER001
  6
CONTINUOUS
 62
    4
 10
897.56930000000011
 20
1033.0344
 11
897.56930000000011
 21
1014.4547
  0
ARC
  8
_0-0_LAYER001
  6
CONTINUOUS
 62
    4
 10
896.5693
 20
1033.0344
 40
1.0000000000000002
 50
0
 51
101.73308
  0
LINE
  8
_0-0_LAYER001
  6
DASHED1
 62
    2
 10
961.78639999999996
 20
1002.8214
 11
977.78639999999996
 21
1002.8214
  0
LINE
  8
_0-0_LAYER001
  6
DASHED1
 62
    2
 10
977.78639999999996
 20
1002.8214
 11
977.78639999999996
 21
999.82140000000004
  0
LINE
  8
_0-0_LAYER001
  6
DASHED1
 62
    2
 10
961.78639999999996
 20
1002.8214
 11
961.78639999999996
 21
999.82140000000004
  0
LINE
  8
_0-0_LAYER001
  6
DASHED1
 62
    2
 10
961.78639999999996
 20
999.82140000000004
 11
977.78639999999996
 21
999.82140000000004
  0
LINE
  8
_0-0_LAYER001
  6
DASHED1
 62
    2
 10
972.78639999999996
 20
944.92529999999999
 11
969.73620000000005
 21
930.41640000000007
  0
LINE
  8
_0-0_LAYER001
  6
DASHED1
 62
    2
 10
972.78639999999996
 20
999.82140000000004
 11
972.78639999999996
 21
944.92529999999999
  0
LINE
  8
_0-0_LAYER001
  6
DASHED1
 62
    2
 10
969.73620000000005
 20
930.41640000000007
 11
966.78639999999996
 21
944.6739
  0
LINE
  8
_0-0_LAYER001
  6
DASHED1
 62
    2
 10
966.78639999999996
 20
999.82140000000004
 11
966.78639999999996
 21
944.6739
  0
LINE
  8
_0-1_LAYER004
  6
CONTINUOUS
 62
    7
 10
1530.0353
 20
1372.2909
 11
1677.0353
 21
1372.2909
  0
LINE
  8
_0-1_LAYER004
  6
CONTINUOUS
 62
    7
 10
1677.0353
 20
1372.2909
 11
1530.0353
 21
1372.2909
  0
LINE
  8
_0-1_LAYER004
  6
CONTINUOUS
 62
    7
 10
1172.6692
 20
1292.2215000000001
 11
987.00780000000009
 21
1292.2215000000001
  0
LINE
  8
_0-1_LAYER004
  6
CONTINUOUS
 62
    7
 10
835.96000000000004
 20
1262.3549
 11
1178.7247
 21
1262.3549
  0
LINE
  8
_0-1_LAYER004
  6
CONTINUOUS
 62
    7
 10
1536.0639999999999
 20
1189.4737
 11
1650.0639999999999
 21
1189.4737
  0
LINE
  8
_0-1_LAYER004
  6
CONTINUOUS
 62
    7
 10
1849.7809000000002
 20
1346.9234000000001
 11
1996.7809000000002
 21
1346.9234000000001
  0
LINE
  8
_0-1_LAYER004
  6
CONTINUOUS
 62
    7
 10
1707.5419999999999
 20
1349.9914000000001
 11
1707.5419999999999
 21
1298.2914000000001
  0
LINE
  8
_0-1_LAYER004
  6
CONTINUOUS
 62
    7
 10
1707.5419999999999
 20
1348.2914000000001
 11
1799.0962
 21
1348.2914000000001
  0
LINE
  8
_0-1_LAYER004
  6
CONTINUOUS
 62
    7
 10
1799.0962
 20
1349.9914000000001
 11
1799.0962
 21
1298.2914000000001
  0
LINE
  8
_0-1_LAYER004
  6
CONTINUOUS
 62
    7
 10
1801.0962
 20
1369.0779
 11
1801.0962
 21
1275.0193970345936
  0
LINE
  8
_0-1_LAYER004
  6
CONTINUOUS
 62
    7
 10
1801.096168981461
 20
1275.0193970345936
 11
1816.6961999999999
 21
1275.0193970345936
  0
LINE
  8
_0-1_LAYER004
  6
CONTINUOUS
 62
    7
 10
1816.6961999999999
 20
1275.0195000000001
 11
1816.6961999999999
 21
1254.2194
  0
LINE
  8
_0-1_LAYER004
  6
CONTINUOUS
 62
    7
 10
1816.6961999999999
 20
1254.2194
 11
1801.0962
 21
1254.2194
  0
LINE
  8
_0-1_LAYER004
  6
CONTINUOUS
 62
    7
 10
1801.0962
 20
1254.2194
 11
1801.0962
 21
925.07559999999989
  0
LINE
  8
_0-1_LAYER004
  6
CONTINUOUS
 62
    7
 10
1801.0962
 20
925.07559999999989
 11
852.13539999999978
 21
925.07559999999989
  0
LINE
  8
_0-1_LAYER004
  6
CONTINUOUS
 62
    7
 10
852.13539999999978
 20
950.07559999999989
 11
1801.0962
 21
950.07559999999989
  0
LINE
  8
_0-1_LAYER004
  6
CONTINUOUS
 62
    7
 10
1799.0962
 20
952.07559999999989
 11
852.13539999999978
 21
952.07559999999989
  0
LINE
  8
_0-1_LAYER004
  6
CONTINUOUS
 62
    7
 10
852.13539999999978
 20
956.07559999999989
 11
1679.0961000000002
 21
956.07559999999989
  0
LINE
  8
_0-1_LAYER004
  6
CONTINUOUS
 62
    7
 10
1679.0961000000002
 20
956.07559999999989
 11
1679.0961000000002
 21
971.07559999999989
  0
LINE
  8
_0-1_LAYER004
  6
CONTINUOUS
 62
    7
 10
1679.0961000000002
 20
971.07559999999989
 11
852.13539999999978
 21
971.07559999999989
  0
LINE
  8
_0-1_LAYER004
  6
CONTINUOUS
 62
    7
 10
852.13539999999978
 20
825.07559999999989
 11
1791.0962
 21
825.07559999999989
  0
LINE
  8
_0-1_LAYER004
  6
CONTINUOUS
 62
    7
 10
1791.0962
 20
828.27559999999994
 11
1791.0962
 21
925.07559999999989
  0
LINE
  8
_0-1_LAYER004
  6
CONTINUOUS
 62
    7
 10
1801.0962
 20
822.41390000000001
 11
1801.0962
 21
770.71389999999997
  0
LINE
  8
_0-1_LAYER004
  6
CONTINUOUS
 62
    7
 10
1799.3961999999999
 20
772.41390000000001
 11
1681.0962
 21
772.41390000000001
  0
LINE
  8
_0-1_LAYER004
  6
CONTINUOUS
 62
    7
 10
1681.0962
 20
769.91390000000001
 11
1681.0962
 21
822.41390000000001
  0
LINE
  8
_0-1_LAYER004
  6
CONTINUOUS
 62
    7
 10
1799.3961999999999
 20
772.41390000000001
 11
1801.0962
 21
772.41390000000001
  0
LINE
  8
_0-1_LAYER004
  6
CONTINUOUS
 62
    7
 10
1791.0962
 20
825.07559999999989
 11
1791.0962
 21
828.27559999999994
  0
LINE
  8
_0-1_LAYER004
  6
CONTINUOUS
 62
    7
 10
1932.8487
 20
851.22929999999997
 11
2162.3487
 21
851.22929999999997
  0
LINE
  8
_0-1_LAYER004
  6
CONTINUOUS
 62
    7
 10
1911.6167999999998
 20
796.25
 11
1992.6945999999998
 21
796.25
  0
LINE
  8
_0-1_LAYER004
  6
CONTINUOUS
 62
    7
 10
1691.9272999999998
 20
698.78749999999991
 11
1691.9272999999998
 21
750.48749999999984
  0
LINE
  8
_0-1_LAYER004
  6
CONTINUOUS
 62
    7
 10
1691.9272999999998
 20
700.48749999999984
 11
856.92730000000006
 21
700.48749999999984
  0
LINE
  8
_0-1_LAYER004
  6
CONTINUOUS
 62
    7
 10
856.92730000000006
 20
698.78749999999991
 11
856.92730000000006
 21
750.48749999999984
  0
LINE
  8
_0-1_LAYER004
  6
CONTINUOUS
 62
    7
 10
1121.9273000000001
 20
698.78749999999991
 11
1121.9273000000001
 21
750.48749999999984
  0
LINE
  8
_0-1_LAYER004
  6
CONTINUOUS
 62
    7
 10
1386.9273000000001
 20
698.78749999999991
 11
1386.9273000000001
 21
750.48749999999984
  0
LINE
  8
_0-1_LAYER004
  6
CONTINUOUS
 62
    7
 10
1801.0962
 20
925.07559999999989
 11
1901.0962
 21
925.07559999999989
  0
LINE
  8
_0-1_LAYER004
  6
CONTINUOUS
 62
    7
 10
1901.0962
 20
925.07559999999989
 11
1901.0962
 21
1311.5265999999999
  0
LINE
  8
_0-1_LAYER004
  6
CONTINUOUS
 62
    7
 10
1941.4245000000001
 20
1275.0195000000001
 11
1993.1245000000001
 21
1275.0195000000001
  0
LINE
  8
_0-1_LAYER004
  6
CONTINUOUS
 62
    7
 10
1991.4245000000001
 20
1275.0195000000001
 11
1991.4245000000001
 21
950.07559999999989
  0
LINE
  8
_0-1_LAYER004
  6
CONTINUOUS
 62
    7
 10
1993.1245000000001
 20
950.07559999999989
 11
1941.4245000000001
 21
950.07559999999989
  0
LINE
  8
_0-1_LAYER004
  6
CONTINUOUS
 62
    7
 10
1941.4245000000001
 20
1081.6495
 11
1993.1245000000001
 21
1081.6495
  0
LINE
  8
_0-1_LAYER004
  6
CONTINUOUS
 62
    7
 10
1941.4245000000001
 20
1165.8194000000001
 11
1993.1245000000001
 21
1165.8194000000001
  0
LINE
  8
_0-1_LAYER004
  6
CONTINUOUS
 62
    7
 10
1941.4245000000001
 20
1256.2994000000001
 11
1993.1245000000001
 21
1256.2994000000001
  0
LINE
  8
_0-1_LAYER004
  6
CONTINUOUS
 62
    7
 10
2027.3571000000004
 20
1150.0755999999999
 11
2077.3571000000002
 21
1150.0755999999999
  0
LINE
  8
_0-1_LAYER004
  6
CONTINUOUS
 62
    7
 10
2077.3571000000002
 20
1150.0755999999999
 11
2077.3571000000002
 21
950.07559999999989
  0
LINE
  8
_0-1_LAYER004
  6
CONTINUOUS
 62
    7
 10
2079.0571000000004
 20
950.07559999999989
 11
2027.3571000000004
 21
950.07559999999989
  0
LINE
  8
_0-1_LAYER004
  6
CONTINUOUS
 62
    7
 10
2075.6571000000004
 20
1150.0755999999999
 11
2079.0571000000004
 21
1150.0755999999999
  0
LINE
  8
_0-1_LAYER004
  6
CONTINUOUS
 62
    7
 10
1796.6961999999999
 20
1256.2994000000001
 11
1814.6161999999999
 21
1256.2994000000001
  0
LINE
  8
_0-1_LAYER004
  6
CONTINUOUS
 62
    7
 10
1814.6161999999999
 20
1256.2994000000001
 11
1814.6161999999999
 21
1275.0195000000001
  0
LINE
  8
_0-1_LAYER004
  6
CONTINUOUS
 62
    7
 10
1796.6961999999999
 20
1256.2994000000001
 11
1796.6961999999999
 21
1223.8195000000001
  0
LINE
  8
_0-1_LAYER004
  6
CONTINUOUS
 62
    7
 10
1799.0962
 20
1254.2194
 11
1799.0962
 21
1165.8194000000001
  0
LINE
  8
_0-1_LAYER004
  6
CONTINUOUS
 62
    7
 10
1777.6307000000002
 20
1139.4108000000001
 11
1777.6307000000002
 21
1121.9452000000001
  0
LINE
  8
_0-1_LAYER004
  6
CONTINUOUS
 62
    7
 10
1777.6307000000002
 20
1121.9452000000001
 11
1759.8921999999998
 21
1121.9452000000001
  0
LINE
  8
_0-1_LAYER004
  6
CONTINUOUS
 62
    7
 10
1759.8921999999998
 20
1122.2744219810857
 11
1759.8921999999998
 21
1139.4108000000001
  0
LINE
  8
_0-1_LAYER004
  6
CONTINUOUS
 62
    7
 10
1759.8921999999998
 20
1139.4108000000001
 11
1777.6307000000002
 21
1139.4108000000001
  0
LINE
  8
_0-1_LAYER004
  6
CONTINUOUS
 62
    7
 10
1771.0962
 20
1143.6201000000001
 11
1771.0962
 21
1108.9099000000001
  0
LINE
  8
_0-1_LAYER004
  6
CONTINUOUS
 62
    7
 10
1771.0962
 20
1108.9099000000001
 11
1801.0962
 21
1108.9099000000001
  0
LINE
  8
_0-1_LAYER004
  6
CONTINUOUS
 62
    7
 10
1799.0962
 20
1148.5572468595678
 11
1799.0962
 21
952.07559999999989
  0
LINE
  8
_0-1_LAYER004
  6
CONTINUOUS
 62
    7
 10
1797.0962
 20
954.07559999999989
 11
1797.0962
 21
1081.6495
  0
LINE
  8
_0-1_LAYER004
  6
CONTINUOUS
 62
    7
 10
1797.0962
 20
954.07559999999989
 11
1681.0962
 21
954.07559999999989
  0
LINE
  8
_0-1_LAYER004
  6
CONTINUOUS
 62
    7
 10
1681.0962
 20
954.07559999999989
 11
1681.0962
 21
971.81850000000009
  0
LINE
  8
_0-1_LAYER004
  6
CONTINUOUS
 62
    7
 10
1681.0962
 20
971.81850000000009
 11
1695.5266812207101
 21
971.81850000000009
  0
LINE
  8
_0-1_LAYER004
  6
CONTINUOUS
 62
    7
 10
1677.0353
 20
1372.2909
 11
1738.2750000000001
 21
1143.741
  0
LINE
  8
_0-1_LAYER004
  6
CONTINUOUS
 62
    7
 10
1738.2750000000001
 20
1143.741
 11
1738.2750000000001
 21
1151.241
  0
LINE
  8
_0-1_LAYER004
  6
CONTINUOUS
 62
    7
 10
1734.5250000000001
 20
1150.2362000000001
 11
1738.2750000000001
 21
1143.741
  0
LINE
  8
_0-1_LAYER004
  6
CONTINUOUS
 62
    7
 10
1717.4232999999999
 20
1158.7674999999999
 11
1717.4232999999999
 21
1151.418331628915
  0
LINE
  8
_0-1_LAYER004
  6
CONTINUOUS
 62
    7
 10
1717.4232999999999
 20
1151.2674999999999
 11
1717.4232999999999
 21
1151.418331628915
  0
LINE
  8
_0-1_LAYER004
  6
CONTINUOUS
 62
    7
 10
1717.4232999999999
 20
1151.418331628915
 11
1717.4232999999999
 21
1151.2674999999999
  0
LINE
  8
_0-1_LAYER004
  6
CONTINUOUS
 62
    7
 10
1717.4232999999999
 20
1151.2674999999999
 11
1713.6732999999999
 21
1157.7627
  0
LINE
  8
_0-1_LAYER004
  6
CONTINUOUS
 62
    7
 10
1717.4232999999999
 20
1151.2674999999999
 11
1670.6165999999998
 21
1325.9525000000003
  0
LINE
  8
_0-1_LAYER004
  6
CONTINUOUS
 62
    7
 10
1650.0639999999999
 20
1189.4737
 11
1674.8917999999999
 21
1096.8149000000001
  0
LINE
  8
_0-1_LAYER004
  6
CONTINUOUS
 62
    7
 10
1674.8917999999999
 20
1096.8149000000001
 11
1674.8917999999999
 21
1104.3149000000001
  0
LINE
  8
_0-1_LAYER004
  6
CONTINUOUS
 62
    7
 10
1674.8917999999999
 20
1096.8149000000001
 11
1671.1417999999999
 21
1103.3100999999999
  0
LINE
  8
_0-1_LAYER004
  6
CONTINUOUS
 62
    7
 10
1671.1417999999999
 20
1103.3100999999999
 11
1674.8917999999999
 21
1096.8149000000001
  0
LINE
  8
_0-1_LAYER004
  6
CONTINUOUS
 62
    7
 10
1692.4771999999998
 20
1127.3408999999999
 11
1686.5646000000002
 21
1126.3206
  0
LINE
  8
_0-1_LAYER004
  6
CONTINUOUS
 62
    7
 10
1686.5646000000002
 20
1126.3206
 11
1710.1466
 21
1134.9039
  0
LINE
  8
_0-1_LAYER004
  6
CONTINUOUS
 62
    7
 10
1710.1466
 20
1134.9039
 11
1707.5419999999999
 21
1149.6759999999999
  0
LINE
  8
_0-1_LAYER004
  6
CONTINUOUS
 62
    7
 10
1707.5419999999999
 20
1149.6759999999999
 11
1799.0962
 21
1165.8194000000001
  0
LINE
  8
_0-1_LAYER004
  6
CONTINUOUS
 62
    7
 10
1798.4915000000001
 20
1163.682
 11
1709.8588
 21
1148.0536999999999
  0
LINE
  8
_0-1_LAYER004
  6
CONTINUOUS
 62
    7
 10
1709.8588
 20
1148.0536999999999
 11
1712.4634999999998
 21
1133.2816
  0
LINE
  8
_0-1_LAYER004
  6
CONTINUOUS
 62
    7
 10
1712.4634999999998
 20
1133.2816
 11
1801.0962
 21
1148.9099000000001
  0
LINE
  8
_0-1_LAYER004
  6
CONTINUOUS
 62
    7
 10
1801.0962
 20
1148.9099000000001
 11
1798.4915000000001
 21
1163.682
  0
LINE
  8
_0-1_LAYER004
  6
CONTINUOUS
 62
    7
 10
1789.0437999999999
 20
1162.0161000000001
 11
1786.7602000000002
 21
1159.9935
  0
LINE
  8
_0-1_LAYER004
  6
CONTINUOUS
 62
    7
 10
1780.2744338405746
 20
1160.4698472047071
 11
1783.1102999999998
 21
1159.3512000000001
  0
LINE
  8
_0-1_LAYER004
  6
CONTINUOUS
 62
    7
 10
1783.1102999999998
 20
1159.3512000000001
 11
1787.8000000000002
 21
1132.7579000000001
  0
LINE
  8
_0-1_LAYER004
  6
CONTINUOUS
 62
    7
 10
1787.8000000000002
 20
1132.7579000000001
 11
1790.6605919929602
 21
1125.9100000000001
  0
LINE
  8
_0-1_LAYER004
  6
CONTINUOUS
 62
    7
 10
1790.6605919929602
 20
1125.9100000000001
 11
1791.4501
 21
1133.4016999999999
  0
LINE
  8
_0-1_LAYER004
  6
CONTINUOUS
 62
    7
 10
1791.4501
 20
1133.4016999999999
 11
1786.7602000000002
 21
1159.9935
  0
LINE
  8
_0-1_LAYER004
  6
CONTINUOUS
 62
    7
 10
1801.0962
 20
1148.9099000000001
 11
1709.8588
 21
1148.0536999999999
  0
LINE
  8
_0-1_LAYER004
  6
CONTINUOUS
 62
    7
 10
1792.6671999999999
 20
1141.2723000000001
 11
1792.6671999999999
 21
1133.7723000000001
  0
LINE
  8
_0-1_LAYER004
  6
CONTINUOUS
 62
    7
 10
1792.6671999999999
 20
1133.7723000000001
 11
1796.4171999999999
 21
1140.2674999999999
  0
LINE
  8
_0-1_LAYER004
  6
CONTINUOUS
 62
    7
 10
1792.6671999999999
 20
1133.7723000000001
 11
1849.7809000000002
 21
1346.9234000000001
  0
LINE
  8
_0-1_LAYER004
  6
CONTINUOUS
 62
    7
 10
1806.4014000000002
 20
1277.8984
 11
1806.4014000000002
 21
1270.3984
  0
LINE
  8
_0-1_LAYER004
  6
CONTINUOUS
 62
    7
 10
1806.4014000000002
 20
1270.3984
 11
1810.1514000000002
 21
1276.8936000000003
  0
LINE
  8
_0-1_LAYER004
  6
CONTINUOUS
 62
    7
 10
1806.4014000000002
 20
1270.3984
 11
1836.9782
 21
1384.5124000000001
  0
LINE
  8
_0-1_LAYER004
  6
CONTINUOUS
 62
    7
 10
1801.0962
 20
1291.4387999999999
 11
1901.0962
 21
1191.4391000000001
  0
LINE
  8
_0-1_LAYER004
  6
CONTINUOUS
 62
    7
 10
1901.0962
 20
1187.1964
 11
1801.0962
 21
1287.1964
  0
LINE
  8
_0-1_LAYER004
  6
CONTINUOUS
 62
    7
 10
1777.6307000000002
 20
1131.9099000000001
 11
1777.0961000000002
 21
1131.9099000000001
  0
LINE
  8
_0-1_LAYER004
  6
CONTINUOUS
 62
    7
 10
1777.0961000000002
 20
1131.9099000000001
 11
1777.0961000000002
 21
1125.9100000000001
  0
LINE
  8
_0-1_LAYER004
  6
CONTINUOUS
 62
    7
 10
1777.0961000000002
 20
1125.9100000000001
 11
1771.0962
 21
1122.9099000000001
  0
LINE
  8
_0-1_LAYER004
  6
CONTINUOUS
 62
    7
 10
1777.0961000000002
 20
1131.9099000000001
 11
1771.0962
 21
1134.9100000000001
  0
LINE
  8
_0-1_LAYER004
  6
CONTINUOUS
 62
    7
 10
1777.6307000000002
 20
1131.9099000000001
 11
1801.0962
 21
1131.9099000000001
  0
LINE
  8
_0-1_LAYER004
  6
CONTINUOUS
 62
    7
 10
1801.0962
 20
1125.9100000000001
 11
1777.6307000000002
 21
1125.9100000000001
  0
LINE
  8
_0-1_LAYER004
  6
CONTINUOUS
 62
    7
 10
1801.0962
 20
1108.9099000000001
 11
1774.6002323280268
 21
1144.2379568958422
  0
LINE
  8
_0-1_LAYER004
  6
CONTINUOUS
 62
    7
 10
1801.0962
 20
1133.1600000000001
 11
1819.2961000000003
 21
1133.1611
  0
LINE
  8
_0-1_LAYER004
  6
CONTINUOUS
 62
    7
 10
1819.2961000000003
 20
1133.1611
 11
1828.3899999999999
 21
1134.7650000000001
  0
LINE
  8
_0-1_LAYER004
  6
CONTINUOUS
 62
    7
 10
1828.3899999999999
 20
1134.7650000000001
 11
1828.6860999999999
 21
1133.0908999999999
  0
LINE
  8
_0-1_LAYER004
  6
CONTINUOUS
 62
    7
 10
1828.6860999999999
 20
1133.0908999999999
 11
1830.3602000000001
 21
1133.386
  0
LINE
  8
_0-1_LAYER004
  6
CONTINUOUS
 62
    7
 10
1830.3602000000001
 20
1133.386
 11
1830.0641000000001
 21
1135.0599
  0
LINE
  8
_0-1_LAYER004
  6
CONTINUOUS
 62
    7
 10
1830.0641000000001
 20
1135.0599
 11
1832.7231000000002
 21
1135.5289
  0
LINE
  8
_0-1_LAYER004
  6
CONTINUOUS
 62
    7
 10
1832.7231000000002
 20
1135.5289
 11
1833.0191
 21
1133.855
  0
LINE
  8
_0-1_LAYER004
  6
CONTINUOUS
 62
    7
 10
1833.0191
 20
1133.855
 11
1834.6921000000002
 21
1134.1500000000001
  0
LINE
  8
_0-1_LAYER004
  6
CONTINUOUS
 62
    7
 10
1834.6921000000002
 20
1134.1500000000001
 11
1834.3971000000001
 21
1135.8241
  0
LINE
  8
_0-1_LAYER004
  6
CONTINUOUS
 62
    7
 10
1834.3971000000001
 20
1135.8241
 11
1837.0560999999998
 21
1136.2929999999999
  0
LINE
  8
_0-1_LAYER004
  6
CONTINUOUS
 62
    7
 10
1837.0560999999998
 20
1136.2929999999999
 11
1837.3519999999999
 21
1134.6189999999999
  0
LINE
  8
_0-1_LAYER004
  6
CONTINUOUS
 62
    7
 10
1837.3519999999999
 20
1134.6189999999999
 11
1839.0261999999998
 21
1134.9139
  0
LINE
  8
_0-1_LAYER004
  6
CONTINUOUS
 62
    7
 10
1839.0261999999998
 20
1134.9139
 11
1838.7303886029913
 21
1136.5869333099072
  0
LINE
  8
_0-1_LAYER004
  6
CONTINUOUS
 62
    7
 10
1838.7303886029913
 20
1136.5869333099072
 11
1840.2081411389072
 21
1136.849759324256
  0
LINE
  8
_0-1_LAYER004
  6
CONTINUOUS
 62
    7
 10
1840.2081411389072
 20
1136.849759324256
 11
1841.9401313622893
 21
1135.639005799645
  0
LINE
  8
_0-1_LAYER004
  6
CONTINUOUS
 62
    7
 10
1841.9401313622893
 20
1135.639005799645
 11
1841.9450999999999
 21
1135.633
  0
LINE
  8
_0-1_LAYER004
  6
CONTINUOUS
 62
    7
 10
1841.9401313622893
 20
1135.639005799645
 11
1842.3452000000002
 21
1133.3669
  0
LINE
  8
_0-1_LAYER004
  6
CONTINUOUS
 62
    7
 10
1842.3452000000002
 20
1133.3669
 11
1817.0722000000001
 21
1128.9110000000001
  0
LINE
  8
_0-1_LAYER004
  6
CONTINUOUS
 62
    7
 10
1817.0722000000001
 20
1128.9110000000001
 11
1842.1700999999998
 21
1124.4849999999999
  0
LINE
  8
_0-1_LAYER004
  6
CONTINUOUS
 62
    7
 10
1842.1700999999998
 20
1124.4849999999999
 11
1841.7721999999999
 21
1122.2201
  0
LINE
  8
_0-1_LAYER004
  6
CONTINUOUS
 62
    7
 10
1841.7721999999999
 20
1122.2201
 11
1840.0281068191862
 21
1121.0094791172678
  0
LINE
  8
_0-1_LAYER004
  6
CONTINUOUS
 62
    7
 10
1840.0281068191862
 20
1121.0094791172678
 11
1838.5560999999998
 21
1121.2650000000001
  0
LINE
  8
_0-1_LAYER004
  6
CONTINUOUS
 62
    7
 10
1838.5560999999998
 20
1121.2650000000001
 11
1838.8522
 21
1122.9380000000001
  0
LINE
  8
_0-1_LAYER004
  6
CONTINUOUS
 62
    7
 10
1838.8522
 20
1122.9380000000001
 11
1837.1781000000001
 21
1123.2329
  0
LINE
  8
_0-1_LAYER004
  6
CONTINUOUS
 62
    7
 10
1837.1781000000001
 20
1123.2329
 11
1836.8822
 21
1121.5599999999999
  0
LINE
  8
_0-1_LAYER004
  6
CONTINUOUS
 62
    7
 10
1836.8822
 20
1121.5599999999999
 11
1834.2231000000004
 21
1122.029
  0
LINE
  8
_0-1_LAYER004
  6
CONTINUOUS
 62
    7
 10
1834.2231000000004
 20
1122.029
 11
1834.5180999999998
 21
1123.702
  0
LINE
  8
_0-1_LAYER004
  6
CONTINUOUS
 62
    7
 10
1834.5180999999998
 20
1123.702
 11
1832.8452000000004
 21
1123.9970000000001
  0
LINE
  8
_0-1_LAYER004
  6
CONTINUOUS
 62
    7
 10
1832.8452000000004
 20
1123.9970000000001
 11
1832.5491000000002
 21
1122.3240000000001
  0
LINE
  8
_0-1_LAYER004
  6
CONTINUOUS
 62
    7
 10
1832.5491000000002
 20
1122.3240000000001
 11
1829.8899999999999
 21
1122.7929999999999
  0
LINE
  8
_0-1_LAYER004
  6
CONTINUOUS
 62
    7
 10
1829.8899999999999
 20
1122.7929999999999
 11
1830.1851000000001
 21
1124.4658999999999
  0
LINE
  8
_0-1_LAYER004
  6
CONTINUOUS
 62
    7
 10
1830.1851000000001
 20
1124.4658999999999
 11
1828.5122000000001
 21
1124.761
  0
LINE
  8
_0-1_LAYER004
  6
CONTINUOUS
 62
    7
 10
1828.5122000000001
 20
1124.761
 11
1828.2161000000001
 21
1123.088
  0
LINE
  8
_0-1_LAYER004
  6
CONTINUOUS
 62
    7
 10
1828.2161000000001
 20
1123.088
 11
1819.2961000000003
 21
1124.6599000000001
  0
LINE
  8
_0-1_LAYER004
  6
CONTINUOUS
 62
    7
 10
1819.2961000000003
 20
1124.6599000000001
 11
1801.0962
 21
1124.6599000000001
  0
LINE
  8
_0-1_LAYER004
  6
CONTINUOUS
 62
    7
 10
1775.3843000000002
 20
1115.4232
 11
1777.3107
 21
1111.1851999999999
  0
LINE
  8
_0-1_LAYER004
  6
CONTINUOUS
 62
    7
 10
1777.3107
 20
1111.1851999999999
 11
1750.8636999999999
 21
1087.5410999999999
  0
LINE
  8
_0-1_LAYER004
  6
CONTINUOUS
 62
    7
 10
1750.8636999999999
 20
1087.5410999999999
 11
1743.5354000000002
 21
1085.7574
  0
LINE
  8
_0-1_LAYER004
  6
CONTINUOUS
 62
    7
 10
1743.5354000000002
 20
1085.7574
 11
1743.5354000000002
 21
1104.8924999999999
  0
LINE
  8
_0-1_LAYER004
  6
CONTINUOUS
 62
    7
 10
1743.5354000000002
 20
1104.8924999999999
 11
1775.3843000000002
 21
1115.4232
  0
LINE
  8
_0-1_LAYER004
  6
CONTINUOUS
 62
    7
 10
1797.0962
 20
1081.6495
 11
1789.5962
 21
1068.6591000000001
  0
LINE
  8
_0-1_LAYER004
  6
CONTINUOUS
 62
    7
 10
1764.2694999999999
 20
1051.463
 11
1766.2105999999999
 21
1044.2185999999999
  0
LINE
  8
_0-1_LAYER004
  6
CONTINUOUS
 62
    7
 10
1766.2105999999999
 20
1044.2185999999999
 11
1764.2694999999999
 21
1051.463
  0
LINE
  8
_0-1_LAYER004
  6
CONTINUOUS
 62
    7
 10
1769.5727999999999
 20
1046.1596999999999
 11
1764.2694999999999
 21
1051.463
  0
LINE
  8
_0-1_LAYER004
  6
CONTINUOUS
 62
    7
 10
1764.2694999999999
 20
1051.463
 11
1911.6167999999998
 21
796.25
  0
LINE
  8
_0-1_LAYER004
  6
CONTINUOUS
 62
    7
 10
1868.8029000000001
 20
962.1597999999999
 11
1870.7440999999999
 21
954.91529999999989
  0
LINE
  8
_0-1_LAYER004
  6
CONTINUOUS
 62
    7
 10
1868.8029000000001
 20
962.1597999999999
 11
1874.1062000000002
 21
956.8565000000001
  0
LINE
  8
_0-1_LAYER004
  6
CONTINUOUS
 62
    7
 10
1868.8029000000001
 20
962.1597999999999
 11
1932.8487
 21
851.22929999999997
  0
LINE
  8
_0-1_LAYER004
  6
CONTINUOUS
 62
    7
 10
1757.7091
 20
954.07559999999989
 11
1759.6502
 21
946.83120000000008
  0
LINE
  8
_0-1_LAYER004
  6
CONTINUOUS
 62
    7
 10
1757.7091
 20
954.07559999999989
 11
1763.0124000000001
 21
948.77230000000009
  0
LINE
  8
_0-1_LAYER004
  6
CONTINUOUS
 62
    7
 10
1757.7091
 20
954.07559999999989
 11
1873.5120999999999
 21
753.49890000000005
  0
LINE
  8
_0-1_LAYER004
  6
CONTINUOUS
 62
    7
 10
1801.0962
 20
1079.4389000000001
 11
1901.0962
 21
979.43910000000005
  0
LINE
  8
_0-1_LAYER004
  6
CONTINUOUS
 62
    7
 10
1901.0962
 20
975.19640000000004
 11
1801.0962
 21
1075.1964
  0
ARC
  8
_0-1_LAYER004
  6
CONTINUOUS
 62
    7
 10
1780.2119341682505
 20
1265.0536137407569
 40
23.546167762852683
 50
338.17399443013863
 51
19.527910853487519
  0
ARC
  8
_0-1_LAYER004
  6
CONTINUOUS
 62
    7
 10
1694.4309469030688
 20
1109.6326716212393
 40
23.387994562197548
 50
331.76271829643679
 51
4.5807083095985952
  0
ARC
  8
_0-1_LAYER004
  6
CONTINUOUS
 62
    7
 10
1702.6896986508959
 20
1071.8467823667816
 40
13.198098131895515
 50
318.14344400109934
 51
40.231288972293513
  0
LINE
  8
_0-1_LAYER004
  6
CONTINUOUS
 62
    7
 10
1312.2419
 20
1092.3022000000001
 11
1352.7419
 21
1092.3022000000001
  0
LINE
  8
_0-1_LAYER004
  6
CONTINUOUS
 62
    7
 10
1352.7419
 20
1092.3022000000001
 11
1379.8384000000001
 21
991.17679999999996
  0
LINE
  8
_0-1_LAYER004
  6
CONTINUOUS
 62
    7
 10
1379.8384000000001
 20
991.17679999999996
 11
1379.5669
 21
1003.2702999999999
  0
LINE
  8
_0-1_LAYER004
  6
CONTINUOUS
 62
    7
 10
1379.8384000000001
 20
991.17679999999996
 11
1371.1840000000002
 21
1001.8785
  0
LINE
  8
_0-1_LAYER004
  6
CONTINUOUS
 62
    7
 10
1258.7927999999999
 20
963.30349999999999
 11
1262.5427999999999
 21
956.80829999999992
  0
LINE
  8
_0-1_LAYER004
  6
CONTINUOUS
 62
    7
 10
1262.5427999999999
 20
956.80829999999992
 11
1262.5427999999999
 21
964.30829999999992
  0
LINE
  8
_0-1_LAYER004
  6
CONTINUOUS
 62
    7
 10
1262.5427999999999
 20
956.80829999999992
 11
1172.6692
 21
1292.2215000000001
  0
TEXT
  8
_0-2_ADD_LINE
 62
    7
 10
1070.9256985745019
 20
736.10961062037813
 40
20
 41
1
 50
0
  1
：
  0
TEXT
  8
_0-2_ADD_LINE
 62
    7
 10
1837.6917963609203
 20
1388.3556494291365
 40
20
 41
1
 50
0
  1
シーリング
  0
TEXT
  8
_0-2_ADD_LINE
 62
    7
 10
1856.2852841235003
 20
1354.5493080426277
 40
20
 41
1
 50
0
  1
下地材：40x30
  0
TEXT
  8
_0-2_ADD_LINE
 62
    7
 10
1741.3437234093703
 20
1352.8589909733023
 40
20
 41
1
 50
0
  1
100
  0
TEXT
  8
_0-2_ADD_LINE
 62
    7
 10
1548.64757750627
 20
1378.213747013184
 40
20
 41
1
 50
0
  1
笠木：15x90
  0
TEXT
  8
_0-2_ADD_LINE
 62
    7
 10
1327.2160414246373
 20
1334.2655032107225
 40
20
 41
1
 50
0
  1
雨押水切カラー鋼板0.35ｍｍ以上
  0
TEXT
  8
_0-2_ADD_LINE
 62
    7
 10
1489.4864800798794
 20
1197.3498205953617
 40
20
 41
1
 50
0
  1
熨斗瓦２段積み
  0
TEXT
  8
_0-2_ADD_LINE
 62
    7
 10
1913.7560644805651
 20
803.50594344253409
 40
20
 41
1
 50
0
  1
葺　土　
  0
TEXT
  8
_0-2_ADD_LINE
 62
    7
 10
1940.8011375897722
 20
859.2864067302736
 40
20
 41
1
 50
0
  1
外壁：ALCパネルt＝100
  0
TEXT
  8
_0-2_ADD_LINE
 62
    7
 10
1876.5690889554053
 20
756.17706550142179
 40
20
 41
1
 50
0
  1
捨谷　カラー鋼板0.35ｍｍ以上
  0
TEXT
  8
_0-2_ADD_LINE
 62
    7
 10
1732.892138062743
 20
778.15118740265234
 40
20
 41
1
 50
0
  1
120
  0
TEXT
  8
_0-2_ADD_LINE
 62
    7
 10
1259.6033586516196
 20
718.99008997626197
 40
20
 41
1
 50
0
  1
265
  0
TEXT
  8
_0-2_ADD_LINE
 62
    7
 10
973.93977393562011
 20
715.60945583761111
 40
20
 41
1
 50
0
  1
220
  0
TEXT
  8
_0-2_ADD_LINE
 62
    7
 10
941.82374961843664
 20
1268.3431375070304
 40
20
 41
1
 50
0
  1
下葺材：ルーフィング
  0
TEXT
  8
_0-2_ADD_LINE
 62
    7
 10
2018.5557227787424
 20
1016.4858941775395
 40
20
 41
1
 50
90
  1
水切り立上がり寸法
  0
TEXT
  8
_0-2_ADD_LINE
 62
    7
 10
2113.2134786609672
 20
942.11194312722012
 40
20
 41
1
 50
90
  1
下葺き材立上がり寸法
  0
TEXT
  8
_0-2_ADD_LINE
 62
    7
 10
2062.5039665812037
 20
1041.8406502174212
 40
20
 41
1
 50
90
  1
200
  0
TEXT
  8
_0-2_ADD_LINE
 62
    7
 10
1974.6074789762811
 20
994.51177227630876
 40
20
 41
1
 50
90
  1
130
  0
TEXT
  8
_0-2_ADD_LINE
 62
    7
 10
1977.9881131149318
 20
1116.2146012677406
 40
20
 41
1
 50
90
  1
85
  0
TEXT
  8
_0-2_ADD_LINE
 62
    7
 10
1971.2268448376301
 20
1202.4207718033381
 40
20
 41
1
 50
90
  1
90
  0
TEXT
  8
_0-2_ADD_LINE
 62
    7
 10
1977.9881131149318
 20
1253.1302838831014
 40
20
 41
1
 50
90
  1
20
  0
TEXT
  8
_0-2_ADD_LINE
 62
    7
 10
995.91389583685077
 20
1303.8397959628646
 40
20
 41
1
 50
0
  1
瓦桟：15x30以上
  0
TEXT
  8
_0-2_ADD_LINE
 62
    7
 10
1288.3387488301519
 20
1101.0017476438115
 40
20
 41
1
 50
0
  1
桟　瓦
  0
TEXT
  8
_0-2_ADD_LINE
 62
    7
 10
1506.389650773134
 20
718.99008997626197
 40
20
 41
1
 50
0
  1
305
  0
TEXT
  8
_0-2_ADD_LINE
 62
    7
 10
857.30789615216452
 20
1209.1820400806398
 40
20
 41
1
 50
0
  1
　鋼製：C100x50x20x2.3　＠606
  0
TEXT
  8
_0-0_LAYER001
 62
    7
 10
727.15348181410559
 20
1237.9174302591723
 40
20
 41
1
 50
0
  1
　野地板：硬質木片セメントパネルｔ＝25　
  0
LINE
  8
_0-0_LAYER001
  6
CONTINUOUS
 62
    2
 10
1196.2945
 20
1202.393
 11
891.11423753867348
 21
1202.393
  0
LINE
  8
_0-1_LAYER004
  6
CONTINUOUS
 62
    7
 10
1196.2945
 20
1202.393
 11
884.35296926137175
 21
1202.393
  0
LINE
  8
_0-1_LAYER004
  6
CONTINUOUS
 62
    7
 10
1188.5559000000001
 20
1232.2596000000001
 11
747.43728664601099
 21
1232.2596000000001
  0
LINE
  8
_0-0_LAYER001
  6
CONTINUOUS
 62
    2
 10
1836.9782
 20
1384.5124000000001
 11
1950.9430400057249
 21
1384.5124000000001
  0
LINE
  8
_0-1_LAYER004
  6
CONTINUOUS
 62
    7
 10
1836.9782
 20
1384.5124000000001
 11
1939.1108205204466
 21
1384.5124000000001
  0
LINE
  8
_0-0_LAYER001
  6
CONTINUOUS
 62
    2
 10
1670.6165999999998
 20
1325.9525000000003
 11
1332.2869926326134
 21
1325.9525000000003
  0
LINE
  8
_0-1_LAYER004
  6
CONTINUOUS
 62
    7
 10
1313.6935048700338
 20
1325.9525000000003
 11
1670.6165999999998
 21
1325.9525000000003
  0
LINE
  8
_0-0_LAYER001
  6
CONTINUOUS
 62
    2
 10
1873.5120999999999
 20
753.49890000000005
 11
2201.1099662658903
 21
753.49890000000005
  0
LINE
  8
_0-1_LAYER004
  6
CONTINUOUS
 62
    7
 10
1873.5120999999999
 20
753.49890000000005
 11
2196.0390150579137
 21
753.49890000000005
  0
ENDSEC
  0
EOF
