  0
SECTION
  2
HEADER
  9
$ACADVER
  1
AC1009
  9
$INSBASE
 10
0
 20
0
 30
0
  9
$EXTMIN
 10
0
 20
0
  9
$EXTMAX
 10
2970
 20
2100
  9
$LIMMIN
 10
0
 20
0
  9
$LIMMAX
 10
2970
 20
2100
  9
$LTSCALE
 40
10
  0
ENDSEC
  0
SECTION
  2
TABLES
  0
TABLE
  2
LTYPE
 70
     9
  0
LTYPE
  2
CONTINUOUS
 70
    64
  3
実線
 72
    65
 73
     0
 40
0.0
  0
LTYPE
  2
DASHED1
 70
    64
  3
--  --  --  --  --  --  --  --  
 72
    65
 73
     2
 40
2.5
 49
1.25
 49
-1.25
  0
LTYPE
  2
DASHED2
 70
    64
  3
----    ----    ----    ----    
 72
    65
 73
     2
 40
5.0
 49
2.5
 49
-2.5
  0
LTYPE
  2
DASHED3
 70
    64
  3
------  ------  ------  ------  
 72
    65
 73
     2
 40
5.0
 49
3.75
 49
-1.25
  0
LTYPE
  2
CENTER1
 70
    64
  3
----- - ----- - ----- - ----- - 
 72
    65
 73
     4
 40
10.0
 49
6.25
 49
-1.25
 49
1.25
 49
-1.25
  0
LTYPE
  2
CENTER2
 70
    64
  3
----------  --  ----------  --  
 72
    65
 73
     4
 40
20.0
 49
12.5
 49
-2.5
 49
2.5
 49
-2.5
  0
LTYPE
  2
PHANTOM1
 70
    64
  3
--- - - --- - - --- - - --- - - 
 72
    65
 73
     6
 40
10.0
 49
3.25
 49
-1.25
 49
1.25
 49
-1.25
 49
1.25
 49
-1.25
  0
LTYPE
  2
PHANTOM2
 70
    64
  3
--------  -  -  --------  -  -  
 72
    65
 73
     6
 40
20.0
 49
10.0
 49
-2.5
 49
1.25
 49
-2.5
 49
1.25
 49
-2.5
  0
LTYPE
  2
DOT
 70
    64
  3
-   -   -   -   -   -   -   -   
 72
    65
 73
     2
 40
2.5
 49
0.625
 49
-1.875
  0
LTYPE
  2
DUMMY
 70
    64
  3
ダミー
 72
    65
 73
     0
 40
0.0
  0
LTYPE
  2
RAND1
 70
    64
  3
ランダム線1
 72
    65
 73
     4
 40
10.0
 49
1.0
 49
-2.0
 49
3.0
 49
-4.0
  0
LTYPE
  2
RAND2
 70
    64
  3
ランダム線2
 72
    65
 73
     4
 40
14.0
 49
2.0
 49
-3.0
 49
4.0
 49
-5.0
  0
LTYPE
  2
RAND3
 70
    64
  3
ランダム線3
 72
    65
 73
     4
 40
18.0
 49
3.0
 49
-4.0
 49
5.0
 49
-6.0
  0
LTYPE
  2
RAND4
 70
    64
  3
ランダム線4
 72
    65
 73
     4
 40
22.0
 49
4.0
 49
-5.0
 49
6.0
 49
-7.0
  0
LTYPE
  2
RAND5
 70
    64
  3
ランダム線5
 72
    65
 73
     4
 40
26.0
 49
5.0
 49
-6.0
 49
7.0
 49
-8.0
  0
LTYPE
  2
LONG1
 70
    64
  3
----------  --  ----------  --  
 72
    65
 73
     4
 40
40.0
 49
32.5
 49
-2.5
 49
2.5
 49
-2.5
  0
LTYPE
  2
LONG2
 70
    64
  3
--------  -  -  --------  -  -  
 72
    65
 73
     6
 40
40.0
 49
30.0
 49
-2.5
 49
1.25
 49
-2.5
 49
1.25
 49
-2.5
  0
LTYPE
  2
LONG3
 70
    64
  3
+++++++++++++++..+++++++++++++++
 72
    65
 73
     2
 40
40.0
 49
37.5
 49
-2.5
  0
LTYPE
  2
LONG4
 70
    64
  3
+++++++++++++++..+++++++++++++++
 72
    65
 73
     2
 40
80.0
 49
75.0
 49
-5.0
  0
LTYPE
  2
LONG5
 70
    64
  3
----------  --  ----------  --  
 72
    65
 73
     4
 40
60.0
 49
37.5
 49
-7.5
 49
7.5
 49
-7.5
  0
LTYPE
  2
dashed
 70
   64
  3
-------   -------------   ------
 72
   65
 73
    2
 40
7.5
 49
6
 49
-1.5
  0
LTYPE
  2
dashed_spaced
 70
   64
  3
----        --------        ----
 72
   65
 73
    2
 40
12
 49
6
 49
-6
  0
LTYPE
  2
long_dashed_dotted
 70
   64
  3
------------- --- --------------
 72
   65
 73
    4
 40
15.25
 49
12
 49
-1.5
 49
0.25
 49
-1.5
  0
LTYPE
  2
long_dashed_double-dotted
 70
   64
  3
----------- --- --- ------------
 72
   65
 73
    6
 40
17
 49
12
 49
-1.5
 49
0.25
 49
-1.5
 49
0.25
 49
-1.5
  0
LTYPE
  2
long_dashed_triplicate-dotted
 70
   64
  3
--------- --- --- --- ----------
 72
   65
 73
    8
 40
18.75
 49
12
 49
-1.5
 49
0.25
 49
-1.5
 49
0.25
 49
-1.5
 49
0.25
 49
-1.5
  0
LTYPE
  2
dotted
 70
   64
  3
   -       -       -       -    
 72
   65
 73
    2
 40
1.75
 49
0.25
 49
-1.5
  0
LTYPE
  2
chain
 70
   64
  3
-------------- -- --------------
 72
   65
 73
    4
 40
18.5
 49
12
 49
-1.5
 49
3.5
 49
-1.5
  0
LTYPE
  2
chain_double_dash
 70
   64
  3
------------ -- -- -------------
 72
   65
 73
    6
 40
23.5
 49
12
 49
-1.5
 49
3.5
 49
-1.5
 49
3.5
 49
-1.5
  0
LTYPE
  2
dashed_dotted
 70
   64
  3
-----------     -     ----------
 72
   65
 73
    4
 40
9.25
 49
6
 49
-1.5
 49
0.25
 49
-1.5
  0
LTYPE
  2
double-dashed_dotted
 70
   64
  3
------   -----------   -   -----
 72
   65
 73
    6
 40
16.75
 49
6
 49
-1.5
 49
6
 49
-1.5
 49
0.25
 49
-1.5
  0
LTYPE
  2
dashed_double-dotted
 70
   64
  3
---------    -    -    ---------
 72
   65
 73
    6
 40
11
 49
6
 49
-1.5
 49
0.25
 49
-1.5
 49
0.25
 49
-1.5
  0
LTYPE
  2
double-dashed_double-dotted
 70
   64
  3
-----   ---------   -   -   ----
 72
   65
 73
    8
 40
18.5
 49
6
 49
-1.5
 49
6
 49
-1.5
 49
0.25
 49
-1.5
 49
0.25
 49
-1.5
  0
LTYPE
  2
dashed_triplicate-dotted
 70
   64
  3
-------    -    -    -    ------
 72
   65
 73
    8
 40
12.75
 49
6
 49
-1.5
 49
0.25
 49
-1.5
 49
0.25
 49
-1.5
 49
0.25
 49
-1.5
  0
LTYPE
  2
double-dashed_triplicate-dotted
 70
   64
  3
-----  ---------  -  -  -  -----
 72
   65
 73
   10
 40
20.25
 49
6
 49
-1.5
 49
6
 49
-1.5
 49
0.25
 49
-1.5
 49
0.25
 49
-1.5
 49
0.25
 49
-1.5
  0
LTYPE
  2
undefined
 70
   64
  3
--------------------------------
 72
   65
 73
    0
 40
0
  0
ENDTAB
  0
TABLE
  2
STYLE
  5
3
100
AcDbSymbolTable
 70
     1
  0
STYLE
  5
10
100
AcDbSymbolTableRecord
100
AcDbTextStyleTableRecord
  2
STANDARD
 70
     0
 40
0.0
 41
1.0
 50
0.0
 71
     0
 42
0.2
  3
txt
  4
bigfont.shx
  0
STYLE
  5
26
100
AcDbSymbolTableRecord
100
AcDbTextStyleTableRecord
  2
TATEGAKI
 70
    68
 40
0.0
 41
1.0
 50
0.0
 71
     0
 42
1.0
  3
txt
  4
bigfont.shx
  0
ENDTAB
  0
TABLE
  2
LAYER
 70
    4
  0
LAYER
  2
_0-0_LAYER001
 70
   64
 62
    7
  6
CONTINUOUS
  0
LAYER
  2
_0-1_LAYER004
 70
   64
 62
    7
  6
CONTINUOUS
  0
LAYER
  2
_0-2_ADD_LINE
 70
   64
 62
    7
  6
CONTINUOUS
  0
LAYER
  2
ADD_LINE
 70
   64
 62
    7
  6
CONTINUOUS
  0
ENDTAB
  0
ENDSEC
  0
SECTION
  2
BLOCKS
  0
ENDSEC
  0
SECTION
  2
ENTITIES
  0
LINE
  8
_0-0_LAYER001
  6
CONTINUOUS
 62
    2
 10
1774.212
 20
955.15910000000008
 11
825.25119999999993
 21
955.15910000000008
  0
LINE
  8
_0-0_LAYER001
  6
CONTINUOUS
 62
    2
 10
825.25119999999993
 20
976.15910000000008
 11
1652.2118999999998
 21
976.15910000000008
  0
CIRCLE
  8
_0-0_LAYER001
  6
CONTINUOUS
 62
    2
 10
1727.1233999999999
 20
1041.6568
 40
0.8999999999999999
  0
CIRCLE
  8
_0-0_LAYER001
  6
CONTINUOUS
 62
    2
 10
1735.6390999999999
 20
1038.5028
 40
0.8999999999999999
  0
CIRCLE
  8
_0-0_LAYER001
  6
CONTINUOUS
 62
    2
 10
1717.3462
 20
1033.7719
 40
0.8999999999999999
  0
CIRCLE
  8
_0-0_LAYER001
  6
CONTINUOUS
 62
    2
 10
1701.2611000000002
 20
1038.8181999999999
 40
0.8999999999999999
  0
CIRCLE
  8
_0-0_LAYER001
  6
CONTINUOUS
 62
    2
 10
1730.1619999999998
 20
1025.7261000000001
 40
0.8999999999999999
  0
CIRCLE
  8
_0-0_LAYER001
  6
CONTINUOUS
 62
    2
 10
1714.0958000000001
 20
1046.1738
 40
0.8999999999999999
  0
CIRCLE
  8
_0-0_LAYER001
  6
CONTINUOUS
 62
    2
 10
1700.5857000000001
 20
1046.9041
 40
0.8999999999999999
  0
CIRCLE
  8
_0-0_LAYER001
  6
CONTINUOUS
 62
    2
 10
1707.5234
 20
1027.9168999999999
 40
0.8999999999999999
  0
LINE
  8
_0-0_LAYER001
  6
CONTINUOUS
 62
    2
 10
1680.6578
 20
1328.6143999999999
 11
1680.6578
 21
1276.1143999999999
  0
CIRCLE
  8
_0-0_LAYER001
  6
CONTINUOUS
 62
    2
 10
1680.6578
 20
1326.1143999999999
 40
1.6999999999999997
  0
LINE
  8
_0-0_LAYER001
  6
CONTINUOUS
 62
    2
 10
1680.6578
 20
1326.1143999999999
 11
1772.212
 21
1326.1143999999999
  0
CIRCLE
  8
_0-0_LAYER001
  6
CONTINUOUS
 62
    2
 10
1772.212
 20
1326.1143999999999
 40
1.6999999999999997
  0
LINE
  8
_0-0_LAYER001
  6
CONTINUOUS
 62
    2
 10
1772.212
 20
1328.6143999999999
 11
1772.212
 21
1276.1143999999999
  0
LINE
  8
_0-0_LAYER001
  6
CONTINUOUS
 62
    2
 10
2052.9728
 20
955.15910000000008
 11
2000.4728
 21
955.15910000000008
  0
CIRCLE
  8
_0-0_LAYER001
  6
CONTINUOUS
 62
    2
 10
2050.4728
 20
955.15910000000008
 40
1.6999999999999997
  0
LINE
  8
_0-0_LAYER001
  6
CONTINUOUS
 62
    2
 10
2050.4728
 20
955.15910000000008
 11
2050.4728
 21
1155.1591000000001
  0
CIRCLE
  8
_0-0_LAYER001
  6
CONTINUOUS
 62
    2
 10
2050.4728
 20
1155.1591000000001
 40
1.6999999999999997
  0
LINE
  8
_0-0_LAYER001
  6
CONTINUOUS
 62
    2
 10
2052.9728
 20
1155.1591000000001
 11
2000.4728
 21
1155.1591000000001
  0
LINE
  8
_0-0_LAYER001
  6
CONTINUOUS
 62
    1
 10
1774.212
 20
935.15910000000008
 11
825.25119999999993
 21
935.15910000000008
  0
LINE
  8
_0-0_LAYER001
  6
CONTINUOUS
 62
    1
 10
1774.212
 20
940.15910000000008
 11
825.25119999999993
 21
940.15910000000008
  0
LINE
  8
_0-0_LAYER001
  6
CONTINUOUS
 62
    1
 10
1774.212
 20
945.15910000000008
 11
825.25119999999993
 21
945.15910000000008
  0
LINE
  8
_0-0_LAYER001
  6
CONTINUOUS
 62
    1
 10
1774.212
 20
950.15910000000008
 11
825.25119999999993
 21
950.15910000000008
  0
CIRCLE
  8
_0-0_LAYER001
  6
CONTINUOUS
 62
    2
 10
1689.3215
 20
1013.0514000000001
 40
0.8999999999999999
  0
LINE
  8
_0-0_LAYER001
  6
CONTINUOUS
 62
    2
 10
1659.6804000000002
 20
1102.6984
 11
1683.2624000000001
 21
1111.2816
  0
LINE
  8
_0-0_LAYER001
  6
CONTINUOUS
 62
    2
 10
1659.6804000000002
 20
1102.6984
 11
1665.5929999999998
 21
1103.7186999999999
  0
LINE
  8
_0-0_LAYER001
  6
CONTINUOUS
 62
    2
 10
1685.5792999999999
 20
1109.6593
 11
1774.212
 21
1125.2877000000001
  0
LINE
  8
_0-0_LAYER001
  6
CONTINUOUS
 62
    2
 10
1682.9746
 20
1124.4313999999999
 11
1771.6073000000001
 21
1140.0598
  0
LINE
  8
_0-0_LAYER001
  6
CONTINUOUS
 62
    2
 10
1682.9746
 20
1124.4313999999999
 11
1685.5792999999999
 21
1109.6593
  0
LINE
  8
_0-0_LAYER001
  6
CONTINUOUS
 62
    2
 10
1771.6073000000001
 20
1140.0598
 11
1774.212
 21
1125.2877000000001
  0
LINE
  8
_0-0_LAYER001
  6
CONTINUOUS
 62
    2
 10
1774.212
 20
1125.2877000000001
 11
1682.9746
 21
1124.4313999999999
  0
LINE
  8
_0-0_LAYER001
  6
CONTINUOUS
 62
    2
 10
1680.6578
 20
1126.0536999999999
 11
1683.2624000000001
 21
1111.2816
  0
LINE
  8
_0-0_LAYER001
  6
CONTINUOUS
 62
    2
 10
1822.212
 20
1105.2877000000001
 11
1817.2118999999998
 21
1108.2876000000001
  0
LINE
  8
_0-0_LAYER001
  6
CONTINUOUS
 62
    2
 10
1817.2118999999998
 20
1102.2877000000001
 11
1822.212
 21
1105.2877000000001
  0
LINE
  8
_0-0_LAYER001
  6
CONTINUOUS
 62
    2
 10
1816.1369
 20
1102.2877000000001
 11
1818.9859000000001
 21
1107.2238
  0
LINE
  8
_0-0_LAYER001
  6
CONTINUOUS
 62
    2
 10
1750.2118999999998
 20
1102.2877000000001
 11
1750.2118999999998
 21
1108.2876000000001
  0
LINE
  8
_0-0_LAYER001
  6
CONTINUOUS
 62
    2
 10
1744.212
 20
1099.2876000000001
 11
1744.212
 21
1111.2877000000001
  0
LINE
  8
_0-0_LAYER001
  6
CONTINUOUS
 62
    2
 10
1753.0989
 20
1102.2877000000001
 11
1756.5619999999999
 21
1108.2876000000001
  0
LINE
  8
_0-0_LAYER001
  6
CONTINUOUS
 62
    2
 10
1744.212
 20
1099.2876000000001
 11
1750.2118999999998
 21
1102.2877000000001
  0
LINE
  8
_0-0_LAYER001
  6
CONTINUOUS
 62
    2
 10
1750.2118999999998
 20
1108.2876000000001
 11
1744.212
 21
1111.2877000000001
  0
LINE
  8
_0-0_LAYER001
  6
CONTINUOUS
 62
    2
 10
1817.2118999999998
 20
1108.2876000000001
 11
1807.1968999999999
 21
1108.2876000000001
  0
LINE
  8
_0-0_LAYER001
  6
CONTINUOUS
 62
    2
 10
1798.5450000000001
 20
1103.8148000000001
 11
1800.4389999999999
 21
1107.0957000000001
  0
LINE
  8
_0-0_LAYER001
  6
CONTINUOUS
 62
    2
 10
1806.9290000000001
 20
1102.3367000000001
 11
1810.3638999999998
 21
1108.2876000000001
  0
LINE
  8
_0-0_LAYER001
  6
CONTINUOUS
 62
    2
 10
1817.2118999999998
 20
1102.2877000000001
 11
1807.2049999999999
 21
1102.2877000000001
  0
LINE
  8
_0-0_LAYER001
  6
CONTINUOUS
 62
    2
 10
1815.0608999999999
 20
1112.0107
 11
1815.4609
 21
1109.7447
  0
LINE
  8
_0-0_LAYER001
  6
CONTINUOUS
 62
    2
 10
1814.8879999999999
 20
1098.5978
 11
1815.2858999999999
 21
1100.8626999999999
  0
LINE
  8
_0-0_LAYER001
  6
CONTINUOUS
 62
    2
 10
1810.4677999999999
 20
1110.9966999999999
 11
1812.1419000000001
 21
1111.2917
  0
LINE
  8
_0-0_LAYER001
  6
CONTINUOUS
 62
    2
 10
1806.1349
 20
1110.2327
 11
1807.8078999999998
 21
1110.5277000000001
  0
LINE
  8
_0-0_LAYER001
  6
CONTINUOUS
 62
    2
 10
1801.8018999999999
 20
1109.4686999999999
 11
1803.4748
 21
1109.7637
  0
LINE
  8
_0-0_LAYER001
  6
CONTINUOUS
 62
    2
 10
1801.5057999999999
 20
1111.1418000000001
 11
1792.4119000000001
 21
1109.5388
  0
LINE
  8
_0-0_LAYER001
  6
CONTINUOUS
 62
    2
 10
1805.8389000000002
 20
1111.9057
 11
1803.1799000000001
 21
1111.4367
  0
LINE
  8
_0-0_LAYER001
  6
CONTINUOUS
 62
    2
 10
1810.1718999999998
 20
1112.6697999999999
 11
1807.5129000000002
 21
1112.2008000000001
  0
LINE
  8
_0-0_LAYER001
  6
CONTINUOUS
 62
    2
 10
1813.3238000000001
 20
1113.2257
 11
1811.846
 21
1112.9646
  0
LINE
  8
_0-0_LAYER001
  6
CONTINUOUS
 62
    2
 10
1812.1419000000001
 20
1111.2917
 11
1811.846
 21
1112.9657
  0
LINE
  8
_0-0_LAYER001
  6
CONTINUOUS
 62
    2
 10
1810.4677999999999
 20
1110.9966999999999
 11
1810.1718999999998
 21
1112.6708000000001
  0
LINE
  8
_0-0_LAYER001
  6
CONTINUOUS
 62
    2
 10
1807.8090000000002
 20
1110.5277000000001
 11
1807.5129000000002
 21
1112.2018
  0
LINE
  8
_0-0_LAYER001
  6
CONTINUOUS
 62
    2
 10
1806.1349
 20
1110.2327
 11
1805.8389000000002
 21
1111.9067
  0
LINE
  8
_0-0_LAYER001
  6
CONTINUOUS
 62
    2
 10
1803.4758999999999
 20
1109.7637
 11
1803.1799000000001
 21
1111.4376999999999
  0
LINE
  8
_0-0_LAYER001
  6
CONTINUOUS
 62
    2
 10
1801.8018999999999
 20
1109.4686999999999
 11
1801.5057999999999
 21
1111.1427000000001
  0
LINE
  8
_0-0_LAYER001
  6
CONTINUOUS
 62
    2
 10
1810.2928999999999
 20
1099.6107
 11
1811.9670000000001
 21
1099.3157000000001
  0
LINE
  8
_0-0_LAYER001
  6
CONTINUOUS
 62
    2
 10
1805.96
 20
1100.3747000000001
 11
1807.6338999999998
 21
1100.0797
  0
LINE
  8
_0-0_LAYER001
  6
CONTINUOUS
 62
    2
 10
1801.6269000000002
 20
1101.1387
 11
1803.3009000000002
 21
1100.8436999999999
  0
LINE
  8
_0-0_LAYER001
  6
CONTINUOUS
 62
    2
 10
1801.6279
 20
1101.1387
 11
1801.3319000000001
 21
1099.4657999999999
  0
LINE
  8
_0-0_LAYER001
  6
CONTINUOUS
 62
    2
 10
1803.3018999999999
 20
1100.8436999999999
 11
1803.0057999999999
 21
1099.1706999999999
  0
LINE
  8
_0-0_LAYER001
  6
CONTINUOUS
 62
    2
 10
1805.9609999999998
 20
1100.3747000000001
 11
1805.6649000000002
 21
1098.7017000000001
  0
LINE
  8
_0-0_LAYER001
  6
CONTINUOUS
 62
    2
 10
1807.6349
 20
1100.0797
 11
1807.3389000000002
 21
1098.4067
  0
LINE
  8
_0-0_LAYER001
  6
CONTINUOUS
 62
    2
 10
1810.2939000000001
 20
1099.6107
 11
1809.998
 21
1097.9376999999999
  0
LINE
  8
_0-0_LAYER001
  6
CONTINUOUS
 62
    2
 10
1811.9679000000001
 20
1099.3157000000001
 11
1811.6718999999998
 21
1097.6428000000001
  0
LINE
  8
_0-0_LAYER001
  6
CONTINUOUS
 62
    2
 10
1801.3319000000001
 20
1099.4657999999999
 11
1792.4119000000001
 21
1101.0377000000001
  0
LINE
  8
_0-0_LAYER001
  6
CONTINUOUS
 62
    2
 10
1805.6649000000002
 20
1098.7017000000001
 11
1803.0057999999999
 21
1099.1706999999999
  0
LINE
  8
_0-0_LAYER001
  6
CONTINUOUS
 62
    2
 10
1809.998
 20
1097.9376999999999
 11
1807.3389000000002
 21
1098.4067
  0
LINE
  8
_0-0_LAYER001
  6
CONTINUOUS
 62
    2
 10
1813.1489999999999
 20
1097.3816999999999
 11
1811.6718999999998
 21
1097.6416999999999
  0
LINE
  8
_0-0_LAYER001
  6
CONTINUOUS
 62
    2
 10
1790.1880000000001
 20
1105.2888
 11
1815.4609
 21
1109.7447
  0
LINE
  8
_0-0_LAYER001
  6
CONTINUOUS
 62
    2
 10
1790.1880000000001
 20
1105.2888
 11
1815.2858999999999
 21
1100.8626999999999
  0
LINE
  8
_0-0_LAYER001
  6
CONTINUOUS
 62
    2
 10
1774.212
 20
1109.5377000000001
 11
1792.4119000000001
 21
1109.5377000000001
  0
LINE
  8
_0-0_LAYER001
  6
CONTINUOUS
 62
    2
 10
1774.212
 20
1101.0377000000001
 11
1792.4119000000001
 21
1101.0377000000001
  0
LINE
  8
_0-0_LAYER001
  6
CONTINUOUS
 62
    2
 10
1774.212
 20
1101.0377000000001
 11
1774.212
 21
1109.5377000000001
  0
LINE
  8
_0-0_LAYER001
  6
CONTINUOUS
 62
    2
 10
1744.212
 20
1085.2877000000001
 11
1774.212
 21
1085.2877000000001
  0
LINE
  8
_0-0_LAYER001
  6
CONTINUOUS
 62
    2
 10
1774.212
 20
1108.2876000000001
 11
1750.2118999999998
 21
1108.2876000000001
  0
LINE
  8
_0-0_LAYER001
  6
CONTINUOUS
 62
    2
 10
1774.212
 20
1102.2877000000001
 11
1750.2118999999998
 21
1102.2877000000001
  0
LINE
  8
_0-0_LAYER001
  6
CONTINUOUS
 62
    2
 10
1758.8220000000001
 20
1102.2877000000001
 11
1762.2851000000001
 21
1108.2876000000001
  0
LINE
  8
_0-0_LAYER001
  6
CONTINUOUS
 62
    2
 10
1764.5452
 20
1102.2877000000001
 11
1768.0082000000002
 21
1108.2876000000001
  0
LINE
  8
_0-0_LAYER001
  6
CONTINUOUS
 62
    2
 10
1770.2683000000002
 20
1102.2877000000001
 11
1773.7314000000001
 21
1108.2876000000001
  0
LINE
  8
_0-0_LAYER001
  6
CONTINUOUS
 62
    2
 10
1744.212
 20
1085.2877000000001
 11
1744.212
 21
1119.9978000000001
  0
LINE
  8
_0-0_LAYER001
  6
CONTINUOUS
 62
    2
 10
1774.212
 20
1085.2877000000001
 11
1747.7159000000001
 21
1120.6157000000001
  0
LINE
  8
_0-0_LAYER001
  6
CONTINUOUS
 62
    2
 10
1680.6578
 20
1126.0536999999999
 11
1772.212
 21
1142.1972000000001
  0
LINE
  8
_0-0_LAYER001
  6
CONTINUOUS
 62
    2
 10
1753.3901000000001
 20
1136.8476000000001
 11
1762.1595000000002
 21
1138.3939
  0
LINE
  8
_0-0_LAYER001
  6
CONTINUOUS
 62
    2
 10
1760.9158000000002
 20
1109.1356000000001
 11
1764.3575000000001
 21
1100.8967
  0
LINE
  8
_0-0_LAYER001
  6
CONTINUOUS
 62
    2
 10
1759.8760000000002
 20
1136.3713
 11
1764.5659000000001
 21
1109.7793999999999
  0
LINE
  8
_0-0_LAYER001
  6
CONTINUOUS
 62
    2
 10
1764.3575000000001
 20
1100.8967
 11
1764.5659000000001
 21
1109.7793999999999
  0
LINE
  8
_0-0_LAYER001
  6
CONTINUOUS
 62
    2
 10
1756.2260999999999
 20
1135.729
 11
1753.3901000000001
 21
1136.8476000000001
  0
LINE
  8
_0-0_LAYER001
  6
CONTINUOUS
 62
    2
 10
1759.8760000000002
 20
1136.3713
 11
1762.1595000000002
 21
1138.3939
  0
LINE
  8
_0-0_LAYER001
  6
CONTINUOUS
 62
    2
 10
1756.2260999999999
 20
1135.729
 11
1760.9158000000002
 21
1109.1356000000001
  0
ARC
  8
_0-0_LAYER001
  6
CONTINUOUS
 62
    2
 10
1813.5758999999998
 20
1111.7437
 40
1.5049999999999999
 50
10.451269999999999
 51
99.637527999999989
  0
ARC
  8
_0-0_LAYER001
  6
CONTINUOUS
 62
    2
 10
1813.4079999999999
 20
1098.8607
 40
1.4969999999999999
 50
259.83899000000008
 51
350.14733000000001
  0
CIRCLE
  8
_0-0_LAYER001
  6
CONTINUOUS
 62
    2
 10
1718.8980000000001
 20
1053.8469
 40
0.8999999999999999
  0
CIRCLE
  8
_0-0_LAYER001
  6
CONTINUOUS
 62
    2
 10
1698.6509999999998
 20
1029.3818000000001
 40
0.8999999999999999
  0
CIRCLE
  8
_0-0_LAYER001
  6
CONTINUOUS
 62
    2
 10
1702.3067000000001
 20
1018.1334999999999
 40
0.8999999999999999
  0
CIRCLE
  8
_0-0_LAYER001
  6
CONTINUOUS
 62
    2
 10
1692.1833000000001
 20
1042.0362
 40
0.8999999999999999
  0
CIRCLE
  8
_0-0_LAYER001
  6
CONTINUOUS
 62
    2
 10
1706.2435999999998
 20
1087.5917999999999
 40
0.8999999999999999
  0
CIRCLE
  8
_0-0_LAYER001
  6
CONTINUOUS
 62
    2
 10
1718.0544
 20
1089.279
 40
0.8999999999999999
  0
CIRCLE
  8
_0-0_LAYER001
  6
CONTINUOUS
 62
    2
 10
1736.6140999999998
 20
1093.2158999999999
 40
0.8999999999999999
  0
CIRCLE
  8
_0-0_LAYER001
  6
CONTINUOUS
 62
    2
 10
1753.4865
 20
1045.9730999999999
 40
0.8999999999999999
  0
CIRCLE
  8
_0-0_LAYER001
  6
CONTINUOUS
 62
    2
 10
1766.1408999999999
 20
1032.7563
 40
0.8999999999999999
  0
CIRCLE
  8
_0-0_LAYER001
  6
CONTINUOUS
 62
    2
 10
1759.3919000000001
 20
1033.3187
 40
0.8999999999999999
  0
CIRCLE
  8
_0-0_LAYER001
  6
CONTINUOUS
 62
    2
 10
1761.0790999999999
 20
1052.1596
 40
0.8999999999999999
  0
CIRCLE
  8
_0-0_LAYER001
  6
CONTINUOUS
 62
    2
 10
1745.3314999999998
 20
1028.2570000000001
 40
0.8999999999999999
  0
LINE
  8
_0-0_LAYER001
  6
CONTINUOUS
 62
    2
 10
1772.212
 20
1142.1972000000001
 11
1772.212
 21
1240.7391
  0
LINE
  8
_0-0_LAYER001
  6
CONTINUOUS
 62
    2
 10
825.25119999999993
 20
961.15910000000008
 11
1652.2118999999998
 21
961.15910000000008
  0
LINE
  8
_0-0_LAYER001
  6
CONTINUOUS
 62
    3
 10
1743.4007999999999
 20
1115.1301000000001
 11
1743.4117999999999
 21
1114.6645000000001
  0
LINE
  8
_0-0_LAYER001
  6
CONTINUOUS
 62
    3
 10
1743.4117999999999
 20
1114.6645000000001
 11
1743.4414999999999
 21
1113.4005999999999
  0
LINE
  8
_0-0_LAYER001
  6
CONTINUOUS
 62
    3
 10
1743.4414999999999
 20
1113.4005999999999
 11
1743.4854
 21
1111.538
  0
LINE
  8
_0-0_LAYER001
  6
CONTINUOUS
 62
    3
 10
1743.4854
 20
1111.538
 11
1743.5387000000001
 21
1109.2762
  0
LINE
  8
_0-0_LAYER001
  6
CONTINUOUS
 62
    3
 10
1743.5387000000001
 20
1109.2762
 11
1743.5967000000001
 21
1106.8149000000001
  0
LINE
  8
_0-0_LAYER001
  6
CONTINUOUS
 62
    3
 10
1743.5967000000001
 20
1106.8149000000001
 11
1743.6547999999998
 21
1104.3535999999999
  0
LINE
  8
_0-0_LAYER001
  6
CONTINUOUS
 62
    3
 10
1743.6547999999998
 20
1104.3535999999999
 11
1743.7080999999998
 21
1102.0918999999999
  0
LINE
  8
_0-0_LAYER001
  6
CONTINUOUS
 62
    3
 10
1743.7080999999998
 20
1102.0918999999999
 11
1743.7519000000002
 21
1100.2293
  0
LINE
  8
_0-0_LAYER001
  6
CONTINUOUS
 62
    3
 10
1743.7519000000002
 20
1100.2293
 11
1743.7817
 21
1098.9654
  0
LINE
  8
_0-0_LAYER001
  6
CONTINUOUS
 62
    3
 10
1743.7817
 20
1098.9654
 11
1743.7927
 21
1098.4998000000001
  0
LINE
  8
_0-0_LAYER001
  6
CONTINUOUS
 62
    3
 10
1743.7927
 20
1098.4998000000001
 11
1742.6451000000002
 21
1098.4926
  0
LINE
  8
_0-0_LAYER001
  6
CONTINUOUS
 62
    3
 10
1742.6451000000002
 20
1098.4926
 11
1739.2737000000002
 21
1098.3176000000001
  0
LINE
  8
_0-0_LAYER001
  6
CONTINUOUS
 62
    3
 10
1739.2737000000002
 20
1098.3176000000001
 11
1733.7856999999999
 21
1097.7442000000001
  0
LINE
  8
_0-0_LAYER001
  6
CONTINUOUS
 62
    3
 10
1733.7856999999999
 20
1097.7442000000001
 11
1726.2883999999999
 21
1096.5420999999999
  0
LINE
  8
_0-0_LAYER001
  6
CONTINUOUS
 62
    3
 10
1726.2883999999999
 20
1096.5420999999999
 11
1716.8890000000001
 21
1094.4808
  0
LINE
  8
_0-0_LAYER001
  6
CONTINUOUS
 62
    3
 10
1716.8890000000001
 20
1094.4808
 11
1705.6947
 21
1091.3298
  0
LINE
  8
_0-0_LAYER001
  6
CONTINUOUS
 62
    3
 10
1705.6947
 20
1091.3298
 11
1692.8126999999999
 21
1086.8588999999999
  0
LINE
  8
_0-0_LAYER001
  6
CONTINUOUS
 62
    3
 10
1692.8126999999999
 20
1086.8588999999999
 11
1678.3503000000001
 21
1080.8373999999999
  0
LINE
  8
_0-0_LAYER001
  6
CONTINUOUS
 62
    3
 10
1678.3503000000001
 20
1080.8373999999999
 11
1662.4146999999998
 21
1073.0350000000001
  0
LINE
  8
_0-0_LAYER001
  6
CONTINUOUS
 62
    3
 10
1662.4146999999998
 20
1073.0350000000001
 11
1645.1131
 21
1063.2213999999999
  0
LINE
  8
_0-0_LAYER001
  6
CONTINUOUS
 62
    3
 10
1645.1131
 20
1063.2213999999999
 11
1645.0953
 21
1063.9792
  0
LINE
  8
_0-0_LAYER001
  6
CONTINUOUS
 62
    3
 10
1645.0953
 20
1063.9792
 11
1645.0468000000001
 21
1066.0362
  0
LINE
  8
_0-0_LAYER001
  6
CONTINUOUS
 62
    3
 10
1645.0468000000001
 20
1066.0362
 11
1644.9753999999998
 21
1069.0675000000001
  0
LINE
  8
_0-0_LAYER001
  6
CONTINUOUS
 62
    3
 10
1644.9753999999998
 20
1069.0675000000001
 11
1644.8886000000002
 21
1072.7483999999999
  0
LINE
  8
_0-0_LAYER001
  6
CONTINUOUS
 62
    3
 10
1644.8886000000002
 20
1072.7483999999999
 11
1644.7941999999998
 21
1076.7541000000001
  0
LINE
  8
_0-0_LAYER001
  6
CONTINUOUS
 62
    3
 10
1644.7941999999998
 20
1076.7541000000001
 11
1644.6997999999999
 21
1080.7598
  0
LINE
  8
_0-0_LAYER001
  6
CONTINUOUS
 62
    3
 10
1644.6997999999999
 20
1080.7598
 11
1644.6131
 21
1084.4407000000001
  0
LINE
  8
_0-0_LAYER001
  6
CONTINUOUS
 62
    3
 10
1644.6131
 20
1084.4407000000001
 11
1644.5416
 21
1087.472
  0
LINE
  8
_0-0_LAYER001
  6
CONTINUOUS
 62
    3
 10
1644.5416
 20
1087.472
 11
1644.4931999999999
 21
1089.5289
  0
LINE
  8
_0-0_LAYER001
  6
CONTINUOUS
 62
    3
 10
1644.4931999999999
 20
1089.5289
 11
1644.4753000000001
 21
1090.2868000000001
  0
LINE
  8
_0-0_LAYER001
  6
CONTINUOUS
 62
    3
 10
1644.4753000000001
 20
1090.2868000000001
 11
1646.1280999999999
 21
1090.912
  0
LINE
  8
_0-0_LAYER001
  6
CONTINUOUS
 62
    3
 10
1646.1280999999999
 20
1090.912
 11
1650.7916
 21
1092.6203
  0
LINE
  8
_0-0_LAYER001
  6
CONTINUOUS
 62
    3
 10
1650.7916
 20
1092.6203
 11
1658.0234999999998
 21
1095.1604
  0
LINE
  8
_0-0_LAYER001
  6
CONTINUOUS
 62
    3
 10
1658.0234999999998
 20
1095.1604
 11
1667.3813
 21
1098.2810999999999
  0
LINE
  8
_0-0_LAYER001
  6
CONTINUOUS
 62
    3
 10
1667.3813
 20
1098.2810999999999
 11
1678.4227000000001
 21
1101.7311999999999
  0
LINE
  8
_0-0_LAYER001
  6
CONTINUOUS
 62
    3
 10
1678.4227000000001
 20
1101.7311999999999
 11
1690.7053000000001
 21
1105.2593999999999
  0
LINE
  8
_0-0_LAYER001
  6
CONTINUOUS
 62
    3
 10
1690.7053000000001
 20
1105.2593999999999
 11
1703.7867999999999
 21
1108.6147000000001
  0
LINE
  8
_0-0_LAYER001
  6
CONTINUOUS
 62
    3
 10
1703.7867999999999
 20
1108.6147000000001
 11
1717.2248
 21
1111.5456999999999
  0
LINE
  8
_0-0_LAYER001
  6
CONTINUOUS
 62
    3
 10
1717.2248
 20
1111.5456999999999
 11
1730.5769
 21
1113.8012000000001
  0
LINE
  8
_0-0_LAYER001
  6
CONTINUOUS
 62
    3
 10
1743.4007999999999
 20
1115.1301000000001
 11
1730.4650000000001
 21
1113.7823000000001
  0
LINE
  8
_0-0_LAYER001
  6
CONTINUOUS
 62
    3
 10
1733.4007999999999
 20
1079.7843
 11
1733.4117999999999
 21
1079.3187
  0
LINE
  8
_0-0_LAYER001
  6
CONTINUOUS
 62
    3
 10
1733.4117999999999
 20
1079.3187
 11
1733.4414999999999
 21
1078.0547999999999
  0
LINE
  8
_0-0_LAYER001
  6
CONTINUOUS
 62
    3
 10
1733.4414999999999
 20
1078.0547999999999
 11
1733.4854
 21
1076.1922
  0
LINE
  8
_0-0_LAYER001
  6
CONTINUOUS
 62
    3
 10
1733.4854
 20
1076.1922
 11
1733.5387000000001
 21
1073.9304
  0
LINE
  8
_0-0_LAYER001
  6
CONTINUOUS
 62
    3
 10
1733.5387000000001
 20
1073.9304
 11
1733.5967000000001
 21
1071.4691
  0
LINE
  8
_0-0_LAYER001
  6
CONTINUOUS
 62
    3
 10
1733.5967000000001
 20
1071.4691
 11
1733.6547999999998
 21
1069.0078000000001
  0
LINE
  8
_0-0_LAYER001
  6
CONTINUOUS
 62
    3
 10
1733.6547999999998
 20
1069.0078000000001
 11
1733.7080999999998
 21
1066.7461000000001
  0
LINE
  8
_0-0_LAYER001
  6
CONTINUOUS
 62
    3
 10
1733.7080999999998
 20
1066.7461000000001
 11
1733.7519000000002
 21
1064.8834999999999
  0
LINE
  8
_0-0_LAYER001
  6
CONTINUOUS
 62
    3
 10
1733.7519000000002
 20
1064.8834999999999
 11
1733.7817
 21
1063.6196
  0
LINE
  8
_0-0_LAYER001
  6
CONTINUOUS
 62
    3
 10
1733.7817
 20
1063.6196
 11
1733.7927
 21
1063.154
  0
LINE
  8
_0-0_LAYER001
  6
CONTINUOUS
 62
    3
 10
1733.7927
 20
1063.154
 11
1732.6451000000002
 21
1063.1468
  0
LINE
  8
_0-0_LAYER001
  6
CONTINUOUS
 62
    3
 10
1732.6451000000002
 20
1063.1468
 11
1729.2737000000002
 21
1062.9718
  0
LINE
  8
_0-0_LAYER001
  6
CONTINUOUS
 62
    3
 10
1729.2737000000002
 20
1062.9718
 11
1723.7856999999999
 21
1062.3984
  0
LINE
  8
_0-0_LAYER001
  6
CONTINUOUS
 62
    3
 10
1723.7856999999999
 20
1062.3984
 11
1716.2883999999999
 21
1061.1963000000001
  0
LINE
  8
_0-0_LAYER001
  6
CONTINUOUS
 62
    3
 10
1716.2883999999999
 20
1061.1963000000001
 11
1706.8890000000001
 21
1059.135
  0
LINE
  8
_0-0_LAYER001
  6
CONTINUOUS
 62
    3
 10
1706.8890000000001
 20
1059.135
 11
1695.6947
 21
1055.9839999999999
  0
LINE
  8
_0-0_LAYER001
  6
CONTINUOUS
 62
    3
 10
1695.6947
 20
1055.9839999999999
 11
1682.8126999999999
 21
1051.5129999999999
  0
LINE
  8
_0-0_LAYER001
  6
CONTINUOUS
 62
    3
 10
1682.8126999999999
 20
1051.5129999999999
 11
1668.3503000000001
 21
1045.4916000000001
  0
LINE
  8
_0-0_LAYER001
  6
CONTINUOUS
 62
    3
 10
1668.3503000000001
 20
1045.4916000000001
 11
1652.4146999999998
 21
1037.6892
  0
LINE
  8
_0-0_LAYER001
  6
CONTINUOUS
 62
    3
 10
1652.4146999999998
 20
1037.6892
 11
1635.1131
 21
1027.8756000000001
  0
LINE
  8
_0-0_LAYER001
  6
CONTINUOUS
 62
    3
 10
1635.1131
 20
1027.8756000000001
 11
1635.0953
 21
1028.6333999999999
  0
LINE
  8
_0-0_LAYER001
  6
CONTINUOUS
 62
    3
 10
1635.0953
 20
1028.6333999999999
 11
1635.0468000000001
 21
1030.6904
  0
LINE
  8
_0-0_LAYER001
  6
CONTINUOUS
 62
    3
 10
1635.0468000000001
 20
1030.6904
 11
1634.9753999999998
 21
1033.7217000000001
  0
LINE
  8
_0-0_LAYER001
  6
CONTINUOUS
 62
    3
 10
1634.9753999999998
 20
1033.7217000000001
 11
1634.8886000000002
 21
1037.4025999999999
  0
LINE
  8
_0-0_LAYER001
  6
CONTINUOUS
 62
    3
 10
1634.8886000000002
 20
1037.4025999999999
 11
1634.7941999999998
 21
1041.4083000000001
  0
LINE
  8
_0-0_LAYER001
  6
CONTINUOUS
 62
    3
 10
1634.7941999999998
 20
1041.4083000000001
 11
1634.6997999999999
 21
1045.4139
  0
LINE
  8
_0-0_LAYER001
  6
CONTINUOUS
 62
    3
 10
1634.6997999999999
 20
1045.4139
 11
1634.6131
 21
1049.0948000000001
  0
LINE
  8
_0-0_LAYER001
  6
CONTINUOUS
 62
    3
 10
1634.6131
 20
1049.0948000000001
 11
1634.5416
 21
1052.1261999999999
  0
LINE
  8
_0-0_LAYER001
  6
CONTINUOUS
 62
    3
 10
1634.5416
 20
1052.1261999999999
 11
1634.4931999999999
 21
1054.1831
  0
LINE
  8
_0-0_LAYER001
  6
CONTINUOUS
 62
    3
 10
1634.4931999999999
 20
1054.1831
 11
1634.4753000000001
 21
1054.941
  0
LINE
  8
_0-0_LAYER001
  6
CONTINUOUS
 62
    3
 10
1634.4753000000001
 20
1054.941
 11
1636.1280999999999
 21
1055.5662
  0
LINE
  8
_0-0_LAYER001
  6
CONTINUOUS
 62
    3
 10
1636.1280999999999
 20
1055.5662
 11
1640.7916
 21
1057.2745
  0
LINE
  8
_0-0_LAYER001
  6
CONTINUOUS
 62
    3
 10
1640.7916
 20
1057.2745
 11
1648.0234999999998
 21
1059.8145999999999
  0
LINE
  8
_0-0_LAYER001
  6
CONTINUOUS
 62
    3
 10
1648.0234999999998
 20
1059.8145999999999
 11
1657.3813
 21
1062.9353000000001
  0
LINE
  8
_0-0_LAYER001
  6
CONTINUOUS
 62
    3
 10
1657.3813
 20
1062.9353000000001
 11
1668.4227000000001
 21
1066.3852999999999
  0
LINE
  8
_0-0_LAYER001
  6
CONTINUOUS
 62
    3
 10
1668.4227000000001
 20
1066.3852999999999
 11
1680.7053000000001
 21
1069.9136000000001
  0
LINE
  8
_0-0_LAYER001
  6
CONTINUOUS
 62
    3
 10
1680.7053000000001
 20
1069.9136000000001
 11
1693.7867999999999
 21
1073.2689
  0
LINE
  8
_0-0_LAYER001
  6
CONTINUOUS
 62
    3
 10
1693.7867999999999
 20
1073.2689
 11
1707.2248
 21
1076.1999000000001
  0
LINE
  8
_0-0_LAYER001
  6
CONTINUOUS
 62
    3
 10
1707.2248
 20
1076.1999000000001
 11
1720.5769
 21
1078.4554000000001
  0
LINE
  8
_0-0_LAYER001
  6
CONTINUOUS
 62
    3
 10
1733.4007999999999
 20
1079.7843
 11
1720.4650000000001
 21
1078.4365
  0
ARC
  8
_0-0_LAYER001
  6
CONTINUOUS
 62
    2
 10
1667.4479999999999
 20
1084.4099000000001
 40
22.156131999999999
 50
325.90267999999998
 51
2.8501010000000186
  0
LINE
  8
_0-0_LAYER001
  6
CONTINUOUS
 62
    2
 10
1446.7183
 20
997.4081000000001
 11
1446.7183
 21
989.9081000000001
  0
LINE
  8
_0-0_LAYER001
  6
CONTINUOUS
 62
    2
 10
1446.7183
 20
989.9081000000001
 11
1442.9683
 21
996.40329999999994
  0
LINE
  8
_0-0_LAYER001
  6
CONTINUOUS
 62
    2
 10
1446.7183
 20
989.9081000000001
 11
1419.6217999999999
 21
1091.0335
  0
LINE
  8
_0-0_LAYER001
  6
CONTINUOUS
 62
    2
 10
1690.8128000000002
 20
1135.569
 11
1690.8128000000002
 21
1128.069
  0
LINE
  8
_0-0_LAYER001
  6
CONTINUOUS
 62
    2
 10
1690.8128000000002
 20
1128.069
 11
1687.0628000000002
 21
1134.5642
  0
LINE
  8
_0-0_LAYER001
  6
CONTINUOUS
 62
    2
 10
1690.8128000000002
 20
1128.069
 11
1643.7323999999999
 21
1303.7754999999997
  0
LINE
  8
_0-0_LAYER001
  6
CONTINUOUS
 62
    2
 10
1653.5113000000001
 20
1079.6542999999999
 11
1653.5113000000001
 21
1072.1542999999999
  0
LINE
  8
_0-0_LAYER001
  6
CONTINUOUS
 62
    2
 10
1653.5113000000001
 20
1072.1542999999999
 11
1649.7613000000001
 21
1078.6495
  0
LINE
  8
_0-0_LAYER001
  6
CONTINUOUS
 62
    2
 10
1653.5113000000001
 20
1072.1542999999999
 11
1623.7039
 21
1183.3969
  0
LINE
  8
_0-0_LAYER001
  6
CONTINUOUS
 62
    2
 10
1730.2755999999999
 20
951.91470000000004
 11
1728.3344999999999
 21
959.15910000000008
  0
LINE
  8
_0-0_LAYER001
  6
CONTINUOUS
 62
    2
 10
1728.3344999999999
 20
959.15910000000008
 11
1733.6378
 21
953.85580000000004
  0
LINE
  8
_0-0_LAYER001
  6
CONTINUOUS
 62
    2
 10
1728.3344999999999
 20
959.15910000000008
 11
1855.3611000000001
 21
739.14249999999993
  0
LINE
  8
_0-0_LAYER001
  6
CONTINUOUS
 62
    2
 10
1654.212
 20
774.15740000000005
 11
1654.212
 21
826.65740000000005
  0
CIRCLE
  8
_0-0_LAYER001
  6
CONTINUOUS
 62
    2
 10
1654.212
 20
776.65740000000005
 40
1.6999999999999997
  0
LINE
  8
_0-0_LAYER001
  6
CONTINUOUS
 62
    2
 10
1654.212
 20
776.65740000000005
 11
1774.212
 21
776.65740000000005
  0
CIRCLE
  8
_0-0_LAYER001
  6
CONTINUOUS
 62
    2
 10
1774.212
 20
776.65740000000005
 40
1.6999999999999997
  0
LINE
  8
_0-0_LAYER001
  6
CONTINUOUS
 62
    2
 10
1774.212
 20
774.15740000000005
 11
1774.212
 21
826.65740000000005
  0
LINE
  8
_0-0_LAYER001
  6
CONTINUOUS
 62
    2
 10
1711.0142999999998
 20
1130.4693
 11
1711.0142999999998
 21
1122.9693
  0
LINE
  8
_0-0_LAYER001
  6
CONTINUOUS
 62
    2
 10
1711.0142999999998
 20
1122.9693
 11
1707.2642999999998
 21
1129.4645
  0
LINE
  8
_0-0_LAYER001
  6
CONTINUOUS
 62
    2
 10
1711.0142999999998
 20
1122.9693
 11
1650.1511
 21
1350.1139000000001
  0
LINE
  8
_0-0_LAYER001
  6
CONTINUOUS
 62
    2
 10
1650.1511
 20
1350.1139000000001
 11
1503.1511
 21
1350.1139000000001
  0
LINE
  8
_0-0_LAYER001
  6
CONTINUOUS
 62
    2
 10
1783.8993
 20
1269.5992000000001
 11
1780.1493
 21
1263.104
  0
LINE
  8
_0-0_LAYER001
  6
CONTINUOUS
 62
    2
 10
1780.1493
 20
1263.104
 11
1780.1493
 21
1270.604
  0
LINE
  8
_0-0_LAYER001
  6
CONTINUOUS
 62
    2
 10
1780.1493
 20
1263.104
 11
1806.7383
 21
1362.3353999999999
  0
LINE
  8
_0-0_LAYER001
  6
CONTINUOUS
 62
    2
 10
1963.7311
 20
955.15910000000008
 11
1911.2311
 21
955.15910000000008
  0
CIRCLE
  8
_0-0_LAYER001
  6
CONTINUOUS
 62
    2
 10
1961.2311
 20
955.15910000000008
 40
1.6999999999999997
  0
LINE
  8
_0-0_LAYER001
  6
CONTINUOUS
 62
    2
 10
1961.2311
 20
955.15910000000008
 11
1961.2311
 21
1085.1591000000001
  0
CIRCLE
  8
_0-0_LAYER001
  6
CONTINUOUS
 62
    2
 10
1961.2311
 20
1085.1591000000001
 40
1.6999999999999997
  0
LINE
  8
_0-0_LAYER001
  6
CONTINUOUS
 62
    2
 10
1963.7311
 20
1085.1591000000001
 11
1911.2311
 21
1085.1591000000001
  0
CIRCLE
  8
_0-0_LAYER001
  6
CONTINUOUS
 62
    2
 10
1961.2311
 20
1085.1591000000001
 40
1.6999999999999997
  0
LINE
  8
_0-0_LAYER001
  6
CONTINUOUS
 62
    2
 10
1961.2311
 20
1085.1591000000001
 11
1961.2311
 21
1142.1591000000001
  0
CIRCLE
  8
_0-0_LAYER001
  6
CONTINUOUS
 62
    2
 10
1961.2311
 20
1142.1591000000001
 40
1.6999999999999997
  0
LINE
  8
_0-0_LAYER001
  6
CONTINUOUS
 62
    2
 10
1963.7311
 20
1142.1591000000001
 11
1911.2311
 21
1142.1591000000001
  0
CIRCLE
  8
_0-0_LAYER001
  6
CONTINUOUS
 62
    2
 10
1961.2311
 20
1142.1591000000001
 40
1.6999999999999997
  0
LINE
  8
_0-0_LAYER001
  6
CONTINUOUS
 62
    2
 10
1961.2311
 20
1142.1591000000001
 11
1961.2311
 21
1242.1591000000001
  0
CIRCLE
  8
_0-0_LAYER001
  6
CONTINUOUS
 62
    2
 10
1961.2311
 20
1242.1591000000001
 40
1.6999999999999997
  0
LINE
  8
_0-0_LAYER001
  6
CONTINUOUS
 62
    2
 10
1963.7311
 20
1242.1591000000001
 11
1911.2311
 21
1242.1591000000001
  0
CIRCLE
  8
_0-0_LAYER001
  6
CONTINUOUS
 62
    2
 10
1961.2311
 20
1242.1591000000001
 40
1.6999999999999997
  0
LINE
  8
_0-0_LAYER001
  6
CONTINUOUS
 62
    2
 10
1961.2311
 20
1242.1591000000001
 11
1961.2311
 21
1256.7392
  0
CIRCLE
  8
_0-0_LAYER001
  6
CONTINUOUS
 62
    2
 10
1961.2311
 20
1256.7392
 40
1.6999999999999997
  0
LINE
  8
_0-0_LAYER001
  6
CONTINUOUS
 62
    2
 10
1963.7311
 20
1256.7392
 11
1911.2311
 21
1256.7392
  0
LINE
  8
_0-0_LAYER001
  6
CONTINUOUS
 62
    2
 10
1774.212
 20
1261.5061000000001
 11
1774.212
 21
1346.9009000000001
  0
LINE
  8
_0-0_LAYER001
  6
CONTINUOUS
 62
    2
 10
1741.0821000000001
 20
1042.7016000000001
 11
1739.1408999999999
 21
1049.9459999999999
  0
LINE
  8
_0-0_LAYER001
  6
CONTINUOUS
 62
    2
 10
1739.1408999999999
 20
1049.9459999999999
 11
1744.4441999999999
 21
1044.6427000000001
  0
LINE
  8
_0-0_LAYER001
  6
CONTINUOUS
 62
    2
 10
1739.1408999999999
 20
1049.9459999999999
 11
1886.1051000000002
 21
795.39670000000001
  0
LINE
  8
_0-0_LAYER001
  6
CONTINUOUS
 62
    2
 10
1886.1051000000002
 20
795.39670000000001
 11
1967.2651000000001
 21
795.39670000000001
  0
LINE
  8
_0-0_LAYER001
  6
CONTINUOUS
 62
    2
 10
1843.8598000000002
 20
967.82510000000002
 11
1841.9187000000002
 21
975.06950000000006
  0
LINE
  8
_0-0_LAYER001
  6
CONTINUOUS
 62
    2
 10
1841.9187000000002
 20
975.06950000000006
 11
1847.2220000000002
 21
969.76620000000003
  0
LINE
  8
_0-0_LAYER001
  6
CONTINUOUS
 62
    2
 10
1841.9187000000002
 20
975.06950000000006
 11
1905.9645
 21
864.1389999999999
  0
LINE
  8
_0-0_LAYER001
  6
CONTINUOUS
 62
    2
 10
1905.9645
 20
864.1389999999999
 11
2144.7487000000001
 21
864.1389999999999
  0
LINE
  8
_0-0_LAYER001
  6
CONTINUOUS
 62
    2
 10
1736.7514000000001
 20
1115.7732000000001
 11
1751.2638999999999
 21
1115.7732000000001
  0
LINE
  8
_0-0_LAYER001
  6
CONTINUOUS
 62
    2
 10
1751.2638999999999
 20
1115.7732000000001
 11
1751.2638999999999
 21
1097.3716999999999
  0
LINE
  8
_0-0_LAYER001
  6
CONTINUOUS
 62
    2
 10
1751.2638999999999
 20
1097.3716999999999
 11
1736.7514000000001
 21
1097.3716999999999
  0
LINE
  8
_0-0_LAYER001
  6
CONTINUOUS
 62
    2
 10
1736.7514000000001
 20
1097.3716999999999
 11
1736.7514000000001
 21
1115.7732000000001
  0
LINE
  8
_0-0_LAYER001
  6
CONTINUOUS
 62
    2
 10
1725.4638
 20
1080.1559
 11
1725.4638
 21
1061.2800999999999
  0
LINE
  8
_0-0_LAYER001
  6
CONTINUOUS
 62
    2
 10
1725.4638
 20
1061.2800999999999
 11
1732.6451000000002
 21
1063.1468
  0
LINE
  8
_0-0_LAYER001
  6
CONTINUOUS
 62
    2
 10
1732.6451000000002
 20
1063.1468
 11
1749.9360000000001
 21
1086.9853000000001
  0
LINE
  8
_0-0_LAYER001
  6
CONTINUOUS
 62
    2
 10
1725.4638
 20
1080.1559
 11
1746.1417999999999
 21
1091.1587999999999
  0
LINE
  8
_0-0_LAYER001
  6
CONTINUOUS
 62
    2
 10
1746.1417999999999
 20
1091.1587999999999
 11
1749.9360000000001
 21
1086.9853000000001
  0
LINE
  8
_0-0_LAYER001
  6
CONTINUOUS
 62
    2
 10
1766.5052000000001
 20
1117.8607
 11
1762.7552000000001
 21
1111.3655000000001
  0
LINE
  8
_0-0_LAYER001
  6
CONTINUOUS
 62
    2
 10
1762.7552000000001
 20
1111.3655000000001
 11
1762.7552000000001
 21
1118.8655000000001
  0
LINE
  8
_0-0_LAYER001
  6
CONTINUOUS
 62
    2
 10
1762.7552000000001
 20
1111.3655000000001
 11
1814.6939000000002
 21
1305.2034000000001
  0
LINE
  8
_0-0_LAYER001
  6
CONTINUOUS
 62
    2
 10
1814.6939000000002
 20
1305.2034000000001
 11
1961.6939000000002
 21
1305.2034000000001
  0
LINE
  8
_0-0_LAYER001
  6
CONTINUOUS
 62
    2
 10
1652.2118999999998
 20
976.15910000000008
 11
1652.2118999999998
 21
961.15910000000008
  0
LINE
  8
_0-0_LAYER001
  6
CONTINUOUS
 62
    2
 10
1654.212
 20
959.15910000000008
 11
1770.212
 21
959.15910000000008
  0
LINE
  8
_0-0_LAYER001
  6
DASHED3
 62
    2
 10
825.25119999999993
 20
957.15910000000008
 11
1772.212
 21
957.15910000000008
  0
LINE
  8
_0-0_LAYER001
  6
CONTINUOUS
 62
    2
 10
1774.212
 20
930.15910000000008
 11
825.25119999999993
 21
930.15910000000008
  0
LINE
  8
_0-0_LAYER001
  6
CONTINUOUS
 62
    2
 10
1774.212
 20
980.15910000000008
 11
1774.212
 21
930.15910000000008
  0
LINE
  8
_0-0_LAYER001
  6
CONTINUOUS
 62
    2
 10
1774.212
 20
930.15910000000008
 11
1874.212
 21
930.15910000000008
  0
LINE
  8
_0-0_LAYER001
  6
CONTINUOUS
 62
    2
 10
1764.212
 20
830.15910000000008
 11
825.25119999999993
 21
830.15910000000008
  0
LINE
  8
_0-0_LAYER001
  6
CONTINUOUS
 62
    2
 10
1764.212
 20
930.15910000000008
 11
1764.212
 21
830.15910000000008
  0
LINE
  8
_0-0_LAYER001
  6
DASHED1
 62
    1
 10
1764.212
 20
833.3590999999999
 11
825.25119999999993
 21
833.3590999999999
  0
LINE
  8
_0-0_LAYER001
  6
DASHED1
 62
    1
 10
1764.212
 20
926.95910000000003
 11
825.25119999999993
 21
926.95910000000003
  0
LINE
  8
_0-0_LAYER001
  6
DASHED1
 62
    1
 10
1764.212
 20
910.15910000000008
 11
825.25119999999993
 21
910.15910000000008
  0
LINE
  8
_0-0_LAYER001
  6
DASHED1
 62
    1
 10
1764.212
 20
850.15910000000008
 11
825.25119999999993
 21
850.15910000000008
  0
LINE
  8
_0-0_LAYER001
  6
CONTINUOUS
 62
    2
 10
1874.212
 20
984.52260000000001
 11
1774.212
 21
1084.5224000000001
  0
LINE
  8
_0-0_LAYER001
  6
CONTINUOUS
 62
    2
 10
1874.212
 20
980.2799
 11
1774.212
 21
1080.2799
  0
LINE
  8
_0-0_LAYER001
  6
CONTINUOUS
 62
    2
 10
1874.212
 20
1196.5226
 11
1774.212
 21
1296.5223000000001
  0
LINE
  8
_0-0_LAYER001
  6
CONTINUOUS
 62
    2
 10
1874.212
 20
1192.2799
 11
1774.212
 21
1292.2799
  0
LINE
  8
_0-0_LAYER001
  6
CONTINUOUS
 62
    2
 10
1874.212
 20
1305.2034000000001
 11
1874.212
 21
1056.2628999999999
  0
LINE
  8
_0-0_LAYER001
  6
CONTINUOUS
 62
    2
 10
1874.212
 20
1059.1578999999999
 11
1874.212
 21
930.15910000000008
  0
LINE
  8
_0-0_LAYER001
  6
CONTINUOUS
 62
    2
 10
1654.212
 20
976.90200000000004
 11
1654.212
 21
959.15910000000008
  0
LINE
  8
_0-0_LAYER001
  6
CONTINUOUS
 62
    2
 10
1654.212
 20
976.90200000000004
 11
1639.2118999999998
 21
976.90200000000004
  0
LINE
  8
_0-0_LAYER001
  6
CONTINUOUS
 62
    2
 10
1648.2123000000001
 20
975.90190000000007
 11
1649.8420000000001
 21
976.90190000000007
  0
LINE
  8
_0-0_LAYER001
  6
CONTINUOUS
 62
    2
 10
1643.5819999999999
 20
976.90200000000004
 11
1649.8420000000001
 21
976.90190000000007
  0
LINE
  8
_0-0_LAYER001
  6
CONTINUOUS
 62
    2
 10
1645.2121999999999
 20
975.90210000000002
 11
1643.5819999999999
 21
976.90200000000004
  0
LINE
  8
_0-0_LAYER001
  6
CONTINUOUS
 62
    2
 10
1645.2123000000001
 20
963.57220000000007
 11
1646.7118999999998
 21
956.90190000000007
  0
LINE
  8
_0-0_LAYER001
  6
CONTINUOUS
 62
    2
 10
1645.2121999999999
 20
975.90210000000002
 11
1645.2123000000001
 21
963.57220000000007
  0
LINE
  8
_0-0_LAYER001
  6
CONTINUOUS
 62
    2
 10
1646.7118999999998
 20
956.90190000000007
 11
1648.2123999999999
 21
964.38100000000009
  0
LINE
  8
_0-0_LAYER001
  6
CONTINUOUS
 62
    2
 10
1648.2123000000001
 20
975.90190000000007
 11
1648.2123999999999
 21
964.38100000000009
  0
LINE
  8
_0-0_LAYER001
  6
CONTINUOUS
 62
    2
 10
1771.6120000000001
 20
1240.7059999999999
 11
1768.8325
 21
1225.3558
  0
LINE
  8
_0-0_LAYER001
  6
CONTINUOUS
 62
    2
 10
1789.8119999999999
 20
1240.7059999999999
 11
1789.8119999999999
 21
1261.5061000000001
  0
LINE
  8
_0-0_LAYER001
  6
CONTINUOUS
 62
    2
 10
1787.732
 20
1242.7860000000001
 11
1787.732
 21
1258.3860999999999
  0
LINE
  8
_0-0_LAYER001
  6
CONTINUOUS
 62
    2
 10
1787.732
 20
1242.7860000000001
 11
1776.6370999999999
 21
1253.8809000000001
  0
LINE
  8
_0-0_LAYER001
  6
CONTINUOUS
 62
    2
 10
1783.3195999999998
 20
1242.7860000000001
 11
1776.7431000000001
 21
1249.3625999999999
  0
LINE
  8
_0-0_LAYER001
  6
CONTINUOUS
 62
    2
 10
1778.9072999999999
 20
1242.7860000000001
 11
1776.1107000000002
 21
1245.5826999999999
  0
LINE
  8
_0-0_LAYER001
  6
CONTINUOUS
 62
    2
 10
1776.4459000000002
 20
1247.0999999999999
 11
1787.732
 21
1258.386
  0
LINE
  8
_0-0_LAYER001
  6
CONTINUOUS
 62
    2
 10
1776.799
 20
1251.8653999999999
 11
1786.4396999999999
 21
1261.5061000000001
  0
LINE
  8
_0-0_LAYER001
  6
CONTINUOUS
 62
    2
 10
1776.3101000000001
 20
1255.789
 11
1782.0270999999998
 21
1261.5061000000001
  0
LINE
  8
_0-0_LAYER001
  6
CONTINUOUS
 62
    2
 10
1780.9567000000002
 20
1242.7860000000001
 11
1786.0835999999999
 21
1247.913
  0
LINE
  8
_0-0_LAYER001
  6
CONTINUOUS
 62
    2
 10
1785.3690000000001
 20
1242.7860000000001
 11
1787.4171999999999
 21
1244.8341
  0
LINE
  8
_0-0_LAYER001
  6
CONTINUOUS
 62
    2
 10
1785.8184999999999
 20
1249.1119000000001
 11
1774.9535000000001
 21
1259.9768999999999
  0
LINE
  8
_0-0_LAYER001
  6
CONTINUOUS
 62
    2
 10
1785.8843000000002
 20
1253.4584
 11
1777.8368
 21
1261.5061000000001
  0
LINE
  8
_0-0_LAYER001
  6
CONTINUOUS
 62
    2
 10
1776.5443
 20
1242.7860000000001
 11
1785.6795999999999
 21
1251.9213999999999
  0
LINE
  8
_0-0_LAYER001
  6
CONTINUOUS
 62
    2
 10
1775.2855
 20
1259.1768999999999
 11
1777.6145999999999
 21
1261.5061000000001
  0
LINE
  8
_0-0_LAYER001
  6
CONTINUOUS
 62
    2
 10
1787.0401999999999
 20
1256.7150999999999
 11
1782.2492999999999
 21
1261.5061000000001
  0
LINE
  8
_0-0_LAYER001
  6
CONTINUOUS
 62
    2
 10
1787.732
 20
1260.4357
 11
1786.6615999999999
 21
1261.5061000000001
  0
LINE
  8
_0-0_LAYER001
  6
CONTINUOUS
 62
    2
 10
1787.732
 20
1258.386
 11
1787.732
 21
1261.5061000000001
  0
LINE
  8
_0-0_LAYER001
  6
CONTINUOUS
 62
    2
 10
1772.212
 20
1162.0686000000001
 11
1772.212
 21
1240.0749000000001
  0
LINE
  8
_0-0_LAYER001
  6
CONTINUOUS
 62
    2
 10
1787.732
 20
1242.7860000000001
 11
1769.8119999999999
 21
1242.7860000000001
  0
LINE
  8
_0-0_LAYER001
  6
CONTINUOUS
 62
    2
 10
1769.8119999999999
 20
1210.3391999999999
 11
1769.8119999999999
 21
1242.7860000000001
  0
LINE
  8
_0-0_LAYER001
  6
CONTINUOUS
 62
    2
 10
1770.212
 20
1085.2877000000001
 11
1770.212
 21
959.15910000000008
  0
LINE
  8
_0-0_LAYER001
  6
CONTINUOUS
 62
    2
 10
1770.212
 20
1085.2877000000001
 11
1762.712
 21
1072.2973
  0
LINE
  8
_0-0_LAYER001
  6
DASHED3
 62
    2
 10
1772.212
 20
1155.1591000000001
 11
1772.212
 21
957.15910000000008
  0
LINE
  8
_0-0_LAYER001
  6
CONTINUOUS
 62
    2
 10
1774.212
 20
1224.4684999999999
 11
1774.212
 21
955.15910000000008
  0
LINE
  8
_0-0_LAYER001
  6
CONTINUOUS
 62
    2
 10
1789.8119999999999
 20
1240.7059999999999
 11
1774.212
 21
1240.7059999999999
  0
LINE
  8
_0-0_LAYER001
  6
CONTINUOUS
 62
    2
 10
1789.8119999999999
 20
1261.5061000000001
 11
1774.212
 21
1261.5061000000001
  0
LINE
  8
_0-0_LAYER001
  6
CONTINUOUS
 62
    2
 10
1774.212
 20
1153.9058
 11
1774.212
 21
1240.7059999999999
  0
CIRCLE
  8
_0-0_LAYER001
  6
CONTINUOUS
 62
    2
 10
1742.402
 20
1082.9957999999999
 40
0.8999999999999999
  0
CIRCLE
  8
_0-0_LAYER001
  6
CONTINUOUS
 62
    2
 10
1749.6561000000002
 20
1069.1185
 40
0.8999999999999999
  0
CIRCLE
  8
_0-0_LAYER001
  6
CONTINUOUS
 62
    2
 10
1758.1718000000001
 20
1065.9645
 40
0.8999999999999999
  0
CIRCLE
  8
_0-0_LAYER001
  6
CONTINUOUS
 62
    2
 10
1739.8789000000002
 20
1061.2336
 40
0.8999999999999999
  0
CIRCLE
  8
_0-0_LAYER001
  6
CONTINUOUS
 62
    2
 10
1725.6860999999999
 20
1085.519
 40
0.8999999999999999
  0
CIRCLE
  8
_0-0_LAYER001
  6
CONTINUOUS
 62
    2
 10
1706.4470999999999
 20
1081.4188999999999
 40
0.8999999999999999
  0
ARC
  8
_0-0_LAYER001
  6
CONTINUOUS
 62
    2
 10
1754.7121000000002
 20
1251.106
 40
22.099882999999998
 50
337.88465000000002
 51
28.072639999999978
  0
CIRCLE
  8
_0-0_LAYER001
  6
CONTINUOUS
 62
    2
 10
1762.5533999999998
 20
1074.3658
 40
0.8999999999999999
  0
CIRCLE
  8
_0-0_LAYER001
  6
CONTINUOUS
 62
    2
 10
1752.6947
 20
1053.1877999999999
 40
0.8999999999999999
  0
CIRCLE
  8
_0-0_LAYER001
  6
CONTINUOUS
 62
    2
 10
1736.6284999999998
 20
1073.6355000000001
 40
0.8999999999999999
  0
CIRCLE
  8
_0-0_LAYER001
  6
CONTINUOUS
 62
    2
 10
1730.056
 20
1055.3786
 40
0.8999999999999999
  0
CIRCLE
  8
_0-0_LAYER001
  6
CONTINUOUS
 62
    2
 10
1698.6541000000002
 20
1077.6521
 40
0.8999999999999999
  0
LINE
  8
_0-0_LAYER001
  6
CONTINUOUS
 62
    2
 10
1224.5250000000001
 20
1300.6574000000001
 11
1019.7022999999999
 21
1300.6574000000001
  0
LINE
  8
_0-0_LAYER001
  6
CONTINUOUS
 62
    2
 10
1314.3986999999997
 20
972.74430000000007
 11
1314.3986999999997
 21
965.24430000000007
  0
LINE
  8
_0-0_LAYER001
  6
CONTINUOUS
 62
    2
 10
1314.3986999999997
 20
965.24430000000007
 11
1310.6486999999997
 21
971.73949999999991
  0
LINE
  8
_0-0_LAYER001
  6
CONTINUOUS
 62
    2
 10
1314.3986999999997
 20
965.24430000000007
 11
1224.5250000000001
 21
1300.6574000000001
  0
ARC
  8
_0-0_LAYER001
  6
CONTINUOUS
 62
    2
 10
1469.9425000000001
 20
1061.8838000000001
 40
220.95733000000001
 50
345.12962000000005
 51
358.02644000000004
  0
LINE
  8
_0-0_LAYER001
  6
CONTINUOUS
 62
    2
 10
931.13979999999992
 20
720.16450000000009
 11
931.13979999999992
 21
772.66450000000009
  0
CIRCLE
  8
_0-0_LAYER001
  6
CONTINUOUS
 62
    2
 10
931.13979999999992
 20
722.66450000000009
 40
1.6999999999999997
  0
LINE
  8
_0-0_LAYER001
  6
CONTINUOUS
 62
    2
 10
931.13979999999992
 20
722.66450000000009
 11
1196.1397999999999
 21
722.66450000000009
  0
CIRCLE
  8
_0-0_LAYER001
  6
CONTINUOUS
 62
    2
 10
1196.1397999999999
 20
722.66450000000009
 40
1.6999999999999997
  0
LINE
  8
_0-0_LAYER001
  6
CONTINUOUS
 62
    2
 10
1196.1397999999999
 20
720.16450000000009
 11
1196.1397999999999
 21
772.66450000000009
  0
CIRCLE
  8
_0-0_LAYER001
  6
CONTINUOUS
 62
    2
 10
1196.1397999999999
 20
722.66450000000009
 40
1.6999999999999997
  0
LINE
  8
_0-0_LAYER001
  6
CONTINUOUS
 62
    2
 10
1196.1397999999999
 20
722.66450000000009
 11
1461.1397999999999
 21
722.66450000000009
  0
CIRCLE
  8
_0-0_LAYER001
  6
CONTINUOUS
 62
    2
 10
1461.1397999999999
 20
722.66450000000009
 40
1.6999999999999997
  0
LINE
  8
_0-0_LAYER001
  6
CONTINUOUS
 62
    2
 10
1461.1397999999999
 20
720.16450000000009
 11
1461.1397999999999
 21
772.66450000000009
  0
CIRCLE
  8
_0-0_LAYER001
  6
CONTINUOUS
 62
    2
 10
1461.1397999999999
 20
722.66450000000009
 40
1.6999999999999997
  0
LINE
  8
_0-0_LAYER001
  6
CONTINUOUS
 62
    2
 10
1461.1397999999999
 20
722.66450000000009
 11
1766.1397999999999
 21
722.66450000000009
  0
CIRCLE
  8
_0-0_LAYER001
  6
CONTINUOUS
 62
    2
 10
1766.1397999999999
 20
722.66450000000009
 40
1.6999999999999997
  0
LINE
  8
_0-0_LAYER001
  6
CONTINUOUS
 62
    2
 10
1766.1397999999999
 20
720.16450000000009
 11
1766.1397999999999
 21
772.66450000000009
  0
LINE
  8
_0-0_LAYER001
  6
CONTINUOUS
 62
    4
 10
1726.4241000000002
 20
1016.4864
 11
1726.4241000000002
 21
1033.6838
  0
LINE
  8
_0-0_LAYER001
  6
CONTINUOUS
 62
    4
 10
1586.6975000000002
 20
972.64699999999993
 11
1578.1619999999998
 21
987.18039999999996
  0
LINE
  8
_0-0_LAYER001
  6
CONTINUOUS
 62
    4
 10
1594.8654000000001
 20
971.99669999999992
 11
1603.1716000000001
 21
982.06220000000008
  0
ARC
  8
_0-0_LAYER001
  6
CONTINUOUS
 62
    4
 10
1591.0088999999998
 20
975.17910000000006
 40
5
 50
210.42578
 51
320.47001
  0
LINE
  8
_0-0_LAYER001
  6
CONTINUOUS
 62
    4
 10
1670.8110000000001
 20
971.52690000000007
 11
1663.4856
 21
982.83290000000011
  0
LINE
  8
_0-0_LAYER001
  6
CONTINUOUS
 62
    4
 10
1679.3204999999998
 20
971.71679999999992
 11
1688.2588999999998
 21
986.96250000000009
  0
ARC
  8
_0-0_LAYER001
  6
CONTINUOUS
 62
    4
 10
1675.0072
 20
974.24569999999994
 40
5
 50
212.93986000000001
 51
329.61716000000001
  0
LINE
  8
_0-0_LAYER001
  6
CONTINUOUS
 62
    4
 10
1718.6026000000002
 20
1011.2744
 11
1721.0306999999998
 21
1011.6783
  0
LINE
  8
_0-0_LAYER001
  6
CONTINUOUS
 62
    4
 10
1714.4135000000001
 20
1010.5781999999999
 11
1718.6026000000002
 21
1011.2744
  0
LINE
  8
_0-0_LAYER001
  6
CONTINUOUS
 62
    4
 10
1710.2197000000001
 20
1009.8825999999999
 11
1714.4135000000001
 21
1010.5781999999999
  0
LINE
  8
_0-0_LAYER001
  6
CONTINUOUS
 62
    4
 10
1706.0209
 20
1009.1886999999999
 11
1710.2197000000001
 21
1009.8825999999999
  0
LINE
  8
_0-0_LAYER001
  6
CONTINUOUS
 62
    4
 10
1701.8168999999998
 20
1008.4972
 11
1706.0209
 21
1009.1886999999999
  0
LINE
  8
_0-0_LAYER001
  6
CONTINUOUS
 62
    4
 10
1697.6100000000001
 20
1007.8095000000001
 11
1701.8168999999998
 21
1008.4972
  0
LINE
  8
_0-0_LAYER001
  6
CONTINUOUS
 62
    4
 10
1695.1578
 20
1007.4110000000001
 11
1697.6100000000001
 21
1007.8095000000001
  0
LINE
  8
_0-0_LAYER001
  6
CONTINUOUS
 62
    4
 10
1690.4250000000002
 20
1006.6486
 11
1695.1578
 21
1007.4110000000001
  0
LINE
  8
_0-0_LAYER001
  6
CONTINUOUS
 62
    4
 10
1682.2206000000001
 20
1005.3647000000001
 11
1690.4250000000002
 21
1006.6486
  0
LINE
  8
_0-0_LAYER001
  6
CONTINUOUS
 62
    4
 10
1673.9131000000002
 20
1004.1449
 11
1682.2206000000001
 21
1005.3647000000001
  0
LINE
  8
_0-0_LAYER001
  6
CONTINUOUS
 62
    4
 10
1665.5048000000002
 20
1003.0284999999999
 11
1673.9131000000002
 21
1004.1449
  0
LINE
  8
_0-0_LAYER001
  6
CONTINUOUS
 62
    4
 10
1656.9922000000001
 20
1002.0551
 11
1665.5048000000002
 21
1003.0284999999999
  0
LINE
  8
_0-0_LAYER001
  6
CONTINUOUS
 62
    4
 10
1648.4331000000002
 20
1001.2710999999999
 11
1656.9922000000001
 21
1002.0551
  0
LINE
  8
_0-0_LAYER001
  6
CONTINUOUS
 62
    4
 10
1643.3715999999999
 20
1000.9131
 11
1648.4331000000002
 21
1001.2710999999999
  0
LINE
  8
_0-0_LAYER001
  6
CONTINUOUS
 62
    4
 10
1640.569
 20
1000.7515000000001
 11
1643.3715999999999
 21
1000.9131
  0
LINE
  8
_0-0_LAYER001
  6
CONTINUOUS
 62
    4
 10
1635.8479000000002
 20
1000.5474999999999
 11
1640.569
 21
1000.7515000000001
  0
LINE
  8
_0-0_LAYER001
  6
CONTINUOUS
 62
    4
 10
1631.0187000000001
 20
1000.4421
 11
1635.8479000000002
 21
1000.5474999999999
  0
LINE
  8
_0-0_LAYER001
  6
CONTINUOUS
 62
    4
 10
1626.1170999999999
 20
1000.4575
 11
1631.0187000000001
 21
1000.4421
  0
LINE
  8
_0-0_LAYER001
  6
CONTINUOUS
 62
    4
 10
1621.1460999999999
 20
1000.6152999999999
 11
1626.1170999999999
 21
1000.4575
  0
LINE
  8
_0-0_LAYER001
  6
CONTINUOUS
 62
    4
 10
1616.1887000000002
 20
1000.9331
 11
1621.1460999999999
 21
1000.6152999999999
  0
LINE
  8
_0-0_LAYER001
  6
CONTINUOUS
 62
    4
 10
1613.1370000000002
 20
1001.2145
 11
1616.1887000000002
 21
1000.9331
  0
LINE
  8
_0-0_LAYER001
  6
CONTINUOUS
 62
    4
 10
1609.2082
 20
1001.6768
 11
1613.1370000000002
 21
1001.2145
  0
LINE
  8
_0-0_LAYER001
  6
CONTINUOUS
 62
    4
 10
1602.6941999999999
 20
1002.6993
 11
1609.2082
 21
1001.6768
  0
LINE
  8
_0-0_LAYER001
  6
CONTINUOUS
 62
    4
 10
1596.1475999999998
 20
1004.0514000000001
 11
1602.6941999999999
 21
1002.6993
  0
LINE
  8
_0-0_LAYER001
  6
CONTINUOUS
 62
    4
 10
1589.6846999999998
 20
1005.7073
 11
1596.1475999999998
 21
1004.0514000000001
  0
LINE
  8
_0-0_LAYER001
  6
CONTINUOUS
 62
    4
 10
1583.3186999999998
 20
1007.6579999999999
 11
1589.6846999999998
 21
1005.7073
  0
LINE
  8
_0-0_LAYER001
  6
CONTINUOUS
 62
    4
 10
1577.154
 20
1009.8630000000001
 11
1583.3186999999998
 21
1007.6579999999999
  0
LINE
  8
_0-0_LAYER001
  6
CONTINUOUS
 62
    4
 10
1573.4672999999998
 20
1011.3347000000001
 11
1577.154
 21
1009.8630000000001
  0
LINE
  8
_0-0_LAYER001
  6
CONTINUOUS
 62
    4
 10
1569.1030000000001
 20
1013.2273
 11
1573.4672999999998
 21
1011.3347000000001
  0
LINE
  8
_0-0_LAYER001
  6
CONTINUOUS
 62
    4
 10
1562.0340000000001
 20
1016.6422
 11
1569.1030000000001
 21
1013.2273
  0
LINE
  8
_0-0_LAYER001
  6
CONTINUOUS
 62
    4
 10
1555.1410999999998
 20
1020.3719000000001
 11
1562.0340000000001
 21
1016.6422
  0
LINE
  8
_0-0_LAYER001
  6
CONTINUOUS
 62
    4
 10
1548.5041000000001
 20
1024.3054999999999
 11
1555.1410999999998
 21
1020.3719000000001
  0
LINE
  8
_0-0_LAYER001
  6
CONTINUOUS
 62
    4
 10
1542.0947999999999
 20
1028.3879999999999
 11
1548.5041000000001
 21
1024.3054999999999
  0
LINE
  8
_0-0_LAYER001
  6
CONTINUOUS
 62
    4
 10
1535.9105
 20
1032.5500999999999
 11
1542.0947999999999
 21
1028.3879999999999
  0
LINE
  8
_0-0_LAYER001
  6
CONTINUOUS
 62
    4
 10
1532.3681999999999
 20
1035.0137999999999
 11
1535.9105
 21
1032.5500999999999
  0
LINE
  8
_0-0_LAYER001
  6
CONTINUOUS
 62
    4
 10
1530.1361999999999
 20
1036.5872999999999
 11
1532.3681999999999
 21
1035.0137999999999
  0
LINE
  8
_0-0_LAYER001
  6
CONTINUOUS
 62
    4
 10
1526.5126
 20
1039.1265000000001
 11
1530.1361999999999
 21
1036.5872999999999
  0
LINE
  8
_0-0_LAYER001
  6
CONTINUOUS
 62
    4
 10
1523.143
 20
1041.3920000000001
 11
1526.5126
 21
1039.1265000000001
  0
LINE
  8
_0-0_LAYER001
  6
CONTINUOUS
 62
    4
 10
1520.0279999999998
 20
1043.319
 11
1523.143
 21
1041.3920000000001
  0
LINE
  8
_0-0_LAYER001
  6
CONTINUOUS
 62
    4
 10
1517.1608000000001
 20
1044.8748000000001
 11
1520.0279999999998
 21
1043.319
  0
LINE
  8
_0-0_LAYER001
  6
CONTINUOUS
 62
    4
 10
1514.3296999999998
 20
1046.1432
 11
1517.1608000000001
 21
1044.8748000000001
  0
LINE
  8
_0-0_LAYER001
  6
CONTINUOUS
 62
    4
 10
1512.8665000000001
 20
1046.6754000000001
 11
1514.3296999999998
 21
1046.1432
  0
LINE
  8
_0-0_LAYER001
  6
CONTINUOUS
 62
    4
 10
1512.6853999999998
 20
1046.7333000000001
 11
1512.8665000000001
 21
1046.6754000000001
  0
LINE
  8
_0-0_LAYER001
  6
CONTINUOUS
 62
    4
 10
1511.8971000000001
 20
1046.9612999999999
 11
1512.6853999999998
 21
1046.7333000000001
  0
LINE
  8
_0-0_LAYER001
  6
CONTINUOUS
 62
    4
 10
1511.2399
 20
1047.124
 11
1511.8971000000001
 21
1046.9612999999999
  0
LINE
  8
_0-0_LAYER001
  6
CONTINUOUS
 62
    4
 10
1510.6581000000001
 20
1047.242
 11
1511.2399
 21
1047.124
  0
LINE
  8
_0-0_LAYER001
  6
CONTINUOUS
 62
    4
 10
1510.6181000000001
 20
1047.2482
 11
1510.6581000000001
 21
1047.242
  0
LINE
  8
_0-0_LAYER001
  6
CONTINUOUS
 62
    4
 10
1714.5918999999999
 20
992.08699999999999
 11
1716.2060000000001
 21
992.35539999999992
  0
LINE
  8
_0-0_LAYER001
  6
CONTINUOUS
 62
    4
 10
1710.4032999999999
 20
991.3907999999999
 11
1714.5918999999999
 21
992.08699999999999
  0
LINE
  8
_0-0_LAYER001
  6
CONTINUOUS
 62
    4
 10
1706.2103999999999
 20
990.69540000000006
 11
1710.4032999999999
 21
991.3907999999999
  0
LINE
  8
_0-0_LAYER001
  6
CONTINUOUS
 62
    4
 10
1702.0129999999999
 20
990.00160000000005
 11
1706.2103999999999
 21
990.69540000000006
  0
LINE
  8
_0-0_LAYER001
  6
CONTINUOUS
 62
    4
 10
1697.8107
 20
989.31040000000007
 11
1702.0129999999999
 21
990.00160000000005
  0
LINE
  8
_0-0_LAYER001
  6
CONTINUOUS
 62
    4
 10
1693.6057000000001
 20
988.62310000000002
 11
1697.8107
 21
989.31040000000007
  0
LINE
  8
_0-0_LAYER001
  6
CONTINUOUS
 62
    4
 10
1691.1556999999998
 20
988.22489999999993
 11
1693.6057000000001
 21
988.62310000000002
  0
LINE
  8
_0-0_LAYER001
  6
CONTINUOUS
 62
    4
 10
1686.4286999999999
 20
987.46340000000009
 11
1691.1556999999998
 21
988.22489999999993
  0
LINE
  8
_0-0_LAYER001
  6
CONTINUOUS
 62
    4
 10
1678.2381
 20
986.18170000000009
 11
1686.4286999999999
 21
987.46340000000009
  0
LINE
  8
_0-0_LAYER001
  6
CONTINUOUS
 62
    4
 10
1669.9535999999998
 20
984.96530000000007
 11
1678.2381
 21
986.18170000000009
  0
LINE
  8
_0-0_LAYER001
  6
CONTINUOUS
 62
    4
 10
1661.5770000000002
 20
983.85310000000004
 11
1669.9535999999998
 21
984.96530000000007
  0
LINE
  8
_0-0_LAYER001
  6
CONTINUOUS
 62
    4
 10
1653.1048000000001
 20
982.88429999999994
 11
1661.5770000000002
 21
983.85310000000004
  0
LINE
  8
_0-0_LAYER001
  6
CONTINUOUS
 62
    4
 10
1644.5886999999998
 20
982.10429999999997
 11
1653.1048000000001
 21
982.88429999999994
  0
LINE
  8
_0-0_LAYER001
  6
CONTINUOUS
 62
    4
 10
1639.5608999999999
 20
981.7485999999999
 11
1644.5886999999998
 21
982.10429999999997
  0
LINE
  8
_0-0_LAYER001
  6
CONTINUOUS
 62
    4
 10
1636.7856999999999
 20
981.58860000000004
 11
1639.5608999999999
 21
981.7485999999999
  0
LINE
  8
_0-0_LAYER001
  6
CONTINUOUS
 62
    4
 10
1632.1003999999998
 20
981.38619999999992
 11
1636.7856999999999
 21
981.58860000000004
  0
LINE
  8
_0-0_LAYER001
  6
CONTINUOUS
 62
    4
 10
1627.3173999999999
 20
981.28179999999998
 11
1632.1003999999998
 21
981.38619999999992
  0
LINE
  8
_0-0_LAYER001
  6
CONTINUOUS
 62
    4
 10
1622.4694
 20
981.29700000000003
 11
1627.3173999999999
 21
981.28179999999998
  0
LINE
  8
_0-0_LAYER001
  6
CONTINUOUS
 62
    4
 10
1617.5592000000001
 20
981.4529
 11
1622.4694
 21
981.29700000000003
  0
LINE
  8
_0-0_LAYER001
  6
CONTINUOUS
 62
    4
 10
1612.6619000000001
 20
981.7668000000001
 11
1617.5592000000001
 21
981.4529
  0
LINE
  8
_0-0_LAYER001
  6
CONTINUOUS
 62
    4
 10
1609.6632
 20
982.04340000000002
 11
1612.6619000000001
 21
981.7668000000001
  0
LINE
  8
_0-0_LAYER001
  6
CONTINUOUS
 62
    4
 10
1605.7975999999999
 20
982.49810000000002
 11
1609.6632
 21
982.04340000000002
  0
LINE
  8
_0-0_LAYER001
  6
CONTINUOUS
 62
    4
 10
1599.3692000000001
 20
983.50729999999999
 11
1605.7975999999999
 21
982.49810000000002
  0
LINE
  8
_0-0_LAYER001
  6
CONTINUOUS
 62
    4
 10
1592.9157
 20
984.8402000000001
 11
1599.3692000000001
 21
983.50729999999999
  0
LINE
  8
_0-0_LAYER001
  6
CONTINUOUS
 62
    4
 10
1586.5435000000002
 20
986.47280000000001
 11
1592.9157
 21
984.8402000000001
  0
LINE
  8
_0-0_LAYER001
  6
CONTINUOUS
 62
    4
 10
1580.2662
 20
988.39630000000011
 11
1586.5435000000002
 21
986.47280000000001
  0
LINE
  8
_0-0_LAYER001
  6
CONTINUOUS
 62
    4
 10
1574.1790999999998
 20
990.57349999999997
 11
1580.2662
 21
988.39630000000011
  0
LINE
  8
_0-0_LAYER001
  6
CONTINUOUS
 62
    4
 10
1570.5535
 20
992.02089999999998
 11
1574.1790999999998
 21
990.57349999999997
  0
LINE
  8
_0-0_LAYER001
  6
CONTINUOUS
 62
    4
 10
1566.2536
 20
993.88550000000009
 11
1570.5535
 21
992.02089999999998
  0
LINE
  8
_0-0_LAYER001
  6
CONTINUOUS
 62
    4
 10
1559.2628
 20
997.2627
 11
1566.2536
 21
993.88550000000009
  0
LINE
  8
_0-0_LAYER001
  6
CONTINUOUS
 62
    4
 10
1552.4445999999998
 20
1000.9519
 11
1559.2628
 21
997.2627
  0
LINE
  8
_0-0_LAYER001
  6
CONTINUOUS
 62
    4
 10
1545.8688999999999
 20
1004.8493000000001
 11
1552.4445999999998
 21
1000.9519
  0
LINE
  8
_0-0_LAYER001
  6
CONTINUOUS
 62
    4
 10
1539.5079000000001
 20
1008.9009000000001
 11
1545.8688999999999
 21
1004.8493000000001
  0
LINE
  8
_0-0_LAYER001
  6
CONTINUOUS
 62
    4
 10
1533.3573999999999
 20
1013.0404000000001
 11
1539.5079000000001
 21
1008.9009000000001
  0
LINE
  8
_0-0_LAYER001
  6
CONTINUOUS
 62
    4
 10
1529.8328000000001
 20
1015.4917
 11
1533.3573999999999
 21
1013.0404000000001
  0
LINE
  8
_0-0_LAYER001
  6
CONTINUOUS
 62
    4
 10
1527.6037000000001
 20
1017.0632000000001
 11
1529.8328000000001
 21
1015.4917
  0
LINE
  8
_0-0_LAYER001
  6
CONTINUOUS
 62
    4
 10
1523.962
 20
1019.6151
 11
1527.6037000000001
 21
1017.0632000000001
  0
LINE
  8
_0-0_LAYER001
  6
CONTINUOUS
 62
    4
 10
1520.5448999999999
 20
1021.9124999999999
 11
1523.962
 21
1019.6151
  0
LINE
  8
_0-0_LAYER001
  6
CONTINUOUS
 62
    4
 10
1517.3492000000001
 20
1023.8894
 11
1520.5448999999999
 21
1021.9124999999999
  0
LINE
  8
_0-0_LAYER001
  6
CONTINUOUS
 62
    4
 10
1514.3652999999999
 20
1025.5084999999999
 11
1517.3492000000001
 21
1023.8894
  0
LINE
  8
_0-0_LAYER001
  6
CONTINUOUS
 62
    4
 10
1511.3987000000002
 20
1026.8376000000001
 11
1514.3652999999999
 21
1025.5084999999999
  0
LINE
  8
_0-0_LAYER001
  6
CONTINUOUS
 62
    4
 10
1510.6487999999999
 20
1027.1104
 11
1511.3987000000002
 21
1026.8376000000001
  0
LINE
  8
_0-0_LAYER001
  6
CONTINUOUS
 62
    4
 10
1510.9818
 20
1047.1534999999999
 11
1510.8058000000001
 21
1026.9801
  0
LINE
  8
_0-0_LAYER001
  6
CONTINUOUS
 62
    4
 10
1711.3074000000001
 20
981.66570000000002
 11
1709.0619999999999
 21
990.23919999999998
  0
ARC
  8
_0-0_LAYER001
  6
CONTINUOUS
 62
    4
 10
1714.2096000000001
 20
982.42579999999998
 40
3
 50
194.67639000000003
 51
270.00000000000006
  0
LINE
  8
_0-0_LAYER001
  6
CONTINUOUS
 62
    4
 10
1717.652
 20
979.42149999999992
 11
1714.2341999999999
 21
979.42149999999992
  0
LINE
  8
_0-0_LAYER001
  6
CONTINUOUS
 62
    4
 10
1720.6111999999998
 20
981.92830000000004
 11
1722.5453000000002
 21
993.53250000000003
  0
ARC
  8
_0-0_LAYER001
  6
CONTINUOUS
 62
    4
 10
1717.652
 20
982.42149999999992
 40
3
 50
270
 51
350.53766999999999
  0
LINE
  8
_0-0_LAYER001
  6
CONTINUOUS
 62
    4
 10
1463.8856999999998
 20
1056.5436999999999
 11
1464.6995999999999
 21
1056.8504
  0
LINE
  8
_0-0_LAYER001
  6
CONTINUOUS
 62
    4
 10
1464.6995999999999
 20
1056.8504
 11
1468.2487999999998
 21
1058.1899000000001
  0
LINE
  8
_0-0_LAYER001
  6
CONTINUOUS
 62
    4
 10
1468.2487999999998
 20
1058.1899000000001
 11
1471.8054999999999
 21
1059.5388
  0
LINE
  8
_0-0_LAYER001
  6
CONTINUOUS
 62
    4
 10
1471.8054999999999
 20
1059.5388
 11
1475.3741
 21
1060.9029
  0
LINE
  8
_0-0_LAYER001
  6
CONTINUOUS
 62
    4
 10
1475.3741
 20
1060.9029
 11
1478.9594999999999
 21
1062.2879
  0
LINE
  8
_0-0_LAYER001
  6
CONTINUOUS
 62
    4
 10
1478.9594999999999
 20
1062.2879
 11
1482.5662000000002
 21
1063.6999000000001
  0
LINE
  8
_0-0_LAYER001
  6
CONTINUOUS
 62
    4
 10
1482.5662000000002
 20
1063.6999000000001
 11
1484.6696999999999
 21
1064.5335
  0
LINE
  8
_0-0_LAYER001
  6
CONTINUOUS
 62
    4
 10
1484.6696999999999
 20
1064.5335
 11
1486.7491
 21
1065.3624
  0
LINE
  8
_0-0_LAYER001
  6
CONTINUOUS
 62
    4
 10
1486.7491
 20
1065.3624
 11
1490.3555999999999
 21
1066.7637999999999
  0
LINE
  8
_0-0_LAYER001
  6
CONTINUOUS
 62
    4
 10
1490.3555999999999
 20
1066.7637999999999
 11
1493.9883
 21
1068.0464999999999
  0
LINE
  8
_0-0_LAYER001
  6
CONTINUOUS
 62
    4
 10
1493.9883
 20
1068.0464999999999
 11
1497.6462999999999
 21
1069.1132
  0
LINE
  8
_0-0_LAYER001
  6
CONTINUOUS
 62
    4
 10
1497.6462999999999
 20
1069.1132
 11
1501.3283999999999
 21
1069.8664000000001
  0
LINE
  8
_0-0_LAYER001
  6
CONTINUOUS
 62
    4
 10
1501.3283999999999
 20
1069.8664000000001
 11
1505.0337
 21
1070.2089000000001
  0
LINE
  8
_0-0_LAYER001
  6
CONTINUOUS
 62
    4
 10
1505.0337
 20
1070.2089000000001
 11
1507.1929
 21
1070.181
  0
LINE
  8
_0-0_LAYER001
  6
CONTINUOUS
 62
    4
 10
1507.1929
 20
1070.181
 11
1508.0421000000001
 21
1070.1197
  0
LINE
  8
_0-0_LAYER001
  6
CONTINUOUS
 62
    4
 10
1508.0421000000001
 20
1070.1197
 11
1509.5064000000002
 21
1069.9491
  0
LINE
  8
_0-0_LAYER001
  6
CONTINUOUS
 62
    4
 10
1509.5064000000002
 20
1069.9491
 11
1510.9675000000002
 21
1069.7022999999999
  0
LINE
  8
_0-0_LAYER001
  6
CONTINUOUS
 62
    4
 10
1510.9675000000002
 20
1069.7022999999999
 11
1512.4212000000002
 21
1069.3862999999999
  0
LINE
  8
_0-0_LAYER001
  6
CONTINUOUS
 62
    4
 10
1512.4212000000002
 20
1069.3862999999999
 11
1513.8634000000002
 21
1069.0078000000001
  0
LINE
  8
_0-0_LAYER001
  6
CONTINUOUS
 62
    4
 10
1513.8634000000002
 20
1069.0078000000001
 11
1515.2898
 21
1068.5736999999999
  0
LINE
  8
_0-0_LAYER001
  6
CONTINUOUS
 62
    4
 10
1515.2898
 20
1068.5736999999999
 11
1516.1082999999999
 21
1068.2991
  0
LINE
  8
_0-0_LAYER001
  6
CONTINUOUS
 62
    4
 10
1516.1082999999999
 20
1068.2991
 11
1518.6064999999999
 21
1067.3507999999999
  0
LINE
  8
_0-0_LAYER001
  6
CONTINUOUS
 62
    4
 10
1518.6064999999999
 20
1067.3507999999999
 11
1522.7654000000002
 21
1065.4173000000001
  0
LINE
  8
_0-0_LAYER001
  6
CONTINUOUS
 62
    4
 10
1522.7654000000002
 20
1065.4173000000001
 11
1526.7692000000002
 21
1063.1719000000001
  0
LINE
  8
_0-0_LAYER001
  6
CONTINUOUS
 62
    4
 10
1526.7692000000002
 20
1063.1719000000001
 11
1530.6561000000002
 21
1060.6916000000001
  0
LINE
  8
_0-0_LAYER001
  6
CONTINUOUS
 62
    4
 10
1530.6561000000002
 20
1060.6916000000001
 11
1534.4641000000001
 21
1058.0535
  0
LINE
  8
_0-0_LAYER001
  6
CONTINUOUS
 62
    4
 10
1534.4641000000001
 20
1058.0535
 11
1538.2312999999999
 21
1055.3344
  0
LINE
  8
_0-0_LAYER001
  6
CONTINUOUS
 62
    4
 10
1538.2312999999999
 20
1055.3344
 11
1540.4126999999999
 21
1053.7506000000001
  0
LINE
  8
_0-0_LAYER001
  6
CONTINUOUS
 62
    4
 10
1540.4126999999999
 20
1053.7506000000001
 11
1543.7442000000001
 21
1051.3638000000001
  0
LINE
  8
_0-0_LAYER001
  6
CONTINUOUS
 62
    4
 10
1543.7442000000001
 20
1051.3638000000001
 11
1549.5365000000002
 21
1047.3468
  0
LINE
  8
_0-0_LAYER001
  6
CONTINUOUS
 62
    4
 10
1549.5365000000002
 20
1047.3468
 11
1555.4087
 21
1043.4902
  0
LINE
  8
_0-0_LAYER001
  6
CONTINUOUS
 62
    4
 10
1555.4087
 20
1043.4902
 11
1561.3827999999999
 21
1039.8358000000001
  0
LINE
  8
_0-0_LAYER001
  6
CONTINUOUS
 62
    4
 10
1561.3827999999999
 20
1039.8358000000001
 11
1567.4810000000002
 21
1036.4251999999999
  0
LINE
  8
_0-0_LAYER001
  6
CONTINUOUS
 62
    4
 10
1567.4810000000002
 20
1036.4251999999999
 11
1573.7253000000001
 21
1033.3004000000001
  0
LINE
  8
_0-0_LAYER001
  6
CONTINUOUS
 62
    4
 10
1573.7253000000001
 20
1033.3004000000001
 11
1577.4225999999999
 21
1031.6353999999999
  0
LINE
  8
_0-0_LAYER001
  6
CONTINUOUS
 62
    4
 10
1577.4225999999999
 20
1031.6353999999999
 11
1580.4818
 21
1030.3643
  0
LINE
  8
_0-0_LAYER001
  6
CONTINUOUS
 62
    4
 10
1580.4818
 20
1030.3643
 11
1585.8422999999998
 21
1028.3622
  0
LINE
  8
_0-0_LAYER001
  6
CONTINUOUS
 62
    4
 10
1585.8422999999998
 20
1028.3622
 11
1591.2981
 21
1026.6067
  0
LINE
  8
_0-0_LAYER001
  6
CONTINUOUS
 62
    4
 10
1591.2981
 20
1026.6067
 11
1596.8330000000001
 21
1025.1059
  0
LINE
  8
_0-0_LAYER001
  6
CONTINUOUS
 62
    4
 10
1596.8330000000001
 20
1025.1059
 11
1602.4313000000002
 21
1023.8679
  0
LINE
  8
_0-0_LAYER001
  6
CONTINUOUS
 62
    4
 10
1602.4313000000002
 20
1023.8679
 11
1608.0770000000002
 21
1022.9006999999999
  0
LINE
  8
_0-0_LAYER001
  6
CONTINUOUS
 62
    4
 10
1608.0770000000002
 20
1022.9006999999999
 11
1611.3670000000002
 21
1022.4668999999999
  0
LINE
  8
_0-0_LAYER001
  6
CONTINUOUS
 62
    4
 10
1611.3670000000002
 20
1022.4668999999999
 11
1613.8863000000001
 21
1022.1991
  0
LINE
  8
_0-0_LAYER001
  6
CONTINUOUS
 62
    4
 10
1613.8863000000001
 20
1022.1991
 11
1618.2384000000002
 21
1021.8590999999999
  0
LINE
  8
_0-0_LAYER001
  6
CONTINUOUS
 62
    4
 10
1618.2384000000002
 20
1021.8590999999999
 11
1622.5985999999998
 21
1021.6596
  0
LINE
  8
_0-0_LAYER001
  6
CONTINUOUS
 62
    4
 10
1622.5985999999998
 20
1021.6596
 11
1626.9638
 21
1021.585
  0
LINE
  8
_0-0_LAYER001
  6
CONTINUOUS
 62
    4
 10
1626.9638
 20
1021.585
 11
1631.3308999999999
 21
1021.6193000000001
  0
LINE
  8
_0-0_LAYER001
  6
CONTINUOUS
 62
    4
 10
1631.3308999999999
 20
1021.6193000000001
 11
1635.6968000000002
 21
1021.7469000000001
  0
LINE
  8
_0-0_LAYER001
  6
CONTINUOUS
 62
    4
 10
1635.6968000000002
 20
1021.7469000000001
 11
1638.2273
 21
1021.8574000000001
  0
LINE
  8
_0-0_LAYER001
  6
CONTINUOUS
 62
    4
 10
1638.2273
 20
1021.8574000000001
 11
1642.9564
 21
1022.1256000000001
  0
LINE
  8
_0-0_LAYER001
  6
CONTINUOUS
 62
    4
 10
1642.9564
 20
1022.1256000000001
 11
1651.0945000000002
 21
1022.7565999999999
  0
LINE
  8
_0-0_LAYER001
  6
CONTINUOUS
 62
    4
 10
1651.0945000000002
 20
1022.7565999999999
 11
1659.2152999999998
 21
1023.5705
  0
LINE
  8
_0-0_LAYER001
  6
CONTINUOUS
 62
    4
 10
1659.2152999999998
 20
1023.5705
 11
1667.3211999999999
 21
1024.5317
  0
LINE
  8
_0-0_LAYER001
  6
CONTINUOUS
 62
    4
 10
1667.3211999999999
 20
1024.5317
 11
1675.4146000000001
 21
1025.6049
  0
LINE
  8
_0-0_LAYER001
  6
CONTINUOUS
 62
    4
 10
1675.4146000000001
 20
1025.6049
 11
1683.4982
 21
1026.7545
  0
LINE
  8
_0-0_LAYER001
  6
CONTINUOUS
 62
    4
 10
1683.4982
 20
1026.7545
 11
1688.1831000000002
 21
1027.4422999999999
  0
LINE
  8
_0-0_LAYER001
  6
CONTINUOUS
 62
    4
 10
1688.1831000000002
 20
1027.4422999999999
 11
1690.6179999999999
 21
1027.8031000000001
  0
LINE
  8
_0-0_LAYER001
  6
CONTINUOUS
 62
    4
 10
1690.6179999999999
 20
1027.8031000000001
 11
1694.8148999999999
 21
1028.4291000000001
  0
LINE
  8
_0-0_LAYER001
  6
CONTINUOUS
 62
    4
 10
1694.8148999999999
 20
1028.4291000000001
 11
1699.0106999999998
 21
1029.0591999999999
  0
LINE
  8
_0-0_LAYER001
  6
CONTINUOUS
 62
    4
 10
1699.0106999999998
 20
1029.0591999999999
 11
1703.2055
 21
1029.6925000000001
  0
LINE
  8
_0-0_LAYER001
  6
CONTINUOUS
 62
    4
 10
1703.2055
 20
1029.6925000000001
 11
1707.3996999999999
 21
1030.3280999999999
  0
LINE
  8
_0-0_LAYER001
  6
CONTINUOUS
 62
    4
 10
1707.3996999999999
 20
1030.3280999999999
 11
1711.5934999999999
 21
1030.9650999999999
  0
LINE
  8
_0-0_LAYER001
  6
CONTINUOUS
 62
    4
 10
1711.5934999999999
 20
1030.9650999999999
 11
1714.0257000000001
 21
1031.3348000000001
  0
LINE
  8
_0-0_LAYER001
  6
CONTINUOUS
 62
    4
 10
1468.9888999999998
 20
1039.2311999999999
 11
1471.0508
 21
1040.0081
  0
LINE
  8
_0-0_LAYER001
  6
CONTINUOUS
 62
    4
 10
1471.0508
 20
1040.0081
 11
1474.6183999999998
 21
1041.3545999999999
  0
LINE
  8
_0-0_LAYER001
  6
CONTINUOUS
 62
    4
 10
1474.6183999999998
 20
1041.3545999999999
 11
1478.2103000000002
 21
1042.7168999999999
  0
LINE
  8
_0-0_LAYER001
  6
CONTINUOUS
 62
    4
 10
1478.2103000000002
 20
1042.7168999999999
 11
1481.8307
 21
1044.1007
  0
LINE
  8
_0-0_LAYER001
  6
CONTINUOUS
 62
    4
 10
1481.8307
 20
1044.1007
 11
1485.4836
 21
1045.5118
  0
LINE
  8
_0-0_LAYER001
  6
CONTINUOUS
 62
    4
 10
1485.4836
 20
1045.5118
 11
1489.1628000000001
 21
1046.9521999999999
  0
LINE
  8
_0-0_LAYER001
  6
CONTINUOUS
 62
    4
 10
1489.1628000000001
 20
1046.9521999999999
 11
1491.3180000000002
 21
1047.8063
  0
LINE
  8
_0-0_LAYER001
  6
CONTINUOUS
 62
    4
 10
1491.3180000000002
 20
1047.8063
 11
1493.3416000000002
 21
1048.6129000000001
  0
LINE
  8
_0-0_LAYER001
  6
CONTINUOUS
 62
    4
 10
1493.3416000000002
 20
1048.6129000000001
 11
1496.6134999999999
 21
1049.8842999999999
  0
LINE
  8
_0-0_LAYER001
  6
CONTINUOUS
 62
    4
 10
1496.6134999999999
 20
1049.8842999999999
 11
1499.5086000000001
 21
1050.9066
  0
LINE
  8
_0-0_LAYER001
  6
CONTINUOUS
 62
    4
 10
1499.5086000000001
 20
1050.9066
 11
1501.9767000000002
 21
1051.6262999999999
  0
LINE
  8
_0-0_LAYER001
  6
CONTINUOUS
 62
    4
 10
1501.9767000000002
 20
1051.6262999999999
 11
1503.9684000000002
 21
1052.0337
  0
LINE
  8
_0-0_LAYER001
  6
CONTINUOUS
 62
    4
 10
1503.9684000000002
 20
1052.0337
 11
1505.7478000000001
 21
1052.1982
  0
LINE
  8
_0-0_LAYER001
  6
CONTINUOUS
 62
    4
 10
1505.7478000000001
 20
1052.1982
 11
1506.4272999999998
 21
1052.1894
  0
LINE
  8
_0-0_LAYER001
  6
CONTINUOUS
 62
    4
 10
1506.4272999999998
 20
1052.1894
 11
1506.3512000000001
 21
1052.1949
  0
LINE
  8
_0-0_LAYER001
  6
CONTINUOUS
 62
    4
 10
1506.3512000000001
 20
1052.1949
 11
1506.9648000000002
 21
1052.1233999999999
  0
LINE
  8
_0-0_LAYER001
  6
CONTINUOUS
 62
    4
 10
1506.9648000000002
 20
1052.1233999999999
 11
1507.5551999999998
 21
1052.0237
  0
LINE
  8
_0-0_LAYER001
  6
CONTINUOUS
 62
    4
 10
1507.5551999999998
 20
1052.0237
 11
1508.2226999999998
 21
1051.8786
  0
LINE
  8
_0-0_LAYER001
  6
CONTINUOUS
 62
    4
 10
1508.2226999999998
 20
1051.8786
 11
1508.9562000000001
 21
1051.6860999999999
  0
LINE
  8
_0-0_LAYER001
  6
CONTINUOUS
 62
    4
 10
1508.9562000000001
 20
1051.6860999999999
 11
1509.8054000000002
 21
1051.4277
  0
LINE
  8
_0-0_LAYER001
  6
CONTINUOUS
 62
    4
 10
1509.8054000000002
 20
1051.4277
 11
1510.0495000000001
 21
1051.3458000000001
  0
LINE
  8
_0-0_LAYER001
  6
CONTINUOUS
 62
    4
 10
1510.0495000000001
 20
1051.3458000000001
 11
1511.6093999999998
 21
1050.7537
  0
LINE
  8
_0-0_LAYER001
  6
CONTINUOUS
 62
    4
 10
1511.6093999999998
 20
1050.7537
 11
1514.5571
 21
1049.3833
  0
LINE
  8
_0-0_LAYER001
  6
CONTINUOUS
 62
    4
 10
1514.5571
 20
1049.3833
 11
1517.5182
 21
1047.7227
  0
LINE
  8
_0-0_LAYER001
  6
CONTINUOUS
 62
    4
 10
1517.5182
 20
1047.7227
 11
1520.6858999999999
 21
1045.7012999999999
  0
LINE
  8
_0-0_LAYER001
  6
CONTINUOUS
 62
    4
 10
1520.6858999999999
 20
1045.7012999999999
 11
1524.0706
 21
1043.3563999999999
  0
LINE
  8
_0-0_LAYER001
  6
CONTINUOUS
 62
    4
 10
1524.0706
 20
1043.3563999999999
 11
1527.6763000000001
 21
1040.7538999999999
  0
LINE
  8
_0-0_LAYER001
  6
CONTINUOUS
 62
    4
 10
1527.6763000000001
 20
1040.7538999999999
 11
1529.8833
 21
1039.1514999999999
  0
LINE
  8
_0-0_LAYER001
  6
CONTINUOUS
 62
    4
 10
1529.8833
 20
1039.1514999999999
 11
1533.3732
 21
1036.6512
  0
LINE
  8
_0-0_LAYER001
  6
CONTINUOUS
 62
    4
 10
1533.3732
 20
1036.6512
 11
1539.4654
 21
1032.4262000000001
  0
LINE
  8
_0-0_LAYER001
  6
CONTINUOUS
 62
    4
 10
1539.4654
 20
1032.4262000000001
 11
1545.7692000000002
 21
1028.2862
  0
LINE
  8
_0-0_LAYER001
  6
CONTINUOUS
 62
    4
 10
1545.7692000000002
 20
1028.2862
 11
1552.2899000000002
 21
1024.2973999999999
  0
LINE
  8
_0-0_LAYER001
  6
CONTINUOUS
 62
    4
 10
1552.2899000000002
 20
1024.2973999999999
 11
1559.0558000000001
 21
1020.5134
  0
LINE
  8
_0-0_LAYER001
  6
CONTINUOUS
 62
    4
 10
1559.0558000000001
 20
1020.5134
 11
1565.9989
 21
1017.0389
  0
LINE
  8
_0-0_LAYER001
  6
CONTINUOUS
 62
    4
 10
1565.9989
 20
1017.0389
 11
1570.2723000000001
 21
1015.1143999999999
  0
LINE
  8
_0-0_LAYER001
  6
CONTINUOUS
 62
    4
 10
1570.2723000000001
 20
1015.1143999999999
 11
1573.8773999999999
 21
1013.6165000000001
  0
LINE
  8
_0-0_LAYER001
  6
CONTINUOUS
 62
    4
 10
1573.8773999999999
 20
1013.6165000000001
 11
1579.9335000000001
 21
1011.3545999999999
  0
LINE
  8
_0-0_LAYER001
  6
CONTINUOUS
 62
    4
 10
1579.9335000000001
 20
1011.3545999999999
 11
1586.1833000000001
 21
1009.3435999999999
  0
LINE
  8
_0-0_LAYER001
  6
CONTINUOUS
 62
    4
 10
1586.1833000000001
 20
1009.3435999999999
 11
1592.5320999999999
 21
1007.6221
  0
LINE
  8
_0-0_LAYER001
  6
CONTINUOUS
 62
    4
 10
1592.5320999999999
 20
1007.6221
 11
1598.9663
 21
1006.1993
  0
LINE
  8
_0-0_LAYER001
  6
CONTINUOUS
 62
    4
 10
1598.9663
 20
1006.1993
 11
1605.3800000000001
 21
1005.1005
  0
LINE
  8
_0-0_LAYER001
  6
CONTINUOUS
 62
    4
 10
1605.3800000000001
 20
1005.1005
 11
1609.2388000000001
 21
1004.5917999999999
  0
LINE
  8
_0-0_LAYER001
  6
CONTINUOUS
 62
    4
 10
1609.2388000000001
 20
1004.5917999999999
 11
1612.2334000000001
 21
1004.2734
  0
LINE
  8
_0-0_LAYER001
  6
CONTINUOUS
 62
    4
 10
1612.2334000000001
 20
1004.2734
 11
1617.1257999999998
 21
1003.8911000000001
  0
LINE
  8
_0-0_LAYER001
  6
CONTINUOUS
 62
    4
 10
1617.1257999999998
 20
1003.8911000000001
 11
1622.0333999999998
 21
1003.6667
  0
LINE
  8
_0-0_LAYER001
  6
CONTINUOUS
 62
    4
 10
1622.0333999999998
 20
1003.6667
 11
1626.8807000000002
 21
1003.5838000000001
  0
LINE
  8
_0-0_LAYER001
  6
CONTINUOUS
 62
    4
 10
1626.8807000000002
 20
1003.5838000000001
 11
1631.6646999999998
 21
1003.6214
  0
LINE
  8
_0-0_LAYER001
  6
CONTINUOUS
 62
    4
 10
1631.6646999999998
 20
1003.6214
 11
1636.3523
 21
1003.7583999999999
  0
LINE
  8
_0-0_LAYER001
  6
CONTINUOUS
 62
    4
 10
1636.3523
 20
1003.7583999999999
 11
1639.1295
 21
1003.8796
  0
LINE
  8
_0-0_LAYER001
  6
CONTINUOUS
 62
    4
 10
1639.1295
 20
1003.8796
 11
1644.1617999999999
 21
1004.165
  0
LINE
  8
_0-0_LAYER001
  6
CONTINUOUS
 62
    4
 10
1644.1617999999999
 20
1004.165
 11
1652.6880000000001
 21
1004.8261
  0
LINE
  8
_0-0_LAYER001
  6
CONTINUOUS
 62
    4
 10
1652.6880000000001
 20
1004.8261
 11
1661.1727999999998
 21
1005.6765
  0
LINE
  8
_0-0_LAYER001
  6
CONTINUOUS
 62
    4
 10
1661.1727999999998
 20
1005.6765
 11
1669.5641999999998
 21
1006.6715999999999
  0
LINE
  8
_0-0_LAYER001
  6
CONTINUOUS
 62
    4
 10
1669.5641999999998
 20
1006.6715999999999
 11
1677.8649
 21
1007.7723000000001
  0
LINE
  8
_0-0_LAYER001
  6
CONTINUOUS
 62
    4
 10
1677.8649
 20
1007.7723000000001
 11
1686.0726
 21
1008.9395
  0
LINE
  8
_0-0_LAYER001
  6
CONTINUOUS
 62
    4
 10
1686.0726
 20
1008.9395
 11
1690.8096999999998
 21
1009.6349
  0
LINE
  8
_0-0_LAYER001
  6
CONTINUOUS
 62
    4
 10
1690.8096999999998
 20
1009.6349
 11
1693.2651000000001
 21
1009.9988000000001
  0
LINE
  8
_0-0_LAYER001
  6
CONTINUOUS
 62
    4
 10
1693.2651000000001
 20
1009.9988000000001
 11
1697.4792000000002
 21
1010.6274000000001
  0
LINE
  8
_0-0_LAYER001
  6
CONTINUOUS
 62
    4
 10
1697.4792000000002
 20
1010.6274000000001
 11
1701.6907000000001
 21
1011.2599
  0
LINE
  8
_0-0_LAYER001
  6
CONTINUOUS
 62
    4
 10
1701.6907000000001
 20
1011.2599
 11
1705.8975
 21
1011.8949
  0
LINE
  8
_0-0_LAYER001
  6
CONTINUOUS
 62
    4
 10
1705.8975
 20
1011.8949
 11
1710.0997000000002
 21
1012.5317
  0
LINE
  8
_0-0_LAYER001
  6
CONTINUOUS
 62
    4
 10
1710.0997000000002
 20
1012.5317
 11
1714.2975999999999
 21
1013.1694
  0
LINE
  8
_0-0_LAYER001
  6
CONTINUOUS
 62
    4
 10
1714.2975999999999
 20
1013.1694
 11
1715.9153000000001
 21
1013.4152999999999
  0
LINE
  8
_0-0_LAYER001
  6
CONTINUOUS
 62
    4
 10
1463.46
 20
1056.3814
 11
1463.886
 21
1056.5444
  0
ARC
  8
_0-0_LAYER001
  6
CONTINUOUS
 62
    4
 10
1464.5326
 20
1053.5797
 40
3
 50
110.94902000000002
 51
178.70000000000002
  0
LINE
  8
_0-0_LAYER001
  6
CONTINUOUS
 62
    4
 10
1461.4241000000002
 20
1037.8086000000001
 11
1461.4241000000002
 21
1053.5310999999999
  0
LINE
  8
_0-0_LAYER001
  6
CONTINUOUS
 62
    4
 10
1462.7781
 20
1036.8733999999999
 11
1468.9529000000002
 21
1039.2104999999999
  0
ARC
  8
_0-0_LAYER001
  6
CONTINUOUS
 62
    4
 10
1462.4241000000002
 20
1037.8086000000001
 40
1
 50
180
 51
290.73165999999998
  0
LINE
  8
_0-0_LAYER001
  6
CONTINUOUS
 62
    4
 10
1714.1507000000001
 20
1031.3702000000001
 11
1758.6048999999998
 21
1041.0181
  0
LINE
  8
_0-0_LAYER001
  6
CONTINUOUS
 62
    4
 10
1720.8959
 20
1011.5364999999999
 11
1759.5677000000001
 21
1020.5864999999999
  0
LINE
  8
_0-0_LAYER001
  6
CONTINUOUS
 62
    4
 10
1759.5677000000001
 20
1021.5428999999999
 11
1759.5677000000001
 21
1020.5864999999999
  0
ARC
  8
_0-0_LAYER001
  6
CONTINUOUS
 62
    4
 10
1760.5677000000001
 20
1021.5428999999999
 40
1
 50
102.72435
 51
180
  0
LINE
  8
_0-0_LAYER001
  6
CONTINUOUS
 62
    4
 10
1765.3847000000001
 20
1023.6558
 11
1760.3474000000001
 21
1022.5183999999999
  0
ARC
  8
_0-0_LAYER001
  6
CONTINUOUS
 62
    4
 10
1765.6048999999998
 20
1022.6804
 40
1
 50
0
 51
102.72435
  0
LINE
  8
_0-0_LAYER001
  6
CONTINUOUS
 62
    4
 10
1765.817
 20
1024.1642999999999
 11
1715.6831000000002
 21
1013.2837999999999
  0
ARC
  8
_0-0_LAYER001
  6
CONTINUOUS
 62
    4
 10
1765.6048999999998
 20
1025.1415999999999
 40
1
 50
282.24497000000002
 51
0
  0
LINE
  8
_0-0_LAYER001
  6
CONTINUOUS
 62
    4
 10
1765.8227999999999
 20
1003.4236000000001
 11
1716.2388000000001
 21
992.35570000000007
  0
LINE
  8
_0-0_LAYER001
  6
CONTINUOUS
 62
    4
 10
1766.6048999999998
 20
1004.3996
 11
1766.6048999999998
 21
1022.6804
  0
ARC
  8
_0-0_LAYER001
  6
CONTINUOUS
 62
    4
 10
1765.6048999999998
 20
1004.3996
 40
1
 50
282.58296000000001
 51
0.0000000000000254
  0
LINE
  8
_0-0_LAYER001
  6
CONTINUOUS
 62
    4
 10
1758.6048999999998
 20
1042.4751000000001
 11
1758.6048999999998
 21
1041.0181
  0
ARC
  8
_0-0_LAYER001
  6
CONTINUOUS
 62
    4
 10
1759.6048999999998
 20
1042.4751000000001
 40
1
 50
101.73308
 51
180
  0
LINE
  8
_0-0_LAYER001
  6
CONTINUOUS
 62
    4
 10
1765.4016000000001
 20
1044.7003999999999
 11
1759.4016000000001
 21
1043.4541999999999
  0
LINE
  8
_0-0_LAYER001
  6
CONTINUOUS
 62
    4
 10
1766.6048999999998
 20
1043.7212999999999
 11
1766.6048999999998
 21
1025.1415999999999
  0
ARC
  8
_0-0_LAYER001
  6
CONTINUOUS
 62
    4
 10
1765.6048999999998
 20
1043.7212999999999
 40
1
 50
0
 51
101.73308
  0
LINE
  8
_0-0_LAYER001
  6
CONTINUOUS
 62
    4
 10
1321.8742999999999
 20
972.83140000000003
 11
1313.3389
 21
987.36470000000008
  0
LINE
  8
_0-0_LAYER001
  6
CONTINUOUS
 62
    4
 10
1330.0422000000001
 20
972.18110000000001
 11
1338.3484000000001
 21
982.24659999999994
  0
ARC
  8
_0-0_LAYER001
  6
CONTINUOUS
 62
    4
 10
1326.1858000000002
 20
975.36349999999993
 40
5
 50
210.42578
 51
320.47001
  0
LINE
  8
_0-0_LAYER001
  6
CONTINUOUS
 62
    4
 10
1405.9878000000001
 20
971.71119999999996
 11
1398.6624999999999
 21
983.01729999999998
  0
LINE
  8
_0-0_LAYER001
  6
CONTINUOUS
 62
    4
 10
1414.4974
 20
971.90110000000004
 11
1423.4358
 21
987.14679999999998
  0
ARC
  8
_0-0_LAYER001
  6
CONTINUOUS
 62
    4
 10
1410.1839999999997
 20
974.43000000000006
 40
5
 50
212.93986000000001
 51
329.61716000000001
  0
LINE
  8
_0-0_LAYER001
  6
CONTINUOUS
 62
    4
 10
1453.7793999999999
 20
1011.4588000000001
 11
1456.2075
 21
1011.8626999999999
  0
LINE
  8
_0-0_LAYER001
  6
CONTINUOUS
 62
    4
 10
1449.5904
 20
1010.7625
 11
1453.7793999999999
 21
1011.4588000000001
  0
LINE
  8
_0-0_LAYER001
  6
CONTINUOUS
 62
    4
 10
1445.3966
 20
1010.067
 11
1449.5904
 21
1010.7625
  0
LINE
  8
_0-0_LAYER001
  6
CONTINUOUS
 62
    4
 10
1441.1977999999999
 20
1009.373
 11
1445.3966
 21
1010.067
  0
LINE
  8
_0-0_LAYER001
  6
CONTINUOUS
 62
    4
 10
1436.9937
 20
1008.6814999999999
 11
1441.1977999999999
 21
1009.373
  0
LINE
  8
_0-0_LAYER001
  6
CONTINUOUS
 62
    4
 10
1432.7869000000001
 20
1007.9938999999999
 11
1436.9937
 21
1008.6814999999999
  0
LINE
  8
_0-0_LAYER001
  6
CONTINUOUS
 62
    4
 10
1430.3345999999999
 20
1007.5953999999999
 11
1432.7869000000001
 21
1007.9938999999999
  0
LINE
  8
_0-0_LAYER001
  6
CONTINUOUS
 62
    4
 10
1425.6017999999999
 20
1006.8329000000001
 11
1430.3345999999999
 21
1007.5953999999999
  0
LINE
  8
_0-0_LAYER001
  6
CONTINUOUS
 62
    4
 10
1417.3974000000001
 20
1005.549
 11
1425.6017999999999
 21
1006.8329000000001
  0
LINE
  8
_0-0_LAYER001
  6
CONTINUOUS
 62
    4
 10
1409.0898999999999
 20
1004.3291999999999
 11
1417.3974000000001
 21
1005.549
  0
LINE
  8
_0-0_LAYER001
  6
CONTINUOUS
 62
    4
 10
1400.6817000000001
 20
1003.2128
 11
1409.0898999999999
 21
1004.3291999999999
  0
LINE
  8
_0-0_LAYER001
  6
CONTINUOUS
 62
    4
 10
1392.1691000000001
 20
1002.2393999999999
 11
1400.6817000000001
 21
1003.2128
  0
LINE
  8
_0-0_LAYER001
  6
CONTINUOUS
 62
    4
 10
1383.6098999999999
 20
1001.4554000000001
 11
1392.1691000000001
 21
1002.2393999999999
  0
LINE
  8
_0-0_LAYER001
  6
CONTINUOUS
 62
    4
 10
1378.5483999999999
 20
1001.0974000000001
 11
1383.6098999999999
 21
1001.4554000000001
  0
LINE
  8
_0-0_LAYER001
  6
CONTINUOUS
 62
    4
 10
1375.7457999999999
 20
1000.9358
 11
1378.5483999999999
 21
1001.0974000000001
  0
LINE
  8
_0-0_LAYER001
  6
CONTINUOUS
 62
    4
 10
1371.0247999999999
 20
1000.7319
 11
1375.7457999999999
 21
1000.9358
  0
LINE
  8
_0-0_LAYER001
  6
CONTINUOUS
 62
    4
 10
1366.1956
 20
1000.6264000000001
 11
1371.0247999999999
 21
1000.7319
  0
LINE
  8
_0-0_LAYER001
  6
CONTINUOUS
 62
    4
 10
1361.2940000000001
 20
1000.6418000000001
 11
1366.1956
 21
1000.6264000000001
  0
LINE
  8
_0-0_LAYER001
  6
CONTINUOUS
 62
    4
 10
1356.3228999999999
 20
1000.7997
 11
1361.2940000000001
 21
1000.6418000000001
  0
LINE
  8
_0-0_LAYER001
  6
CONTINUOUS
 62
    4
 10
1351.3654999999999
 20
1001.1174000000001
 11
1356.3228999999999
 21
1000.7997
  0
LINE
  8
_0-0_LAYER001
  6
CONTINUOUS
 62
    4
 10
1348.3139000000001
 20
1001.3988999999999
 11
1351.3654999999999
 21
1001.1174000000001
  0
LINE
  8
_0-0_LAYER001
  6
CONTINUOUS
 62
    4
 10
1344.385
 20
1001.8611000000001
 11
1348.3139000000001
 21
1001.3988999999999
  0
LINE
  8
_0-0_LAYER001
  6
CONTINUOUS
 62
    4
 10
1337.8711000000001
 20
1002.8835999999999
 11
1344.385
 21
1001.8611000000001
  0
LINE
  8
_0-0_LAYER001
  6
CONTINUOUS
 62
    4
 10
1331.3245000000002
 20
1004.2357999999999
 11
1337.8711000000001
 21
1002.8835999999999
  0
LINE
  8
_0-0_LAYER001
  6
CONTINUOUS
 62
    4
 10
1324.8615
 20
1005.8916999999999
 11
1331.3245000000002
 21
1004.2357999999999
  0
LINE
  8
_0-0_LAYER001
  6
CONTINUOUS
 62
    4
 10
1318.4956
 20
1007.8424
 11
1324.8615
 21
1005.8916999999999
  0
LINE
  8
_0-0_LAYER001
  6
CONTINUOUS
 62
    4
 10
1312.3308
 20
1010.0473
 11
1318.4956
 21
1007.8424
  0
LINE
  8
_0-0_LAYER001
  6
CONTINUOUS
 62
    4
 10
1308.6442
 20
1011.5191
 11
1312.3308
 21
1010.0473
  0
LINE
  8
_0-0_LAYER001
  6
CONTINUOUS
 62
    4
 10
1304.2799
 20
1013.4115999999999
 11
1308.6442
 21
1011.5191
  0
LINE
  8
_0-0_LAYER001
  6
CONTINUOUS
 62
    4
 10
1297.2108000000001
 20
1016.8266000000001
 11
1304.2799
 21
1013.4115999999999
  0
LINE
  8
_0-0_LAYER001
  6
CONTINUOUS
 62
    4
 10
1290.3179
 20
1020.5562
 11
1297.2108000000001
 21
1016.8266000000001
  0
LINE
  8
_0-0_LAYER001
  6
CONTINUOUS
 62
    4
 10
1283.6808999999998
 20
1024.4899
 11
1290.3179
 21
1020.5562
  0
LINE
  8
_0-0_LAYER001
  6
CONTINUOUS
 62
    4
 10
1277.2716
 20
1028.5723
 11
1283.6808999999998
 21
1024.4899
  0
LINE
  8
_0-0_LAYER001
  6
CONTINUOUS
 62
    4
 10
1271.0873999999999
 20
1032.7344000000001
 11
1277.2716
 21
1028.5723
  0
LINE
  8
_0-0_LAYER001
  6
CONTINUOUS
 62
    4
 10
1267.5451
 20
1035.1982
 11
1271.0873999999999
 21
1032.7344000000001
  0
LINE
  8
_0-0_LAYER001
  6
CONTINUOUS
 62
    4
 10
1265.3131000000001
 20
1036.7716
 11
1267.5451
 21
1035.1982
  0
LINE
  8
_0-0_LAYER001
  6
CONTINUOUS
 62
    4
 10
1261.6895
 20
1039.3108
 11
1265.3131000000001
 21
1036.7716
  0
LINE
  8
_0-0_LAYER001
  6
CONTINUOUS
 62
    4
 10
1258.3199
 20
1041.5762999999999
 11
1261.6895
 21
1039.3108
  0
LINE
  8
_0-0_LAYER001
  6
CONTINUOUS
 62
    4
 10
1255.2048
 20
1043.5034000000001
 11
1258.3199
 21
1041.5762999999999
  0
LINE
  8
_0-0_LAYER001
  6
CONTINUOUS
 62
    4
 10
1252.3376000000001
 20
1045.0590999999999
 11
1255.2048
 21
1043.5034000000001
  0
LINE
  8
_0-0_LAYER001
  6
CONTINUOUS
 62
    4
 10
1249.5065
 20
1046.3276000000001
 11
1252.3376000000001
 21
1045.0590999999999
  0
LINE
  8
_0-0_LAYER001
  6
CONTINUOUS
 62
    4
 10
1248.0433
 20
1046.8597
 11
1249.5065
 21
1046.3276000000001
  0
LINE
  8
_0-0_LAYER001
  6
CONTINUOUS
 62
    4
 10
1247.8622
 20
1046.9177
 11
1248.0433
 21
1046.8597
  0
LINE
  8
_0-0_LAYER001
  6
CONTINUOUS
 62
    4
 10
1247.0739000000001
 20
1047.1456000000001
 11
1247.8622
 21
1046.9177
  0
LINE
  8
_0-0_LAYER001
  6
CONTINUOUS
 62
    4
 10
1246.4168
 20
1047.3082999999999
 11
1247.0739000000001
 21
1047.1456000000001
  0
LINE
  8
_0-0_LAYER001
  6
CONTINUOUS
 62
    4
 10
1245.835
 20
1047.4263000000001
 11
1246.4168
 21
1047.3082999999999
  0
LINE
  8
_0-0_LAYER001
  6
CONTINUOUS
 62
    4
 10
1245.7949000000001
 20
1047.4324999999999
 11
1245.835
 21
1047.4263000000001
  0
LINE
  8
_0-0_LAYER001
  6
CONTINUOUS
 62
    4
 10
1449.7687999999998
 20
992.27130000000011
 11
1451.3829000000001
 21
992.53980000000001
  0
LINE
  8
_0-0_LAYER001
  6
CONTINUOUS
 62
    4
 10
1445.5801999999999
 20
991.57510000000002
 11
1449.7687999999998
 21
992.27130000000011
  0
LINE
  8
_0-0_LAYER001
  6
CONTINUOUS
 62
    4
 10
1441.3872999999999
 20
990.87969999999996
 11
1445.5801999999999
 21
991.57510000000002
  0
LINE
  8
_0-0_LAYER001
  6
CONTINUOUS
 62
    4
 10
1437.1898000000001
 20
990.18599999999992
 11
1441.3872999999999
 21
990.87969999999996
  0
LINE
  8
_0-0_LAYER001
  6
CONTINUOUS
 62
    4
 10
1432.9875000000002
 20
989.49479999999994
 11
1437.1898000000001
 21
990.18599999999992
  0
LINE
  8
_0-0_LAYER001
  6
CONTINUOUS
 62
    4
 10
1428.7826
 20
988.80739999999992
 11
1432.9875000000002
 21
989.49479999999994
  0
LINE
  8
_0-0_LAYER001
  6
CONTINUOUS
 62
    4
 10
1426.3326000000002
 20
988.40930000000003
 11
1428.7826
 21
988.80739999999992
  0
LINE
  8
_0-0_LAYER001
  6
CONTINUOUS
 62
    4
 10
1421.6056000000001
 20
987.64779999999996
 11
1426.3326000000002
 21
988.40930000000003
  0
LINE
  8
_0-0_LAYER001
  6
CONTINUOUS
 62
    4
 10
1413.415
 20
986.36599999999999
 11
1421.6056000000001
 21
987.64779999999996
  0
LINE
  8
_0-0_LAYER001
  6
CONTINUOUS
 62
    4
 10
1405.1304
 20
985.14959999999996
 11
1413.415
 21
986.36599999999999
  0
LINE
  8
_0-0_LAYER001
  6
CONTINUOUS
 62
    4
 10
1396.7538
 20
984.03739999999993
 11
1405.1304
 21
985.14959999999996
  0
LINE
  8
_0-0_LAYER001
  6
CONTINUOUS
 62
    4
 10
1388.2817
 20
983.06870000000004
 11
1396.7538
 21
984.03739999999993
  0
LINE
  8
_0-0_LAYER001
  6
CONTINUOUS
 62
    4
 10
1379.7656000000002
 20
982.28860000000009
 11
1388.2817
 21
983.06870000000004
  0
LINE
  8
_0-0_LAYER001
  6
CONTINUOUS
 62
    4
 10
1374.7377000000001
 20
981.93299999999999
 11
1379.7656000000002
 21
982.28860000000009
  0
LINE
  8
_0-0_LAYER001
  6
CONTINUOUS
 62
    4
 10
1371.9625000000001
 20
981.77299999999991
 11
1374.7377000000001
 21
981.93299999999999
  0
LINE
  8
_0-0_LAYER001
  6
CONTINUOUS
 62
    4
 10
1367.2772
 20
981.57050000000004
 11
1371.9625000000001
 21
981.77299999999991
  0
LINE
  8
_0-0_LAYER001
  6
CONTINUOUS
 62
    4
 10
1362.4943000000003
 20
981.4661000000001
 11
1367.2772
 21
981.57050000000004
  0
LINE
  8
_0-0_LAYER001
  6
CONTINUOUS
 62
    4
 10
1357.6463000000001
 20
981.48129999999992
 11
1362.4943000000003
 21
981.4661000000001
  0
LINE
  8
_0-0_LAYER001
  6
CONTINUOUS
 62
    4
 10
1352.7361000000001
 20
981.63719999999989
 11
1357.6463000000001
 21
981.48129999999992
  0
LINE
  8
_0-0_LAYER001
  6
CONTINUOUS
 62
    4
 10
1347.8388
 20
981.9511
 11
1352.7361000000001
 21
981.63719999999989
  0
LINE
  8
_0-0_LAYER001
  6
CONTINUOUS
 62
    4
 10
1344.8399999999997
 20
982.22769999999991
 11
1347.8388
 21
981.9511
  0
LINE
  8
_0-0_LAYER001
  6
CONTINUOUS
 62
    4
 10
1340.9745
 20
982.68249999999989
 11
1344.8399999999997
 21
982.22769999999991
  0
LINE
  8
_0-0_LAYER001
  6
CONTINUOUS
 62
    4
 10
1334.5461
 20
983.69160000000011
 11
1340.9745
 21
982.68249999999989
  0
LINE
  8
_0-0_LAYER001
  6
CONTINUOUS
 62
    4
 10
1328.0925999999999
 20
985.02449999999999
 11
1334.5461
 21
983.69160000000011
  0
LINE
  8
_0-0_LAYER001
  6
CONTINUOUS
 62
    4
 10
1321.7203999999997
 20
986.6570999999999
 11
1328.0925999999999
 21
985.02449999999999
  0
LINE
  8
_0-0_LAYER001
  6
CONTINUOUS
 62
    4
 10
1315.4431
 20
988.58069999999998
 11
1321.7203999999997
 21
986.6570999999999
  0
LINE
  8
_0-0_LAYER001
  6
CONTINUOUS
 62
    4
 10
1309.356
 20
990.75780000000009
 11
1315.4431
 21
988.58069999999998
  0
LINE
  8
_0-0_LAYER001
  6
CONTINUOUS
 62
    4
 10
1305.7303999999999
 20
992.20530000000008
 11
1309.356
 21
990.75780000000009
  0
LINE
  8
_0-0_LAYER001
  6
CONTINUOUS
 62
    4
 10
1301.4304999999999
 20
994.06989999999996
 11
1305.7303999999999
 21
992.20530000000008
  0
LINE
  8
_0-0_LAYER001
  6
CONTINUOUS
 62
    4
 10
1294.4396000000002
 20
997.44710000000009
 11
1301.4304999999999
 21
994.06989999999996
  0
LINE
  8
_0-0_LAYER001
  6
CONTINUOUS
 62
    4
 10
1287.6215
 20
1001.1361999999999
 11
1294.4396000000002
 21
997.44710000000009
  0
LINE
  8
_0-0_LAYER001
  6
CONTINUOUS
 62
    4
 10
1281.0456999999999
 20
1005.0336
 11
1287.6215
 21
1001.1361999999999
  0
LINE
  8
_0-0_LAYER001
  6
CONTINUOUS
 62
    4
 10
1274.6848
 20
1009.0852
 11
1281.0456999999999
 21
1005.0336
  0
LINE
  8
_0-0_LAYER001
  6
CONTINUOUS
 62
    4
 10
1268.5342000000001
 20
1013.2247
 11
1274.6848
 21
1009.0852
  0
LINE
  8
_0-0_LAYER001
  6
CONTINUOUS
 62
    4
 10
1265.0097000000001
 20
1015.6760999999999
 11
1268.5342000000001
 21
1013.2247
  0
LINE
  8
_0-0_LAYER001
  6
CONTINUOUS
 62
    4
 10
1262.7805000000001
 20
1017.2474999999999
 11
1265.0097000000001
 21
1015.6760999999999
  0
LINE
  8
_0-0_LAYER001
  6
CONTINUOUS
 62
    4
 10
1259.1387999999999
 20
1019.7994000000001
 11
1262.7805000000001
 21
1017.2474999999999
  0
LINE
  8
_0-0_LAYER001
  6
CONTINUOUS
 62
    4
 10
1255.7217000000001
 20
1022.0968
 11
1259.1387999999999
 21
1019.7994000000001
  0
LINE
  8
_0-0_LAYER001
  6
CONTINUOUS
 62
    4
 10
1252.5261
 20
1024.0737999999999
 11
1255.7217000000001
 21
1022.0968
  0
LINE
  8
_0-0_LAYER001
  6
CONTINUOUS
 62
    4
 10
1249.5420999999999
 20
1025.6928
 11
1252.5261
 21
1024.0737999999999
  0
LINE
  8
_0-0_LAYER001
  6
CONTINUOUS
 62
    4
 10
1246.5755999999999
 20
1027.0219999999999
 11
1249.5420999999999
 21
1025.6928
  0
LINE
  8
_0-0_LAYER001
  6
CONTINUOUS
 62
    4
 10
1245.8255999999999
 20
1027.2946999999999
 11
1246.5755999999999
 21
1027.0219999999999
  0
LINE
  8
_0-0_LAYER001
  6
CONTINUOUS
 62
    4
 10
1246.1587
 20
1047.3379
 11
1245.9826
 21
1027.1643999999999
  0
LINE
  8
_0-0_LAYER001
  6
CONTINUOUS
 62
    4
 10
1446.4843000000001
 20
981.85010000000011
 11
1444.2388999999998
 21
990.4235000000001
  0
ARC
  8
_0-0_LAYER001
  6
CONTINUOUS
 62
    4
 10
1449.3863999999999
 20
982.61020000000008
 40
3
 50
194.67639000000003
 51
270.00000000000006
  0
LINE
  8
_0-0_LAYER001
  6
CONTINUOUS
 62
    4
 10
1452.8289
 20
979.60580000000004
 11
1449.4110999999998
 21
979.60580000000004
  0
LINE
  8
_0-0_LAYER001
  6
CONTINUOUS
 62
    4
 10
1455.7881000000002
 20
982.11259999999993
 11
1457.7221
 21
993.71679999999992
  0
ARC
  8
_0-0_LAYER001
  6
CONTINUOUS
 62
    4
 10
1452.8289
 20
982.60580000000004
 40
3
 50
270
 51
350.53766999999999
  0
LINE
  8
_0-0_LAYER001
  6
CONTINUOUS
 62
    4
 10
1199.0625
 20
1056.7280000000001
 11
1199.8764000000001
 21
1057.0346999999999
  0
LINE
  8
_0-0_LAYER001
  6
CONTINUOUS
 62
    4
 10
1199.8764000000001
 20
1057.0346999999999
 11
1203.4257
 21
1058.3742999999999
  0
LINE
  8
_0-0_LAYER001
  6
CONTINUOUS
 62
    4
 10
1203.4257
 20
1058.3742999999999
 11
1206.9822999999999
 21
1059.7231999999999
  0
LINE
  8
_0-0_LAYER001
  6
CONTINUOUS
 62
    4
 10
1206.9822999999999
 20
1059.7231999999999
 11
1210.5509999999999
 21
1061.0871999999999
  0
LINE
  8
_0-0_LAYER001
  6
CONTINUOUS
 62
    4
 10
1210.5509999999999
 20
1061.0871999999999
 11
1214.1362999999999
 21
1062.4722999999999
  0
LINE
  8
_0-0_LAYER001
  6
CONTINUOUS
 62
    4
 10
1214.1362999999999
 20
1062.4722999999999
 11
1217.7429999999999
 21
1063.8842
  0
LINE
  8
_0-0_LAYER001
  6
CONTINUOUS
 62
    4
 10
1217.7429999999999
 20
1063.8842
 11
1219.8466000000001
 21
1064.7177999999999
  0
LINE
  8
_0-0_LAYER001
  6
CONTINUOUS
 62
    4
 10
1219.8466000000001
 20
1064.7177999999999
 11
1221.9259
 21
1065.5467000000001
  0
LINE
  8
_0-0_LAYER001
  6
CONTINUOUS
 62
    4
 10
1221.9259
 20
1065.5467000000001
 11
1225.5324000000001
 21
1066.9482
  0
LINE
  8
_0-0_LAYER001
  6
CONTINUOUS
 62
    4
 10
1225.5324000000001
 20
1066.9482
 11
1229.1651999999999
 21
1068.2309
  0
LINE
  8
_0-0_LAYER001
  6
CONTINUOUS
 62
    4
 10
1229.1651999999999
 20
1068.2309
 11
1232.8231000000001
 21
1069.2974999999999
  0
LINE
  8
_0-0_LAYER001
  6
CONTINUOUS
 62
    4
 10
1232.8231000000001
 20
1069.2974999999999
 11
1236.5052000000001
 21
1070.0508
  0
LINE
  8
_0-0_LAYER001
  6
CONTINUOUS
 62
    4
 10
1236.5052000000001
 20
1070.0508
 11
1240.2104999999999
 21
1070.3933
  0
LINE
  8
_0-0_LAYER001
  6
CONTINUOUS
 62
    4
 10
1240.2104999999999
 20
1070.3933
 11
1242.3697999999999
 21
1070.3653999999999
  0
LINE
  8
_0-0_LAYER001
  6
CONTINUOUS
 62
    4
 10
1242.3697999999999
 20
1070.3653999999999
 11
1243.2190000000001
 21
1070.3040000000001
  0
LINE
  8
_0-0_LAYER001
  6
CONTINUOUS
 62
    4
 10
1243.2190000000001
 20
1070.3040000000001
 11
1244.6832999999999
 21
1070.1333999999999
  0
LINE
  8
_0-0_LAYER001
  6
CONTINUOUS
 62
    4
 10
1244.6832999999999
 20
1070.1333999999999
 11
1246.1443999999999
 21
1069.8867
  0
LINE
  8
_0-0_LAYER001
  6
CONTINUOUS
 62
    4
 10
1246.1443999999999
 20
1069.8867
 11
1247.5980999999999
 21
1069.5707
  0
LINE
  8
_0-0_LAYER001
  6
CONTINUOUS
 62
    4
 10
1247.5980999999999
 20
1069.5707
 11
1249.0401999999999
 21
1069.1922
  0
LINE
  8
_0-0_LAYER001
  6
CONTINUOUS
 62
    4
 10
1249.0401999999999
 20
1069.1922
 11
1250.4666
 21
1068.758
  0
LINE
  8
_0-0_LAYER001
  6
CONTINUOUS
 62
    4
 10
1250.4666
 20
1068.758
 11
1251.2851000000001
 21
1068.4834000000001
  0
LINE
  8
_0-0_LAYER001
  6
CONTINUOUS
 62
    4
 10
1251.2851000000001
 20
1068.4834000000001
 11
1253.7834
 21
1067.5352
  0
LINE
  8
_0-0_LAYER001
  6
CONTINUOUS
 62
    4
 10
1253.7834
 20
1067.5352
 11
1257.9422999999999
 21
1065.6016
  0
LINE
  8
_0-0_LAYER001
  6
CONTINUOUS
 62
    4
 10
1257.9422999999999
 20
1065.6016
 11
1261.9460999999999
 21
1063.3562999999999
  0
LINE
  8
_0-0_LAYER001
  6
CONTINUOUS
 62
    4
 10
1261.9460999999999
 20
1063.3562999999999
 11
1265.8330000000001
 21
1060.876
  0
LINE
  8
_0-0_LAYER001
  6
CONTINUOUS
 62
    4
 10
1265.8330000000001
 20
1060.876
 11
1269.6410000000001
 21
1058.2378000000001
  0
LINE
  8
_0-0_LAYER001
  6
CONTINUOUS
 62
    4
 10
1269.6410000000001
 20
1058.2378000000001
 11
1273.4082000000001
 21
1055.5188000000001
  0
LINE
  8
_0-0_LAYER001
  6
CONTINUOUS
 62
    4
 10
1273.4082000000001
 20
1055.5188000000001
 11
1275.5896
 21
1053.9349
  0
LINE
  8
_0-0_LAYER001
  6
CONTINUOUS
 62
    4
 10
1275.5896
 20
1053.9349
 11
1278.9211
 21
1051.5481
  0
LINE
  8
_0-0_LAYER001
  6
CONTINUOUS
 62
    4
 10
1278.9211
 20
1051.5481
 11
1284.7132999999999
 21
1047.5311999999999
  0
LINE
  8
_0-0_LAYER001
  6
CONTINUOUS
 62
    4
 10
1284.7132999999999
 20
1047.5311999999999
 11
1290.5854999999999
 21
1043.6746000000001
  0
LINE
  8
_0-0_LAYER001
  6
CONTINUOUS
 62
    4
 10
1290.5854999999999
 20
1043.6746000000001
 11
1296.5597
 21
1040.0201
  0
LINE
  8
_0-0_LAYER001
  6
CONTINUOUS
 62
    4
 10
1296.5597
 20
1040.0201
 11
1302.6578999999997
 21
1036.6096
  0
LINE
  8
_0-0_LAYER001
  6
CONTINUOUS
 62
    4
 10
1302.6578999999997
 20
1036.6096
 11
1308.9021
 21
1033.4847
  0
LINE
  8
_0-0_LAYER001
  6
CONTINUOUS
 62
    4
 10
1308.9021
 20
1033.4847
 11
1312.5994000000001
 21
1031.8198
  0
LINE
  8
_0-0_LAYER001
  6
CONTINUOUS
 62
    4
 10
1312.5994000000001
 20
1031.8198
 11
1315.6587
 21
1030.5486000000001
  0
LINE
  8
_0-0_LAYER001
  6
CONTINUOUS
 62
    4
 10
1315.6587
 20
1030.5486000000001
 11
1321.0192000000002
 21
1028.5464999999999
  0
LINE
  8
_0-0_LAYER001
  6
CONTINUOUS
 62
    4
 10
1321.0192000000002
 20
1028.5464999999999
 11
1326.4749000000002
 21
1026.7909999999999
  0
LINE
  8
_0-0_LAYER001
  6
CONTINUOUS
 62
    4
 10
1326.4749000000002
 20
1026.7909999999999
 11
1332.0099
 21
1025.2901999999999
  0
LINE
  8
_0-0_LAYER001
  6
CONTINUOUS
 62
    4
 10
1332.0099
 20
1025.2901999999999
 11
1337.6081999999999
 21
1024.0522000000001
  0
LINE
  8
_0-0_LAYER001
  6
CONTINUOUS
 62
    4
 10
1337.6081999999999
 20
1024.0522000000001
 11
1343.2538999999999
 21
1023.085
  0
LINE
  8
_0-0_LAYER001
  6
CONTINUOUS
 62
    4
 10
1343.2538999999999
 20
1023.085
 11
1346.5438999999997
 21
1022.6513
  0
LINE
  8
_0-0_LAYER001
  6
CONTINUOUS
 62
    4
 10
1346.5438999999997
 20
1022.6513
 11
1349.0632000000001
 21
1022.3833999999999
  0
LINE
  8
_0-0_LAYER001
  6
CONTINUOUS
 62
    4
 10
1349.0632000000001
 20
1022.3833999999999
 11
1353.4152999999997
 21
1022.0434
  0
LINE
  8
_0-0_LAYER001
  6
CONTINUOUS
 62
    4
 10
1353.4152999999997
 20
1022.0434
 11
1357.7755
 21
1021.8440000000001
  0
LINE
  8
_0-0_LAYER001
  6
CONTINUOUS
 62
    4
 10
1357.7755
 20
1021.8440000000001
 11
1362.1406999999999
 21
1021.7692999999999
  0
LINE
  8
_0-0_LAYER001
  6
CONTINUOUS
 62
    4
 10
1362.1406999999999
 20
1021.7692999999999
 11
1366.5077999999999
 21
1021.8036999999999
  0
LINE
  8
_0-0_LAYER001
  6
CONTINUOUS
 62
    4
 10
1366.5077999999999
 20
1021.8036999999999
 11
1370.8737000000001
 21
1021.9313
  0
LINE
  8
_0-0_LAYER001
  6
CONTINUOUS
 62
    4
 10
1370.8737000000001
 20
1021.9313
 11
1373.4041
 21
1022.0417
  0
LINE
  8
_0-0_LAYER001
  6
CONTINUOUS
 62
    4
 10
1373.4041
 20
1022.0417
 11
1378.1332
 21
1022.3099
  0
LINE
  8
_0-0_LAYER001
  6
CONTINUOUS
 62
    4
 10
1378.1332
 20
1022.3099
 11
1386.2714000000001
 21
1022.9409000000001
  0
LINE
  8
_0-0_LAYER001
  6
CONTINUOUS
 62
    4
 10
1386.2714000000001
 20
1022.9409000000001
 11
1394.3922
 21
1023.7547999999999
  0
LINE
  8
_0-0_LAYER001
  6
CONTINUOUS
 62
    4
 10
1394.3922
 20
1023.7547999999999
 11
1402.498
 21
1024.7161000000001
  0
LINE
  8
_0-0_LAYER001
  6
CONTINUOUS
 62
    4
 10
1402.498
 20
1024.7161000000001
 11
1410.5915
 21
1025.7891999999999
  0
LINE
  8
_0-0_LAYER001
  6
CONTINUOUS
 62
    4
 10
1410.5915
 20
1025.7891999999999
 11
1418.6750000000002
 21
1026.9387999999999
  0
LINE
  8
_0-0_LAYER001
  6
CONTINUOUS
 62
    4
 10
1418.6750000000002
 20
1026.9387999999999
 11
1423.3598999999999
 21
1027.6266000000001
  0
LINE
  8
_0-0_LAYER001
  6
CONTINUOUS
 62
    4
 10
1423.3598999999999
 20
1027.6266000000001
 11
1425.7947999999999
 21
1027.9875
  0
LINE
  8
_0-0_LAYER001
  6
CONTINUOUS
 62
    4
 10
1425.7947999999999
 20
1027.9875
 11
1429.9918
 21
1028.6134999999999
  0
LINE
  8
_0-0_LAYER001
  6
CONTINUOUS
 62
    4
 10
1429.9918
 20
1028.6134999999999
 11
1434.1876000000002
 21
1029.2436
  0
LINE
  8
_0-0_LAYER001
  6
CONTINUOUS
 62
    4
 10
1434.1876000000002
 20
1029.2436
 11
1438.3824
 21
1029.8768
  0
LINE
  8
_0-0_LAYER001
  6
CONTINUOUS
 62
    4
 10
1438.3824
 20
1029.8768
 11
1442.5765999999999
 21
1030.5124000000001
  0
LINE
  8
_0-0_LAYER001
  6
CONTINUOUS
 62
    4
 10
1442.5765999999999
 20
1030.5124000000001
 11
1446.7703000000001
 21
1031.1494
  0
LINE
  8
_0-0_LAYER001
  6
CONTINUOUS
 62
    4
 10
1446.7703000000001
 20
1031.1494
 11
1449.2026000000001
 21
1031.5192
  0
LINE
  8
_0-0_LAYER001
  6
CONTINUOUS
 62
    4
 10
1204.1658
 20
1039.4156
 11
1206.2276999999999
 21
1040.1923999999999
  0
LINE
  8
_0-0_LAYER001
  6
CONTINUOUS
 62
    4
 10
1206.2276999999999
 20
1040.1923999999999
 11
1209.7952
 21
1041.5389
  0
LINE
  8
_0-0_LAYER001
  6
CONTINUOUS
 62
    4
 10
1209.7952
 20
1041.5389
 11
1213.3870999999999
 21
1042.9012
  0
LINE
  8
_0-0_LAYER001
  6
CONTINUOUS
 62
    4
 10
1213.3870999999999
 20
1042.9012
 11
1217.0074999999999
 21
1044.2850000000001
  0
LINE
  8
_0-0_LAYER001
  6
CONTINUOUS
 62
    4
 10
1217.0074999999999
 20
1044.2850000000001
 11
1220.6605
 21
1045.6962000000001
  0
LINE
  8
_0-0_LAYER001
  6
CONTINUOUS
 62
    4
 10
1220.6605
 20
1045.6962000000001
 11
1224.3397
 21
1047.1365000000001
  0
LINE
  8
_0-0_LAYER001
  6
CONTINUOUS
 62
    4
 10
1224.3397
 20
1047.1365000000001
 11
1226.4948999999999
 21
1047.9906000000001
  0
LINE
  8
_0-0_LAYER001
  6
CONTINUOUS
 62
    4
 10
1226.4948999999999
 20
1047.9906000000001
 11
1228.5184999999999
 21
1048.7973
  0
LINE
  8
_0-0_LAYER001
  6
CONTINUOUS
 62
    4
 10
1228.5184999999999
 20
1048.7973
 11
1231.7902999999999
 21
1050.0687
  0
LINE
  8
_0-0_LAYER001
  6
CONTINUOUS
 62
    4
 10
1231.7902999999999
 20
1050.0687
 11
1234.6855
 21
1051.0908999999999
  0
LINE
  8
_0-0_LAYER001
  6
CONTINUOUS
 62
    4
 10
1234.6855
 20
1051.0908999999999
 11
1237.1536000000001
 21
1051.8106
  0
LINE
  8
_0-0_LAYER001
  6
CONTINUOUS
 62
    4
 10
1237.1536000000001
 20
1051.8106
 11
1239.1452999999999
 21
1052.2181
  0
LINE
  8
_0-0_LAYER001
  6
CONTINUOUS
 62
    4
 10
1239.1452999999999
 20
1052.2181
 11
1240.9246000000001
 21
1052.3824999999999
  0
LINE
  8
_0-0_LAYER001
  6
CONTINUOUS
 62
    4
 10
1240.9246000000001
 20
1052.3824999999999
 11
1241.6042
 21
1052.3738000000001
  0
LINE
  8
_0-0_LAYER001
  6
CONTINUOUS
 62
    4
 10
1241.6042
 20
1052.3738000000001
 11
1241.5281
 21
1052.3793000000001
  0
LINE
  8
_0-0_LAYER001
  6
CONTINUOUS
 62
    4
 10
1241.5281
 20
1052.3793000000001
 11
1242.1416999999999
 21
1052.3078
  0
LINE
  8
_0-0_LAYER001
  6
CONTINUOUS
 62
    4
 10
1242.1416999999999
 20
1052.3078
 11
1242.7320999999999
 21
1052.2081000000001
  0
LINE
  8
_0-0_LAYER001
  6
CONTINUOUS
 62
    4
 10
1242.7320999999999
 20
1052.2081000000001
 11
1243.3995
 21
1052.0630000000001
  0
LINE
  8
_0-0_LAYER001
  6
CONTINUOUS
 62
    4
 10
1243.3995
 20
1052.0630000000001
 11
1244.1331
 21
1051.8705
  0
LINE
  8
_0-0_LAYER001
  6
CONTINUOUS
 62
    4
 10
1244.1331
 20
1051.8705
 11
1244.9822999999999
 21
1051.6120000000001
  0
LINE
  8
_0-0_LAYER001
  6
CONTINUOUS
 62
    4
 10
1244.9822999999999
 20
1051.6120000000001
 11
1245.2263
 21
1051.5300999999999
  0
LINE
  8
_0-0_LAYER001
  6
CONTINUOUS
 62
    4
 10
1245.2263
 20
1051.5300999999999
 11
1246.7862
 21
1050.9380000000001
  0
LINE
  8
_0-0_LAYER001
  6
CONTINUOUS
 62
    4
 10
1246.7862
 20
1050.9380000000001
 11
1249.7338999999999
 21
1049.5676000000001
  0
LINE
  8
_0-0_LAYER001
  6
CONTINUOUS
 62
    4
 10
1249.7338999999999
 20
1049.5676000000001
 11
1252.6949999999999
 21
1047.9069999999999
  0
LINE
  8
_0-0_LAYER001
  6
CONTINUOUS
 62
    4
 10
1252.6949999999999
 20
1047.9069999999999
 11
1255.8626999999999
 21
1045.8856000000001
  0
LINE
  8
_0-0_LAYER001
  6
CONTINUOUS
 62
    4
 10
1255.8626999999999
 20
1045.8856000000001
 11
1259.2474
 21
1043.5407
  0
LINE
  8
_0-0_LAYER001
  6
CONTINUOUS
 62
    4
 10
1259.2474
 20
1043.5407
 11
1262.8531
 21
1040.9382000000001
  0
LINE
  8
_0-0_LAYER001
  6
CONTINUOUS
 62
    4
 10
1262.8531
 20
1040.9382000000001
 11
1265.0600999999999
 21
1039.3358000000001
  0
LINE
  8
_0-0_LAYER001
  6
CONTINUOUS
 62
    4
 10
1265.0600999999999
 20
1039.3358000000001
 11
1268.5500999999999
 21
1036.8354999999999
  0
LINE
  8
_0-0_LAYER001
  6
CONTINUOUS
 62
    4
 10
1268.5500999999999
 20
1036.8354999999999
 11
1274.6423
 21
1032.6105
  0
LINE
  8
_0-0_LAYER001
  6
CONTINUOUS
 62
    4
 10
1274.6423
 20
1032.6105
 11
1280.9459999999999
 21
1028.4704999999999
  0
LINE
  8
_0-0_LAYER001
  6
CONTINUOUS
 62
    4
 10
1280.9459999999999
 20
1028.4704999999999
 11
1287.4666999999999
 21
1024.4817
  0
LINE
  8
_0-0_LAYER001
  6
CONTINUOUS
 62
    4
 10
1287.4666999999999
 20
1024.4817
 11
1294.2327
 21
1020.6976999999999
  0
LINE
  8
_0-0_LAYER001
  6
CONTINUOUS
 62
    4
 10
1294.2327
 20
1020.6976999999999
 11
1301.1757
 21
1017.2231999999999
  0
LINE
  8
_0-0_LAYER001
  6
CONTINUOUS
 62
    4
 10
1301.1757
 20
1017.2231999999999
 11
1305.4491000000003
 21
1015.2988
  0
LINE
  8
_0-0_LAYER001
  6
CONTINUOUS
 62
    4
 10
1305.4491000000003
 20
1015.2988
 11
1309.0542
 21
1013.8009
  0
LINE
  8
_0-0_LAYER001
  6
CONTINUOUS
 62
    4
 10
1309.0542
 20
1013.8009
 11
1315.1103000000001
 21
1011.5389
  0
LINE
  8
_0-0_LAYER001
  6
CONTINUOUS
 62
    4
 10
1315.1103000000001
 20
1011.5389
 11
1321.3602000000001
 21
1009.5279
  0
LINE
  8
_0-0_LAYER001
  6
CONTINUOUS
 62
    4
 10
1321.3602000000001
 20
1009.5279
 11
1327.7089000000001
 21
1007.8064999999999
  0
LINE
  8
_0-0_LAYER001
  6
CONTINUOUS
 62
    4
 10
1327.7089000000001
 20
1007.8064999999999
 11
1334.1432
 21
1006.3835999999999
  0
LINE
  8
_0-0_LAYER001
  6
CONTINUOUS
 62
    4
 10
1334.1432
 20
1006.3835999999999
 11
1340.5569
 21
1005.2847999999999
  0
LINE
  8
_0-0_LAYER001
  6
CONTINUOUS
 62
    4
 10
1340.5569
 20
1005.2847999999999
 11
1344.4157
 21
1004.7761
  0
LINE
  8
_0-0_LAYER001
  6
CONTINUOUS
 62
    4
 10
1344.4157
 20
1004.7761
 11
1347.4103
 21
1004.4576999999999
  0
LINE
  8
_0-0_LAYER001
  6
CONTINUOUS
 62
    4
 10
1347.4103
 20
1004.4576999999999
 11
1352.3027
 21
1004.0754999999999
  0
LINE
  8
_0-0_LAYER001
  6
CONTINUOUS
 62
    4
 10
1352.3027
 20
1004.0754999999999
 11
1357.2102
 21
1003.8510000000001
  0
LINE
  8
_0-0_LAYER001
  6
CONTINUOUS
 62
    4
 10
1357.2102
 20
1003.8510000000001
 11
1362.0576000000001
 21
1003.7681
  0
LINE
  8
_0-0_LAYER001
  6
CONTINUOUS
 62
    4
 10
1362.0576000000001
 20
1003.7681
 11
1366.8415
 21
1003.8058000000001
  0
LINE
  8
_0-0_LAYER001
  6
CONTINUOUS
 62
    4
 10
1366.8415
 20
1003.8058000000001
 11
1371.5291999999999
 21
1003.9427000000001
  0
LINE
  8
_0-0_LAYER001
  6
CONTINUOUS
 62
    4
 10
1371.5291999999999
 20
1003.9427000000001
 11
1374.3063000000002
 21
1004.0640000000001
  0
LINE
  8
_0-0_LAYER001
  6
CONTINUOUS
 62
    4
 10
1374.3063000000002
 20
1004.0640000000001
 11
1379.3387000000002
 21
1004.3494000000001
  0
LINE
  8
_0-0_LAYER001
  6
CONTINUOUS
 62
    4
 10
1379.3387000000002
 20
1004.3494000000001
 11
1387.8648000000001
 21
1005.0105000000001
  0
LINE
  8
_0-0_LAYER001
  6
CONTINUOUS
 62
    4
 10
1387.8648000000001
 20
1005.0105000000001
 11
1396.3497000000002
 21
1005.8607999999999
  0
LINE
  8
_0-0_LAYER001
  6
CONTINUOUS
 62
    4
 10
1396.3497000000002
 20
1005.8607999999999
 11
1404.741
 21
1006.8559
  0
LINE
  8
_0-0_LAYER001
  6
CONTINUOUS
 62
    4
 10
1404.741
 20
1006.8559
 11
1413.0417
 21
1007.9566
  0
LINE
  8
_0-0_LAYER001
  6
CONTINUOUS
 62
    4
 10
1413.0417
 20
1007.9566
 11
1421.2494999999999
 21
1009.1238000000001
  0
LINE
  8
_0-0_LAYER001
  6
CONTINUOUS
 62
    4
 10
1421.2494999999999
 20
1009.1238000000001
 11
1425.9866
 21
1009.8193000000001
  0
LINE
  8
_0-0_LAYER001
  6
CONTINUOUS
 62
    4
 10
1425.9866
 20
1009.8193000000001
 11
1428.4419
 21
1010.1831999999999
  0
LINE
  8
_0-0_LAYER001
  6
CONTINUOUS
 62
    4
 10
1428.4419
 20
1010.1831999999999
 11
1432.6561000000002
 21
1010.8117
  0
LINE
  8
_0-0_LAYER001
  6
CONTINUOUS
 62
    4
 10
1432.6561000000002
 20
1010.8117
 11
1436.8676
 21
1011.4441999999999
  0
LINE
  8
_0-0_LAYER001
  6
CONTINUOUS
 62
    4
 10
1436.8676
 20
1011.4441999999999
 11
1441.0743000000002
 21
1012.0793000000001
  0
LINE
  8
_0-0_LAYER001
  6
CONTINUOUS
 62
    4
 10
1441.0743000000002
 20
1012.0793000000001
 11
1445.2766000000001
 21
1012.7161000000001
  0
LINE
  8
_0-0_LAYER001
  6
CONTINUOUS
 62
    4
 10
1445.2766000000001
 20
1012.7161000000001
 11
1449.4744999999998
 21
1013.3536999999999
  0
LINE
  8
_0-0_LAYER001
  6
CONTINUOUS
 62
    4
 10
1449.4744999999998
 20
1013.3536999999999
 11
1451.0922
 21
1013.5996
  0
LINE
  8
_0-0_LAYER001
  6
CONTINUOUS
 62
    4
 10
1198.6369
 20
1056.5657000000001
 11
1199.0628999999999
 21
1056.7288000000001
  0
ARC
  8
_0-0_LAYER001
  6
CONTINUOUS
 62
    4
 10
1199.7094999999999
 20
1053.7639999999999
 40
3
 50
110.94902000000002
 51
178.70000000000002
  0
LINE
  8
_0-0_LAYER001
  6
CONTINUOUS
 62
    4
 10
1196.6010000000001
 20
1037.9929999999999
 11
1196.6010000000001
 21
1053.7155
  0
LINE
  8
_0-0_LAYER001
  6
CONTINUOUS
 62
    4
 10
1197.9549
 20
1037.0577000000001
 11
1204.1297999999999
 21
1039.3949
  0
ARC
  8
_0-0_LAYER001
  6
CONTINUOUS
 62
    4
 10
1197.6010000000001
 20
1037.9929999999999
 40
1
 50
180
 51
290.73165999999998
  0
LINE
  8
_0-0_LAYER001
  6
CONTINUOUS
 62
    4
 10
1461.6010000000001
 20
1016.6706999999999
 11
1461.6010000000001
 21
1033.8680999999999
  0
LINE
  8
_0-0_LAYER001
  6
CONTINUOUS
 62
    4
 10
1449.3274999999999
 20
1031.5545999999999
 11
1493.7818000000002
 21
1041.2023999999999
  0
LINE
  8
_0-0_LAYER001
  6
CONTINUOUS
 62
    4
 10
1456.0727000000002
 20
1011.7208000000001
 11
1494.7444999999998
 21
1020.7708
  0
LINE
  8
_0-0_LAYER001
  6
CONTINUOUS
 62
    4
 10
1494.7444999999998
 20
1021.7273
 11
1494.7444999999998
 21
1020.7708
  0
ARC
  8
_0-0_LAYER001
  6
CONTINUOUS
 62
    4
 10
1495.7444999999998
 20
1021.7273
 40
1
 50
102.72435
 51
180
  0
LINE
  8
_0-0_LAYER001
  6
CONTINUOUS
 62
    4
 10
1500.5614999999998
 20
1023.8402000000001
 11
1495.5243
 21
1022.7027
  0
ARC
  8
_0-0_LAYER001
  6
CONTINUOUS
 62
    4
 10
1500.7818000000002
 20
1022.8647000000001
 40
1
 50
0
 51
102.72435
  0
LINE
  8
_0-0_LAYER001
  6
CONTINUOUS
 62
    4
 10
1500.9938999999999
 20
1024.3486
 11
1450.8598999999999
 21
1013.4681
  0
ARC
  8
_0-0_LAYER001
  6
CONTINUOUS
 62
    4
 10
1500.7818000000002
 20
1025.3259
 40
1
 50
282.24497000000002
 51
0
  0
LINE
  8
_0-0_LAYER001
  6
CONTINUOUS
 62
    4
 10
1500.9996999999998
 20
1003.6079
 11
1451.4157
 21
992.54009999999994
  0
LINE
  8
_0-0_LAYER001
  6
CONTINUOUS
 62
    4
 10
1501.7818000000002
 20
1004.5839000000001
 11
1501.7818000000002
 21
1022.8647000000001
  0
ARC
  8
_0-0_LAYER001
  6
CONTINUOUS
 62
    4
 10
1500.7818000000002
 20
1004.5839000000001
 40
1
 50
282.58296000000001
 51
0.0000000000000254
  0
LINE
  8
_0-0_LAYER001
  6
CONTINUOUS
 62
    4
 10
1493.7818000000002
 20
1042.6595
 11
1493.7818000000002
 21
1041.2023999999999
  0
ARC
  8
_0-0_LAYER001
  6
CONTINUOUS
 62
    4
 10
1494.7818000000002
 20
1042.6595
 40
1
 50
101.73308
 51
180
  0
LINE
  8
_0-0_LAYER001
  6
CONTINUOUS
 62
    4
 10
1500.5785000000001
 20
1044.8847000000001
 11
1494.5785000000001
 21
1043.6386
  0
LINE
  8
_0-0_LAYER001
  6
CONTINUOUS
 62
    4
 10
1501.7818000000002
 20
1043.9056
 11
1501.7818000000002
 21
1025.3259
  0
ARC
  8
_0-0_LAYER001
  6
CONTINUOUS
 62
    4
 10
1500.7818000000002
 20
1043.9056
 40
1
 50
0
 51
101.73308
  0
LINE
  8
_0-0_LAYER001
  6
DASHED1
 62
    2
 10
1300.9926999999998
 20
1016.4238
 11
1316.9927000000002
 21
1016.4238
  0
LINE
  8
_0-0_LAYER001
  6
DASHED1
 62
    2
 10
1316.9927000000002
 20
1016.4238
 11
1316.9927000000002
 21
1013.4238
  0
LINE
  8
_0-0_LAYER001
  6
DASHED1
 62
    2
 10
1300.9926999999998
 20
1016.4238
 11
1300.9926999999998
 21
1013.4238
  0
LINE
  8
_0-0_LAYER001
  6
DASHED1
 62
    2
 10
1300.9926999999998
 20
1013.4238
 11
1316.9927000000002
 21
1013.4238
  0
LINE
  8
_0-0_LAYER001
  6
DASHED1
 62
    2
 10
1311.9927000000002
 20
958.52780000000007
 11
1308.9425000000001
 21
944.01880000000006
  0
LINE
  8
_0-0_LAYER001
  6
DASHED1
 62
    2
 10
1311.9927000000002
 20
1013.4238
 11
1311.9927000000002
 21
958.52780000000007
  0
LINE
  8
_0-0_LAYER001
  6
DASHED1
 62
    2
 10
1308.9425000000001
 20
944.01880000000006
 11
1305.9926999999998
 21
958.27629999999999
  0
LINE
  8
_0-0_LAYER001
  6
DASHED1
 62
    2
 10
1305.9926999999998
 20
1013.4238
 11
1305.9926999999998
 21
958.27629999999999
  0
LINE
  8
_0-0_LAYER001
  6
DASHED1
 62
    2
 10
1565.9989
 20
1013.6926000000001
 11
1581.9989
 21
1013.6926000000001
  0
LINE
  8
_0-0_LAYER001
  6
DASHED1
 62
    2
 10
1581.9989
 20
1013.6926000000001
 11
1581.9989
 21
1010.6926000000001
  0
LINE
  8
_0-0_LAYER001
  6
DASHED1
 62
    2
 10
1565.9989
 20
1013.6926000000001
 11
1565.9989
 21
1010.6926000000001
  0
LINE
  8
_0-0_LAYER001
  6
DASHED1
 62
    2
 10
1565.9989
 20
1010.6926000000001
 11
1581.9989
 21
1010.6926000000001
  0
LINE
  8
_0-0_LAYER001
  6
DASHED1
 62
    2
 10
1576.9989
 20
955.79649999999992
 11
1573.9486999999999
 21
941.28760000000011
  0
LINE
  8
_0-0_LAYER001
  6
DASHED1
 62
    2
 10
1576.9989
 20
1010.6926000000001
 11
1576.9989
 21
955.79649999999992
  0
LINE
  8
_0-0_LAYER001
  6
DASHED1
 62
    2
 10
1573.9486999999999
 20
941.28760000000011
 11
1570.9989
 21
955.54510000000005
  0
LINE
  8
_0-0_LAYER001
  6
DASHED1
 62
    2
 10
1570.9989
 20
1010.6926000000001
 11
1570.9989
 21
955.54510000000005
  0
LINE
  8
_0-0_LAYER001
  6
CONTINUOUS
 62
    4
 10
1196.4241
 20
1013.8036999999999
 11
1196.4241
 21
1031.001
  0
LINE
  8
_0-0_LAYER001
  6
CONTINUOUS
 62
    4
 10
1056.6975
 20
969.96430000000009
 11
1048.162
 21
984.49759999999992
  0
LINE
  8
_0-0_LAYER001
  6
CONTINUOUS
 62
    4
 10
1064.8653999999999
 20
969.31400000000008
 11
1073.1715999999999
 21
979.37950000000001
  0
ARC
  8
_0-0_LAYER001
  6
CONTINUOUS
 62
    4
 10
1061.0089
 20
972.49639999999999
 40
5
 50
210.42578
 51
320.47001
  0
LINE
  8
_0-0_LAYER001
  6
CONTINUOUS
 62
    4
 10
1140.8109999999999
 20
968.84410000000003
 11
1133.4856
 21
980.15020000000004
  0
LINE
  8
_0-0_LAYER001
  6
CONTINUOUS
 62
    4
 10
1149.3205
 20
969.03410000000008
 11
1158.2589
 21
984.27970000000005
  0
ARC
  8
_0-0_LAYER001
  6
CONTINUOUS
 62
    4
 10
1145.0072
 20
971.5628999999999
 40
5
 50
212.93986000000001
 51
329.61716000000001
  0
LINE
  8
_0-0_LAYER001
  6
CONTINUOUS
 62
    4
 10
1188.6025999999999
 20
1008.5916999999999
 11
1191.0307
 21
1008.9956
  0
LINE
  8
_0-0_LAYER001
  6
CONTINUOUS
 62
    4
 10
1184.4135000000001
 20
1007.8954000000001
 11
1188.6025999999999
 21
1008.5916999999999
  0
LINE
  8
_0-0_LAYER001
  6
CONTINUOUS
 62
    4
 10
1180.2197000000001
 20
1007.1999000000001
 11
1184.4135000000001
 21
1007.8954000000001
  0
LINE
  8
_0-0_LAYER001
  6
CONTINUOUS
 62
    4
 10
1176.0209
 20
1006.5059000000001
 11
1180.2197000000001
 21
1007.1999000000001
  0
LINE
  8
_0-0_LAYER001
  6
CONTINUOUS
 62
    4
 10
1171.8169
 20
1005.8144
 11
1176.0209
 21
1006.5059000000001
  0
LINE
  8
_0-0_LAYER001
  6
CONTINUOUS
 62
    4
 10
1167.6099999999999
 20
1005.1268
 11
1171.8169
 21
1005.8144
  0
LINE
  8
_0-0_LAYER001
  6
CONTINUOUS
 62
    4
 10
1165.1578
 20
1004.7283
 11
1167.6099999999999
 21
1005.1268
  0
LINE
  8
_0-0_LAYER001
  6
CONTINUOUS
 62
    4
 10
1160.425
 20
1003.9657999999999
 11
1165.1578
 21
1004.7283
  0
LINE
  8
_0-0_LAYER001
  6
CONTINUOUS
 62
    4
 10
1152.2206000000001
 20
1002.6819
 11
1160.425
 21
1003.9657999999999
  0
LINE
  8
_0-0_LAYER001
  6
CONTINUOUS
 62
    4
 10
1143.9131
 20
1001.4621
 11
1152.2206000000001
 21
1002.6819
  0
LINE
  8
_0-0_LAYER001
  6
CONTINUOUS
 62
    4
 10
1135.5047999999999
 20
1000.3457000000001
 11
1143.9131
 21
1001.4621
  0
LINE
  8
_0-0_LAYER001
  6
CONTINUOUS
 62
    4
 10
1126.9921999999999
 20
999.37239999999997
 11
1135.5047999999999
 21
1000.3457000000001
  0
LINE
  8
_0-0_LAYER001
  6
CONTINUOUS
 62
    4
 10
1118.4331
 20
998.58840000000009
 11
1126.9921999999999
 21
999.37239999999997
  0
LINE
  8
_0-0_LAYER001
  6
CONTINUOUS
 62
    4
 10
1113.3715999999999
 20
998.23039999999992
 11
1118.4331
 21
998.58840000000009
  0
LINE
  8
_0-0_LAYER001
  6
CONTINUOUS
 62
    4
 10
1110.569
 20
998.06880000000001
 11
1113.3715999999999
 21
998.23039999999992
  0
LINE
  8
_0-0_LAYER001
  6
CONTINUOUS
 62
    4
 10
1105.8479
 20
997.86480000000006
 11
1110.569
 21
998.06880000000001
  0
LINE
  8
_0-0_LAYER001
  6
CONTINUOUS
 62
    4
 10
1101.0187000000001
 20
997.75939999999991
 11
1105.8479
 21
997.86480000000006
  0
LINE
  8
_0-0_LAYER001
  6
CONTINUOUS
 62
    4
 10
1096.1170999999999
 20
997.77469999999994
 11
1101.0187000000001
 21
997.75939999999991
  0
LINE
  8
_0-0_LAYER001
  6
CONTINUOUS
 62
    4
 10
1091.1460999999999
 20
997.93260000000009
 11
1096.1170999999999
 21
997.77469999999994
  0
LINE
  8
_0-0_LAYER001
  6
CONTINUOUS
 62
    4
 10
1086.1886999999999
 20
998.25029999999992
 11
1091.1460999999999
 21
997.93260000000009
  0
LINE
  8
_0-0_LAYER001
  6
CONTINUOUS
 62
    4
 10
1083.1369999999999
 20
998.53179999999998
 11
1086.1886999999999
 21
998.25029999999992
  0
LINE
  8
_0-0_LAYER001
  6
CONTINUOUS
 62
    4
 10
1079.2082
 20
998.99399999999991
 11
1083.1369999999999
 21
998.53179999999998
  0
LINE
  8
_0-0_LAYER001
  6
CONTINUOUS
 62
    4
 10
1072.6941999999999
 20
1000.0165999999999
 11
1079.2082
 21
998.99399999999991
  0
LINE
  8
_0-0_LAYER001
  6
CONTINUOUS
 62
    4
 10
1066.1476
 20
1001.3687
 11
1072.6941999999999
 21
1000.0165999999999
  0
LINE
  8
_0-0_LAYER001
  6
CONTINUOUS
 62
    4
 10
1059.6847
 20
1003.0246
 11
1066.1476
 21
1001.3687
  0
LINE
  8
_0-0_LAYER001
  6
CONTINUOUS
 62
    4
 10
1053.3187
 20
1004.9753000000001
 11
1059.6847
 21
1003.0246
  0
LINE
  8
_0-0_LAYER001
  6
CONTINUOUS
 62
    4
 10
1047.154
 20
1007.1802
 11
1053.3187
 21
1004.9753000000001
  0
LINE
  8
_0-0_LAYER001
  6
CONTINUOUS
 62
    4
 10
1043.4673
 20
1008.652
 11
1047.154
 21
1007.1802
  0
LINE
  8
_0-0_LAYER001
  6
CONTINUOUS
 62
    4
 10
1039.1030000000001
 20
1010.5445
 11
1043.4673
 21
1008.652
  0
LINE
  8
_0-0_LAYER001
  6
CONTINUOUS
 62
    4
 10
1032.0340000000001
 20
1013.9594999999999
 11
1039.1030000000001
 21
1010.5445
  0
LINE
  8
_0-0_LAYER001
  6
CONTINUOUS
 62
    4
 10
1025.1411000000001
 20
1017.6891000000001
 11
1032.0340000000001
 21
1013.9594999999999
  0
LINE
  8
_0-0_LAYER001
  6
CONTINUOUS
 62
    4
 10
1018.5041000000001
 20
1021.6228000000001
 11
1025.1411000000001
 21
1017.6891000000001
  0
LINE
  8
_0-0_LAYER001
  6
CONTINUOUS
 62
    4
 10
1012.0948000000001
 20
1025.7052000000001
 11
1018.5041000000001
 21
1021.6228000000001
  0
LINE
  8
_0-0_LAYER001
  6
CONTINUOUS
 62
    4
 10
1005.9105
 20
1029.8674000000001
 11
1012.0948000000001
 21
1025.7052000000001
  0
LINE
  8
_0-0_LAYER001
  6
CONTINUOUS
 62
    4
 10
1002.3681999999999
 20
1032.3311000000001
 11
1005.9105
 21
1029.8674000000001
  0
LINE
  8
_0-0_LAYER001
  6
CONTINUOUS
 62
    4
 10
1000.1361999999999
 20
1033.9045000000001
 11
1002.3681999999999
 21
1032.3311000000001
  0
LINE
  8
_0-0_LAYER001
  6
CONTINUOUS
 62
    4
 10
996.51260000000002
 20
1036.4437
 11
1000.1361999999999
 21
1033.9045000000001
  0
LINE
  8
_0-0_LAYER001
  6
CONTINUOUS
 62
    4
 10
993.14300000000003
 20
1038.7092
 11
996.51260000000002
 21
1036.4437
  0
LINE
  8
_0-0_LAYER001
  6
CONTINUOUS
 62
    4
 10
990.02800000000002
 20
1040.6362999999999
 11
993.14300000000003
 21
1038.7092
  0
LINE
  8
_0-0_LAYER001
  6
CONTINUOUS
 62
    4
 10
987.16080000000011
 20
1042.192
 11
990.02800000000002
 21
1040.6362999999999
  0
LINE
  8
_0-0_LAYER001
  6
CONTINUOUS
 62
    4
 10
984.3297
 20
1043.4604999999999
 11
987.16080000000011
 21
1042.192
  0
LINE
  8
_0-0_LAYER001
  6
CONTINUOUS
 62
    4
 10
982.86650000000009
 20
1043.9926
 11
984.3297
 21
1043.4604999999999
  0
LINE
  8
_0-0_LAYER001
  6
CONTINUOUS
 62
    4
 10
982.68540000000007
 20
1044.0506
 11
982.86650000000009
 21
1043.9926
  0
LINE
  8
_0-0_LAYER001
  6
CONTINUOUS
 62
    4
 10
981.89709999999991
 20
1044.2784999999999
 11
982.68540000000007
 21
1044.0506
  0
LINE
  8
_0-0_LAYER001
  6
CONTINUOUS
 62
    4
 10
981.23990000000003
 20
1044.4412
 11
981.89709999999991
 21
1044.2784999999999
  0
LINE
  8
_0-0_LAYER001
  6
CONTINUOUS
 62
    4
 10
980.6581000000001
 20
1044.5591999999999
 11
981.23990000000003
 21
1044.4412
  0
LINE
  8
_0-0_LAYER001
  6
CONTINUOUS
 62
    4
 10
980.61809999999991
 20
1044.5654
 11
980.6581000000001
 21
1044.5591999999999
  0
LINE
  8
_0-0_LAYER001
  6
CONTINUOUS
 62
    4
 10
1184.5918999999999
 20
989.40419999999995
 11
1186.2059999999999
 21
989.67270000000008
  0
LINE
  8
_0-0_LAYER001
  6
CONTINUOUS
 62
    4
 10
1180.4032999999999
 20
988.70800000000008
 11
1184.5918999999999
 21
989.40419999999995
  0
LINE
  8
_0-0_LAYER001
  6
CONTINUOUS
 62
    4
 10
1176.2103999999999
 20
988.01260000000002
 11
1180.4032999999999
 21
988.70800000000008
  0
LINE
  8
_0-0_LAYER001
  6
CONTINUOUS
 62
    4
 10
1172.0129999999999
 20
987.31889999999999
 11
1176.2103999999999
 21
988.01260000000002
  0
LINE
  8
_0-0_LAYER001
  6
CONTINUOUS
 62
    4
 10
1167.8107
 20
986.6277
 11
1172.0129999999999
 21
987.31889999999999
  0
LINE
  8
_0-0_LAYER001
  6
CONTINUOUS
 62
    4
 10
1163.6057000000001
 20
985.94029999999998
 11
1167.8107
 21
986.6277
  0
LINE
  8
_0-0_LAYER001
  6
CONTINUOUS
 62
    4
 10
1161.1557
 20
985.54220000000009
 11
1163.6057000000001
 21
985.94029999999998
  0
LINE
  8
_0-0_LAYER001
  6
CONTINUOUS
 62
    4
 10
1156.4286999999999
 20
984.78070000000002
 11
1161.1557
 21
985.54220000000009
  0
LINE
  8
_0-0_LAYER001
  6
CONTINUOUS
 62
    4
 10
1148.2381
 20
983.49900000000002
 11
1156.4286999999999
 21
984.78070000000002
  0
LINE
  8
_0-0_LAYER001
  6
CONTINUOUS
 62
    4
 10
1139.9536000000001
 20
982.28250000000003
 11
1148.2381
 21
983.49900000000002
  0
LINE
  8
_0-0_LAYER001
  6
CONTINUOUS
 62
    4
 10
1131.577
 20
981.1703
 11
1139.9536000000001
 21
982.28250000000003
  0
LINE
  8
_0-0_LAYER001
  6
CONTINUOUS
 62
    4
 10
1123.1048000000001
 20
980.2016000000001
 11
1131.577
 21
981.1703
  0
LINE
  8
_0-0_LAYER001
  6
CONTINUOUS
 62
    4
 10
1114.5887
 20
979.42149999999992
 11
1123.1048000000001
 21
980.2016000000001
  0
LINE
  8
_0-0_LAYER001
  6
CONTINUOUS
 62
    4
 10
1109.5608999999999
 20
979.06590000000006
 11
1114.5887
 21
979.42149999999992
  0
LINE
  8
_0-0_LAYER001
  6
CONTINUOUS
 62
    4
 10
1106.7856999999999
 20
978.90589999999997
 11
1109.5608999999999
 21
979.06590000000006
  0
LINE
  8
_0-0_LAYER001
  6
CONTINUOUS
 62
    4
 10
1102.1004
 20
978.70350000000008
 11
1106.7856999999999
 21
978.90589999999997
  0
LINE
  8
_0-0_LAYER001
  6
CONTINUOUS
 62
    4
 10
1097.3173999999999
 20
978.59899999999993
 11
1102.1004
 21
978.70350000000008
  0
LINE
  8
_0-0_LAYER001
  6
CONTINUOUS
 62
    4
 10
1092.4694
 20
978.61419999999998
 11
1097.3173999999999
 21
978.59899999999993
  0
LINE
  8
_0-0_LAYER001
  6
CONTINUOUS
 62
    4
 10
1087.5591999999999
 20
978.77019999999993
 11
1092.4694
 21
978.61419999999998
  0
LINE
  8
_0-0_LAYER001
  6
CONTINUOUS
 62
    4
 10
1082.6619000000001
 20
979.08410000000003
 11
1087.5591999999999
 21
978.77019999999993
  0
LINE
  8
_0-0_LAYER001
  6
CONTINUOUS
 62
    4
 10
1079.6632
 20
979.36059999999998
 11
1082.6619000000001
 21
979.08410000000003
  0
LINE
  8
_0-0_LAYER001
  6
CONTINUOUS
 62
    4
 10
1075.7976000000001
 20
979.81539999999995
 11
1079.6632
 21
979.36059999999998
  0
LINE
  8
_0-0_LAYER001
  6
CONTINUOUS
 62
    4
 10
1069.3692000000001
 20
980.82449999999994
 11
1075.7976000000001
 21
979.81539999999995
  0
LINE
  8
_0-0_LAYER001
  6
CONTINUOUS
 62
    4
 10
1062.9157
 20
982.15740000000005
 11
1069.3692000000001
 21
980.82449999999994
  0
LINE
  8
_0-0_LAYER001
  6
CONTINUOUS
 62
    4
 10
1056.5435
 20
983.78999999999996
 11
1062.9157
 21
982.15740000000005
  0
LINE
  8
_0-0_LAYER001
  6
CONTINUOUS
 62
    4
 10
1050.2662
 20
985.71360000000004
 11
1056.5435
 21
983.78999999999996
  0
LINE
  8
_0-0_LAYER001
  6
CONTINUOUS
 62
    4
 10
1044.1791000000001
 20
987.8907999999999
 11
1050.2662
 21
985.71360000000004
  0
LINE
  8
_0-0_LAYER001
  6
CONTINUOUS
 62
    4
 10
1040.5535
 20
989.33819999999992
 11
1044.1791000000001
 21
987.8907999999999
  0
LINE
  8
_0-0_LAYER001
  6
CONTINUOUS
 62
    4
 10
1036.2536
 20
991.20280000000002
 11
1040.5535
 21
989.33819999999992
  0
LINE
  8
_0-0_LAYER001
  6
CONTINUOUS
 62
    4
 10
1029.2628
 20
994.57999999999993
 11
1036.2536
 21
991.20280000000002
  0
LINE
  8
_0-0_LAYER001
  6
CONTINUOUS
 62
    4
 10
1022.4446
 20
998.26909999999998
 11
1029.2628
 21
994.57999999999993
  0
LINE
  8
_0-0_LAYER001
  6
CONTINUOUS
 62
    4
 10
1015.8688999999999
 20
1002.1665
 11
1022.4446
 21
998.26909999999998
  0
LINE
  8
_0-0_LAYER001
  6
CONTINUOUS
 62
    4
 10
1009.5079000000001
 20
1006.2181
 11
1015.8688999999999
 21
1002.1665
  0
LINE
  8
_0-0_LAYER001
  6
CONTINUOUS
 62
    4
 10
1003.3574000000001
 20
1010.3576
 11
1009.5079000000001
 21
1006.2181
  0
LINE
  8
_0-0_LAYER001
  6
CONTINUOUS
 62
    4
 10
999.83279999999991
 20
1012.809
 11
1003.3574000000001
 21
1010.3576
  0
LINE
  8
_0-0_LAYER001
  6
CONTINUOUS
 62
    4
 10
997.60369999999989
 20
1014.3804
 11
999.83279999999991
 21
1012.809
  0
LINE
  8
_0-0_LAYER001
  6
CONTINUOUS
 62
    4
 10
993.96199999999999
 20
1016.9322999999999
 11
997.60369999999989
 21
1014.3804
  0
LINE
  8
_0-0_LAYER001
  6
CONTINUOUS
 62
    4
 10
990.5449000000001
 20
1019.2297000000001
 11
993.96199999999999
 21
1016.9322999999999
  0
LINE
  8
_0-0_LAYER001
  6
CONTINUOUS
 62
    4
 10
987.34920000000011
 20
1021.2067
 11
990.5449000000001
 21
1019.2297000000001
  0
LINE
  8
_0-0_LAYER001
  6
CONTINUOUS
 62
    4
 10
984.36529999999993
 20
1022.8258000000001
 11
987.34920000000011
 21
1021.2067
  0
LINE
  8
_0-0_LAYER001
  6
CONTINUOUS
 62
    4
 10
981.39869999999996
 20
1024.1549
 11
984.36529999999993
 21
1022.8258000000001
  0
LINE
  8
_0-0_LAYER001
  6
CONTINUOUS
 62
    4
 10
980.64879999999994
 20
1024.4276
 11
981.39869999999996
 21
1024.1549
  0
LINE
  8
_0-0_LAYER001
  6
CONTINUOUS
 62
    4
 10
980.98180000000002
 20
1044.4708000000001
 11
980.80580000000009
 21
1024.2973
  0
LINE
  8
_0-0_LAYER001
  6
CONTINUOUS
 62
    4
 10
1181.3073999999999
 20
978.98299999999995
 11
1179.0619999999999
 21
987.55639999999994
  0
ARC
  8
_0-0_LAYER001
  6
CONTINUOUS
 62
    4
 10
1184.2095999999999
 20
979.74309999999991
 40
3
 50
194.67639000000003
 51
270.00000000000006
  0
LINE
  8
_0-0_LAYER001
  6
CONTINUOUS
 62
    4
 10
1187.652
 20
976.73880000000008
 11
1184.2342000000001
 21
976.73880000000008
  0
LINE
  8
_0-0_LAYER001
  6
CONTINUOUS
 62
    4
 10
1190.6112000000001
 20
979.24559999999997
 11
1192.5453
 21
990.84969999999998
  0
ARC
  8
_0-0_LAYER001
  6
CONTINUOUS
 62
    4
 10
1187.652
 20
979.73880000000008
 40
3
 50
270
 51
350.53766999999999
  0
LINE
  8
_0-0_LAYER001
  6
CONTINUOUS
 62
    4
 10
933.88570000000004
 20
1053.8610000000001
 11
934.69959999999992
 21
1054.1676
  0
LINE
  8
_0-0_LAYER001
  6
CONTINUOUS
 62
    4
 10
934.69959999999992
 20
1054.1676
 11
938.24880000000007
 21
1055.5072
  0
LINE
  8
_0-0_LAYER001
  6
CONTINUOUS
 62
    4
 10
938.24880000000007
 20
1055.5072
 11
941.80549999999994
 21
1056.8561
  0
LINE
  8
_0-0_LAYER001
  6
CONTINUOUS
 62
    4
 10
941.80549999999994
 20
1056.8561
 11
945.3741
 21
1058.2201
  0
LINE
  8
_0-0_LAYER001
  6
CONTINUOUS
 62
    4
 10
945.3741
 20
1058.2201
 11
948.95949999999993
 21
1059.6052
  0
LINE
  8
_0-0_LAYER001
  6
CONTINUOUS
 62
    4
 10
948.95949999999993
 20
1059.6052
 11
952.56619999999998
 21
1061.0172
  0
LINE
  8
_0-0_LAYER001
  6
CONTINUOUS
 62
    4
 10
952.56619999999998
 20
1061.0172
 11
954.66969999999992
 21
1061.8507999999999
  0
LINE
  8
_0-0_LAYER001
  6
CONTINUOUS
 62
    4
 10
954.66969999999992
 20
1061.8507999999999
 11
956.7491
 21
1062.6795999999999
  0
LINE
  8
_0-0_LAYER001
  6
CONTINUOUS
 62
    4
 10
956.7491
 20
1062.6795999999999
 11
960.35560000000009
 21
1064.0811000000001
  0
LINE
  8
_0-0_LAYER001
  6
CONTINUOUS
 62
    4
 10
960.35560000000009
 20
1064.0811000000001
 11
963.98829999999998
 21
1065.3638000000001
  0
LINE
  8
_0-0_LAYER001
  6
CONTINUOUS
 62
    4
 10
963.98829999999998
 20
1065.3638000000001
 11
967.64630000000011
 21
1066.4304
  0
LINE
  8
_0-0_LAYER001
  6
CONTINUOUS
 62
    4
 10
967.64630000000011
 20
1066.4304
 11
971.3284000000001
 21
1067.1837
  0
LINE
  8
_0-0_LAYER001
  6
CONTINUOUS
 62
    4
 10
971.3284000000001
 20
1067.1837
 11
975.03369999999995
 21
1067.5262
  0
LINE
  8
_0-0_LAYER001
  6
CONTINUOUS
 62
    4
 10
975.03369999999995
 20
1067.5262
 11
977.19290000000001
 21
1067.4983
  0
LINE
  8
_0-0_LAYER001
  6
CONTINUOUS
 62
    4
 10
977.19290000000001
 20
1067.4983
 11
978.04209999999989
 21
1067.4368999999999
  0
LINE
  8
_0-0_LAYER001
  6
CONTINUOUS
 62
    4
 10
978.04209999999989
 20
1067.4368999999999
 11
979.50639999999999
 21
1067.2663
  0
LINE
  8
_0-0_LAYER001
  6
CONTINUOUS
 62
    4
 10
979.50639999999999
 20
1067.2663
 11
980.96749999999997
 21
1067.0196000000001
  0
LINE
  8
_0-0_LAYER001
  6
CONTINUOUS
 62
    4
 10
980.96749999999997
 20
1067.0196000000001
 11
982.4212
 21
1066.7036000000001
  0
LINE
  8
_0-0_LAYER001
  6
CONTINUOUS
 62
    4
 10
982.4212
 20
1066.7036000000001
 11
983.86339999999996
 21
1066.3251
  0
LINE
  8
_0-0_LAYER001
  6
CONTINUOUS
 62
    4
 10
983.86339999999996
 20
1066.3251
 11
985.28980000000001
 21
1065.8909000000001
  0
LINE
  8
_0-0_LAYER001
  6
CONTINUOUS
 62
    4
 10
985.28980000000001
 20
1065.8909000000001
 11
986.1083000000001
 21
1065.6162999999999
  0
LINE
  8
_0-0_LAYER001
  6
CONTINUOUS
 62
    4
 10
986.1083000000001
 20
1065.6162999999999
 11
988.6065000000001
 21
1064.6681000000001
  0
LINE
  8
_0-0_LAYER001
  6
CONTINUOUS
 62
    4
 10
988.6065000000001
 20
1064.6681000000001
 11
992.7654
 21
1062.7346
  0
LINE
  8
_0-0_LAYER001
  6
CONTINUOUS
 62
    4
 10
992.7654
 20
1062.7346
 11
996.76919999999996
 21
1060.4892
  0
LINE
  8
_0-0_LAYER001
  6
CONTINUOUS
 62
    4
 10
996.76919999999996
 20
1060.4892
 11
1000.6560999999999
 21
1058.0089
  0
LINE
  8
_0-0_LAYER001
  6
CONTINUOUS
 62
    4
 10
1000.6560999999999
 20
1058.0089
 11
1004.4640999999999
 21
1055.3706999999999
  0
LINE
  8
_0-0_LAYER001
  6
CONTINUOUS
 62
    4
 10
1004.4640999999999
 20
1055.3706999999999
 11
1008.2312999999999
 21
1052.6516999999999
  0
LINE
  8
_0-0_LAYER001
  6
CONTINUOUS
 62
    4
 10
1008.2312999999999
 20
1052.6516999999999
 11
1010.4127000000001
 21
1051.0679
  0
LINE
  8
_0-0_LAYER001
  6
CONTINUOUS
 62
    4
 10
1010.4127000000001
 20
1051.0679
 11
1013.7442000000001
 21
1048.681
  0
LINE
  8
_0-0_LAYER001
  6
CONTINUOUS
 62
    4
 10
1013.7442000000001
 20
1048.681
 11
1019.5364999999999
 21
1044.6641
  0
LINE
  8
_0-0_LAYER001
  6
CONTINUOUS
 62
    4
 10
1019.5364999999999
 20
1044.6641
 11
1025.4087
 21
1040.8074999999999
  0
LINE
  8
_0-0_LAYER001
  6
CONTINUOUS
 62
    4
 10
1025.4087
 20
1040.8074999999999
 11
1031.3828000000001
 21
1037.153
  0
LINE
  8
_0-0_LAYER001
  6
CONTINUOUS
 62
    4
 10
1031.3828000000001
 20
1037.153
 11
1037.481
 21
1033.7425000000001
  0
LINE
  8
_0-0_LAYER001
  6
CONTINUOUS
 62
    4
 10
1037.481
 20
1033.7425000000001
 11
1043.7253000000001
 21
1030.6177
  0
LINE
  8
_0-0_LAYER001
  6
CONTINUOUS
 62
    4
 10
1043.7253000000001
 20
1030.6177
 11
1047.4226000000001
 21
1028.9527
  0
LINE
  8
_0-0_LAYER001
  6
CONTINUOUS
 62
    4
 10
1047.4226000000001
 20
1028.9527
 11
1050.4818
 21
1027.6815999999999
  0
LINE
  8
_0-0_LAYER001
  6
CONTINUOUS
 62
    4
 10
1050.4818
 20
1027.6815999999999
 11
1055.8423
 21
1025.6794
  0
LINE
  8
_0-0_LAYER001
  6
CONTINUOUS
 62
    4
 10
1055.8423
 20
1025.6794
 11
1061.2981
 21
1023.9239
  0
LINE
  8
_0-0_LAYER001
  6
CONTINUOUS
 62
    4
 10
1061.2981
 20
1023.9239
 11
1066.8330000000001
 21
1022.4232
  0
LINE
  8
_0-0_LAYER001
  6
CONTINUOUS
 62
    4
 10
1066.8330000000001
 20
1022.4232
 11
1072.4313
 21
1021.1850999999999
  0
LINE
  8
_0-0_LAYER001
  6
CONTINUOUS
 62
    4
 10
1072.4313
 20
1021.1850999999999
 11
1078.077
 21
1020.2179000000001
  0
LINE
  8
_0-0_LAYER001
  6
CONTINUOUS
 62
    4
 10
1078.077
 20
1020.2179000000001
 11
1081.367
 21
1019.7842000000001
  0
LINE
  8
_0-0_LAYER001
  6
CONTINUOUS
 62
    4
 10
1081.367
 20
1019.7842000000001
 11
1083.8862999999999
 21
1019.5164
  0
LINE
  8
_0-0_LAYER001
  6
CONTINUOUS
 62
    4
 10
1083.8862999999999
 20
1019.5164
 11
1088.2384
 21
1019.1763000000001
  0
LINE
  8
_0-0_LAYER001
  6
CONTINUOUS
 62
    4
 10
1088.2384
 20
1019.1763000000001
 11
1092.5986
 21
1018.9768999999999
  0
LINE
  8
_0-0_LAYER001
  6
CONTINUOUS
 62
    4
 10
1092.5986
 20
1018.9768999999999
 11
1096.9638
 21
1018.9022
  0
LINE
  8
_0-0_LAYER001
  6
CONTINUOUS
 62
    4
 10
1096.9638
 20
1018.9022
 11
1101.3308999999999
 21
1018.9366
  0
LINE
  8
_0-0_LAYER001
  6
CONTINUOUS
 62
    4
 10
1101.3308999999999
 20
1018.9366
 11
1105.6967999999999
 21
1019.0642
  0
LINE
  8
_0-0_LAYER001
  6
CONTINUOUS
 62
    4
 10
1105.6967999999999
 20
1019.0642
 11
1108.2273
 21
1019.1747
  0
LINE
  8
_0-0_LAYER001
  6
CONTINUOUS
 62
    4
 10
1108.2273
 20
1019.1747
 11
1112.9564
 21
1019.4429
  0
LINE
  8
_0-0_LAYER001
  6
CONTINUOUS
 62
    4
 10
1112.9564
 20
1019.4429
 11
1121.0944999999999
 21
1020.0737999999999
  0
LINE
  8
_0-0_LAYER001
  6
CONTINUOUS
 62
    4
 10
1121.0944999999999
 20
1020.0737999999999
 11
1129.2153000000001
 21
1020.8877
  0
LINE
  8
_0-0_LAYER001
  6
CONTINUOUS
 62
    4
 10
1129.2153000000001
 20
1020.8877
 11
1137.3212000000001
 21
1021.8489999999999
  0
LINE
  8
_0-0_LAYER001
  6
CONTINUOUS
 62
    4
 10
1137.3212000000001
 20
1021.8489999999999
 11
1145.4146000000001
 21
1022.9222
  0
LINE
  8
_0-0_LAYER001
  6
CONTINUOUS
 62
    4
 10
1145.4146000000001
 20
1022.9222
 11
1153.4982
 21
1024.0717
  0
LINE
  8
_0-0_LAYER001
  6
CONTINUOUS
 62
    4
 10
1153.4982
 20
1024.0717
 11
1158.1831
 21
1024.7594999999999
  0
LINE
  8
_0-0_LAYER001
  6
CONTINUOUS
 62
    4
 10
1158.1831
 20
1024.7594999999999
 11
1160.6179999999999
 21
1025.1204
  0
LINE
  8
_0-0_LAYER001
  6
CONTINUOUS
 62
    4
 10
1160.6179999999999
 20
1025.1204
 11
1164.8149000000001
 21
1025.7464
  0
LINE
  8
_0-0_LAYER001
  6
CONTINUOUS
 62
    4
 10
1164.8149000000001
 20
1025.7464
 11
1169.0107
 21
1026.3765000000001
  0
LINE
  8
_0-0_LAYER001
  6
CONTINUOUS
 62
    4
 10
1169.0107
 20
1026.3765000000001
 11
1173.2055
 21
1027.0098
  0
LINE
  8
_0-0_LAYER001
  6
CONTINUOUS
 62
    4
 10
1173.2055
 20
1027.0098
 11
1177.3996999999999
 21
1027.6452999999999
  0
LINE
  8
_0-0_LAYER001
  6
CONTINUOUS
 62
    4
 10
1177.3996999999999
 20
1027.6452999999999
 11
1181.5934999999999
 21
1028.2823000000001
  0
LINE
  8
_0-0_LAYER001
  6
CONTINUOUS
 62
    4
 10
1181.5934999999999
 20
1028.2823000000001
 11
1184.0256999999999
 21
1028.6521
  0
LINE
  8
_0-0_LAYER001
  6
CONTINUOUS
 62
    4
 10
938.98890000000006
 20
1036.5485000000001
 11
941.05079999999998
 21
1037.3253
  0
LINE
  8
_0-0_LAYER001
  6
CONTINUOUS
 62
    4
 10
941.05079999999998
 20
1037.3253
 11
944.61840000000007
 21
1038.6719000000001
  0
LINE
  8
_0-0_LAYER001
  6
CONTINUOUS
 62
    4
 10
944.61840000000007
 20
1038.6719000000001
 11
948.21029999999996
 21
1040.0341000000001
  0
LINE
  8
_0-0_LAYER001
  6
CONTINUOUS
 62
    4
 10
948.21029999999996
 20
1040.0341000000001
 11
951.83069999999998
 21
1041.4178999999999
  0
LINE
  8
_0-0_LAYER001
  6
CONTINUOUS
 62
    4
 10
951.83069999999998
 20
1041.4178999999999
 11
955.48360000000002
 21
1042.8290999999999
  0
LINE
  8
_0-0_LAYER001
  6
CONTINUOUS
 62
    4
 10
955.48360000000002
 20
1042.8290999999999
 11
959.16280000000006
 21
1044.2695000000001
  0
LINE
  8
_0-0_LAYER001
  6
CONTINUOUS
 62
    4
 10
959.16280000000006
 20
1044.2695000000001
 11
961.31799999999998
 21
1045.1234999999999
  0
LINE
  8
_0-0_LAYER001
  6
CONTINUOUS
 62
    4
 10
961.31799999999998
 20
1045.1234999999999
 11
963.34159999999997
 21
1045.9302
  0
LINE
  8
_0-0_LAYER001
  6
CONTINUOUS
 62
    4
 10
963.34159999999997
 20
1045.9302
 11
966.61349999999993
 21
1047.2016000000001
  0
LINE
  8
_0-0_LAYER001
  6
CONTINUOUS
 62
    4
 10
966.61349999999993
 20
1047.2016000000001
 11
969.50859999999989
 21
1048.2238
  0
LINE
  8
_0-0_LAYER001
  6
CONTINUOUS
 62
    4
 10
969.50859999999989
 20
1048.2238
 11
971.97669999999994
 21
1048.9435000000001
  0
LINE
  8
_0-0_LAYER001
  6
CONTINUOUS
 62
    4
 10
971.97669999999994
 20
1048.9435000000001
 11
973.96839999999997
 21
1049.3510000000001
  0
LINE
  8
_0-0_LAYER001
  6
CONTINUOUS
 62
    4
 10
973.96839999999997
 20
1049.3510000000001
 11
975.7478000000001
 21
1049.5155
  0
LINE
  8
_0-0_LAYER001
  6
CONTINUOUS
 62
    4
 10
975.7478000000001
 20
1049.5155
 11
976.42730000000006
 21
1049.5066999999999
  0
LINE
  8
_0-0_LAYER001
  6
CONTINUOUS
 62
    4
 10
976.42730000000006
 20
1049.5066999999999
 11
976.35120000000006
 21
1049.5121999999999
  0
LINE
  8
_0-0_LAYER001
  6
CONTINUOUS
 62
    4
 10
976.35120000000006
 20
1049.5121999999999
 11
976.96479999999997
 21
1049.4407000000001
  0
LINE
  8
_0-0_LAYER001
  6
CONTINUOUS
 62
    4
 10
976.96479999999997
 20
1049.4407000000001
 11
977.55520000000001
 21
1049.3409999999999
  0
LINE
  8
_0-0_LAYER001
  6
CONTINUOUS
 62
    4
 10
977.55520000000001
 20
1049.3409999999999
 11
978.22270000000003
 21
1049.1958999999999
  0
LINE
  8
_0-0_LAYER001
  6
CONTINUOUS
 62
    4
 10
978.22270000000003
 20
1049.1958999999999
 11
978.95620000000008
 21
1049.0034000000001
  0
LINE
  8
_0-0_LAYER001
  6
CONTINUOUS
 62
    4
 10
978.95620000000008
 20
1049.0034000000001
 11
979.80539999999996
 21
1048.7448999999999
  0
LINE
  8
_0-0_LAYER001
  6
CONTINUOUS
 62
    4
 10
979.80539999999996
 20
1048.7448999999999
 11
980.04950000000008
 21
1048.663
  0
LINE
  8
_0-0_LAYER001
  6
CONTINUOUS
 62
    4
 10
980.04950000000008
 20
1048.663
 11
981.60940000000005
 21
1048.0708999999999
  0
LINE
  8
_0-0_LAYER001
  6
CONTINUOUS
 62
    4
 10
981.60940000000005
 20
1048.0708999999999
 11
984.55709999999999
 21
1046.7004999999999
  0
LINE
  8
_0-0_LAYER001
  6
CONTINUOUS
 62
    4
 10
984.55709999999999
 20
1046.7004999999999
 11
987.51819999999998
 21
1045.0399
  0
LINE
  8
_0-0_LAYER001
  6
CONTINUOUS
 62
    4
 10
987.51819999999998
 20
1045.0399
 11
990.68589999999995
 21
1043.0186000000001
  0
LINE
  8
_0-0_LAYER001
  6
CONTINUOUS
 62
    4
 10
990.68589999999995
 20
1043.0186000000001
 11
994.07060000000001
 21
1040.6736000000001
  0
LINE
  8
_0-0_LAYER001
  6
CONTINUOUS
 62
    4
 10
994.07060000000001
 20
1040.6736000000001
 11
997.67630000000008
 21
1038.0712000000001
  0
LINE
  8
_0-0_LAYER001
  6
CONTINUOUS
 62
    4
 10
997.67630000000008
 20
1038.0712000000001
 11
999.88329999999996
 21
1036.4686999999999
  0
LINE
  8
_0-0_LAYER001
  6
CONTINUOUS
 62
    4
 10
999.88329999999996
 20
1036.4686999999999
 11
1003.3732
 21
1033.9684
  0
LINE
  8
_0-0_LAYER001
  6
CONTINUOUS
 62
    4
 10
1003.3732
 20
1033.9684
 11
1009.4654
 21
1029.7435
  0
LINE
  8
_0-0_LAYER001
  6
CONTINUOUS
 62
    4
 10
1009.4654
 20
1029.7435
 11
1015.7692
 21
1025.6034
  0
LINE
  8
_0-0_LAYER001
  6
CONTINUOUS
 62
    4
 10
1015.7692
 20
1025.6034
 11
1022.2899
 21
1021.6146000000001
  0
LINE
  8
_0-0_LAYER001
  6
CONTINUOUS
 62
    4
 10
1022.2899
 20
1021.6146000000001
 11
1029.0558000000001
 21
1017.8306
  0
LINE
  8
_0-0_LAYER001
  6
CONTINUOUS
 62
    4
 10
1029.0558000000001
 20
1017.8306
 11
1035.9989
 21
1014.3561
  0
LINE
  8
_0-0_LAYER001
  6
CONTINUOUS
 62
    4
 10
1035.9989
 20
1014.3561
 11
1040.2723000000001
 21
1012.4317000000001
  0
LINE
  8
_0-0_LAYER001
  6
CONTINUOUS
 62
    4
 10
1040.2723000000001
 20
1012.4317000000001
 11
1043.8774000000001
 21
1010.9338
  0
LINE
  8
_0-0_LAYER001
  6
CONTINUOUS
 62
    4
 10
1043.8774000000001
 20
1010.9338
 11
1049.9335000000001
 21
1008.6718000000001
  0
LINE
  8
_0-0_LAYER001
  6
CONTINUOUS
 62
    4
 10
1049.9335000000001
 20
1008.6718000000001
 11
1056.1832999999999
 21
1006.6608000000001
  0
LINE
  8
_0-0_LAYER001
  6
CONTINUOUS
 62
    4
 10
1056.1832999999999
 20
1006.6608000000001
 11
1062.5320999999999
 21
1004.9394
  0
LINE
  8
_0-0_LAYER001
  6
CONTINUOUS
 62
    4
 10
1062.5320999999999
 20
1004.9394
 11
1068.9663
 21
1003.5165
  0
LINE
  8
_0-0_LAYER001
  6
CONTINUOUS
 62
    4
 10
1068.9663
 20
1003.5165
 11
1075.3800000000001
 21
1002.4177999999999
  0
LINE
  8
_0-0_LAYER001
  6
CONTINUOUS
 62
    4
 10
1075.3800000000001
 20
1002.4177999999999
 11
1079.2388000000001
 21
1001.9090000000001
  0
LINE
  8
_0-0_LAYER001
  6
CONTINUOUS
 62
    4
 10
1079.2388000000001
 20
1001.9090000000001
 11
1082.2334000000001
 21
1001.5906
  0
LINE
  8
_0-0_LAYER001
  6
CONTINUOUS
 62
    4
 10
1082.2334000000001
 20
1001.5906
 11
1087.1258
 21
1001.2084
  0
LINE
  8
_0-0_LAYER001
  6
CONTINUOUS
 62
    4
 10
1087.1258
 20
1001.2084
 11
1092.0334
 21
1000.9838999999999
  0
LINE
  8
_0-0_LAYER001
  6
CONTINUOUS
 62
    4
 10
1092.0334
 20
1000.9838999999999
 11
1096.8806999999999
 21
1000.9010000000001
  0
LINE
  8
_0-0_LAYER001
  6
CONTINUOUS
 62
    4
 10
1096.8806999999999
 20
1000.9010000000001
 11
1101.6647
 21
1000.9386999999999
  0
LINE
  8
_0-0_LAYER001
  6
CONTINUOUS
 62
    4
 10
1101.6647
 20
1000.9386999999999
 11
1106.3523
 21
1001.0755999999999
  0
LINE
  8
_0-0_LAYER001
  6
CONTINUOUS
 62
    4
 10
1106.3523
 20
1001.0755999999999
 11
1109.1295
 21
1001.1968999999999
  0
LINE
  8
_0-0_LAYER001
  6
CONTINUOUS
 62
    4
 10
1109.1295
 20
1001.1968999999999
 11
1114.1618000000001
 21
1001.4822999999999
  0
LINE
  8
_0-0_LAYER001
  6
CONTINUOUS
 62
    4
 10
1114.1618000000001
 20
1001.4822999999999
 11
1122.6880000000001
 21
1002.1433999999999
  0
LINE
  8
_0-0_LAYER001
  6
CONTINUOUS
 62
    4
 10
1122.6880000000001
 20
1002.1433999999999
 11
1131.1728000000001
 21
1002.9937
  0
LINE
  8
_0-0_LAYER001
  6
CONTINUOUS
 62
    4
 10
1131.1728000000001
 20
1002.9937
 11
1139.5642
 21
1003.9889000000001
  0
LINE
  8
_0-0_LAYER001
  6
CONTINUOUS
 62
    4
 10
1139.5642
 20
1003.9889000000001
 11
1147.8649
 21
1005.0895
  0
LINE
  8
_0-0_LAYER001
  6
CONTINUOUS
 62
    4
 10
1147.8649
 20
1005.0895
 11
1156.0726
 21
1006.2568000000001
  0
LINE
  8
_0-0_LAYER001
  6
CONTINUOUS
 62
    4
 10
1156.0726
 20
1006.2568000000001
 11
1160.8097
 21
1006.9521999999999
  0
LINE
  8
_0-0_LAYER001
  6
CONTINUOUS
 62
    4
 10
1160.8097
 20
1006.9521999999999
 11
1163.2651000000001
 21
1007.3161
  0
LINE
  8
_0-0_LAYER001
  6
CONTINUOUS
 62
    4
 10
1163.2651000000001
 20
1007.3161
 11
1167.4792
 21
1007.9447
  0
LINE
  8
_0-0_LAYER001
  6
CONTINUOUS
 62
    4
 10
1167.4792
 20
1007.9447
 11
1171.6907000000001
 21
1008.5771
  0
LINE
  8
_0-0_LAYER001
  6
CONTINUOUS
 62
    4
 10
1171.6907000000001
 20
1008.5771
 11
1175.8975
 21
1009.2121999999999
  0
LINE
  8
_0-0_LAYER001
  6
CONTINUOUS
 62
    4
 10
1175.8975
 20
1009.2121999999999
 11
1180.0997
 21
1009.8489999999999
  0
LINE
  8
_0-0_LAYER001
  6
CONTINUOUS
 62
    4
 10
1180.0997
 20
1009.8489999999999
 11
1184.2976000000001
 21
1010.4866
  0
LINE
  8
_0-0_LAYER001
  6
CONTINUOUS
 62
    4
 10
1184.2976000000001
 20
1010.4866
 11
1185.9152999999999
 21
1010.7325000000001
  0
LINE
  8
_0-0_LAYER001
  6
CONTINUOUS
 62
    4
 10
933.46000000000004
 20
1053.6985999999999
 11
933.88599999999997
 21
1053.8616999999999
  0
ARC
  8
_0-0_LAYER001
  6
CONTINUOUS
 62
    4
 10
934.5326
 20
1050.8969
 40
3
 50
110.94902000000002
 51
178.70000000000002
  0
LINE
  8
_0-0_LAYER001
  6
CONTINUOUS
 62
    4
 10
931.42409999999995
 20
1035.1259
 11
931.42409999999995
 21
1050.8484000000001
  0
LINE
  8
_0-0_LAYER001
  6
CONTINUOUS
 62
    4
 10
932.77809999999999
 20
1034.1905999999999
 11
938.9529
 21
1036.5278000000001
  0
ARC
  8
_0-0_LAYER001
  6
CONTINUOUS
 62
    4
 10
932.42409999999995
 20
1035.1259
 40
1
 50
180
 51
290.73165999999998
  0
LINE
  8
_0-0_LAYER001
  6
CONTINUOUS
 62
    4
 10
1184.1506999999999
 20
1028.6875
 11
1228.6049
 21
1038.3353999999999
  0
LINE
  8
_0-0_LAYER001
  6
CONTINUOUS
 62
    4
 10
1190.8959
 20
1008.8538000000001
 11
1229.5677000000001
 21
1017.9037000000001
  0
LINE
  8
_0-0_LAYER001
  6
CONTINUOUS
 62
    4
 10
1229.5677000000001
 20
1018.8602000000001
 11
1229.5677000000001
 21
1017.9037000000001
  0
ARC
  8
_0-0_LAYER001
  6
CONTINUOUS
 62
    4
 10
1230.5677000000001
 20
1018.8602000000001
 40
1
 50
102.72435
 51
180
  0
LINE
  8
_0-0_LAYER001
  6
CONTINUOUS
 62
    4
 10
1235.3847000000001
 20
1020.9730999999999
 11
1230.3474000000001
 21
1019.8357000000001
  0
ARC
  8
_0-0_LAYER001
  6
CONTINUOUS
 62
    4
 10
1235.6049
 20
1019.9976999999999
 40
1
 50
0
 51
102.72435
  0
LINE
  8
_0-0_LAYER001
  6
CONTINUOUS
 62
    4
 10
1235.817
 20
1021.4816000000001
 11
1185.6831
 21
1010.6010000000001
  0
ARC
  8
_0-0_LAYER001
  6
CONTINUOUS
 62
    4
 10
1235.6049
 20
1022.4588000000001
 40
1
 50
282.24497000000002
 51
0
  0
LINE
  8
_0-0_LAYER001
  6
CONTINUOUS
 62
    4
 10
1235.8227999999999
 20
1000.7408
 11
1186.2388000000001
 21
989.673
  0
LINE
  8
_0-0_LAYER001
  6
CONTINUOUS
 62
    4
 10
1236.6049
 20
1001.7167999999999
 11
1236.6049
 21
1019.9976999999999
  0
ARC
  8
_0-0_LAYER001
  6
CONTINUOUS
 62
    4
 10
1235.6049
 20
1001.7167999999999
 40
1
 50
282.58296000000001
 51
0.0000000000000254
  0
LINE
  8
_0-0_LAYER001
  6
CONTINUOUS
 62
    4
 10
1228.6049
 20
1039.7924
 11
1228.6049
 21
1038.3353999999999
  0
ARC
  8
_0-0_LAYER001
  6
CONTINUOUS
 62
    4
 10
1229.6049
 20
1039.7924
 40
1
 50
101.73308
 51
180
  0
LINE
  8
_0-0_LAYER001
  6
CONTINUOUS
 62
    4
 10
1235.4015999999999
 20
1042.0177000000001
 11
1229.4015999999999
 21
1040.7715000000001
  0
LINE
  8
_0-0_LAYER001
  6
CONTINUOUS
 62
    4
 10
1236.6049
 20
1041.0385000000001
 11
1236.6049
 21
1022.4588000000001
  0
ARC
  8
_0-0_LAYER001
  6
CONTINUOUS
 62
    4
 10
1235.6049
 20
1041.0385000000001
 40
1
 50
0
 51
101.73308
  0
LINE
  8
_0-0_LAYER001
  6
CONTINUOUS
 62
    4
 10
875.98780000000011
 20
969.02849999999989
 11
868.66249999999991
 21
980.33449999999993
  0
LINE
  8
_0-0_LAYER001
  6
CONTINUOUS
 62
    4
 10
884.49739999999997
 20
969.21839999999997
 11
893.43579999999997
 21
984.46409999999992
  0
ARC
  8
_0-0_LAYER001
  6
CONTINUOUS
 62
    4
 10
880.18399999999997
 20
971.7473
 40
5
 50
212.93986000000001
 51
329.61716000000001
  0
LINE
  8
_0-0_LAYER001
  6
CONTINUOUS
 62
    4
 10
923.7793999999999
 20
1008.7760000000001
 11
926.20749999999998
 21
1009.1799000000001
  0
LINE
  8
_0-0_LAYER001
  6
CONTINUOUS
 62
    4
 10
919.59040000000005
 20
1008.0798
 11
923.7793999999999
 21
1008.7760000000001
  0
LINE
  8
_0-0_LAYER001
  6
CONTINUOUS
 62
    4
 10
915.39660000000003
 20
1007.3842
 11
919.59040000000005
 21
1008.0798
  0
LINE
  8
_0-0_LAYER001
  6
CONTINUOUS
 62
    4
 10
911.19779999999992
 20
1006.6903
 11
915.39660000000003
 21
1007.3842
  0
LINE
  8
_0-0_LAYER001
  6
CONTINUOUS
 62
    4
 10
906.99369999999999
 20
1005.9988000000001
 11
911.19779999999992
 21
1006.6903
  0
LINE
  8
_0-0_LAYER001
  6
CONTINUOUS
 62
    4
 10
902.78690000000006
 20
1005.3110999999999
 11
906.99369999999999
 21
1005.9988000000001
  0
LINE
  8
_0-0_LAYER001
  6
CONTINUOUS
 62
    4
 10
900.33459999999991
 20
1004.9126000000001
 11
902.78690000000006
 21
1005.3110999999999
  0
LINE
  8
_0-0_LAYER001
  6
CONTINUOUS
 62
    4
 10
895.60179999999991
 20
1004.1502
 11
900.33459999999991
 21
1004.9126000000001
  0
LINE
  8
_0-0_LAYER001
  6
CONTINUOUS
 62
    4
 10
887.39740000000006
 20
1002.8662999999999
 11
895.60179999999991
 21
1004.1502
  0
LINE
  8
_0-0_LAYER001
  6
CONTINUOUS
 62
    4
 10
879.08989999999994
 20
1001.6465000000001
 11
887.39740000000006
 21
1002.8662999999999
  0
LINE
  8
_0-0_LAYER001
  6
CONTINUOUS
 62
    4
 10
870.68170000000009
 20
1000.5300999999999
 11
879.08989999999994
 21
1001.6465000000001
  0
LINE
  8
_0-0_LAYER001
  6
CONTINUOUS
 62
    4
 10
862.16910000000007
 20
999.55670000000009
 11
870.68170000000009
 21
1000.5300999999999
  0
LINE
  8
_0-0_LAYER001
  6
CONTINUOUS
 62
    4
 10
853.60989999999993
 20
998.77269999999999
 11
862.16910000000007
 21
999.55670000000009
  0
LINE
  8
_0-0_LAYER001
  6
CONTINUOUS
 62
    4
 10
848.5483999999999
 20
998.41470000000004
 11
853.60989999999993
 21
998.77269999999999
  0
LINE
  8
_0-0_LAYER001
  6
CONTINUOUS
 62
    4
 10
845.74579999999992
 20
998.2530999999999
 11
848.5483999999999
 21
998.41470000000004
  0
LINE
  8
_0-0_LAYER001
  6
CONTINUOUS
 62
    4
 10
841.02479999999991
 20
998.04909999999995
 11
845.74579999999992
 21
998.2530999999999
  0
LINE
  8
_0-0_LAYER001
  6
CONTINUOUS
 62
    4
 10
836.19560000000001
 20
997.94370000000004
 11
841.02479999999991
 21
998.04909999999995
  0
LINE
  8
_0-0_LAYER001
  6
CONTINUOUS
 62
    4
 10
831.2940000000001
 20
997.95910000000003
 11
836.19560000000001
 21
997.94370000000004
  0
LINE
  8
_0-0_LAYER001
  6
CONTINUOUS
 62
    4
 10
826.32289999999989
 20
998.11689999999999
 11
831.2940000000001
 21
997.95910000000003
  0
LINE
  8
_0-0_LAYER001
  6
CONTINUOUS
 62
    4
 10
825.25119999999993
 20
998.18560000000002
 11
826.32289999999989
 21
998.11689999999999
  0
LINE
  8
_0-0_LAYER001
  6
CONTINUOUS
 62
    4
 10
919.76880000000006
 20
989.58860000000004
 11
921.38290000000006
 21
989.85699999999997
  0
LINE
  8
_0-0_LAYER001
  6
CONTINUOUS
 62
    4
 10
915.5802000000001
 20
988.89239999999995
 11
919.76880000000006
 21
989.58860000000004
  0
LINE
  8
_0-0_LAYER001
  6
CONTINUOUS
 62
    4
 10
911.3873000000001
 20
988.19699999999989
 11
915.5802000000001
 21
988.89239999999995
  0
LINE
  8
_0-0_LAYER001
  6
CONTINUOUS
 62
    4
 10
907.1898000000001
 20
987.50320000000011
 11
911.3873000000001
 21
988.19699999999989
  0
LINE
  8
_0-0_LAYER001
  6
CONTINUOUS
 62
    4
 10
902.98749999999995
 20
986.8119999999999
 11
907.1898000000001
 21
987.50320000000011
  0
LINE
  8
_0-0_LAYER001
  6
CONTINUOUS
 62
    4
 10
898.7826
 20
986.12470000000008
 11
902.98749999999995
 21
986.8119999999999
  0
LINE
  8
_0-0_LAYER001
  6
CONTINUOUS
 62
    4
 10
896.33259999999996
 20
985.72649999999999
 11
898.7826
 21
986.12470000000008
  0
LINE
  8
_0-0_LAYER001
  6
CONTINUOUS
 62
    4
 10
891.60560000000009
 20
984.96499999999992
 11
896.33259999999996
 21
985.72649999999999
  0
LINE
  8
_0-0_LAYER001
  6
CONTINUOUS
 62
    4
 10
883.41499999999996
 20
983.68329999999992
 11
891.60560000000009
 21
984.96499999999992
  0
LINE
  8
_0-0_LAYER001
  6
CONTINUOUS
 62
    4
 10
875.13040000000001
 20
982.4668999999999
 11
883.41499999999996
 21
983.68329999999992
  0
LINE
  8
_0-0_LAYER001
  6
CONTINUOUS
 62
    4
 10
866.75379999999996
 20
981.35470000000009
 11
875.13040000000001
 21
982.4668999999999
  0
LINE
  8
_0-0_LAYER001
  6
CONTINUOUS
 62
    4
 10
858.2817
 20
980.38589999999999
 11
866.75379999999996
 21
981.35470000000009
  0
LINE
  8
_0-0_LAYER001
  6
CONTINUOUS
 62
    4
 10
849.76559999999995
 20
979.60590000000002
 11
858.2817
 21
980.38589999999999
  0
LINE
  8
_0-0_LAYER001
  6
CONTINUOUS
 62
    4
 10
844.7376999999999
 20
979.25019999999995
 11
849.76559999999995
 21
979.60590000000002
  0
LINE
  8
_0-0_LAYER001
  6
CONTINUOUS
 62
    4
 10
841.96250000000009
 20
979.0902000000001
 11
844.7376999999999
 21
979.25019999999995
  0
LINE
  8
_0-0_LAYER001
  6
CONTINUOUS
 62
    4
 10
837.27719999999999
 20
978.88779999999997
 11
841.96250000000009
 21
979.0902000000001
  0
LINE
  8
_0-0_LAYER001
  6
CONTINUOUS
 62
    4
 10
832.49430000000007
 20
978.78340000000003
 11
837.27719999999999
 21
978.88779999999997
  0
LINE
  8
_0-0_LAYER001
  6
CONTINUOUS
 62
    4
 10
827.64630000000011
 20
978.79860000000008
 11
832.49430000000007
 21
978.78340000000003
  0
LINE
  8
_0-0_LAYER001
  6
CONTINUOUS
 62
    4
 10
825.25119999999993
 20
978.8746000000001
 11
827.64630000000011
 21
978.79860000000008
  0
LINE
  8
_0-0_LAYER001
  6
CONTINUOUS
 62
    4
 10
916.48430000000008
 20
979.16730000000007
 11
914.23890000000006
 21
987.74080000000004
  0
ARC
  8
_0-0_LAYER001
  6
CONTINUOUS
 62
    4
 10
919.38640000000009
 20
979.92740000000003
 40
3
 50
194.67639000000003
 51
270.00000000000006
  0
LINE
  8
_0-0_LAYER001
  6
CONTINUOUS
 62
    4
 10
922.82889999999998
 20
976.92309999999998
 11
919.41110000000003
 21
976.92309999999998
  0
LINE
  8
_0-0_LAYER001
  6
CONTINUOUS
 62
    4
 10
925.78809999999999
 20
979.42990000000009
 11
927.72209999999995
 21
991.03410000000008
  0
ARC
  8
_0-0_LAYER001
  6
CONTINUOUS
 62
    4
 10
922.82889999999998
 20
979.92309999999998
 40
3
 50
270
 51
350.53766999999999
  0
LINE
  8
_0-0_LAYER001
  6
CONTINUOUS
 62
    4
 10
825.25119999999993
 20
1019.2766999999999
 11
827.77549999999997
 21
1019.1612
  0
LINE
  8
_0-0_LAYER001
  6
CONTINUOUS
 62
    4
 10
827.77549999999997
 20
1019.1612
 11
832.14069999999992
 21
1019.0866000000001
  0
LINE
  8
_0-0_LAYER001
  6
CONTINUOUS
 62
    4
 10
832.14069999999992
 20
1019.0866000000001
 11
836.50780000000009
 21
1019.1208999999999
  0
LINE
  8
_0-0_LAYER001
  6
CONTINUOUS
 62
    4
 10
836.50780000000009
 20
1019.1208999999999
 11
840.8737000000001
 21
1019.2484999999999
  0
LINE
  8
_0-0_LAYER001
  6
CONTINUOUS
 62
    4
 10
840.8737000000001
 20
1019.2484999999999
 11
843.40409999999997
 21
1019.3589999999999
  0
LINE
  8
_0-0_LAYER001
  6
CONTINUOUS
 62
    4
 10
843.40409999999997
 20
1019.3589999999999
 11
848.13319999999999
 21
1019.6271999999999
  0
LINE
  8
_0-0_LAYER001
  6
CONTINUOUS
 62
    4
 10
848.13319999999999
 20
1019.6271999999999
 11
856.27140000000009
 21
1020.2582
  0
LINE
  8
_0-0_LAYER001
  6
CONTINUOUS
 62
    4
 10
856.27140000000009
 20
1020.2582
 11
864.3922
 21
1021.0721000000001
  0
LINE
  8
_0-0_LAYER001
  6
CONTINUOUS
 62
    4
 10
864.3922
 20
1021.0721000000001
 11
872.49800000000005
 21
1022.0333000000001
  0
LINE
  8
_0-0_LAYER001
  6
CONTINUOUS
 62
    4
 10
872.49800000000005
 20
1022.0333000000001
 11
880.5915
 21
1023.1065000000001
  0
LINE
  8
_0-0_LAYER001
  6
CONTINUOUS
 62
    4
 10
880.5915
 20
1023.1065000000001
 11
888.67499999999995
 21
1024.2561000000001
  0
LINE
  8
_0-0_LAYER001
  6
CONTINUOUS
 62
    4
 10
888.67499999999995
 20
1024.2561000000001
 11
893.35989999999993
 21
1024.9439
  0
LINE
  8
_0-0_LAYER001
  6
CONTINUOUS
 62
    4
 10
893.35989999999993
 20
1024.9439
 11
895.7947999999999
 21
1025.3046999999999
  0
LINE
  8
_0-0_LAYER001
  6
CONTINUOUS
 62
    4
 10
895.7947999999999
 20
1025.3046999999999
 11
899.99180000000001
 21
1025.9306999999999
  0
LINE
  8
_0-0_LAYER001
  6
CONTINUOUS
 62
    4
 10
899.99180000000001
 20
1025.9306999999999
 11
904.18759999999997
 21
1026.5608
  0
LINE
  8
_0-0_LAYER001
  6
CONTINUOUS
 62
    4
 10
904.18759999999997
 20
1026.5608
 11
908.38239999999996
 21
1027.1940999999999
  0
LINE
  8
_0-0_LAYER001
  6
CONTINUOUS
 62
    4
 10
908.38239999999996
 20
1027.1940999999999
 11
912.5766000000001
 21
1027.8297
  0
LINE
  8
_0-0_LAYER001
  6
CONTINUOUS
 62
    4
 10
912.5766000000001
 20
1027.8297
 11
916.77029999999991
 21
1028.4666999999999
  0
LINE
  8
_0-0_LAYER001
  6
CONTINUOUS
 62
    4
 10
916.77029999999991
 20
1028.4666999999999
 11
919.20260000000007
 21
1028.8363999999999
  0
LINE
  8
_0-0_LAYER001
  6
CONTINUOUS
 62
    4
 10
825.25119999999993
 20
1001.2579000000001
 11
827.21019999999999
 21
1001.1683
  0
LINE
  8
_0-0_LAYER001
  6
CONTINUOUS
 62
    4
 10
827.21019999999999
 20
1001.1683
 11
832.05760000000009
 21
1001.0853999999999
  0
LINE
  8
_0-0_LAYER001
  6
CONTINUOUS
 62
    4
 10
832.05760000000009
 20
1001.0853999999999
 11
836.8415
 21
1001.123
  0
LINE
  8
_0-0_LAYER001
  6
CONTINUOUS
 62
    4
 10
836.8415
 20
1001.123
 11
841.52919999999995
 21
1001.26
  0
LINE
  8
_0-0_LAYER001
  6
CONTINUOUS
 62
    4
 10
841.52919999999995
 20
1001.26
 11
844.30629999999996
 21
1001.3812
  0
LINE
  8
_0-0_LAYER001
  6
CONTINUOUS
 62
    4
 10
844.30629999999996
 20
1001.3812
 11
849.33870000000002
 21
1001.6666
  0
LINE
  8
_0-0_LAYER001
  6
CONTINUOUS
 62
    4
 10
849.33870000000002
 20
1001.6666
 11
857.86480000000006
 21
1002.3277
  0
LINE
  8
_0-0_LAYER001
  6
CONTINUOUS
 62
    4
 10
857.86480000000006
 20
1002.3277
 11
866.34969999999998
 21
1003.1781000000001
  0
LINE
  8
_0-0_LAYER001
  6
CONTINUOUS
 62
    4
 10
866.34969999999998
 20
1003.1781000000001
 11
874.74099999999999
 21
1004.1732
  0
LINE
  8
_0-0_LAYER001
  6
CONTINUOUS
 62
    4
 10
874.74099999999999
 20
1004.1732
 11
883.04169999999999
 21
1005.2738999999999
  0
LINE
  8
_0-0_LAYER001
  6
CONTINUOUS
 62
    4
 10
883.04169999999999
 20
1005.2738999999999
 11
891.2494999999999
 21
1006.4411
  0
LINE
  8
_0-0_LAYER001
  6
CONTINUOUS
 62
    4
 10
891.2494999999999
 20
1006.4411
 11
895.98659999999995
 21
1007.1366
  0
LINE
  8
_0-0_LAYER001
  6
CONTINUOUS
 62
    4
 10
895.98659999999995
 20
1007.1366
 11
898.44190000000003
 21
1007.5003999999999
  0
LINE
  8
_0-0_LAYER001
  6
CONTINUOUS
 62
    4
 10
898.44190000000003
 20
1007.5003999999999
 11
902.65609999999992
 21
1008.1289999999999
  0
LINE
  8
_0-0_LAYER001
  6
CONTINUOUS
 62
    4
 10
902.65609999999992
 20
1008.1289999999999
 11
906.86760000000004
 21
1008.7615000000001
  0
LINE
  8
_0-0_LAYER001
  6
CONTINUOUS
 62
    4
 10
906.86760000000004
 20
1008.7615000000001
 11
911.07429999999999
 21
1009.3965000000001
  0
LINE
  8
_0-0_LAYER001
  6
CONTINUOUS
 62
    4
 10
911.07429999999999
 20
1009.3965000000001
 11
915.27659999999992
 21
1010.0333000000001
  0
LINE
  8
_0-0_LAYER001
  6
CONTINUOUS
 62
    4
 10
915.27659999999992
 20
1010.0333000000001
 11
919.47450000000003
 21
1010.671
  0
LINE
  8
_0-0_LAYER001
  6
CONTINUOUS
 62
    4
 10
919.47450000000003
 20
1010.671
 11
921.09220000000005
 21
1010.9168999999999
  0
LINE
  8
_0-0_LAYER001
  6
CONTINUOUS
 62
    4
 10
931.60100000000011
 20
1013.9880000000001
 11
931.60100000000011
 21
1031.1854000000001
  0
LINE
  8
_0-0_LAYER001
  6
CONTINUOUS
 62
    4
 10
919.3275000000001
 20
1028.8717999999999
 11
963.78179999999998
 21
1038.5197000000001
  0
LINE
  8
_0-0_LAYER001
  6
CONTINUOUS
 62
    4
 10
926.07269999999994
 20
1009.0381
 11
964.74450000000002
 21
1018.0880999999999
  0
LINE
  8
_0-0_LAYER001
  6
CONTINUOUS
 62
    4
 10
964.74450000000002
 20
1019.0445999999999
 11
964.74450000000002
 21
1018.0880999999999
  0
ARC
  8
_0-0_LAYER001
  6
CONTINUOUS
 62
    4
 10
965.74450000000002
 20
1019.0445999999999
 40
1
 50
102.72435
 51
180
  0
LINE
  8
_0-0_LAYER001
  6
CONTINUOUS
 62
    4
 10
970.56150000000002
 20
1021.1574000000001
 11
965.52430000000004
 21
1020.02
  0
ARC
  8
_0-0_LAYER001
  6
CONTINUOUS
 62
    4
 10
970.78179999999998
 20
1020.182
 40
1
 50
0
 51
102.72435
  0
LINE
  8
_0-0_LAYER001
  6
CONTINUOUS
 62
    4
 10
970.99389999999994
 20
1021.6659
 11
920.85989999999993
 21
1010.7854
  0
ARC
  8
_0-0_LAYER001
  6
CONTINUOUS
 62
    4
 10
970.78179999999998
 20
1022.6432
 40
1
 50
282.24497000000002
 51
0
  0
LINE
  8
_0-0_LAYER001
  6
CONTINUOUS
 62
    4
 10
970.99970000000008
 20
1000.9251999999999
 11
921.41570000000002
 21
989.8572999999999
  0
LINE
  8
_0-0_LAYER001
  6
CONTINUOUS
 62
    4
 10
971.78179999999998
 20
1001.9012
 11
971.78179999999998
 21
1020.182
  0
ARC
  8
_0-0_LAYER001
  6
CONTINUOUS
 62
    4
 10
970.78179999999998
 20
1001.9012
 40
1
 50
282.58296000000001
 51
0.0000000000000254
  0
LINE
  8
_0-0_LAYER001
  6
CONTINUOUS
 62
    4
 10
963.78179999999998
 20
1039.9766999999999
 11
963.78179999999998
 21
1038.5197000000001
  0
ARC
  8
_0-0_LAYER001
  6
CONTINUOUS
 62
    4
 10
964.78179999999998
 20
1039.9766999999999
 40
1
 50
101.73308
 51
180
  0
LINE
  8
_0-0_LAYER001
  6
CONTINUOUS
 62
    4
 10
970.57850000000008
 20
1042.202
 11
964.57850000000008
 21
1040.9558
  0
LINE
  8
_0-0_LAYER001
  6
CONTINUOUS
 62
    4
 10
971.78179999999998
 20
1041.2229
 11
971.78179999999998
 21
1022.6432
  0
ARC
  8
_0-0_LAYER001
  6
CONTINUOUS
 62
    4
 10
970.78179999999998
 20
1041.2229
 40
1
 50
0
 51
101.73308
  0
LINE
  8
_0-0_LAYER001
  6
DASHED1
 62
    2
 10
1035.9989
 20
1011.0098
 11
1051.9989
 21
1011.0098
  0
LINE
  8
_0-0_LAYER001
  6
DASHED1
 62
    2
 10
1051.9989
 20
1011.0098
 11
1051.9989
 21
1008.0098
  0
LINE
  8
_0-0_LAYER001
  6
DASHED1
 62
    2
 10
1035.9989
 20
1011.0098
 11
1035.9989
 21
1008.0098
  0
LINE
  8
_0-0_LAYER001
  6
DASHED1
 62
    2
 10
1035.9989
 20
1008.0098
 11
1051.9989
 21
1008.0098
  0
LINE
  8
_0-0_LAYER001
  6
DASHED1
 62
    2
 10
1046.9989
 20
953.11380000000008
 11
1043.9486999999999
 21
938.60490000000004
  0
LINE
  8
_0-0_LAYER001
  6
DASHED1
 62
    2
 10
1046.9989
 20
1008.0098
 11
1046.9989
 21
953.11380000000008
  0
LINE
  8
_0-0_LAYER001
  6
DASHED1
 62
    2
 10
1043.9486999999999
 20
938.60490000000004
 11
1040.9989
 21
952.86239999999998
  0
LINE
  8
_0-0_LAYER001
  6
DASHED1
 62
    2
 10
1040.9989
 20
1008.0098
 11
1040.9989
 21
952.86239999999998
  0
LINE
  8
_0-1_LAYER004
  6
CONTINUOUS
 62
   18
 10
1019.7022999999999
 20
1300.6574000000001
 11
1224.5250000000001
 21
1300.6574000000001
  0
LINE
  8
_0-1_LAYER004
  6
CONTINUOUS
 62
   18
 10
1503.1511
 20
1350.1139000000001
 11
1650.1511
 21
1350.1139000000001
  0
LINE
  8
_0-1_LAYER004
  6
CONTINUOUS
 62
   18
 10
1814.6939000000002
 20
1305.2034000000001
 11
1961.6939000000002
 21
1305.2034000000001
  0
LINE
  8
_0-1_LAYER004
  6
CONTINUOUS
 62
   18
 10
2000.4728
 20
1155.1591000000001
 11
2052.1728000000003
 21
1155.1591000000001
  0
LINE
  8
_0-1_LAYER004
  6
CONTINUOUS
 62
   18
 10
2050.4728
 20
1155.1591000000001
 11
2050.4728
 21
955.15910000000008
  0
LINE
  8
_0-1_LAYER004
  6
CONTINUOUS
 62
   18
 10
2050.4728
 20
955.15910000000008
 11
2052.1728000000003
 21
955.15910000000008
  0
LINE
  8
_0-1_LAYER004
  6
CONTINUOUS
 62
   18
 10
2050.4728
 20
955.15910000000008
 11
2000.4728
 21
955.15910000000008
  0
LINE
  8
_0-1_LAYER004
  6
CONTINUOUS
 62
   18
 10
1911.2311
 20
955.15910000000008
 11
1962.9311000000002
 21
955.15910000000008
  0
LINE
  8
_0-1_LAYER004
  6
CONTINUOUS
 62
   18
 10
1961.2311
 20
955.15910000000008
 11
1961.2311
 21
1256.7392
  0
LINE
  8
_0-1_LAYER004
  6
CONTINUOUS
 62
   18
 10
1962.9311000000002
 20
1256.7392
 11
1911.2311
 21
1256.7392
  0
LINE
  8
_0-1_LAYER004
  6
CONTINUOUS
 62
   18
 10
1911.2311
 20
1242.1591000000001
 11
1962.9311000000002
 21
1242.1591000000001
  0
LINE
  8
_0-1_LAYER004
  6
CONTINUOUS
 62
   18
 10
1911.2311
 20
1142.1591000000001
 11
1962.9311000000002
 21
1142.1591000000001
  0
LINE
  8
_0-1_LAYER004
  6
CONTINUOUS
 62
   18
 10
1911.2311
 20
1085.1591000000001
 11
1962.9311000000002
 21
1085.1591000000001
  0
LINE
  8
_0-1_LAYER004
  6
CONTINUOUS
 62
   18
 10
1874.212
 20
930.15910000000008
 11
1774.212
 21
930.15910000000008
  0
LINE
  8
_0-1_LAYER004
  6
CONTINUOUS
 62
   18
 10
1774.212
 20
930.15910000000008
 11
825.25119999999993
 21
930.15910000000008
  0
LINE
  8
_0-1_LAYER004
  6
CONTINUOUS
 62
   18
 10
825.25119999999993
 20
830.15910000000008
 11
1764.212
 21
830.15910000000008
  0
LINE
  8
_0-1_LAYER004
  6
CONTINUOUS
 62
   18
 10
1764.212
 20
830.15910000000008
 11
1764.212
 21
930.15910000000008
  0
LINE
  8
_0-1_LAYER004
  6
CONTINUOUS
 62
   18
 10
1774.212
 20
826.65740000000005
 11
1774.212
 21
774.95740000000012
  0
LINE
  8
_0-1_LAYER004
  6
CONTINUOUS
 62
   18
 10
1774.212
 20
776.65740000000005
 11
1654.212
 21
776.65740000000005
  0
LINE
  8
_0-1_LAYER004
  6
CONTINUOUS
 62
   18
 10
1654.212
 20
774.95740000000012
 11
1654.212
 21
826.65740000000005
  0
LINE
  8
_0-1_LAYER004
  6
CONTINUOUS
 62
   18
 10
1766.1397999999999
 20
772.66450000000009
 11
1766.1397999999999
 21
720.96450000000004
  0
LINE
  8
_0-1_LAYER004
  6
CONTINUOUS
 62
   18
 10
1766.1397999999999
 20
722.66450000000009
 11
931.13979999999992
 21
722.66450000000009
  0
LINE
  8
_0-1_LAYER004
  6
CONTINUOUS
 62
   18
 10
931.13979999999992
 20
720.96450000000004
 11
931.13979999999992
 21
772.66450000000009
  0
LINE
  8
_0-1_LAYER004
  6
CONTINUOUS
 62
   18
 10
1196.1397999999999
 20
720.96450000000004
 11
1196.1397999999999
 21
772.66450000000009
  0
LINE
  8
_0-1_LAYER004
  6
CONTINUOUS
 62
   18
 10
1461.1397999999999
 20
720.16450000000009
 11
1461.1397999999999
 21
772.66450000000009
  0
LINE
  8
_0-1_LAYER004
  6
CONTINUOUS
 62
   18
 10
825.25119999999993
 20
976.15910000000008
 11
1652.2118999999998
 21
976.15910000000008
  0
LINE
  8
_0-1_LAYER004
  6
CONTINUOUS
 62
   18
 10
1652.2118999999998
 20
976.15910000000008
 11
1652.2118999999998
 21
961.15910000000008
  0
LINE
  8
_0-1_LAYER004
  6
CONTINUOUS
 62
   18
 10
1652.2118999999998
 20
961.15910000000008
 11
825.25119999999993
 21
961.15910000000008
  0
LINE
  8
_0-1_LAYER004
  6
CONTINUOUS
 62
   18
 10
825.25119999999993
 20
957.15910000000008
 11
1772.212
 21
957.15910000000008
  0
LINE
  8
_0-1_LAYER004
  6
CONTINUOUS
 62
   18
 10
1772.212
 20
957.15910000000008
 11
1772.212
 21
1240.7059999999999
  0
LINE
  8
_0-1_LAYER004
  6
CONTINUOUS
 62
   18
 10
1769.8119999999999
 20
1210.3391999999999
 11
1769.8119999999999
 21
1242.7860000000001
  0
LINE
  8
_0-1_LAYER004
  6
CONTINUOUS
 62
   18
 10
1769.8119999999999
 20
1242.7860000000001
 11
1787.732
 21
1242.7860000000001
  0
LINE
  8
_0-1_LAYER004
  6
CONTINUOUS
 62
   18
 10
1787.732
 20
1242.7860000000001
 11
1787.732
 21
1261.5061000000001
  0
LINE
  8
_0-1_LAYER004
  6
CONTINUOUS
 62
   18
 10
1774.212
 20
1261.5061000000001
 11
1789.8119999999999
 21
1261.5061000000001
  0
LINE
  8
_0-1_LAYER004
  6
CONTINUOUS
 62
   18
 10
1789.8119999999999
 20
1261.5061000000001
 11
1789.8119999999999
 21
1240.7059999999999
  0
LINE
  8
_0-1_LAYER004
  6
CONTINUOUS
 62
   18
 10
1789.8119999999999
 20
1240.7059999999999
 11
1774.212
 21
1240.7059999999999
  0
LINE
  8
_0-1_LAYER004
  6
CONTINUOUS
 62
   18
 10
1774.212
 20
1240.7059999999999
 11
1774.212
 21
930.15910000000008
  0
LINE
  8
_0-1_LAYER004
  6
CONTINUOUS
 62
   18
 10
1774.212
 20
955.15910000000008
 11
825.25119999999993
 21
955.15910000000008
  0
LINE
  8
_0-1_LAYER004
  6
CONTINUOUS
 62
   18
 10
1905.9645
 20
864.1389999999999
 11
2144.7487000000001
 21
864.1389999999999
  0
LINE
  8
_0-1_LAYER004
  6
CONTINUOUS
 62
   18
 10
2144.7487000000001
 20
864.1389999999999
 11
1905.9645
 21
864.1389999999999
  0
LINE
  8
_0-1_LAYER004
  6
CONTINUOUS
 62
   18
 10
1886.1051000000002
 20
795.39670000000001
 11
1967.2651000000001
 21
795.39670000000001
  0
LINE
  8
_0-1_LAYER004
  6
CONTINUOUS
 62
   18
 10
1874.212
 20
930.15910000000008
 11
1874.212
 21
1305.2034000000001
  0
LINE
  8
_0-1_LAYER004
  6
CONTINUOUS
 62
   18
 10
1774.212
 20
1346.9009000000001
 11
1774.212
 21
1261.5061000000001
  0
LINE
  8
_0-1_LAYER004
  6
CONTINUOUS
 62
   18
 10
1744.212
 20
1119.9978000000001
 11
1744.212
 21
1085.2877000000001
  0
LINE
  8
_0-1_LAYER004
  6
CONTINUOUS
 62
   18
 10
1744.212
 20
1085.2877000000001
 11
1774.212
 21
1085.2877000000001
  0
LINE
  8
_0-1_LAYER004
  6
CONTINUOUS
 62
   18
 10
1736.7514000000001
 20
1115.7732000000001
 11
1751.2638999999999
 21
1115.7732000000001
  0
LINE
  8
_0-1_LAYER004
  6
CONTINUOUS
 62
   18
 10
1751.2638999999999
 20
1115.7732000000001
 11
1751.2638999999999
 21
1097.3716999999999
  0
LINE
  8
_0-1_LAYER004
  6
CONTINUOUS
 62
   18
 10
1751.2638999999999
 20
1097.3716999999999
 11
1736.7514000000001
 21
1097.3716999999999
  0
LINE
  8
_0-1_LAYER004
  6
CONTINUOUS
 62
   18
 10
1736.7514000000001
 20
1097.3716999999999
 11
1736.7514000000001
 21
1115.7732000000001
  0
LINE
  8
_0-1_LAYER004
  6
CONTINUOUS
 62
   18
 10
1750.2118999999998
 20
1108.2876000000001
 11
1750.2118999999998
 21
1102.2877000000001
  0
LINE
  8
_0-1_LAYER004
  6
CONTINUOUS
 62
   18
 10
1750.2118999999998
 20
1108.2876000000001
 11
1774.212
 21
1108.2876000000001
  0
LINE
  8
_0-1_LAYER004
  6
CONTINUOUS
 62
   18
 10
1750.2118999999998
 20
1102.2877000000001
 11
1774.212
 21
1102.2877000000001
  0
LINE
  8
_0-1_LAYER004
  6
CONTINUOUS
 62
   18
 10
1774.212
 20
1109.5377000000001
 11
1792.4119000000001
 21
1109.5377000000001
  0
LINE
  8
_0-1_LAYER004
  6
CONTINUOUS
 62
   18
 10
1774.212
 20
1101.0377000000001
 11
1792.4119000000001
 21
1101.0377000000001
  0
LINE
  8
_0-1_LAYER004
  6
CONTINUOUS
 62
   18
 10
1770.212
 20
1085.2877000000001
 11
1770.212
 21
959.15910000000008
  0
LINE
  8
_0-1_LAYER004
  6
CONTINUOUS
 62
   18
 10
1770.212
 20
959.15910000000008
 11
1654.212
 21
959.15910000000008
  0
LINE
  8
_0-1_LAYER004
  6
CONTINUOUS
 62
   18
 10
1654.212
 20
959.15910000000008
 11
1654.212
 21
976.15910000000008
  0
LINE
  8
_0-1_LAYER004
  6
CONTINUOUS
 62
   18
 10
1654.212
 20
976.90200000000004
 11
1666.9608368900913
 21
976.90200000000004
  0
LINE
  8
_0-1_LAYER004
  6
CONTINUOUS
 62
   18
 10
1654.212
 20
976.90200000000004
 11
1654.212
 21
976.15910000000008
  0
LINE
  8
_0-1_LAYER004
  6
CONTINUOUS
 62
   18
 10
1772.212
 20
1328.6143999999999
 11
1772.212
 21
1276.1143999999999
  0
LINE
  8
_0-1_LAYER004
  6
CONTINUOUS
 62
   18
 10
1772.212
 20
1326.1143999999999
 11
1680.6578
 21
1326.1143999999999
  0
LINE
  8
_0-1_LAYER004
  6
CONTINUOUS
 62
   18
 10
1680.6578
 20
1327.8144
 11
1680.6578
 21
1276.1143999999999
  0
LINE
  8
_0-1_LAYER004
  6
CONTINUOUS
 62
   18
 10
1780.1493
 20
1270.604
 11
1780.1493
 21
1263.104
  0
LINE
  8
_0-1_LAYER004
  6
CONTINUOUS
 62
   18
 10
1780.1493
 20
1263.104
 11
1783.8993
 21
1269.5992000000001
  0
LINE
  8
_0-1_LAYER004
  6
CONTINUOUS
 62
   18
 10
1780.1493
 20
1263.104
 11
1806.7383
 21
1362.3353999999999
  0
LINE
  8
_0-1_LAYER004
  6
CONTINUOUS
 62
   18
 10
1814.6939000000002
 20
1305.2034000000001
 11
1762.7552000000001
 21
1111.3655000000001
  0
LINE
  8
_0-1_LAYER004
  6
CONTINUOUS
 62
   18
 10
1762.7552000000001
 20
1111.3655000000001
 11
1762.7552000000001
 21
1118.8655000000001
  0
LINE
  8
_0-1_LAYER004
  6
CONTINUOUS
 62
   18
 10
1762.7552000000001
 20
1111.3655000000001
 11
1766.5052000000001
 21
1117.8607
  0
LINE
  8
_0-1_LAYER004
  6
CONTINUOUS
 62
   18
 10
1753.3901000000001
 20
1136.8476000000001
 11
1756.2260999999999
 21
1135.729
  0
LINE
  8
_0-1_LAYER004
  6
CONTINUOUS
 62
   18
 10
1756.2260999999999
 20
1135.729
 11
1760.9158000000002
 21
1109.1356000000001
  0
LINE
  8
_0-1_LAYER004
  6
CONTINUOUS
 62
   18
 10
1760.9158000000002
 20
1109.1356000000001
 11
1764.3575000000001
 21
1100.8967
  0
LINE
  8
_0-1_LAYER004
  6
CONTINUOUS
 62
   18
 10
1764.3575000000001
 20
1100.8967
 11
1764.5659000000001
 21
1109.7793999999999
  0
LINE
  8
_0-1_LAYER004
  6
CONTINUOUS
 62
   18
 10
1764.5659000000001
 20
1109.7793999999999
 11
1759.8760000000002
 21
1136.3713
  0
LINE
  8
_0-1_LAYER004
  6
CONTINUOUS
 62
   18
 10
1759.8760000000002
 20
1136.3713
 11
1762.1595000000002
 21
1138.3939
  0
LINE
  8
_0-1_LAYER004
  6
CONTINUOUS
 62
   18
 10
1772.212
 20
1142.1972000000001
 11
1680.6578
 21
1126.0536999999999
  0
LINE
  8
_0-1_LAYER004
  6
CONTINUOUS
 62
   18
 10
1680.6578
 20
1126.0536999999999
 11
1683.2624000000001
 21
1111.2816
  0
LINE
  8
_0-1_LAYER004
  6
CONTINUOUS
 62
   18
 10
1683.2624000000001
 20
1111.2816
 11
1659.6804000000002
 21
1102.6984
  0
LINE
  8
_0-1_LAYER004
  6
CONTINUOUS
 62
   18
 10
1659.6804000000002
 20
1102.6984
 11
1665.5929999999998
 21
1103.7186999999999
  0
LINE
  8
_0-1_LAYER004
  6
CONTINUOUS
 62
   18
 10
1687.0628000000002
 20
1134.5642
 11
1690.8128000000002
 21
1128.069
  0
LINE
  8
_0-1_LAYER004
  6
CONTINUOUS
 62
   18
 10
1690.8128000000002
 20
1128.069
 11
1690.8128000000002
 21
1135.569
  0
LINE
  8
_0-1_LAYER004
  6
CONTINUOUS
 62
   18
 10
1707.2642999999998
 20
1129.4645
 11
1711.0142999999998
 21
1122.9693
  0
LINE
  8
_0-1_LAYER004
  6
CONTINUOUS
 62
   18
 10
1711.0142999999998
 20
1122.9693
 11
1711.0142999999998
 21
1130.4693
  0
LINE
  8
_0-1_LAYER004
  6
CONTINUOUS
 62
   18
 10
1682.9746
 20
1124.4313999999999
 11
1685.5792999999999
 21
1109.6593
  0
LINE
  8
_0-1_LAYER004
  6
CONTINUOUS
 62
   18
 10
1685.5792999999999
 20
1109.6593
 11
1774.212
 21
1125.2877000000001
  0
LINE
  8
_0-1_LAYER004
  6
CONTINUOUS
 62
   18
 10
1774.212
 20
1125.2877000000001
 11
1771.6073000000001
 21
1140.0598
  0
LINE
  8
_0-1_LAYER004
  6
CONTINUOUS
 62
   18
 10
1771.6073000000001
 20
1140.0598
 11
1682.9746
 21
1124.4313999999999
  0
LINE
  8
_0-1_LAYER004
  6
CONTINUOUS
 62
   18
 10
1682.9746
 20
1124.4313999999999
 11
1774.212
 21
1125.2877000000001
  0
LINE
  8
_0-1_LAYER004
  6
CONTINUOUS
 62
   18
 10
1711.0142999999998
 20
1122.9693
 11
1650.1511
 21
1350.1139000000001
  0
LINE
  8
_0-1_LAYER004
  6
CONTINUOUS
 62
   18
 10
1643.7323999999999
 20
1303.7754999999997
 11
1690.8128000000002
 21
1128.069
  0
LINE
  8
_0-1_LAYER004
  6
CONTINUOUS
 62
   18
 10
1649.7613000000001
 20
1078.6495
 11
1653.5113000000001
 21
1072.1542999999999
  0
LINE
  8
_0-1_LAYER004
  6
CONTINUOUS
 62
   18
 10
1653.5113000000001
 20
1072.1542999999999
 11
1653.5113000000001
 21
1079.6542999999999
  0
LINE
  8
_0-1_LAYER004
  6
CONTINUOUS
 62
   18
 10
1653.5113000000001
 20
1072.1542999999999
 11
1623.7039
 21
1183.3969
  0
LINE
  8
_0-1_LAYER004
  6
CONTINUOUS
 62
   18
 10
1747.7159000000001
 20
1120.6157000000001
 11
1774.212
 21
1085.2877000000001
  0
LINE
  8
_0-1_LAYER004
  6
CONTINUOUS
 62
   18
 10
1750.2118999999998
 20
1108.2876000000001
 11
1744.212
 21
1111.2877000000001
  0
LINE
  8
_0-1_LAYER004
  6
CONTINUOUS
 62
   18
 10
1750.2118999999998
 20
1102.2877000000001
 11
1744.212
 21
1099.2876000000001
  0
LINE
  8
_0-1_LAYER004
  6
CONTINUOUS
 62
   18
 10
1746.1417999999999
 20
1091.1587999999999
 11
1749.9360000000001
 21
1086.9853000000001
  0
LINE
  8
_0-1_LAYER004
  6
CONTINUOUS
 62
   18
 10
1749.9360000000001
 20
1086.9853000000001
 11
1732.6451000000002
 21
1063.1468
  0
LINE
  8
_0-1_LAYER004
  6
CONTINUOUS
 62
   18
 10
1732.6451000000002
 20
1063.1468
 11
1725.4638
 21
1061.2800999999999
  0
LINE
  8
_0-1_LAYER004
  6
CONTINUOUS
 62
   18
 10
1725.4638
 20
1061.2800999999999
 11
1725.4638
 21
1080.1559
  0
LINE
  8
_0-1_LAYER004
  6
CONTINUOUS
 62
   18
 10
1725.4638
 20
1080.1559
 11
1746.1417999999999
 21
1091.1587999999999
  0
LINE
  8
_0-1_LAYER004
  6
CONTINUOUS
 62
   18
 10
1770.212
 20
1085.2877000000001
 11
1762.712
 21
1072.2973
  0
LINE
  8
_0-1_LAYER004
  6
CONTINUOUS
 62
   18
 10
1774.212
 20
1084.5224000000001
 11
1874.212
 21
984.52260000000001
  0
LINE
  8
_0-1_LAYER004
  6
CONTINUOUS
 62
   18
 10
1874.212
 20
980.2799
 11
1774.212
 21
1080.2799
  0
LINE
  8
_0-1_LAYER004
  6
CONTINUOUS
 62
   18
 10
1739.1408999999999
 20
1049.9459999999999
 11
1741.0821000000001
 21
1042.7016000000001
  0
LINE
  8
_0-1_LAYER004
  6
CONTINUOUS
 62
   18
 10
1739.1408999999999
 20
1049.9459999999999
 11
1744.4441999999999
 21
1044.6427000000001
  0
LINE
  8
_0-1_LAYER004
  6
CONTINUOUS
 62
   18
 10
1739.1408999999999
 20
1049.9459999999999
 11
1886.1051000000002
 21
795.39670000000001
  0
LINE
  8
_0-1_LAYER004
  6
CONTINUOUS
 62
   18
 10
1905.9645
 20
864.1389999999999
 11
1841.9187000000002
 21
975.06950000000006
  0
LINE
  8
_0-1_LAYER004
  6
CONTINUOUS
 62
   18
 10
1841.9187000000002
 20
975.06950000000006
 11
1843.8598000000002
 21
967.82510000000002
  0
LINE
  8
_0-1_LAYER004
  6
CONTINUOUS
 62
   18
 10
1841.9187000000002
 20
975.06950000000006
 11
1847.2220000000002
 21
969.76620000000003
  0
LINE
  8
_0-1_LAYER004
  6
CONTINUOUS
 62
   18
 10
1728.3344999999999
 20
959.15910000000008
 11
1730.2755999999999
 21
951.91470000000004
  0
LINE
  8
_0-1_LAYER004
  6
CONTINUOUS
 62
   18
 10
1733.6378
 20
953.85580000000004
 11
1728.3344999999999
 21
959.15910000000008
  0
LINE
  8
_0-1_LAYER004
  6
CONTINUOUS
 62
   18
 10
1728.3344999999999
 20
959.15910000000008
 11
1855.3611000000001
 21
739.14249999999993
  0
LINE
  8
_0-1_LAYER004
  6
CONTINUOUS
 62
   18
 10
1442.9683
 20
996.40329999999994
 11
1446.2421472410585
 21
991.6851242728419
  0
LINE
  8
_0-1_LAYER004
  6
CONTINUOUS
 62
   18
 10
1446.7183
 20
991.76426707730513
 11
1446.7183
 21
997.4081000000001
  0
LINE
  8
_0-1_LAYER004
  6
CONTINUOUS
 62
   18
 10
1446.7183
 20
991.76426707730513
 11
1419.6217999999999
 21
1091.0335
  0
LINE
  8
_0-1_LAYER004
  6
CONTINUOUS
 62
   18
 10
1314.3986999999997
 20
972.74430000000007
 11
1314.3986999999997
 21
965.24430000000007
  0
LINE
  8
_0-1_LAYER004
  6
CONTINUOUS
 62
   18
 10
1314.3986999999997
 20
965.24430000000007
 11
1310.6486999999997
 21
971.73949999999991
  0
LINE
  8
_0-1_LAYER004
  6
CONTINUOUS
 62
   18
 10
1314.3986999999997
 20
965.24430000000007
 11
1224.5250000000001
 21
1300.6574000000001
  0
LINE
  8
_0-1_LAYER004
  6
CONTINUOUS
 62
   18
 10
1774.212
 20
1296.5223000000001
 11
1874.212
 21
1196.5226
  0
LINE
  8
_0-1_LAYER004
  6
CONTINUOUS
 62
   18
 10
1874.212
 20
1192.2799
 11
1774.212
 21
1292.2799
  0
ARC
  8
_0-1_LAYER004
  6
CONTINUOUS
 62
   18
 10
1754.7124322898626
 20
1251.1061068033314
 40
22.099615367082485
 50
337.88406914144946
 51
28.072998789437307
  0
LINE
  8
_0-1_LAYER004
  6
CONTINUOUS
 62
   18
 10
1772.212
 20
1240.7391
 11
1769.8119999999999
 21
1230.7652336751207
  0
ARC
  8
_0-1_LAYER004
  6
CONTINUOUS
 62
   18
 10
1676.6048172471087
 20
1080.3593140537728
 40
13.957656520204445
 50
323.64547841935018
 51
21.662274809686732
  0
ARC
  8
_0-1_LAYER004
  6
CONTINUOUS
 62
   18
 10
1547.5320147780781
 20
1050.4706961065906
 40
143.28724052248111
 50
341.74293490381763
 51
1.521127816023407
  0
LINE
  8
_0-1_LAYER004
  6
CONTINUOUS
 62
   18
 10
1792.4119000000001
 20
1109.5377000000001
 11
1801.5057999999999
 21
1111.1427000000001
  0
LINE
  8
_0-1_LAYER004
  6
CONTINUOUS
 62
   18
 10
1801.5057999999999
 20
1111.1427000000001
 11
1801.8018999999999
 21
1109.4686999999999
  0
LINE
  8
_0-1_LAYER004
  6
CONTINUOUS
 62
   18
 10
1801.8018999999999
 20
1109.4686999999999
 11
1803.4758999999999
 21
1109.7637
  0
LINE
  8
_0-1_LAYER004
  6
CONTINUOUS
 62
   18
 10
1803.4758999999999
 20
1109.7637
 11
1803.1799000000001
 21
1111.4376999999999
  0
LINE
  8
_0-1_LAYER004
  6
CONTINUOUS
 62
   18
 10
1803.1799000000001
 20
1111.4376999999999
 11
1805.8389000000002
 21
1111.9057
  0
LINE
  8
_0-1_LAYER004
  6
CONTINUOUS
 62
   18
 10
1805.8389000000002
 20
1111.9057
 11
1806.1349
 21
1110.2327
  0
LINE
  8
_0-1_LAYER004
  6
CONTINUOUS
 62
   18
 10
1806.1349
 20
1110.2327
 11
1807.8078999999998
 21
1110.5277000000001
  0
LINE
  8
_0-1_LAYER004
  6
CONTINUOUS
 62
   18
 10
1807.8078999999998
 20
1110.5277000000001
 11
1807.5129000000002
 21
1112.2018
  0
LINE
  8
_0-1_LAYER004
  6
CONTINUOUS
 62
   18
 10
1807.5129000000002
 20
1112.2018
 11
1810.1718999999998
 21
1112.6708000000001
  0
LINE
  8
_0-1_LAYER004
  6
CONTINUOUS
 62
   18
 10
1810.1718999999998
 20
1112.6708000000001
 11
1810.4677999999999
 21
1110.9966999999999
  0
LINE
  8
_0-1_LAYER004
  6
CONTINUOUS
 62
   18
 10
1810.4677999999999
 20
1110.9966999999999
 11
1812.1419000000001
 21
1111.2917
  0
LINE
  8
_0-1_LAYER004
  6
CONTINUOUS
 62
   18
 10
1812.1419000000001
 20
1111.2917
 11
1811.846
 21
1112.9657
  0
LINE
  8
_0-1_LAYER004
  6
CONTINUOUS
 62
   18
 10
1811.846
 20
1112.9657
 11
1813.3238000000001
 21
1113.2257
  0
LINE
  8
_0-1_LAYER004
  6
CONTINUOUS
 62
   18
 10
1813.323941138907
 20
1113.227459324256
 11
1815.0559313622894
 21
1112.016705799645
  0
LINE
  8
_0-1_LAYER004
  6
CONTINUOUS
 62
   18
 10
1815.0559313622894
 20
1112.016705799645
 11
1815.4609
 21
1109.7447
  0
LINE
  8
_0-1_LAYER004
  6
CONTINUOUS
 62
   18
 10
1815.4609
 20
1109.7447
 11
1790.1880000000001
 21
1105.2888
  0
LINE
  8
_0-1_LAYER004
  6
CONTINUOUS
 62
   18
 10
1790.1880000000001
 20
1105.2888
 11
1815.2858999999999
 21
1100.8626999999999
  0
LINE
  8
_0-1_LAYER004
  6
CONTINUOUS
 62
   18
 10
1815.2858999999999
 20
1100.8626999999999
 11
1814.8829207687454
 21
1098.6045404287877
  0
LINE
  8
_0-1_LAYER004
  6
CONTINUOUS
 62
   18
 10
1814.8879999999999
 20
1098.5978
 11
1813.1439068191864
 21
1097.3871791172678
  0
LINE
  8
_0-1_LAYER004
  6
CONTINUOUS
 62
   18
 10
1813.1439068191864
 20
1097.3871791172678
 11
1811.6718999999998
 21
1097.6428000000001
  0
LINE
  8
_0-1_LAYER004
  6
CONTINUOUS
 62
   18
 10
1811.6718999999998
 20
1097.6428000000001
 11
1811.9679000000001
 21
1099.3157000000001
  0
LINE
  8
_0-1_LAYER004
  6
CONTINUOUS
 62
   18
 10
1811.9679000000001
 20
1099.3157000000001
 11
1810.2939000000001
 21
1099.6107
  0
LINE
  8
_0-1_LAYER004
  6
CONTINUOUS
 62
   18
 10
1810.2939000000001
 20
1099.6107
 11
1809.998
 21
1097.9376999999999
  0
LINE
  8
_0-1_LAYER004
  6
CONTINUOUS
 62
   18
 10
1809.998
 20
1097.9376999999999
 11
1807.3389000000002
 21
1098.4067
  0
LINE
  8
_0-1_LAYER004
  6
CONTINUOUS
 62
   18
 10
1807.6349
 20
1100.0797
 11
1807.3389000000002
 21
1098.4067
  0
LINE
  8
_0-1_LAYER004
  6
CONTINUOUS
 62
   18
 10
1807.6338999999998
 20
1100.0797
 11
1805.9609999999998
 21
1100.3747000000001
  0
LINE
  8
_0-1_LAYER004
  6
CONTINUOUS
 62
   18
 10
1805.9609999999998
 20
1100.3747000000001
 11
1805.6649000000002
 21
1098.7017000000001
  0
LINE
  8
_0-1_LAYER004
  6
CONTINUOUS
 62
   18
 10
1805.6649000000002
 20
1098.7017000000001
 11
1803.0057999999999
 21
1099.1706999999999
  0
LINE
  8
_0-1_LAYER004
  6
CONTINUOUS
 62
   18
 10
1803.0057999999999
 20
1099.1706999999999
 11
1803.3018999999999
 21
1100.8436999999999
  0
LINE
  8
_0-1_LAYER004
  6
CONTINUOUS
 62
   18
 10
1803.3018999999999
 20
1100.8436999999999
 11
1801.6279
 21
1101.1387
  0
LINE
  8
_0-1_LAYER004
  6
CONTINUOUS
 62
   18
 10
1801.6279
 20
1101.1387
 11
1801.3319000000001
 21
1099.4657999999999
  0
LINE
  8
_0-1_LAYER004
  6
CONTINUOUS
 62
   18
 10
1801.3319000000001
 20
1099.4657999999999
 11
1792.4119000000001
 21
1101.0377000000001
  0
TEXT
  8
_0-2_ADD_LINE
 62
    7
 10
1089.8280261945422
 20
716.10475791779186
 40
20
 41
1
 50
0
  1
：
  0
TEXT
  8
_0-2_ADD_LINE
 62
    7
 10
1522.8544681203157
 20
1352.6464560176307
 40
20
 41
1
 50
0
  1
笠木：15x90
  0
TEXT
  8
_0-2_ADD_LINE
 62
    7
 10
1709.1546402011747
 20
1334.0164388095448
 40
20
 41
1
 50
0
  1
100
  0
TEXT
  8
_0-2_ADD_LINE
 62
    7
 10
1800.6110883135964
 20
1367.8891973697012
 40
20
 41
1
 50
0
  1
シーリング
  0
TEXT
  8
_0-2_ADD_LINE
 62
    7
 10
1820.9347434496904
 20
1311.9991457454432
 40
20
 41
1
 50
0
  1
下地材：40x30
  0
TEXT
  8
_0-2_ADD_LINE
 62
    7
 10
2091.9168119309397
 20
937.70516365571757
 40
20
 41
1
 50
90
  1
下葺き材立上がり寸法
  0
TEXT
  8
_0-2_ADD_LINE
 62
    7
 10
2039.4140361626976
 20
1034.2425255521628
 40
20
 41
1
 50
90
  1
200
  0
TEXT
  8
_0-2_ADD_LINE
 62
    7
 10
2002.1540017465256
 20
1020.6934221281001
 40
20
 41
1
 50
90
  1
水切り立上がり寸法
  0
TEXT
  8
_0-2_ADD_LINE
 62
    7
 10
1947.9575880502757
 20
1007.1443187040377
 40
20
 41
1
 50
90
  1
130
  0
TEXT
  8
_0-2_ADD_LINE
 62
    7
 10
1949.6512259782835
 20
1098.6007668164593
 40
20
 41
1
 50
90
  1
57
  0
TEXT
  8
_0-2_ADD_LINE
 62
    7
 10
1947.9575880502757
 20
1183.2826632168499
 40
20
 41
1
 50
90
  1
90
  0
TEXT
  8
_0-2_ADD_LINE
 62
    7
 10
1942.8766742662524
 20
1240.8663527691153
 40
20
 41
1
 50
90
  1
20
  0
TEXT
  8
_0-2_ADD_LINE
 62
    7
 10
1465.2707785680502
 20
1193.4444907848967
 40
20
 41
1
 50
0
  1
熨斗瓦２段積み
  0
TEXT
  8
_0-2_ADD_LINE
 62
    7
 10
1304.3751754073082
 20
1308.6118698894279
 40
20
 41
1
 50
0
  1
雨押水切カラー鋼板0.35ｍｍ以上
  0
TEXT
  8
_0-2_ADD_LINE
 62
    7
 10
1914.0848294901195
 20
875.04056031942866
 40
20
 41
1
 50
0
  1
外壁：ALCパネルt＝100
  0
TEXT
  8
_0-2_ADD_LINE
 62
    7
 10
1890.3738984980102
 20
802.21412941509266
 40
20
 41
1
 50
0
  1
葺　土　
  0
TEXT
  8
_0-2_ADD_LINE
 62
    7
 10
1863.2756916498852
 20
748.01771571884285
 40
20
 41
1
 50
0
  1
捨谷　カラー鋼板0.35ｍｍ以上
  0
TEXT
  8
_0-2_ADD_LINE
 62
    7
 10
1707.461002273167
 20
781.89047427899914
 40
20
 41
1
 50
0
  1
120
  0
TEXT
  8
_0-2_ADD_LINE
 62
    7
 10
1312.8433650473473
 20
736.16225022278832
 40
20
 41
1
 50
0
  1
265
  0
TEXT
  8
_0-2_ADD_LINE
 62
    7
 10
1038.4740207100822
 20
739.54952607880386
 40
20
 41
1
 50
0
  1
265
  0
TEXT
  8
_0-2_ADD_LINE
 62
    7
 10
1602.4554507366827
 20
748.01771571884285
 40
20
 41
1
 50
0
  1
305
  0
TEXT
  8
_0-2_ADD_LINE
 62
    7
 10
1062.1849517021917
 20
1311.9991457454432
 40
20
 41
1
 50
0
  1
瓦桟：15x30以上
  0
TEXT
  8
_0-2_ADD_LINE
 62
    7
 10
996.13307250988692
 20
1273.0454734012637
 40
20
 41
1
 50
0
  1
下葺材：ルーフィング
  0
TEXT
  8
_0-2_ADD_LINE
 62
    7
 10
911.4511761094966
 20
1215.4617838489983
 40
20
 41
1
 50
0
  1
　鋼製：C100x50x20x2.3　＠606
  0
TEXT
  8
_0-0_LAYER001
 62
    7
 10
775.96014186887191
 20
1244.2536286251309
 40
20
 41
1
 50
0
  1
　野地板：硬質木片セメントパネルｔ＝25　
  0
TEXT
  8
_0-0_LAYER001
 62
    7
 10
1360.2652270315662
 20
1093.519853032436
 40
20
 41
1
 50
0
  1
桟　瓦
  0
LINE
  8
_0-0_LAYER001
  6
CONTINUOUS
 62
    2
 10
1248.1503
 20
1210.829
 11
935.16210710160578
 21
1210.829
  0
LINE
  8
_0-1_LAYER004
  6
CONTINUOUS
 62
   18
 10
1248.1503
 20
1210.829
 11
933.46846917359812
 21
1210.829
  0
LINE
  8
_0-0_LAYER001
  6
CONTINUOUS
 62
    2
 10
1240.4118000000001
 20
1240.6955
 11
797.97743493297344
 21
1240.6955
  0
LINE
  8
_0-1_LAYER004
  6
CONTINUOUS
 62
   18
 10
797.97743493297344
 20
1240.6955
 11
1240.4118000000001
 21
1240.6955
  0
LINE
  8
_0-0_LAYER001
  6
CONTINUOUS
 62
    2
 10
1230.5806
 20
1270.7909
 11
1001.2139862939105
 21
1270.7909
  0
LINE
  8
_0-1_LAYER004
  6
CONTINUOUS
 62
   18
 10
1230.5806
 20
1270.7909
 11
999.52034836590258
 21
1270.7909
  0
LINE
  8
_0-0_LAYER001
  6
CONTINUOUS
 62
    2
 10
1643.7323999999999
 20
1303.7754999999997
 11
1297.6006236952771
 21
1303.7754999999997
  0
LINE
  8
_0-1_LAYER004
  6
CONTINUOUS
 62
   18
 10
1643.7323999999999
 20
1303.7754999999997
 11
1309.4560891913318
 21
1303.7754999999997
  0
LINE
  8
_0-0_LAYER001
  6
CONTINUOUS
 62
    2
 10
1855.3611000000001
 20
739.14249999999993
 11
2176.5987083313298
 21
739.14249999999993
  0
LINE
  8
_0-1_LAYER004
  6
CONTINUOUS
 62
   18
 10
1855.3611000000001
 20
739.14249999999993
 11
2178.292346259338
 21
739.14249999999993
  0
LINE
  8
_0-0_LAYER001
  6
CONTINUOUS
 62
    2
 10
1806.7383
 20
1362.3353999999999
 11
1914.0848294901195
 21
1362.3353999999999
  0
LINE
  8
_0-1_LAYER004
  6
CONTINUOUS
 62
   18
 10
1806.7383
 20
1362.3353999999999
 11
1903.9230019220727
 21
1362.3353999999999
  0
LINE
  8
_0-0_LAYER001
  6
CONTINUOUS
 62
    2
 10
1623.7039
 20
1183.3969
 11
1463.5771406400427
 21
1183.3969
  0
LINE
  8
_0-1_LAYER004
  6
CONTINUOUS
 62
   18
 10
1623.7039
 20
1183.3969
 11
1455.1089510000033
 21
1183.3969
  0
LINE
  8
_0-0_LAYER001
  6
CONTINUOUS
 62
    2
 10
1419.6217999999999
 20
1091.0335
 11
1350.1033994635191
 21
1091.0335
  0
LINE
  8
_0-1_LAYER004
  6
CONTINUOUS
 62
   18
 10
1419.6217999999999
 20
1091.0335
 11
1360.2652270315662
 21
1091.0335
  0
ENDSEC
  0
EOF
