  0
SECTION
  2
HEADER
  9
$ACADVER
  1
AC1009
  9
$INSBASE
 10
0
 20
0
 30
0
  9
$EXTMIN
 10
0
 20
0
  9
$EXTMAX
 10
2970
 20
2100
  9
$LIMMIN
 10
0
 20
0
  9
$LIMMAX
 10
2970
 20
2100
  9
$LTSCALE
 40
10
  0
ENDSEC
  0
SECTION
  2
TABLES
  0
TABLE
  2
LTYPE
 70
     9
  0
LTYPE
  2
CONTINUOUS
 70
    64
  3
実線
 72
    65
 73
     0
 40
0.0
  0
LTYPE
  2
DASHED1
 70
    64
  3
--  --  --  --  --  --  --  --  
 72
    65
 73
     2
 40
2.5
 49
1.25
 49
-1.25
  0
LTYPE
  2
DASHED2
 70
    64
  3
----    ----    ----    ----    
 72
    65
 73
     2
 40
5.0
 49
2.5
 49
-2.5
  0
LTYPE
  2
DASHED3
 70
    64
  3
------  ------  ------  ------  
 72
    65
 73
     2
 40
5.0
 49
3.75
 49
-1.25
  0
LTYPE
  2
CENTER1
 70
    64
  3
----- - ----- - ----- - ----- - 
 72
    65
 73
     4
 40
10.0
 49
6.25
 49
-1.25
 49
1.25
 49
-1.25
  0
LTYPE
  2
CENTER2
 70
    64
  3
----------  --  ----------  --  
 72
    65
 73
     4
 40
20.0
 49
12.5
 49
-2.5
 49
2.5
 49
-2.5
  0
LTYPE
  2
PHANTOM1
 70
    64
  3
--- - - --- - - --- - - --- - - 
 72
    65
 73
     6
 40
10.0
 49
3.25
 49
-1.25
 49
1.25
 49
-1.25
 49
1.25
 49
-1.25
  0
LTYPE
  2
PHANTOM2
 70
    64
  3
--------  -  -  --------  -  -  
 72
    65
 73
     6
 40
20.0
 49
10.0
 49
-2.5
 49
1.25
 49
-2.5
 49
1.25
 49
-2.5
  0
LTYPE
  2
DOT
 70
    64
  3
-   -   -   -   -   -   -   -   
 72
    65
 73
     2
 40
2.5
 49
0.625
 49
-1.875
  0
LTYPE
  2
DUMMY
 70
    64
  3
ダミー
 72
    65
 73
     0
 40
0.0
  0
LTYPE
  2
RAND1
 70
    64
  3
ランダム線1
 72
    65
 73
     4
 40
10.0
 49
1.0
 49
-2.0
 49
3.0
 49
-4.0
  0
LTYPE
  2
RAND2
 70
    64
  3
ランダム線2
 72
    65
 73
     4
 40
14.0
 49
2.0
 49
-3.0
 49
4.0
 49
-5.0
  0
LTYPE
  2
RAND3
 70
    64
  3
ランダム線3
 72
    65
 73
     4
 40
18.0
 49
3.0
 49
-4.0
 49
5.0
 49
-6.0
  0
LTYPE
  2
RAND4
 70
    64
  3
ランダム線4
 72
    65
 73
     4
 40
22.0
 49
4.0
 49
-5.0
 49
6.0
 49
-7.0
  0
LTYPE
  2
RAND5
 70
    64
  3
ランダム線5
 72
    65
 73
     4
 40
26.0
 49
5.0
 49
-6.0
 49
7.0
 49
-8.0
  0
LTYPE
  2
LONG1
 70
    64
  3
----------  --  ----------  --  
 72
    65
 73
     4
 40
40.0
 49
32.5
 49
-2.5
 49
2.5
 49
-2.5
  0
LTYPE
  2
LONG2
 70
    64
  3
--------  -  -  --------  -  -  
 72
    65
 73
     6
 40
40.0
 49
30.0
 49
-2.5
 49
1.25
 49
-2.5
 49
1.25
 49
-2.5
  0
LTYPE
  2
LONG3
 70
    64
  3
+++++++++++++++..+++++++++++++++
 72
    65
 73
     2
 40
40.0
 49
37.5
 49
-2.5
  0
LTYPE
  2
LONG4
 70
    64
  3
+++++++++++++++..+++++++++++++++
 72
    65
 73
     2
 40
80.0
 49
75.0
 49
-5.0
  0
LTYPE
  2
LONG5
 70
    64
  3
----------  --  ----------  --  
 72
    65
 73
     4
 40
60.0
 49
37.5
 49
-7.5
 49
7.5
 49
-7.5
  0
LTYPE
  2
dashed
 70
   64
  3
-------   -------------   ------
 72
   65
 73
    2
 40
7.5
 49
6
 49
-1.5
  0
LTYPE
  2
dashed_spaced
 70
   64
  3
----        --------        ----
 72
   65
 73
    2
 40
12
 49
6
 49
-6
  0
LTYPE
  2
long_dashed_dotted
 70
   64
  3
------------- --- --------------
 72
   65
 73
    4
 40
15.25
 49
12
 49
-1.5
 49
0.25
 49
-1.5
  0
LTYPE
  2
long_dashed_double-dotted
 70
   64
  3
----------- --- --- ------------
 72
   65
 73
    6
 40
17
 49
12
 49
-1.5
 49
0.25
 49
-1.5
 49
0.25
 49
-1.5
  0
LTYPE
  2
long_dashed_triplicate-dotted
 70
   64
  3
--------- --- --- --- ----------
 72
   65
 73
    8
 40
18.75
 49
12
 49
-1.5
 49
0.25
 49
-1.5
 49
0.25
 49
-1.5
 49
0.25
 49
-1.5
  0
LTYPE
  2
dotted
 70
   64
  3
   -       -       -       -    
 72
   65
 73
    2
 40
1.75
 49
0.25
 49
-1.5
  0
LTYPE
  2
chain
 70
   64
  3
-------------- -- --------------
 72
   65
 73
    4
 40
18.5
 49
12
 49
-1.5
 49
3.5
 49
-1.5
  0
LTYPE
  2
chain_double_dash
 70
   64
  3
------------ -- -- -------------
 72
   65
 73
    6
 40
23.5
 49
12
 49
-1.5
 49
3.5
 49
-1.5
 49
3.5
 49
-1.5
  0
LTYPE
  2
dashed_dotted
 70
   64
  3
-----------     -     ----------
 72
   65
 73
    4
 40
9.25
 49
6
 49
-1.5
 49
0.25
 49
-1.5
  0
LTYPE
  2
double-dashed_dotted
 70
   64
  3
------   -----------   -   -----
 72
   65
 73
    6
 40
16.75
 49
6
 49
-1.5
 49
6
 49
-1.5
 49
0.25
 49
-1.5
  0
LTYPE
  2
dashed_double-dotted
 70
   64
  3
---------    -    -    ---------
 72
   65
 73
    6
 40
11
 49
6
 49
-1.5
 49
0.25
 49
-1.5
 49
0.25
 49
-1.5
  0
LTYPE
  2
double-dashed_double-dotted
 70
   64
  3
-----   ---------   -   -   ----
 72
   65
 73
    8
 40
18.5
 49
6
 49
-1.5
 49
6
 49
-1.5
 49
0.25
 49
-1.5
 49
0.25
 49
-1.5
  0
LTYPE
  2
dashed_triplicate-dotted
 70
   64
  3
-------    -    -    -    ------
 72
   65
 73
    8
 40
12.75
 49
6
 49
-1.5
 49
0.25
 49
-1.5
 49
0.25
 49
-1.5
 49
0.25
 49
-1.5
  0
LTYPE
  2
double-dashed_triplicate-dotted
 70
   64
  3
-----  ---------  -  -  -  -----
 72
   65
 73
   10
 40
20.25
 49
6
 49
-1.5
 49
6
 49
-1.5
 49
0.25
 49
-1.5
 49
0.25
 49
-1.5
 49
0.25
 49
-1.5
  0
LTYPE
  2
undefined
 70
   64
  3
--------------------------------
 72
   65
 73
    0
 40
0
  0
LTYPE
  2
HIDDEN
 70
   64
  3
----        --------        ----
 72
   65
 73
    2
 40
10
 49
5
 49
-5
  0
LTYPE
  2
DASHED
 70
   64
  3
-------   -------------   ------
 72
   65
 73
    2
 40
50
 49
40
 49
-10
  0
LTYPE
  2
CENTER
 70
   64
  3
------------   ---   -----------
 72
   65
 73
    4
 40
100
 49
70
 49
-10
 49
10
 49
-10
  0
LTYPE
  2
PHANTOM
 70
   64
  3
---------   ---   ---   --------
 72
   65
 73
    6
 40
100
 49
50
 49
-10
 49
10
 49
-10
 49
10
 49
-10
  0
ENDTAB
  0
TABLE
  2
STYLE
  5
3
100
AcDbSymbolTable
 70
     1
  0
STYLE
  5
10
100
AcDbSymbolTableRecord
100
AcDbTextStyleTableRecord
  2
STANDARD
 70
     0
 40
0.0
 41
1.0
 50
0.0
 71
     0
 42
0.2
  3
txt
  4
bigfont.shx
  0
STYLE
  5
26
100
AcDbSymbolTableRecord
100
AcDbTextStyleTableRecord
  2
TATEGAKI
 70
    68
 40
0.0
 41
1.0
 50
0.0
 71
     0
 42
1.0
  3
txt
  4
bigfont.shx
  0
ENDTAB
  0
TABLE
  2
LAYER
 70
    7
  0
LAYER
  2
_0-0_LAYER001
 70
   64
 62
    7
  6
CONTINUOUS
  0
LAYER
  2
_0-1_LAYER002
 70
   64
 62
    7
  6
CONTINUOUS
  0
LAYER
  2
_0-2_LAYER003
 70
   64
 62
    7
  6
CONTINUOUS
  0
LAYER
  2
_0-3_LAYER005
 70
   64
 62
    7
  6
CONTINUOUS
  0
LAYER
  2
_0-4_LAYER009
 70
   64
 62
    7
  6
CONTINUOUS
  0
LAYER
  2
_0-5_LAYER014
 70
   64
 62
    7
  6
CONTINUOUS
  0
LAYER
  2
ADD_LINE
 70
   64
 62
    7
  6
CONTINUOUS
  0
ENDTAB
  0
ENDSEC
  0
SECTION
  2
BLOCKS
  0
ENDSEC
  0
SECTION
  2
ENTITIES
  0
LINE
  8
_0-4_LAYER009
  6
CONTINUOUS
 62
    2
 10
1401.2061490000001
 20
842.52307599999949
 11
664.02530400000001
 21
1174.2538319999999
  0
LINE
  8
_0-2_LAYER003
  6
CONTINUOUS
 62
    2
 10
1421.7243800000001
 20
710.14335299999948
 11
617.94139600000005
 21
1071.8449319999995
  0
LINE
  8
_0-1_LAYER002
  6
CONTINUOUS
 62
    2
 10
1255.467148
 20
817.85672699999986
 11
1253.3700260000001
 21
818.80035299999963
  0
LINE
  8
_0-1_LAYER002
  6
CONTINUOUS
 62
    2
 10
1280.0908750000003
 20
872.57134599999972
 11
1277.9930710000001
 21
873.51494999999977
  0
LINE
  8
_0-1_LAYER002
  6
CONTINUOUS
 62
    2
 10
1286.2463350000003
 20
886.25091299999985
 11
1280.0908750000003
 21
872.57134599999972
  0
LINE
  8
_0-1_LAYER002
  6
CONTINUOUS
 62
    2
 10
1326.2928379999998
 20
871.19072099999948
 11
1289.8170810000001
 21
887.60477299999957
  0
LINE
  8
_0-1_LAYER002
  6
CONTINUOUS
 62
    2
 10
1290.7596510000003
 20
889.70177999999987
 11
1327.2372560000003
 21
873.28670899999952
  0
LINE
  8
_0-1_LAYER002
  6
CONTINUOUS
 62
    2
 10
1284.148629
 20
887.1944639999997
 11
1277.9930710000001
 21
873.51494999999977
  0
LINE
  8
_0-1_LAYER002
  6
CONTINUOUS
 62
    2
 10
1292.8114970000001
 20
784.60170599999947
 11
1329.744674
 21
866.67549299999973
  0
LINE
  8
_0-1_LAYER002
  6
CONTINUOUS
 62
    2
 10
1249.7217780000001
 20
798.50966699999981
 11
1286.2005200000001
 21
782.09425799999963
  0
LINE
  8
_0-1_LAYER002
  6
CONTINUOUS
 62
    2
 10
1247.2144020000001
 20
805.12069199999951
 11
1253.3700260000001
 21
818.80035299999963
  0
LINE
  8
_0-1_LAYER002
  6
CONTINUOUS
 62
    2
 10
1249.3112180000001
 20
804.17714899999964
 11
1255.467148
 21
817.85672699999986
  0
LINE
  8
_0-1_LAYER002
  6
CONTINUOUS
 62
    2
 10
1287.1429430000001
 20
784.19135099999949
 11
1250.6653960000001
 21
800.60659999999962
  0
LINE
  8
_0-1_LAYER002
  6
CONTINUOUS
 62
    2
 10
1290.713487
 20
785.54539899999963
 11
1327.6466559999999
 21
867.62018699999953
  0
LINE
  8
_0-5_LAYER014
  6
CONTINUOUS
 62
    2
 10
1401.2061490000001
 20
842.52307599999949
 11
1421.7243800000001
 21
833.28991299999961
  0
LINE
  8
_0-5_LAYER014
  6
CONTINUOUS
 62
    2
 10
1288.0971140000001
 20
890.89987999999948
 11
1289.0409630000001
 21
892.99731399999973
  0
LINE
  8
_0-3_LAYER005
  6
CONTINUOUS
 62
    2
 10
1421.7243800000001
 20
830.7677249999997
 11
1288.0971140000001
 21
890.89987999999948
  0
ARC
  8
_0-1_LAYER002
  6
CONTINUOUS
 62
    2
 10
1288.7087690000001
 20
885.14248499999985
 40
2.7000000000000002
 50
65.767512999999994
 51
155.75962200000001
  0
ARC
  8
_0-1_LAYER002
  6
CONTINUOUS
 62
    2
 10
1325.1844780000001
 20
868.72849499999984
 40
2.7000000000000002
 50
335.787192
 51
65.767513000000022
  0
ARC
  8
_0-1_LAYER002
  6
CONTINUOUS
 62
    2
 10
1325.1865360000002
 20
868.7274569999995
 40
4.9989999999999997
 50
335.76925200000005
 51
65.779904000000016
  0
ARC
  8
_0-1_LAYER002
  6
CONTINUOUS
 62
    2
 10
1288.7077709999999
 20
885.14373799999976
 40
4.9989999999999997
 50
65.758633000000003
 51
155.775642
  0
ARC
  8
_0-1_LAYER002
  6
CONTINUOUS
 62
    2
 10
1288.252418
 20
786.65249899999981
 40
4.9989999999999997
 50
245.76499200000001
 51
335.79053199999998
  0
ARC
  8
_0-1_LAYER002
  6
CONTINUOUS
 62
    2
 10
1251.7727640000001
 20
803.06881799999974
 40
4.9989999999999997
 50
155.75435200000001
 51
245.78628200000003
  0
ARC
  8
_0-1_LAYER002
  6
CONTINUOUS
 62
    2
 10
1251.7738650000001
 20
803.06882099999984
 40
2.7000000000000002
 50
155.75962200000001
 51
245.77932200000001
  0
ARC
  8
_0-1_LAYER002
  6
CONTINUOUS
 62
    2
 10
1288.251559
 20
786.6534859999997
 40
2.7000000000000002
 50
245.77932199999998
 51
335.787192
  0
LINE
  8
_0-4_LAYER009
  6
CONTINUOUS
 62
    2
 10
1442.242612
 20
842.52307599999949
 11
2194.7017180000003
 21
1181.1290369999997
  0
LINE
  8
_0-2_LAYER003
  6
CONTINUOUS
 62
    2
 10
1421.7243800000001
 20
710.14335299999948
 11
2240.7856259999999
 21
1078.7201349999996
  0
LINE
  8
_0-1_LAYER002
  6
CONTINUOUS
 62
    2
 10
1587.981612
 20
817.85672699999986
 11
1590.0787339999999
 21
818.80035299999963
  0
LINE
  8
_0-1_LAYER002
  6
CONTINUOUS
 62
    2
 10
1563.3578850000001
 20
872.57134599999972
 11
1565.4556890000001
 21
873.51494999999977
  0
LINE
  8
_0-1_LAYER002
  6
CONTINUOUS
 62
    2
 10
1557.2024249999999
 20
886.25091299999985
 11
1563.3578850000001
 21
872.57134599999972
  0
LINE
  8
_0-1_LAYER002
  6
CONTINUOUS
 62
    2
 10
1517.155923
 20
871.19072099999948
 11
1553.6316790000001
 21
887.60477299999957
  0
LINE
  8
_0-1_LAYER002
  6
CONTINUOUS
 62
    2
 10
1552.6891090000001
 20
889.70177999999987
 11
1516.2115040000001
 21
873.28670899999952
  0
LINE
  8
_0-1_LAYER002
  6
CONTINUOUS
 62
    2
 10
1559.300131
 20
887.1944639999997
 11
1565.4556890000001
 21
873.51494999999977
  0
LINE
  8
_0-1_LAYER002
  6
CONTINUOUS
 62
    2
 10
1550.6372630000001
 20
784.60170599999947
 11
1513.704086
 21
866.67549299999973
  0
LINE
  8
_0-1_LAYER002
  6
CONTINUOUS
 62
    2
 10
1593.7269820000001
 20
798.50966699999981
 11
1557.2482400000001
 21
782.09425799999963
  0
LINE
  8
_0-1_LAYER002
  6
CONTINUOUS
 62
    2
 10
1596.2343580000002
 20
805.12069199999951
 11
1590.0787339999999
 21
818.80035299999963
  0
LINE
  8
_0-1_LAYER002
  6
CONTINUOUS
 62
    2
 10
1594.1375429999998
 20
804.17714899999964
 11
1587.981612
 21
817.85672699999986
  0
LINE
  8
_0-1_LAYER002
  6
CONTINUOUS
 62
    2
 10
1556.3058170000002
 20
784.19135099999949
 11
1592.7833639999999
 21
800.60659999999962
  0
LINE
  8
_0-1_LAYER002
  6
CONTINUOUS
 62
    2
 10
1552.7352740000001
 20
785.54539899999963
 11
1515.8021039999999
 21
867.62018699999953
  0
LINE
  8
_0-5_LAYER014
  6
CONTINUOUS
 62
    2
 10
1442.242612
 20
842.52307599999949
 11
1421.7243800000001
 21
833.28991299999961
  0
LINE
  8
_0-5_LAYER014
  6
CONTINUOUS
 62
    2
 10
1555.3516460000001
 20
890.89987999999948
 11
1554.4077970000001
 21
892.99731399999973
  0
LINE
  8
_0-3_LAYER005
  6
CONTINUOUS
 62
    2
 10
1421.7243800000001
 20
830.7677249999997
 11
1555.3516460000001
 21
890.89987999999948
  0
ARC
  8
_0-1_LAYER002
  6
CONTINUOUS
 62
    2
 10
1554.7399910000001
 20
885.14248499999985
 40
2.7000000000000002
 50
24.240378
 51
114.23248700000001
  0
ARC
  8
_0-1_LAYER002
  6
CONTINUOUS
 62
    2
 10
1518.2642820000001
 20
868.72849499999984
 40
2.7000000000000002
 50
114.23248700000001
 51
204.21280799999997
  0
ARC
  8
_0-1_LAYER002
  6
CONTINUOUS
 62
    2
 10
1518.2622240000001
 20
868.7274569999995
 40
4.9989999999999997
 50
114.220096
 51
204.23074800000003
  0
ARC
  8
_0-1_LAYER002
  6
CONTINUOUS
 62
    2
 10
1554.7409889999999
 20
885.14373799999976
 40
4.9989999999999997
 50
24.224357999999999
 51
114.24136700000001
  0
ARC
  8
_0-1_LAYER002
  6
CONTINUOUS
 62
    2
 10
1555.1963419999997
 20
786.65249899999981
 40
4.9989999999999997
 50
204.20946799999999
 51
294.23500799999999
  0
ARC
  8
_0-1_LAYER002
  6
CONTINUOUS
 62
    2
 10
1591.6759959999999
 20
803.06881799999974
 40
4.9989999999999997
 50
294.21371799999997
 51
24.24564800000001
  0
ARC
  8
_0-1_LAYER002
  6
CONTINUOUS
 62
    2
 10
1591.6748950000001
 20
803.06882099999984
 40
2.7000000000000002
 50
294.22067800000002
 51
24.240378000000064
  0
ARC
  8
_0-1_LAYER002
  6
CONTINUOUS
 62
    2
 10
1555.1972009999999
 20
786.6534859999997
 40
2.7000000000000002
 50
204.21280799999997
 51
294.22067800000002
  0
LINE
  8
_0-0_LAYER001
  6
CONTINUOUS
 62
    1
 10
1412.4911890000001
 20
840.1862799999999
 11
665.05121400000007
 21
1176.5336359999997
  0
LINE
  8
_0-0_LAYER001
  6
CONTINUOUS
 62
    1
 10
1413.5170990000001
 20
842.46608499999957
 11
666.07712400000025
 21
1178.8134409999998
  0
LINE
  8
_0-0_LAYER001
  6
CONTINUOUS
 62
    1
 10
1414.543009
 20
844.74588899999981
 11
667.10303399999998
 21
1181.0932449999996
  0
LINE
  8
_0-0_LAYER001
  6
CONTINUOUS
 62
    1
 10
1415.5689200000002
 20
847.02569399999948
 11
668.12894400000005
 21
1183.3730499999997
  0
LINE
  8
_0-0_LAYER001
  6
CONTINUOUS
 62
    1
 10
1416.59483
 20
849.30549799999972
 11
669.15485400000011
 21
1185.6528539999995
  0
LINE
  8
_0-0_LAYER001
  6
CONTINUOUS
 62
    1
 10
1417.6207400000001
 20
851.58530299999984
 11
670.18076399999995
 21
1187.9326589999996
  0
LINE
  8
_0-0_LAYER001
  6
CONTINUOUS
 62
    1
 10
1418.6466500000001
 20
853.86510699999963
 11
671.20667400000013
 21
1190.2124629999998
  0
LINE
  8
_0-0_LAYER001
  6
CONTINUOUS
 62
    1
 10
1419.67256
 20
856.14491199999975
 11
672.23258400000009
 21
1192.4922679999995
  0
LINE
  8
_0-0_LAYER001
  6
CONTINUOUS
 62
    1
 10
1420.69847
 20
858.42471599999953
 11
673.25849400000016
 21
1194.7720719999998
  0
LINE
  8
_0-0_LAYER001
  6
CONTINUOUS
 62
    1
 10
1430.9575710000001
 20
840.1862799999999
 11
2178.3975460000001
 21
1176.5336359999997
  0
LINE
  8
_0-0_LAYER001
  6
CONTINUOUS
 62
    1
 10
1429.9316610000001
 20
842.46608499999957
 11
2177.3716359999999
 21
1178.8134409999998
  0
LINE
  8
_0-0_LAYER001
  6
CONTINUOUS
 62
    1
 10
1428.905751
 20
844.74588899999981
 11
2176.345726
 21
1181.0932449999996
  0
LINE
  8
_0-0_LAYER001
  6
CONTINUOUS
 62
    1
 10
1427.8798409999999
 20
847.02569399999948
 11
2175.3198160000002
 21
1183.3730499999997
  0
LINE
  8
_0-0_LAYER001
  6
CONTINUOUS
 62
    1
 10
1426.8539310000001
 20
849.30549799999972
 11
2174.2939059999999
 21
1185.6528539999995
  0
LINE
  8
_0-0_LAYER001
  6
CONTINUOUS
 62
    1
 10
1425.8280200000002
 20
851.58530299999984
 11
2173.267996
 21
1187.9326589999996
  0
LINE
  8
_0-0_LAYER001
  6
CONTINUOUS
 62
    1
 10
1424.8021100000001
 20
853.86510699999963
 11
2172.2420860000002
 21
1190.2124629999998
  0
LINE
  8
_0-0_LAYER001
  6
CONTINUOUS
 62
    1
 10
1423.7762
 20
856.14491199999975
 11
2171.2161759999999
 21
1192.4922679999995
  0
LINE
  8
_0-0_LAYER001
  6
CONTINUOUS
 62
    1
 10
1422.7502899999999
 20
858.42471599999953
 11
2170.1902660000001
 21
1194.7720719999998
  0
LINE
  8
_0-0_LAYER001
  6
CONTINUOUS
 62
    4
 10
1717.5505670000002
 20
1077.8893159999998
 11
1723.1545270000001
 21
1079.6595849999999
  0
ARC
  8
_0-0_LAYER001
  6
CONTINUOUS
 62
    4
 10
1739.9393060000002
 20
1081.3731149999999
 40
16.872017
 50
103.35714900000002
 51
185.82903500000003
  0
LINE
  8
_0-0_LAYER001
  6
CONTINUOUS
 62
    4
 10
1741.5854650000001
 20
1081.1876289999996
 11
2047.759959
 21
1177.9069349999995
  0
LINE
  8
_0-0_LAYER001
  6
CONTINUOUS
 62
    4
 10
2041.6809830000002
 20
1197.1505319999997
 11
2018.2959989999999
 21
1189.7633089999995
  0
LINE
  8
_0-0_LAYER001
  6
CONTINUOUS
 62
    4
 10
1736.041526
 20
1097.7887259999998
 11
2015.886681
 21
1186.1906989999998
  0
ARC
  8
_0-0_LAYER001
  6
CONTINUOUS
 62
    4
 10
2021.5174489999999
 20
1184.7107309999997
 40
5.8220139999999994
 50
113.701938
 51
165.27368200000001
  0
LINE
  8
_0-0_LAYER001
  6
CONTINUOUS
 62
    4
 10
1717.5411730000001
 20
1077.9190539999995
 11
1723.4242749999999
 21
1059.2955119999997
  0
ARC
  8
_0-0_LAYER001
  6
CONTINUOUS
 62
    4
 10
1745.4832430000001
 20
1064.7720179999997
 40
16.872017
 50
103.35714900000002
 51
192.69455200000002
  0
LINE
  8
_0-0_LAYER001
  6
CONTINUOUS
 62
    4
 10
2048.9159140000002
 20
1158.7958719999997
 11
2047.1544090000002
 21
1164.3720909999997
  0
LINE
  8
_0-0_LAYER001
  6
CONTINUOUS
 62
    4
 10
2041.6809830000002
 20
1197.1505319999997
 11
2053.3541719999998
 21
1160.1978999999997
  0
LINE
  8
_0-0_LAYER001
  6
CONTINUOUS
 62
    4
 10
2048.9159140000002
 20
1158.7958719999997
 11
2053.3541719999998
 21
1160.1978999999997
  0
LINE
  8
_0-0_LAYER001
  6
CONTINUOUS
 62
    4
 10
1729.023655
 20
1061.0643339999997
 11
1723.4242749999999
 21
1059.2955119999997
  0
LINE
  8
_0-0_LAYER001
  6
CONTINUOUS
 62
    4
 10
1728.6531650000002
 20
1063.7588129999999
 11
2047.1544090000002
 21
1164.3720909999997
  0
LINE
  8
_0-0_LAYER001
  6
CONTINUOUS
 62
    4
 10
1972.071297
 20
1194.9984399999998
 11
1977.6897319999998
 21
1196.7222189999998
  0
ARC
  8
_0-0_LAYER001
  6
CONTINUOUS
 62
    4
 10
1994.4881310000001
 20
1198.2966279999996
 40
16.872017
 50
102.88244700000001
 51
185.354333
  0
LINE
  8
_0-0_LAYER001
  6
CONTINUOUS
 62
    4
 10
1996.132697
 20
1198.0975099999996
 11
2168.079459
 21
1250.8521029999997
  0
LINE
  8
_0-0_LAYER001
  6
CONTINUOUS
 62
    4
 10
1990.7264890000001
 20
1214.7439689999997
 11
2161.0346509999999
 21
1266.9958269999997
  0
LINE
  8
_0-0_LAYER001
  6
CONTINUOUS
 62
    4
 10
1972.0621500000002
 20
1195.0282549999997
 11
1977.7907540000001
 21
1176.3566099999998
  0
ARC
  8
_0-0_LAYER001
  6
CONTINUOUS
 62
    4
 10
1999.8943380000001
 20
1181.6501689999996
 40
16.872017
 50
102.88244700000001
 51
192.21985000000001
  0
LINE
  8
_0-0_LAYER001
  6
CONTINUOUS
 62
    4
 10
1983.4045970000002
 20
1178.0789799999998
 11
1977.7907540000001
 21
1176.3566099999998
  0
LINE
  8
_0-0_LAYER001
  6
CONTINUOUS
 62
    4
 10
1983.0564429999999
 20
1180.7764369999995
 11
2173.2015540000002
 21
1239.1144239999999
  0
LINE
  8
_0-0_LAYER001
  6
CONTINUOUS
 62
    4
 10
1464.3093739999999
 20
963.31822699999975
 11
1469.9133340000001
 21
965.08849599999985
  0
ARC
  8
_0-0_LAYER001
  6
CONTINUOUS
 62
    4
 10
1486.6981130000001
 20
966.8020249999995
 40
16.872017
 50
103.35714900000002
 51
185.82903500000003
  0
LINE
  8
_0-0_LAYER001
  6
CONTINUOUS
 62
    4
 10
1488.3442719999998
 20
966.61653899999965
 11
1794.5187660000001
 21
1063.3358459999995
  0
LINE
  8
_0-0_LAYER001
  6
CONTINUOUS
 62
    4
 10
1788.4397899999999
 20
1082.5794429999996
 11
1765.0548060000001
 21
1075.1922189999996
  0
LINE
  8
_0-0_LAYER001
  6
CONTINUOUS
 62
    4
 10
1482.8003330000001
 20
983.21763599999986
 11
1762.6454880000001
 21
1071.6196099999997
  0
ARC
  8
_0-0_LAYER001
  6
CONTINUOUS
 62
    4
 10
1768.2762560000001
 20
1070.1396409999998
 40
5.8220139999999994
 50
113.701938
 51
165.27368200000001
  0
LINE
  8
_0-0_LAYER001
  6
CONTINUOUS
 62
    4
 10
1464.2999800000002
 20
963.34796399999959
 11
1470.183082
 21
944.72442199999978
  0
ARC
  8
_0-0_LAYER001
  6
CONTINUOUS
 62
    4
 10
1492.2420500000001
 20
950.20092799999975
 40
16.872017
 50
103.35714900000002
 51
192.69455200000002
  0
LINE
  8
_0-0_LAYER001
  6
CONTINUOUS
 62
    4
 10
1795.6747209999999
 20
1044.2247829999997
 11
1793.9132159999999
 21
1049.8010019999997
  0
LINE
  8
_0-0_LAYER001
  6
CONTINUOUS
 62
    4
 10
1788.4397899999999
 20
1082.5794429999996
 11
1800.112979
 21
1045.6268109999996
  0
LINE
  8
_0-0_LAYER001
  6
CONTINUOUS
 62
    4
 10
1795.6747209999999
 20
1044.2247829999997
 11
1800.112979
 21
1045.6268109999996
  0
LINE
  8
_0-0_LAYER001
  6
CONTINUOUS
 62
    4
 10
1475.7824620000001
 20
946.49324399999978
 11
1470.183082
 21
944.72442199999978
  0
LINE
  8
_0-0_LAYER001
  6
CONTINUOUS
 62
    4
 10
1475.4119719999999
 20
949.18772399999989
 11
1793.9132159999999
 21
1049.8010019999997
  0
LINE
  8
_0-0_LAYER001
  6
CONTINUOUS
 62
    4
 10
1125.8981940000001
 20
1077.8893159999998
 11
1120.2942330000001
 21
1079.6595849999999
  0
ARC
  8
_0-0_LAYER001
  6
CONTINUOUS
 62
    4
 10
1103.5094550000003
 20
1081.3731149999999
 40
16.872017
 50
354.17096500000002
 51
76.642851000000007
  0
LINE
  8
_0-0_LAYER001
  6
CONTINUOUS
 62
    4
 10
1101.8632950000001
 20
1081.1876289999996
 11
795.68880100000001
 21
1177.9069349999995
  0
LINE
  8
_0-0_LAYER001
  6
CONTINUOUS
 62
    4
 10
801.76777700000002
 20
1197.1505319999997
 11
825.15276100000005
 21
1189.7633089999995
  0
LINE
  8
_0-0_LAYER001
  6
CONTINUOUS
 62
    4
 10
1107.407234
 20
1097.7887259999998
 11
827.56207900000004
 21
1186.1906989999998
  0
ARC
  8
_0-0_LAYER001
  6
CONTINUOUS
 62
    4
 10
821.93131100000016
 20
1184.7107309999997
 40
5.8220139999999994
 50
14.726318000000001
 51
66.298061999999987
  0
LINE
  8
_0-0_LAYER001
  6
CONTINUOUS
 62
    4
 10
1125.9075870000001
 20
1077.9190539999995
 11
1120.0244850000001
 21
1059.2955119999997
  0
ARC
  8
_0-0_LAYER001
  6
CONTINUOUS
 62
    4
 10
1097.9655170000001
 20
1064.7720179999997
 40
16.872017
 50
347.30544800000001
 51
76.642850999999993
  0
LINE
  8
_0-0_LAYER001
  6
CONTINUOUS
 62
    4
 10
794.53284600000006
 20
1158.7958719999997
 11
796.29435100000012
 21
1164.3720909999997
  0
LINE
  8
_0-0_LAYER001
  6
CONTINUOUS
 62
    4
 10
801.76777700000002
 20
1197.1505319999997
 11
790.09458800000016
 21
1160.1978999999997
  0
LINE
  8
_0-0_LAYER001
  6
CONTINUOUS
 62
    4
 10
794.53284600000006
 20
1158.7958719999997
 11
790.09458800000016
 21
1160.1978999999997
  0
LINE
  8
_0-0_LAYER001
  6
CONTINUOUS
 62
    4
 10
1114.425105
 20
1061.0643339999997
 11
1120.0244850000001
 21
1059.2955119999997
  0
LINE
  8
_0-0_LAYER001
  6
CONTINUOUS
 62
    4
 10
1114.795595
 20
1063.7588129999999
 11
796.29435100000012
 21
1164.3720909999997
  0
LINE
  8
_0-0_LAYER001
  6
CONTINUOUS
 62
    4
 10
871.37746300000003
 20
1194.9984399999998
 11
865.75902799999994
 21
1196.7222189999998
  0
ARC
  8
_0-0_LAYER001
  6
CONTINUOUS
 62
    4
 10
848.96062900000015
 20
1198.2966279999996
 40
16.872017
 50
354.645667
 51
77.117552999999987
  0
LINE
  8
_0-0_LAYER001
  6
CONTINUOUS
 62
    4
 10
847.31606299999999
 20
1198.0975099999996
 11
675.36930200000018
 21
1250.8521029999997
  0
LINE
  8
_0-0_LAYER001
  6
CONTINUOUS
 62
    4
 10
852.72227100000009
 20
1214.7439689999997
 11
682.41410999999994
 21
1266.9958269999997
  0
LINE
  8
_0-0_LAYER001
  6
CONTINUOUS
 62
    4
 10
871.38661000000013
 20
1195.0282549999997
 11
865.65800600000011
 21
1176.3566099999998
  0
ARC
  8
_0-0_LAYER001
  6
CONTINUOUS
 62
    4
 10
843.55442200000027
 20
1181.6501689999996
 40
16.872017
 50
347.78015000000005
 51
77.117553000000029
  0
LINE
  8
_0-0_LAYER001
  6
CONTINUOUS
 62
    4
 10
860.04416400000025
 20
1178.0789799999998
 11
865.65800600000011
 21
1176.3566099999998
  0
LINE
  8
_0-0_LAYER001
  6
CONTINUOUS
 62
    4
 10
860.39231700000016
 20
1180.7764369999995
 11
670.24720600000001
 21
1239.1144239999999
  0
LINE
  8
_0-0_LAYER001
  6
CONTINUOUS
 62
    4
 10
1379.1393869999999
 20
963.31822699999975
 11
1373.5354260000004
 21
965.08849599999985
  0
ARC
  8
_0-0_LAYER001
  6
CONTINUOUS
 62
    4
 10
1356.750648
 20
966.8020249999995
 40
16.872017
 50
354.17096500000002
 51
76.642851000000007
  0
LINE
  8
_0-0_LAYER001
  6
CONTINUOUS
 62
    4
 10
1355.1044879999999
 20
966.61653899999965
 11
1048.9299940000001
 21
1063.3358459999995
  0
LINE
  8
_0-0_LAYER001
  6
CONTINUOUS
 62
    4
 10
1055.0089700000001
 20
1082.5794429999996
 11
1078.3939540000001
 21
1075.1922189999996
  0
LINE
  8
_0-0_LAYER001
  6
CONTINUOUS
 62
    4
 10
1360.6484270000001
 20
983.21763599999986
 11
1080.8032720000001
 21
1071.6196099999997
  0
ARC
  8
_0-0_LAYER001
  6
CONTINUOUS
 62
    4
 10
1075.1725040000001
 20
1070.1396409999998
 40
5.8220139999999994
 50
14.726318000000001
 51
66.298061999999987
  0
LINE
  8
_0-0_LAYER001
  6
CONTINUOUS
 62
    4
 10
1379.14878
 20
963.34796399999959
 11
1373.265678
 21
944.72442199999978
  0
ARC
  8
_0-0_LAYER001
  6
CONTINUOUS
 62
    4
 10
1351.2067100000002
 20
950.20092799999975
 40
16.872017
 50
347.30544800000001
 51
76.642850999999993
  0
LINE
  8
_0-0_LAYER001
  6
CONTINUOUS
 62
    4
 10
1047.7740390000001
 20
1044.2247829999997
 11
1049.5355440000001
 21
1049.8010019999997
  0
LINE
  8
_0-0_LAYER001
  6
CONTINUOUS
 62
    4
 10
1055.0089700000001
 20
1082.5794429999996
 11
1043.3357810000002
 21
1045.6268109999996
  0
LINE
  8
_0-0_LAYER001
  6
CONTINUOUS
 62
    4
 10
1047.7740390000001
 20
1044.2247829999997
 11
1043.3357810000002
 21
1045.6268109999996
  0
LINE
  8
_0-0_LAYER001
  6
CONTINUOUS
 62
    4
 10
1367.6662980000001
 20
946.49324399999978
 11
1373.265678
 21
944.72442199999978
  0
LINE
  8
_0-0_LAYER001
  6
CONTINUOUS
 62
    4
 10
1368.0367879999999
 20
949.18772399999989
 11
1049.5355440000001
 21
1049.8010019999997
  0
LINE
  8
_0-0_LAYER001
  6
CONTINUOUS
 62
   18
 10
1314.806016
 20
908.71111599999949
 11
1323.9263430000001
 21
904.60709699999961
  0
LINE
  8
_0-0_LAYER001
  6
CONTINUOUS
 62
   18
 10
1313.5760680000001
 20
905.97464199999968
 11
1322.6945090000002
 21
901.87195299999985
  0
LINE
  8
_0-0_LAYER001
  6
CONTINUOUS
 62
   18
 10
1323.9263430000001
 20
904.60709699999961
 11
1322.6945090000002
 21
901.87195299999985
  0
LINE
  8
_0-0_LAYER001
  6
CONTINUOUS
 62
   18
 10
1314.806016
 20
908.71111599999949
 11
1313.5760680000001
 21
905.97464199999968
  0
LINE
  8
_0-0_LAYER001
  6
CONTINUOUS
 62
   18
 10
1302.948024
 20
870.29155599999967
 11
1307.070271
 21
874.57774699999982
  0
LINE
  8
_0-0_LAYER001
  6
CONTINUOUS
 62
   18
 10
1302.948024
 20
870.29155599999967
 11
1303.422513
 21
876.21855199999982
  0
LINE
  8
_0-0_LAYER001
  6
CONTINUOUS
 62
   18
 10
1314.480082
 20
887.91125799999963
 11
1308.8522399999999
 21
891.60270599999967
  0
LINE
  8
_0-0_LAYER001
  6
CONTINUOUS
 62
   18
 10
1312.428089
 20
883.35197999999991
 11
1306.799219
 21
887.0425309999996
  0
LINE
  8
_0-0_LAYER001
  6
CONTINUOUS
 62
   18
 10
1318.5797750000002
 20
897.1386779999998
 11
1312.9520819999998
 21
900.83125199999949
  0
LINE
  8
_0-0_LAYER001
  6
CONTINUOUS
 62
   18
 10
1316.5278280000002
 20
892.58045899999979
 11
1310.9002009999999
 21
896.2720089999998
  0
LINE
  8
_0-0_LAYER001
  6
CONTINUOUS
 62
   18
 10
1314.476013
 20
888.02018299999963
 11
1308.8471870000001
 21
891.71199299999989
  0
LINE
  8
_0-0_LAYER001
  6
CONTINUOUS
 62
   18
 10
1312.423188
 20
883.46107999999958
 11
1306.7963090000001
 21
887.15162699999973
  0
LINE
  8
_0-0_LAYER001
  6
CONTINUOUS
 62
   18
 10
1310.3721540000001
 20
878.90079999999989
 11
1304.7444350000001
 21
882.59253399999989
  0
LINE
  8
_0-0_LAYER001
  6
CONTINUOUS
 62
   18
 10
1308.8362220000001
 20
875.48877399999947
 11
1303.2088189999999
 21
879.18041399999947
  0
LINE
  8
_0-0_LAYER001
  6
CONTINUOUS
 62
   18
 10
1315.0565030000002
 20
902.07328199999984
 11
1303.422513
 21
876.21855199999982
  0
LINE
  8
_0-0_LAYER001
  6
CONTINUOUS
 62
   18
 10
1313.5760680000001
 20
905.97464199999968
 11
1315.0565030000002
 21
902.07328199999984
  0
LINE
  8
_0-0_LAYER001
  6
CONTINUOUS
 62
   18
 10
1318.663967
 20
900.34249499999987
 11
1307.070271
 21
874.57774699999982
  0
LINE
  8
_0-0_LAYER001
  6
CONTINUOUS
 62
   18
 10
1322.6945090000002
 20
901.87195299999985
 11
1318.663967
 21
900.34249499999987
  0
LINE
  8
_0-0_LAYER001
  6
CONTINUOUS
 62
   18
 10
1421.7243800000001
 20
860.70452099999966
 11
1431.864617
 21
838.17061799999965
  0
LINE
  8
_0-0_LAYER001
  6
CONTINUOUS
 62
   18
 10
1421.7243800000001
 20
860.70452099999966
 11
1411.389964
 21
837.73910899999964
  0
LINE
  8
_0-0_LAYER001
  6
HIDDEN
 62
   18
 10
1421.7243800000001
 20
862.34939899999972
 11
1148.7633880000001
 21
985.18161399999963
  0
LINE
  8
_0-0_LAYER001
  6
HIDDEN
 62
   18
 10
1421.7243800000001
 20
862.34939899999972
 11
1694.6853719999999
 21
985.18161399999963
  0
CIRCLE
  8
_0-0_LAYER001
  6
CONTINUOUS
 62
   18
 10
1314.6308260000001
 20
622.71839799999952
 40
1.6999999999999997
  0
LINE
  8
_0-0_LAYER001
  6
CONTINUOUS
 62
   18
 10
1314.6308260000001
 20
622.71839799999952
 11
1041.054288
 21
745.8276079999996
  0
CIRCLE
  8
_0-0_LAYER001
  6
CONTINUOUS
 62
   18
 10
1041.054288
 20
745.8276079999996
 40
1.6999999999999997
  0
LINE
  8
_0-0_LAYER001
  6
CONTINUOUS
 62
   18
 10
1313.6049159999998
 20
620.43859299999986
 11
1335.1490280000003
 21
668.31448699999964
  0
LINE
  8
_0-0_LAYER001
  6
CONTINUOUS
 62
   18
 10
1040.028378
 20
743.54780399999981
 11
1061.57249
 21
791.4236979999996
  0
LINE
  8
_0-0_LAYER001
  6
HIDDEN
 62
   18
 10
1148.7633880000001
 20
985.18161399999963
 11
1057.3975520000001
 21
782.14604199999985
  0
LINE
  8
_0-0_LAYER001
  6
CONTINUOUS
 62
   18
 10
1370.5917249999998
 20
977.62345599999981
 11
1392.135704
 21
929.74750199999971
  0
CIRCLE
  8
_0-0_LAYER001
  6
CONTINUOUS
 62
   18
 10
1371.6176290000001
 20
975.34364899999991
 40
1.6999999999999997
  0
LINE
  8
_0-0_LAYER001
  6
CONTINUOUS
 62
   18
 10
1371.6176290000001
 20
975.34364899999991
 11
1508.4059580000003
 21
1036.8978249999996
  0
CIRCLE
  8
_0-0_LAYER001
  6
CONTINUOUS
 62
   18
 10
1508.4059580000003
 20
1036.8978249999996
 40
1.6999999999999997
  0
LINE
  8
_0-0_LAYER001
  6
CONTINUOUS
 62
   18
 10
1507.3800550000001
 20
1039.1776319999999
 11
1528.9240340000001
 21
991.30167799999981
  0
LINE
  8
_0-0_LAYER001
  6
CONTINUOUS
 62
   18
 10
1351.0205080000001
 20
905.43388899999991
 11
1351.0205080000001
 21
897.93388899999991
  0
LINE
  8
_0-0_LAYER001
  6
CONTINUOUS
 62
   18
 10
1351.0205080000001
 20
897.93388899999991
 11
1347.2705080000001
 21
904.42907899999955
  0
LINE
  8
_0-0_LAYER001
  6
CONTINUOUS
 62
   18
 10
1351.0205080000001
 20
897.93388899999991
 11
1285.310078
 21
1143.1685549999997
  0
LINE
  8
_0-0_LAYER001
  6
CONTINUOUS
 62
   18
 10
1285.310078
 20
1143.1685549999997
 11
1084.310078
 21
1143.1685549999997
  0
LINE
  8
_0-0_LAYER001
  6
DASHED
 62
   18
 10
1421.7243800000001
 20
863.9942759999999
 11
675.51549399999999
 21
1199.7876429999997
  0
LINE
  8
_0-0_LAYER001
  6
CONTINUOUS
 62
   18
 10
1421.7243800000001
 20
860.70452099999966
 11
674.28440300000022
 21
1197.0518779999998
  0
LINE
  8
_0-0_LAYER001
  6
CONTINUOUS
 62
   18
 10
1286.655307
 20
770.92475099999956
 11
1323.5892310000004
 21
852.9975059999997
  0
LINE
  8
_0-0_LAYER001
  6
CONTINUOUS
 62
   18
 10
1327.9205590000001
 20
845.5653199999997
 11
1300.015005
 21
783.55527399999983
  0
LINE
  8
_0-0_LAYER001
  6
CONTINUOUS
 62
   18
 10
1325.4131810000001
 20
852.17746499999976
 11
1323.5892310000004
 21
852.9975059999997
  0
LINE
  8
_0-0_LAYER001
  6
CONTINUOUS
 62
   18
 10
1367.0417710000002
 20
742.42662799999971
 11
1305.030655
 21
770.33218699999952
  0
LINE
  8
_0-0_LAYER001
  6
CONTINUOUS
 62
   18
 10
1309.180957
 20
826.58385699999963
 11
1306.4446240000002
 21
827.81477099999984
  0
LINE
  8
_0-0_LAYER001
  6
CONTINUOUS
 62
   18
 10
1315.746764
 20
841.17401999999947
 11
1313.010591
 21
842.40494599999965
  0
LINE
  8
_0-0_LAYER001
  6
CONTINUOUS
 62
   18
 10
1299.8791650000001
 20
813.2257539999996
 11
1313.010591
 21
842.40494599999965
  0
LINE
  8
_0-0_LAYER001
  6
CONTINUOUS
 62
   18
 10
1302.6154630000001
 20
811.99376099999972
 11
1299.8791650000001
 21
813.2257539999996
  0
LINE
  8
_0-0_LAYER001
  6
CONTINUOUS
 62
   18
 10
1300.6079679999998
 20
839.2133189999995
 11
1289.93887
 21
844.01527999999962
  0
LINE
  8
_0-0_LAYER001
  6
CONTINUOUS
 62
   18
 10
1294.0426130000001
 20
824.62413799999968
 11
1283.3732669999999
 21
829.42498799999976
  0
LINE
  8
_0-0_LAYER001
  6
CONTINUOUS
 62
   18
 10
1295.4605710000001
 20
825.16264299999966
 11
1303.601905
 21
821.4995329999997
  0
LINE
  8
_0-0_LAYER001
  6
CONTINUOUS
 62
   18
 10
1301.1465490000001
 20
837.79714899999954
 11
1309.28685
 21
834.13329199999953
  0
LINE
  8
_0-0_LAYER001
  6
CONTINUOUS
 62
   18
 10
1303.9886100000001
 20
844.11553699999968
 11
1312.1309410000001
 21
840.45139399999971
  0
LINE
  8
_0-0_LAYER001
  6
CONTINUOUS
 62
   18
 10
1302.251254
 20
842.86386399999947
 11
1303.9886100000001
 21
844.11553699999968
  0
LINE
  8
_0-0_LAYER001
  6
CONTINUOUS
 62
   18
 10
1292.4016410000002
 20
820.97740699999986
 11
1302.251254
 21
842.86386399999947
  0
LINE
  8
_0-0_LAYER001
  6
CONTINUOUS
 62
   18
 10
1292.6174550000001
 20
818.84415899999976
 11
1300.758697
 21
815.18029199999955
  0
LINE
  8
_0-0_LAYER001
  6
CONTINUOUS
 62
   18
 10
1292.4016410000002
 20
820.97740699999986
 11
1292.6174550000001
 21
818.84415899999976
  0
LINE
  8
_0-0_LAYER001
  6
CONTINUOUS
 62
   18
 10
1282.369342
 20
832.06999999999971
 11
1283.3732669999999
 21
829.42498799999976
  0
LINE
  8
_0-0_LAYER001
  6
CONTINUOUS
 62
   18
 10
1287.294073
 20
843.01216499999964
 11
1282.369342
 21
832.06999999999971
  0
LINE
  8
_0-0_LAYER001
  6
CONTINUOUS
 62
   18
 10
1289.93887
 20
844.01527999999962
 11
1287.294073
 21
843.01216499999964
  0
LINE
  8
_0-0_LAYER001
  6
CONTINUOUS
 62
   18
 10
1289.93887
 20
844.01527999999962
 11
1283.3732669999999
 21
829.42498799999976
  0
LINE
  8
_0-0_LAYER001
  6
CONTINUOUS
 62
   18
 10
1289.93887
 20
844.01527999999962
 11
1285.946567
 21
828.26712199999974
  0
LINE
  8
_0-0_LAYER001
  6
CONTINUOUS
 62
   18
 10
1295.4950120000001
 20
841.51471399999991
 11
1291.5016110000001
 21
825.76663299999973
  0
LINE
  8
_0-0_LAYER001
  6
CONTINUOUS
 62
   18
 10
1328.646115
 20
825.42067499999985
 11
1320.504997
 21
829.08369499999981
  0
LINE
  8
_0-0_LAYER001
  6
CONTINUOUS
 62
   18
 10
1322.9603509999997
 20
812.7859999999996
 11
1314.8189580000003
 21
816.45008299999972
  0
LINE
  8
_0-0_LAYER001
  6
CONTINUOUS
 62
   18
 10
1320.118029
 20
806.46783199999982
 11
1311.975946
 21
810.13170499999978
  0
LINE
  8
_0-0_LAYER001
  6
CONTINUOUS
 62
   18
 10
1321.855697
 20
807.71930199999952
 11
1320.118029
 21
806.46783199999982
  0
LINE
  8
_0-0_LAYER001
  6
CONTINUOUS
 62
   18
 10
1331.7050960000001
 20
829.60592799999949
 11
1321.855697
 21
807.71930199999952
  0
LINE
  8
_0-0_LAYER001
  6
CONTINUOUS
 62
   18
 10
1331.4894380000001
 20
831.73884999999973
 11
1323.3481940000001
 21
835.4029059999998
  0
LINE
  8
_0-0_LAYER001
  6
CONTINUOUS
 62
   18
 10
1331.7050960000001
 20
829.60592799999949
 11
1331.4894380000001
 21
831.73884999999973
  0
LINE
  8
_0-0_LAYER001
  6
CONTINUOUS
 62
   18
 10
1369.5490300000001
 20
735.81543799999963
 11
1368.728204
 21
733.99159199999986
  0
LINE
  8
_0-0_LAYER001
  6
CONTINUOUS
 62
   18
 10
1368.728204
 20
733.99159199999986
 11
1286.6551290000002
 21
770.92433899999969
  0
ARC
  8
_0-0_LAYER001
  6
CONTINUOUS
 62
   18
 10
1309.1363840000004
 20
779.4524709999996
 40
10.001999
 50
155.77610200000001
 51
245.76333199999996
  0
ARC
  8
_0-0_LAYER001
  6
CONTINUOUS
 62
   18
 10
1323.362361
 20
847.61728699999958
 40
4.9989999999999997
 50
335.76925200000005
 51
65.779904000000016
  0
ARC
  8
_0-0_LAYER001
  6
CONTINUOUS
 62
   18
 10
1364.991033
 20
737.86719599999969
 40
4.9989999999999997
 50
335.76925200000005
 51
65.779904000000016
  0
ARC
  8
_0-0_LAYER001
  6
CONTINUOUS
 62
   18
 10
1307.1999519999999
 20
838.88059499999963
 40
6.1470009999999995
 50
156.13025200000001
 51
190.13753199999999
  0
ARC
  8
_0-0_LAYER001
  6
CONTINUOUS
 62
   18
 10
1298.6738519999999
 20
819.90777999999955
 40
6.1580000000000004
 50
121.444422
 51
155.39907199999999
  0
ARC
  8
_0-0_LAYER001
  6
CONTINUOUS
 62
   18
 10
1318.208106
 20
822.52392099999952
 40
22.898997999999999
 50
138.167992
 51
173.38350200000002
  0
ARC
  8
_0-0_LAYER001
  6
CONTINUOUS
 62
   18
 10
1316.9059670000001
 20
811.70540799999981
 40
6.1479999999999988
 50
336.10724199999999
 51
10.121989999999993
  0
ARC
  8
_0-0_LAYER001
  6
CONTINUOUS
 62
   18
 10
1325.4395709999999
 20
830.66704399999981
 40
6.1479999999999988
 50
301.44397200000003
 51
335.44623200000007
  0
ARC
  8
_0-0_LAYER001
  6
CONTINUOUS
 62
   18
 10
1305.8632320000002
 20
828.07672799999955
 40
22.936000999999997
 50
318.19590199999999
 51
353.35267199999998
  0
LINE
  8
_0-0_LAYER001
  6
DASHED
 62
   18
 10
1421.7243800000001
 20
863.9942759999999
 11
2183.2115269999995
 21
1206.6628479999995
  0
LINE
  8
_0-0_LAYER001
  6
CONTINUOUS
 62
   18
 10
1421.7243800000001
 20
860.70452099999966
 11
2184.4426189999999
 21
1203.9270819999997
  0
LINE
  8
_0-0_LAYER001
  6
CONTINUOUS
 62
   18
 10
1556.793453
 20
770.92475099999956
 11
1519.8595290000001
 21
852.9975059999997
  0
LINE
  8
_0-0_LAYER001
  6
CONTINUOUS
 62
   18
 10
1515.5282010000001
 20
845.5653199999997
 11
1543.433755
 21
783.55527399999983
  0
LINE
  8
_0-0_LAYER001
  6
CONTINUOUS
 62
   18
 10
1518.0355800000002
 20
852.17746499999976
 11
1519.8595290000001
 21
852.9975059999997
  0
LINE
  8
_0-0_LAYER001
  6
CONTINUOUS
 62
   18
 10
1476.4069890000001
 20
742.42662799999971
 11
1538.4181050000002
 21
770.33218699999952
  0
LINE
  8
_0-0_LAYER001
  6
CONTINUOUS
 62
   18
 10
1534.267803
 20
826.58385699999963
 11
1537.0041370000001
 21
827.81477099999984
  0
LINE
  8
_0-0_LAYER001
  6
CONTINUOUS
 62
   18
 10
1527.7019960000002
 20
841.17401999999947
 11
1530.438169
 21
842.40494599999965
  0
LINE
  8
_0-0_LAYER001
  6
CONTINUOUS
 62
   18
 10
1543.5695949999999
 20
813.2257539999996
 11
1530.438169
 21
842.40494599999965
  0
LINE
  8
_0-0_LAYER001
  6
CONTINUOUS
 62
   18
 10
1540.8332970000001
 20
811.99376099999972
 11
1543.5695949999999
 21
813.2257539999996
  0
LINE
  8
_0-0_LAYER001
  6
CONTINUOUS
 62
   18
 10
1542.840792
 20
839.2133189999995
 11
1553.50989
 21
844.01527999999962
  0
LINE
  8
_0-0_LAYER001
  6
CONTINUOUS
 62
   18
 10
1549.4061470000001
 20
824.62413799999968
 11
1560.0754929999998
 21
829.42498799999976
  0
LINE
  8
_0-0_LAYER001
  6
CONTINUOUS
 62
   18
 10
1547.9881890000001
 20
825.16264299999966
 11
1539.8468550000002
 21
821.4995329999997
  0
LINE
  8
_0-0_LAYER001
  6
CONTINUOUS
 62
   18
 10
1542.3022120000001
 20
837.79714899999954
 11
1534.16191
 21
834.13329199999953
  0
LINE
  8
_0-0_LAYER001
  6
CONTINUOUS
 62
   18
 10
1539.4601510000002
 20
844.11553699999968
 11
1531.3178190000003
 21
840.45139399999971
  0
LINE
  8
_0-0_LAYER001
  6
CONTINUOUS
 62
   18
 10
1541.1975069999999
 20
842.86386399999947
 11
1539.4601510000002
 21
844.11553699999968
  0
LINE
  8
_0-0_LAYER001
  6
CONTINUOUS
 62
   18
 10
1551.0471190000001
 20
820.97740699999986
 11
1541.1975069999999
 21
842.86386399999947
  0
LINE
  8
_0-0_LAYER001
  6
CONTINUOUS
 62
   18
 10
1550.8313050000002
 20
818.84415899999976
 11
1542.690063
 21
815.18029199999955
  0
LINE
  8
_0-0_LAYER001
  6
CONTINUOUS
 62
   18
 10
1551.0471190000001
 20
820.97740699999986
 11
1550.8313050000002
 21
818.84415899999976
  0
LINE
  8
_0-0_LAYER001
  6
CONTINUOUS
 62
   18
 10
1561.0794190000001
 20
832.06999999999971
 11
1560.0754929999998
 21
829.42498799999976
  0
LINE
  8
_0-0_LAYER001
  6
CONTINUOUS
 62
   18
 10
1556.1546870000002
 20
843.01216499999964
 11
1561.0794190000001
 21
832.06999999999971
  0
LINE
  8
_0-0_LAYER001
  6
CONTINUOUS
 62
   18
 10
1553.50989
 20
844.01527999999962
 11
1556.1546870000002
 21
843.01216499999964
  0
LINE
  8
_0-0_LAYER001
  6
CONTINUOUS
 62
   18
 10
1553.50989
 20
844.01527999999962
 11
1560.0754929999998
 21
829.42498799999976
  0
LINE
  8
_0-0_LAYER001
  6
CONTINUOUS
 62
   18
 10
1553.50989
 20
844.01527999999962
 11
1557.502193
 21
828.26712199999974
  0
LINE
  8
_0-0_LAYER001
  6
CONTINUOUS
 62
   18
 10
1547.9537480000001
 20
841.51471399999991
 11
1551.9471490000001
 21
825.76663299999973
  0
LINE
  8
_0-0_LAYER001
  6
CONTINUOUS
 62
   18
 10
1514.802645
 20
825.42067499999985
 11
1522.9437630000002
 21
829.08369499999981
  0
LINE
  8
_0-0_LAYER001
  6
CONTINUOUS
 62
   18
 10
1520.488409
 20
812.7859999999996
 11
1528.6298020000002
 21
816.45008299999972
  0
LINE
  8
_0-0_LAYER001
  6
CONTINUOUS
 62
   18
 10
1523.330731
 20
806.46783199999982
 11
1531.472814
 21
810.13170499999978
  0
LINE
  8
_0-0_LAYER001
  6
CONTINUOUS
 62
   18
 10
1521.5930640000001
 20
807.71930199999952
 11
1523.330731
 21
806.46783199999982
  0
LINE
  8
_0-0_LAYER001
  6
CONTINUOUS
 62
   18
 10
1511.7436640000001
 20
829.60592799999949
 11
1521.5930640000001
 21
807.71930199999952
  0
LINE
  8
_0-0_LAYER001
  6
CONTINUOUS
 62
   18
 10
1511.9593220000002
 20
831.73884999999973
 11
1520.1005660000001
 21
835.4029059999998
  0
LINE
  8
_0-0_LAYER001
  6
CONTINUOUS
 62
   18
 10
1511.7436640000001
 20
829.60592799999949
 11
1511.9593220000002
 21
831.73884999999973
  0
LINE
  8
_0-0_LAYER001
  6
CONTINUOUS
 62
   18
 10
1473.8997300000001
 20
735.81543799999963
 11
1474.720556
 21
733.99159199999986
  0
LINE
  8
_0-0_LAYER001
  6
CONTINUOUS
 62
   18
 10
1474.720556
 20
733.99159199999986
 11
1556.793631
 21
770.92433899999969
  0
LINE
  8
_0-0_LAYER001
  6
CONTINUOUS
 62
   18
 10
1528.642744
 20
908.71111599999949
 11
1519.5224170000001
 21
904.60709699999961
  0
LINE
  8
_0-0_LAYER001
  6
CONTINUOUS
 62
   18
 10
1529.872693
 20
905.97464199999968
 11
1520.7542510000003
 21
901.87195299999985
  0
LINE
  8
_0-0_LAYER001
  6
CONTINUOUS
 62
   18
 10
1519.5224170000001
 20
904.60709699999961
 11
1520.7542510000003
 21
901.87195299999985
  0
LINE
  8
_0-0_LAYER001
  6
CONTINUOUS
 62
   18
 10
1528.642744
 20
908.71111599999949
 11
1529.872693
 21
905.97464199999968
  0
LINE
  8
_0-0_LAYER001
  6
CONTINUOUS
 62
   18
 10
1540.500736
 20
870.29155599999967
 11
1536.3784889999999
 21
874.57774699999982
  0
LINE
  8
_0-0_LAYER001
  6
CONTINUOUS
 62
   18
 10
1540.500736
 20
870.29155599999967
 11
1540.0262470000002
 21
876.21855199999982
  0
LINE
  8
_0-0_LAYER001
  6
CONTINUOUS
 62
   18
 10
1528.9686790000001
 20
887.91125799999963
 11
1534.5965200000001
 21
891.60270599999967
  0
LINE
  8
_0-0_LAYER001
  6
CONTINUOUS
 62
   18
 10
1531.020671
 20
883.35197999999991
 11
1536.6495409999998
 21
887.0425309999996
  0
LINE
  8
_0-0_LAYER001
  6
CONTINUOUS
 62
   18
 10
1524.8689850000001
 20
897.1386779999998
 11
1530.496678
 21
900.83125199999949
  0
LINE
  8
_0-0_LAYER001
  6
CONTINUOUS
 62
   18
 10
1526.920932
 20
892.58045899999979
 11
1532.5485589999998
 21
896.2720089999998
  0
LINE
  8
_0-0_LAYER001
  6
CONTINUOUS
 62
   18
 10
1528.972747
 20
888.02018299999963
 11
1534.6015740000003
 21
891.71199299999989
  0
LINE
  8
_0-0_LAYER001
  6
CONTINUOUS
 62
   18
 10
1531.025572
 20
883.46107999999958
 11
1536.6524510000002
 21
887.15162699999973
  0
LINE
  8
_0-0_LAYER001
  6
CONTINUOUS
 62
   18
 10
1533.0766060000001
 20
878.90079999999989
 11
1538.7043250000002
 21
882.59253399999989
  0
LINE
  8
_0-0_LAYER001
  6
CONTINUOUS
 62
   18
 10
1534.6125380000001
 20
875.48877399999947
 11
1540.239941
 21
879.18041399999947
  0
LINE
  8
_0-0_LAYER001
  6
CONTINUOUS
 62
   18
 10
1528.392257
 20
902.07328199999984
 11
1540.0262470000002
 21
876.21855199999982
  0
LINE
  8
_0-0_LAYER001
  6
CONTINUOUS
 62
   18
 10
1529.872693
 20
905.97464199999968
 11
1528.392257
 21
902.07328199999984
  0
LINE
  8
_0-0_LAYER001
  6
CONTINUOUS
 62
   18
 10
1524.7847940000001
 20
900.34249499999987
 11
1536.3784889999999
 21
874.57774699999982
  0
LINE
  8
_0-0_LAYER001
  6
CONTINUOUS
 62
   18
 10
1520.7542510000003
 20
901.87195299999985
 11
1524.7847940000001
 21
900.34249499999987
  0
ARC
  8
_0-0_LAYER001
  6
CONTINUOUS
 62
   18
 10
1534.3123760000001
 20
779.4524709999996
 40
10.001999
 50
294.23666800000001
 51
24.223898000000037
  0
ARC
  8
_0-0_LAYER001
  6
CONTINUOUS
 62
   18
 10
1520.0863989999998
 20
847.61728699999958
 40
4.9989999999999997
 50
114.220096
 51
204.23074800000003
  0
ARC
  8
_0-0_LAYER001
  6
CONTINUOUS
 62
   18
 10
1478.457727
 20
737.86719599999969
 40
4.9989999999999997
 50
114.220096
 51
204.23074800000003
  0
ARC
  8
_0-0_LAYER001
  6
CONTINUOUS
 62
   18
 10
1536.2488080000001
 20
838.88059499999963
 40
6.1470009999999995
 50
349.86246800000004
 51
23.869748000000044
  0
ARC
  8
_0-0_LAYER001
  6
CONTINUOUS
 62
   18
 10
1544.7749079999999
 20
819.90777999999955
 40
6.1580000000000004
 50
24.600928000000003
 51
58.555578000000004
  0
ARC
  8
_0-0_LAYER001
  6
CONTINUOUS
 62
   18
 10
1525.2406539999997
 20
822.52392099999952
 40
22.898997999999999
 50
6.6164980000000009
 51
41.832008000000009
  0
ARC
  8
_0-0_LAYER001
  6
CONTINUOUS
 62
   18
 10
1526.5427930000001
 20
811.70540799999981
 40
6.1479999999999988
 50
169.87801000000002
 51
203.89275800000001
  0
ARC
  8
_0-0_LAYER001
  6
CONTINUOUS
 62
   18
 10
1518.0091889999999
 20
830.66704399999981
 40
6.1479999999999988
 50
204.55376799999999
 51
238.556028
  0
ARC
  8
_0-0_LAYER001
  6
CONTINUOUS
 62
   18
 10
1537.5855280000001
 20
828.07672799999955
 40
22.936000999999997
 50
186.64732799999999
 51
221.80409800000001
  0
CIRCLE
  8
_0-0_LAYER001
  6
CONTINUOUS
 62
   18
 10
1528.8179340000002
 20
622.71839799999952
 40
1.6999999999999997
  0
LINE
  8
_0-0_LAYER001
  6
CONTINUOUS
 62
   18
 10
1528.8179340000002
 20
622.71839799999952
 11
1802.394472
 21
745.8276079999996
  0
CIRCLE
  8
_0-0_LAYER001
  6
CONTINUOUS
 62
   18
 10
1802.394472
 20
745.8276079999996
 40
1.6999999999999997
  0
LINE
  8
_0-0_LAYER001
  6
CONTINUOUS
 62
   18
 10
1529.843844
 20
620.43859299999986
 11
1508.2997319999999
 21
668.31448699999964
  0
LINE
  8
_0-0_LAYER001
  6
CONTINUOUS
 62
   18
 10
1803.4203820000002
 20
743.54780399999981
 11
1781.8762700000002
 21
791.4236979999996
  0
LINE
  8
_0-0_LAYER001
  6
HIDDEN
 62
   18
 10
1694.0698259999999
 20
986.54949699999952
 11
1781.8762700000002
 21
791.4236979999996
  0
ARC
  8
_0-0_LAYER001
  6
CONTINUOUS
 62
   18
 10
1421.7243800000001
 20
768.27482399999963
 40
100
 50
250.86773400000001
 51
289.41842800000001
  0
LINE
  8
_0-0_LAYER001
  6
CONTINUOUS
 62
   18
 10
1072.472614
 20
815.6462419999998
 11
1089.835358
 21
813.56424299999981
  0
LINE
  8
_0-0_LAYER001
  6
CONTINUOUS
 62
   18
 10
1072.4797590000001
 20
815.6621199999995
 11
1085.5530079999999
 21
804.04791499999965
  0
LINE
  8
_0-0_LAYER001
  6
CONTINUOUS
 62
   18
 10
1072.8757050000002
 20
815.59790699999985
 11
1323.473381
 21
702.82916499999965
  0
LINE
  8
_0-0_LAYER001
  6
CONTINUOUS
 62
   18
 10
1770.976146
 20
815.6462419999998
 11
1753.613402
 21
813.56424299999981
  0
LINE
  8
_0-0_LAYER001
  6
CONTINUOUS
 62
   18
 10
1770.9690009999999
 20
815.6621199999995
 11
1757.8957519999999
 21
804.04791499999965
  0
LINE
  8
_0-0_LAYER001
  6
CONTINUOUS
 62
   18
 10
1770.5730549999998
 20
815.59790699999985
 11
1517.61385
 21
701.76647799999955
  0
LINE
  8
_0-0_LAYER001
  6
CONTINUOUS
 62
   18
 10
1382.1083630000001
 20
1135.4558429999997
 11
1403.652466
 21
1087.5799439999996
  0
CIRCLE
  8
_0-0_LAYER001
  6
CONTINUOUS
 62
   18
 10
1383.1342730000001
 20
1133.1760379999996
 40
1.6999999999999997
  0
LINE
  8
_0-0_LAYER001
  6
CONTINUOUS
 62
   18
 10
1383.1342730000001
 20
1133.1760379999996
 11
1638.472399
 21
1248.0779159999997
  0
CIRCLE
  8
_0-0_LAYER001
  6
CONTINUOUS
 62
   18
 10
1638.472399
 20
1248.0779159999997
 40
1.6999999999999997
  0
LINE
  8
_0-0_LAYER001
  6
CONTINUOUS
 62
   18
 10
1637.4464890000002
 20
1250.3577209999999
 11
1658.9905909999998
 21
1202.4818219999997
  0
LINE
  8
_0-0_LAYER001
  6
CONTINUOUS
 62
   18
 10
1629.239212
 20
1268.5961589999997
 11
1650.783314
 21
1220.7202599999996
  0
CIRCLE
  8
_0-0_LAYER001
  6
CONTINUOUS
 62
   18
 10
1630.2651220000002
 20
1266.3163539999996
 40
1.6999999999999997
  0
LINE
  8
_0-0_LAYER001
  6
CONTINUOUS
 62
   18
 10
1630.2651220000002
 20
1266.3163539999996
 11
1885.603247
 21
1381.2182319999997
  0
CIRCLE
  8
_0-0_LAYER001
  6
CONTINUOUS
 62
   18
 10
1885.603247
 20
1381.2182319999997
 40
1.6999999999999997
  0
LINE
  8
_0-0_LAYER001
  6
CONTINUOUS
 62
   18
 10
1884.5773380000001
 20
1383.4980369999998
 11
1906.1214399999999
 21
1335.6221379999997
  0
LINE
  8
_0-0_LAYER001
  6
CONTINUOUS
 62
   18
 10
1876.3700610000001
 20
1401.7364739999998
 11
1897.9141629999999
 21
1353.8605759999996
  0
CIRCLE
  8
_0-0_LAYER001
  6
CONTINUOUS
 62
   18
 10
1877.39597
 20
1399.4566689999997
 40
1.6999999999999997
  0
LINE
  8
_0-0_LAYER001
  6
CONTINUOUS
 62
   18
 10
1877.39597
 20
1399.4566689999997
 11
2055.4069300000001
 21
1479.5614069999997
  0
LINE
  8
_0-0_LAYER001
  6
CONTINUOUS
 62
   18
 10
1404.5360210000001
 20
1085.6164829999998
 11
1415.821027
 21
1060.5386319999998
  0
CIRCLE
  8
_0-0_LAYER001
  6
CONTINUOUS
 62
   18
 10
1405.561931
 20
1083.3366789999995
 40
1.6999999999999997
  0
LINE
  8
_0-0_LAYER001
  6
CONTINUOUS
 62
   18
 10
1405.561931
 20
1083.3366789999995
 11
1473.956471
 21
1114.1141469999998
  0
CIRCLE
  8
_0-0_LAYER001
  6
CONTINUOUS
 62
   18
 10
1473.956471
 20
1114.1141469999998
 40
1.6999999999999997
  0
LINE
  8
_0-0_LAYER001
  6
CONTINUOUS
 62
   18
 10
1472.9305610000001
 20
1116.3939519999999
 11
1484.215567
 21
1091.3160999999996
  0
CIRCLE
  8
_0-0_LAYER001
  6
CONTINUOUS
 62
   18
 10
1473.956471
 20
1114.1141469999998
 40
1.6999999999999997
  0
LINE
  8
_0-0_LAYER001
  6
CONTINUOUS
 62
   18
 10
1473.956471
 20
1114.1141469999998
 11
1660.9000559999999
 21
1198.2385569999997
  0
CIRCLE
  8
_0-0_LAYER001
  6
CONTINUOUS
 62
   18
 10
1660.9000559999999
 20
1198.2385569999997
 40
1.6999999999999997
  0
LINE
  8
_0-0_LAYER001
  6
CONTINUOUS
 62
   18
 10
1659.874147
 20
1200.5183609999999
 11
1671.1591520000002
 21
1175.4405099999999
  0
CIRCLE
  8
_0-0_LAYER001
  6
CONTINUOUS
 62
   18
 10
1660.9000559999999
 20
1198.2385569999997
 40
1.6999999999999997
  0
LINE
  8
_0-0_LAYER001
  6
CONTINUOUS
 62
   18
 10
1660.9000559999999
 20
1198.2385569999997
 11
1715.6153690000001
 21
1222.8603879999996
  0
CIRCLE
  8
_0-0_LAYER001
  6
CONTINUOUS
 62
   18
 10
1715.6153690000001
 20
1222.8603879999996
 40
1.6999999999999997
  0
LINE
  8
_0-0_LAYER001
  6
CONTINUOUS
 62
   18
 10
1714.5894590000003
 20
1225.1401919999998
 11
1725.8744649999999
 21
1200.0623409999998
  0
LINE
  8
_0-0_LAYER001
  6
CONTINUOUS
 62
   18
 10
2024.5563630000001
 20
1137.9338519999997
 11
2052.126827
 21
1149.7604959999999
  0
LINE
  8
_0-0_LAYER001
  6
CONTINUOUS
 62
   18
 10
2052.126827
 20
1149.7604959999999
 11
2046.2135050000002
 21
1163.5457279999996
  0
LINE
  8
_0-0_LAYER001
  6
CONTINUOUS
 62
   18
 10
2046.2135050000002
 20
1163.5457279999996
 11
2018.6430410000003
 21
1151.7190839999998
  0
LINE
  8
_0-0_LAYER001
  6
CONTINUOUS
 62
   18
 10
2018.6430410000003
 20
1151.7190839999998
 11
2024.5563630000001
 21
1137.9338519999997
  0
LINE
  8
_0-0_LAYER001
  6
CONTINUOUS
 62
   18
 10
2046.2135050000002
 20
1163.5457279999996
 11
2024.5563630000001
 21
1137.9338519999997
  0
LINE
  8
_0-0_LAYER001
  6
CONTINUOUS
 62
   18
 10
1771.3151699999999
 20
1023.3627619999997
 11
1798.8856340000002
 21
1035.1894069999998
  0
LINE
  8
_0-0_LAYER001
  6
CONTINUOUS
 62
   18
 10
1798.8856340000002
 20
1035.1894069999998
 11
1792.9723119999999
 21
1048.9746389999996
  0
LINE
  8
_0-0_LAYER001
  6
CONTINUOUS
 62
   18
 10
1792.9723119999999
 20
1048.9746389999996
 11
1765.401848
 21
1037.1479939999995
  0
LINE
  8
_0-0_LAYER001
  6
CONTINUOUS
 62
   18
 10
1765.401848
 20
1037.1479939999995
 11
1771.3151699999999
 21
1023.3627619999997
  0
LINE
  8
_0-0_LAYER001
  6
CONTINUOUS
 62
   18
 10
1792.9723119999999
 20
1048.9746389999996
 11
1771.3151699999999
 21
1023.3627619999997
  0
LINE
  8
_0-0_LAYER001
  6
CONTINUOUS
 62
   18
 10
818.89239700000019
 20
1137.9338519999997
 11
791.32193299999994
 21
1149.7604959999999
  0
LINE
  8
_0-0_LAYER001
  6
CONTINUOUS
 62
   18
 10
791.32193299999994
 20
1149.7604959999999
 11
797.23525500000005
 21
1163.5457279999996
  0
LINE
  8
_0-0_LAYER001
  6
CONTINUOUS
 62
   18
 10
797.23525500000005
 20
1163.5457279999996
 11
824.80571899999995
 21
1151.7190839999998
  0
LINE
  8
_0-0_LAYER001
  6
CONTINUOUS
 62
   18
 10
824.80571899999995
 20
1151.7190839999998
 11
818.89239700000019
 21
1137.9338519999997
  0
LINE
  8
_0-0_LAYER001
  6
CONTINUOUS
 62
   18
 10
797.23525500000005
 20
1163.5457279999996
 11
818.89239700000019
 21
1137.9338519999997
  0
LINE
  8
_0-0_LAYER001
  6
CONTINUOUS
 62
   18
 10
1072.1335900000004
 20
1023.3627619999997
 11
1044.563126
 21
1035.1894069999998
  0
LINE
  8
_0-0_LAYER001
  6
CONTINUOUS
 62
   18
 10
1044.563126
 20
1035.1894069999998
 11
1050.4764479999999
 21
1048.9746389999996
  0
LINE
  8
_0-0_LAYER001
  6
CONTINUOUS
 62
   18
 10
1050.4764479999999
 20
1048.9746389999996
 11
1078.046912
 21
1037.1479939999995
  0
LINE
  8
_0-0_LAYER001
  6
CONTINUOUS
 62
   18
 10
1078.046912
 20
1037.1479939999995
 11
1072.1335900000004
 21
1023.3627619999997
  0
LINE
  8
_0-0_LAYER001
  6
CONTINUOUS
 62
   18
 10
1050.4764479999999
 20
1048.9746389999996
 11
1072.1335900000004
 21
1023.3627619999997
  0
LINE
  8
_0-0_LAYER001
  6
CONTINUOUS
 62
   18
 10
2005.2246770000002
 20
980.39450399999987
 11
2067.235866
 21
1008.2997529999998
  0
LINE
  8
_0-0_LAYER001
  6
CONTINUOUS
 62
   18
 10
2002.7173779999998
 20
973.78334199999972
 11
2003.5382530000002
 21
971.95942999999988
  0
LINE
  8
_0-0_LAYER001
  6
CONTINUOUS
 62
   18
 10
2003.5382530000002
 20
971.95942999999988
 11
2085.6114320000001
 21
1008.8918289999997
  0
ARC
  8
_0-0_LAYER001
  6
CONTINUOUS
 62
   18
 10
2063.1301950000002
 20
1017.4200399999995
 40
10.001999
 50
294.236266
 51
24.223496000000026
  0
ARC
  8
_0-0_LAYER001
  6
CONTINUOUS
 62
   18
 10
2007.2754800000002
 20
975.83508399999982
 40
4.9989999999999997
 50
114.21980499999999
 51
204.230446
  0
LINE
  8
_0-0_LAYER001
  6
CONTINUOUS
 62
   18
 10
2080.6605030000001
 20
1059.3025479999997
 11
2080.44461
 21
1057.1692299999995
  0
LINE
  8
_0-0_LAYER001
  6
CONTINUOUS
 62
   18
 10
2081.115961
 20
1081.4370709999998
 11
2085.1080970000003
 21
1065.6888209999997
  0
LINE
  8
_0-0_LAYER001
  6
CONTINUOUS
 62
   18
 10
2075.5596580000001
 20
1078.9364509999996
 11
2079.5530710000003
 21
1063.1883579999999
  0
LINE
  8
_0-0_LAYER001
  6
CONTINUOUS
 62
   18
 10
2081.115961
 20
1081.4370709999998
 11
2083.7606580000001
 21
1080.4339389999996
  0
LINE
  8
_0-0_LAYER001
  6
CONTINUOUS
 62
   18
 10
2079.0193920000002
 20
1062.9491039999998
 11
2087.6814450000002
 21
1066.8467419999997
  0
LINE
  8
_0-0_LAYER001
  6
CONTINUOUS
 62
   18
 10
2081.115961
 20
1081.4370709999998
 11
2087.6814450000002
 21
1066.8467419999997
  0
LINE
  8
_0-0_LAYER001
  6
CONTINUOUS
 62
   18
 10
2088.6853510000001
 20
1069.4916789999997
 11
2087.6814450000002
 21
1066.8467419999997
  0
LINE
  8
_0-0_LAYER001
  6
CONTINUOUS
 62
   18
 10
2083.7606580000001
 20
1080.4339389999996
 11
2088.6853510000001
 21
1069.4916789999997
  0
ARC
  8
_0-0_LAYER001
  6
CONTINUOUS
 62
   18
 10
2074.388183
 20
1058.2329319999999
 40
6.1580000000000004
 50
24.600705999999999
 51
58.555360999999998
  0
LINE
  8
_0-0_LAYER001
  6
CONTINUOUS
 62
   18
 10
2046.853779
 20
1090.1452209999998
 11
2048.6775870000001
 21
1090.9652089999995
  0
LINE
  8
_0-0_LAYER001
  6
CONTINUOUS
 62
   18
 10
2085.6112410000001
 20
1008.8922359999997
 11
2048.6775870000001
 21
1090.9652089999995
  0
LINE
  8
_0-0_LAYER001
  6
CONTINUOUS
 62
   18
 10
2044.3463219999999
 20
1083.5330449999997
 11
2072.2515739999999
 21
1021.5228389999997
  0
LINE
  8
_0-0_LAYER001
  6
CONTINUOUS
 62
   18
 10
2063.8810779999999
 20
1064.9090009999995
 11
2066.6174040000001
 21
1066.1398929999996
  0
LINE
  8
_0-0_LAYER001
  6
CONTINUOUS
 62
   18
 10
2057.3154330000002
 20
1079.4992629999997
 11
2060.051575
 21
1080.7301089999996
  0
LINE
  8
_0-0_LAYER001
  6
CONTINUOUS
 62
   18
 10
2073.1828909999999
 20
1051.5509359999996
 11
2060.051575
 21
1080.7301089999996
  0
LINE
  8
_0-0_LAYER001
  6
CONTINUOUS
 62
   18
 10
2070.4465730000002
 20
1050.3188849999997
 11
2073.1828909999999
 21
1051.5509359999996
  0
LINE
  8
_0-0_LAYER001
  6
CONTINUOUS
 62
   18
 10
2077.6015499999999
 20
1063.4877569999999
 11
2069.4602330000002
 21
1059.8247129999995
  0
LINE
  8
_0-0_LAYER001
  6
CONTINUOUS
 62
   18
 10
2071.9155759999999
 20
1076.1222689999995
 11
2063.775298
 21
1072.4584439999999
  0
LINE
  8
_0-0_LAYER001
  6
CONTINUOUS
 62
   18
 10
2069.0735439999999
 20
1082.4406799999997
 11
2060.9312209999998
 21
1078.7765649999997
  0
LINE
  8
_0-0_LAYER001
  6
CONTINUOUS
 62
   18
 10
2070.8109549999999
 20
1081.1889899999996
 11
2069.0735439999999
 21
1082.4406799999997
  0
LINE
  8
_0-0_LAYER001
  6
CONTINUOUS
 62
   18
 10
2080.6605030000001
 20
1059.3025479999997
 11
2070.8109549999999
 21
1081.1889899999996
  0
LINE
  8
_0-0_LAYER001
  6
CONTINUOUS
 62
   18
 10
2080.44461
 20
1057.1692299999995
 11
2072.3033410000003
 21
1053.5054859999996
  0
LINE
  8
_0-0_LAYER001
  6
CONTINUOUS
 62
   18
 10
2043.6205930000001
 20
1063.3883919999998
 11
2051.7617690000002
 21
1067.0514329999996
  0
LINE
  8
_0-0_LAYER001
  6
CONTINUOUS
 62
   18
 10
2049.3063520000001
 20
1050.7536569999997
 11
2057.447772
 21
1054.4176999999995
  0
LINE
  8
_0-0_LAYER001
  6
CONTINUOUS
 62
   18
 10
2052.1486060000002
 20
1044.4354759999997
 11
2060.2906940000003
 21
1048.0993049999997
  0
LINE
  8
_0-0_LAYER001
  6
CONTINUOUS
 62
   18
 10
2050.4110860000001
 20
1045.6869669999996
 11
2052.1486060000002
 21
1044.4354759999997
  0
LINE
  8
_0-0_LAYER001
  6
CONTINUOUS
 62
   18
 10
2040.561612
 20
1067.5736279999996
 11
2050.4110860000001
 21
1045.6869669999996
  0
LINE
  8
_0-0_LAYER001
  6
CONTINUOUS
 62
   18
 10
2040.777321
 20
1069.7065409999996
 11
2048.9185360000001
 21
1073.3705589999995
  0
LINE
  8
_0-0_LAYER001
  6
CONTINUOUS
 62
   18
 10
2040.561612
 20
1067.5736279999996
 11
2040.777321
 21
1069.7065409999996
  0
LINE
  8
_0-0_LAYER001
  6
CONTINUOUS
 62
   18
 10
2072.4537989999999
 20
1077.5384409999997
 11
2081.115961
 21
1081.4370709999998
  0
ARC
  8
_0-0_LAYER001
  6
CONTINUOUS
 62
   18
 10
2048.9044760000002
 20
1085.5850279999995
 40
4.9989999999999997
 50
114.21980499999999
 51
204.230446
  0
ARC
  8
_0-0_LAYER001
  6
CONTINUOUS
 62
   18
 10
2065.8622310000001
 20
1077.2057579999996
 40
6.1470009999999995
 50
349.86201600000004
 51
23.869286000000063
  0
ARC
  8
_0-0_LAYER001
  6
CONTINUOUS
 62
   18
 10
2054.8539639999999
 20
1060.8491829999998
 40
22.898997999999999
 50
6.6163259999999999
 51
41.831846000000006
  0
ARC
  8
_0-0_LAYER001
  6
CONTINUOUS
 62
   18
 10
2055.360784
 20
1049.6730659999998
 40
6.1479999999999988
 50
169.877726
 51
203.89246600000001
  0
ARC
  8
_0-0_LAYER001
  6
CONTINUOUS
 62
   18
 10
2046.8271949999998
 20
1068.6347929999997
 40
6.1479999999999988
 50
204.55347599999999
 51
238.55573599999997
  0
ARC
  8
_0-0_LAYER001
  6
CONTINUOUS
 62
   18
 10
2066.4035899999999
 20
1066.0443129999999
 40
22.936000999999997
 50
186.646986
 51
221.80375599999999
  0
LINE
  8
_0-0_LAYER001
  6
CONTINUOUS
 62
   18
 10
2057.6295110000001
 20
1144.3392759999997
 11
2048.5091870000001
 21
1140.2352509999996
  0
LINE
  8
_0-0_LAYER001
  6
CONTINUOUS
 62
   18
 10
2058.8594619999999
 20
1141.6027929999996
 11
2049.7410330000002
 21
1137.5001079999997
  0
LINE
  8
_0-0_LAYER001
  6
CONTINUOUS
 62
   18
 10
2048.5091870000001
 20
1140.2352509999996
 11
2049.7410330000002
 21
1137.5001079999997
  0
LINE
  8
_0-0_LAYER001
  6
CONTINUOUS
 62
   18
 10
2057.6295110000001
 20
1144.3392759999997
 11
2058.8594619999999
 21
1141.6027929999996
  0
LINE
  8
_0-0_LAYER001
  6
CONTINUOUS
 62
   18
 10
2053.0694320000002
 20
1142.2873269999996
 11
2054.3002740000002
 21
1139.5508409999998
  0
LINE
  8
_0-0_LAYER001
  6
CONTINUOUS
 62
   18
 10
2071.471333
 20
1101.3950879999998
 11
2067.3490820000002
 21
1105.6812769999997
  0
LINE
  8
_0-0_LAYER001
  6
CONTINUOUS
 62
   18
 10
2071.471333
 20
1101.3950879999998
 11
2070.9968400000002
 21
1107.3220839999999
  0
LINE
  8
_0-0_LAYER001
  6
CONTINUOUS
 62
   18
 10
2057.8915139999999
 20
1123.6839829999999
 11
2063.519139
 21
1127.3755259999998
  0
LINE
  8
_0-0_LAYER001
  6
CONTINUOUS
 62
   18
 10
2059.943342
 20
1119.1237079999996
 11
2065.5722059999998
 21
1122.8155139999999
  0
LINE
  8
_0-0_LAYER001
  6
CONTINUOUS
 62
   18
 10
2061.9961600000001
 20
1114.5646059999999
 11
2067.6230369999998
 21
1118.2551469999999
  0
LINE
  8
_0-0_LAYER001
  6
CONTINUOUS
 62
   18
 10
2064.0471969999999
 20
1110.0043279999995
 11
2069.6749140000002
 21
1113.6960649999996
  0
LINE
  8
_0-0_LAYER001
  6
CONTINUOUS
 62
   18
 10
2065.5831309999999
 20
1106.5923019999996
 11
2071.2105320000001
 21
1110.2839459999996
  0
LINE
  8
_0-0_LAYER001
  6
CONTINUOUS
 62
   18
 10
2057.3552100000002
 20
1137.6385059999998
 11
2070.9968400000002
 21
1107.3220839999999
  0
LINE
  8
_0-0_LAYER001
  6
CONTINUOUS
 62
   18
 10
2058.8594619999999
 20
1141.6027929999996
 11
2057.3552100000002
 21
1137.6385059999998
  0
LINE
  8
_0-0_LAYER001
  6
CONTINUOUS
 62
   18
 10
2053.7086079999999
 20
1135.9945429999998
 11
2067.3490820000002
 21
1105.6812769999997
  0
LINE
  8
_0-0_LAYER001
  6
CONTINUOUS
 62
   18
 10
2049.7410330000002
 20
1137.5001079999997
 11
2053.7086079999999
 21
1135.9945429999998
  0
LINE
  8
_0-0_LAYER001
  6
CONTINUOUS
 62
   18
 10
2092.5820629999998
 20
1110.7216499999995
 11
2094.6795499999998
 21
1111.6653919999999
  0
LINE
  8
_0-0_LAYER001
  6
CONTINUOUS
 62
   18
 10
2117.2037580000001
 20
1056.0062389999998
 11
2119.3012939999999
 21
1056.9499929999997
  0
LINE
  8
_0-0_LAYER001
  6
CONTINUOUS
 62
   18
 10
2045.7411820000002
 20
1109.0529779999997
 11
2083.4948680000002
 21
1126.0418909999999
  0
LINE
  8
_0-0_LAYER001
  6
CONTINUOUS
 62
   18
 10
2092.5820629999998
 20
1110.7216499999995
 11
2086.1394540000001
 21
1125.0387989999995
  0
LINE
  8
_0-0_LAYER001
  6
CONTINUOUS
 62
   18
 10
2123.6464249999999
 20
1041.6891119999996
 11
2117.2037580000001
 21
1056.0062389999998
  0
LINE
  8
_0-0_LAYER001
  6
CONTINUOUS
 62
   18
 10
2084.8897470000002
 20
1022.0553869999999
 11
2122.6432319999999
 21
1039.0443209999999
  0
LINE
  8
_0-0_LAYER001
  6
CONTINUOUS
 62
   18
 10
2094.6795499999998
 20
1111.6653919999999
 11
2088.236832
 21
1125.9825169999999
  0
LINE
  8
_0-0_LAYER001
  6
CONTINUOUS
 62
   18
 10
2044.7972880000002
 20
1111.1502389999996
 11
2082.550972
 21
1128.1392109999997
  0
LINE
  8
_0-0_LAYER001
  6
CONTINUOUS
 62
   18
 10
2125.7440129999995
 20
1042.6328489999996
 11
2119.3012939999999
 21
1056.9499929999997
  0
LINE
  8
_0-0_LAYER001
  6
CONTINUOUS
 62
   18
 10
2085.8336560000002
 20
1019.9579869999998
 11
2123.5870770000001
 21
1036.9470179999998
  0
LINE
  8
_0-0_LAYER001
  6
CONTINUOUS
 62
   18
 10
2082.2451540000002
 20
1023.0586379999995
 11
2044.738077
 21
1106.4084709999997
  0
LINE
  8
_0-0_LAYER001
  6
CONTINUOUS
 62
   18
 10
2042.6408219999998
 20
1105.4644379999995
 11
2080.1478959999995
 21
1022.1146849999996
  0
ARC
  8
_0-0_LAYER001
  6
CONTINUOUS
 62
   18
 10
2084.3155369999999
 20
1124.2179979999996
 40
2.000003
 50
24.227636
 51
114.227627
  0
ARC
  8
_0-0_LAYER001
  6
CONTINUOUS
 62
   18
 10
2121.82251
 20
1040.8682609999996
 40
2.000003
 50
294.22763600000002
 51
24.227636000000036
  0
ARC
  8
_0-0_LAYER001
  6
CONTINUOUS
 62
   18
 10
2121.82251
 20
1040.8682609999996
 40
4.2999999999999998
 50
294.22763600000002
 51
24.227636000000036
  0
ARC
  8
_0-0_LAYER001
  6
CONTINUOUS
 62
   18
 10
2084.3155369999999
 20
1124.2179979999996
 40
4.2999999999999998
 50
24.227636
 51
114.227627
  0
ARC
  8
_0-0_LAYER001
  6
CONTINUOUS
 62
   18
 10
2046.5621120000001
 20
1107.2290869999997
 40
2.000003
 50
114.22762700000001
 51
204.22763599999999
  0
ARC
  8
_0-0_LAYER001
  6
CONTINUOUS
 62
   18
 10
2084.0690789999999
 20
1023.8792489999996
 40
2.000003
 50
204.22763600000002
 51
294.22763600000002
  0
ARC
  8
_0-0_LAYER001
  6
CONTINUOUS
 62
   18
 10
2084.0690789999999
 20
1023.8792489999996
 40
4.2999999999999998
 50
204.22763600000002
 51
294.22763600000002
  0
ARC
  8
_0-0_LAYER001
  6
CONTINUOUS
 62
   18
 10
2046.5621120000001
 20
1107.2290869999997
 40
4.2999999999999998
 50
114.22762700000001
 51
204.22763599999999
  0
LINE
  8
_0-0_LAYER001
  6
CONTINUOUS
 62
   18
 10
838.22408300000006
 20
980.39450399999987
 11
776.21289400000001
 21
1008.2997529999998
  0
LINE
  8
_0-0_LAYER001
  6
CONTINUOUS
 62
   18
 10
840.73138200000005
 20
973.78334199999972
 11
839.91050799999994
 21
971.95942999999988
  0
LINE
  8
_0-0_LAYER001
  6
CONTINUOUS
 62
   18
 10
839.91050799999994
 20
971.95942999999988
 11
757.83732800000007
 21
1008.8918289999997
  0
ARC
  8
_0-0_LAYER001
  6
CONTINUOUS
 62
   18
 10
780.31856500000004
 20
1017.4200399999995
 40
10.001999
 50
155.77650399999999
 51
245.76373400000003
  0
ARC
  8
_0-0_LAYER001
  6
CONTINUOUS
 62
   18
 10
836.17327999999998
 20
975.83508399999982
 40
4.9989999999999997
 50
335.76955399999997
 51
65.780194999999978
  0
LINE
  8
_0-0_LAYER001
  6
CONTINUOUS
 62
   18
 10
762.78825800000004
 20
1059.3025479999997
 11
763.00414999999998
 21
1057.1692299999995
  0
LINE
  8
_0-0_LAYER001
  6
CONTINUOUS
 62
   18
 10
762.33279900000014
 20
1081.4370709999998
 11
758.34066300000006
 21
1065.6888209999997
  0
LINE
  8
_0-0_LAYER001
  6
CONTINUOUS
 62
   18
 10
767.88910200000009
 20
1078.9364509999996
 11
763.89568899999995
 21
1063.1883579999999
  0
LINE
  8
_0-0_LAYER001
  6
CONTINUOUS
 62
   18
 10
762.33279900000014
 20
1081.4370709999998
 11
759.68810299999996
 21
1080.4339389999996
  0
LINE
  8
_0-0_LAYER001
  6
CONTINUOUS
 62
   18
 10
764.42936800000007
 20
1062.9491039999998
 11
755.76731500000005
 21
1066.8467419999997
  0
LINE
  8
_0-0_LAYER001
  6
CONTINUOUS
 62
   18
 10
762.33279900000014
 20
1081.4370709999998
 11
755.76731500000005
 21
1066.8467419999997
  0
LINE
  8
_0-0_LAYER001
  6
CONTINUOUS
 62
   18
 10
754.76341000000002
 20
1069.4916789999997
 11
755.76731500000005
 21
1066.8467419999997
  0
LINE
  8
_0-0_LAYER001
  6
CONTINUOUS
 62
   18
 10
759.68810299999996
 20
1080.4339389999996
 11
754.76341000000002
 21
1069.4916789999997
  0
ARC
  8
_0-0_LAYER001
  6
CONTINUOUS
 62
   18
 10
769.06057700000008
 20
1058.2329319999999
 40
6.1580000000000004
 50
121.444639
 51
155.399294
  0
LINE
  8
_0-0_LAYER001
  6
CONTINUOUS
 62
   18
 10
796.59498099999996
 20
1090.1452209999998
 11
794.77117300000009
 21
1090.9652089999995
  0
LINE
  8
_0-0_LAYER001
  6
CONTINUOUS
 62
   18
 10
757.83751900000016
 20
1008.8922359999997
 11
794.77117300000009
 21
1090.9652089999995
  0
LINE
  8
_0-0_LAYER001
  6
CONTINUOUS
 62
   18
 10
799.10243800000012
 20
1083.5330449999997
 11
771.1971860000001
 21
1021.5228389999997
  0
LINE
  8
_0-0_LAYER001
  6
CONTINUOUS
 62
   18
 10
779.5676820000001
 20
1064.9090009999995
 11
776.83135700000003
 21
1066.1398929999996
  0
LINE
  8
_0-0_LAYER001
  6
CONTINUOUS
 62
   18
 10
786.13332700000001
 20
1079.4992629999997
 11
783.39718500000004
 21
1080.7301089999996
  0
LINE
  8
_0-0_LAYER001
  6
CONTINUOUS
 62
   18
 10
770.26586900000007
 20
1051.5509359999996
 11
783.39718500000004
 21
1080.7301089999996
  0
LINE
  8
_0-0_LAYER001
  6
CONTINUOUS
 62
   18
 10
773.00218700000016
 20
1050.3188849999997
 11
770.26586900000007
 21
1051.5509359999996
  0
LINE
  8
_0-0_LAYER001
  6
CONTINUOUS
 62
   18
 10
765.84721000000013
 20
1063.4877569999999
 11
773.98852700000009
 21
1059.8247129999995
  0
LINE
  8
_0-0_LAYER001
  6
CONTINUOUS
 62
   18
 10
771.53318400000012
 20
1076.1222689999995
 11
779.67346200000009
 21
1072.4584439999999
  0
LINE
  8
_0-0_LAYER001
  6
CONTINUOUS
 62
   18
 10
774.37521600000014
 20
1082.4406799999997
 11
782.51754000000005
 21
1078.7765649999997
  0
LINE
  8
_0-0_LAYER001
  6
CONTINUOUS
 62
   18
 10
772.63780500000007
 20
1081.1889899999996
 11
774.37521600000014
 21
1082.4406799999997
  0
LINE
  8
_0-0_LAYER001
  6
CONTINUOUS
 62
   18
 10
762.78825800000004
 20
1059.3025479999997
 11
772.63780500000007
 21
1081.1889899999996
  0
LINE
  8
_0-0_LAYER001
  6
CONTINUOUS
 62
   18
 10
763.00414999999998
 20
1057.1692299999995
 11
771.14541899999995
 21
1053.5054859999996
  0
LINE
  8
_0-0_LAYER001
  6
CONTINUOUS
 62
   18
 10
799.82816700000012
 20
1063.3883919999998
 11
791.68699200000015
 21
1067.0514329999996
  0
LINE
  8
_0-0_LAYER001
  6
CONTINUOUS
 62
   18
 10
794.14240800000016
 20
1050.7536569999997
 11
786.00098900000023
 21
1054.4176999999995
  0
LINE
  8
_0-0_LAYER001
  6
CONTINUOUS
 62
   18
 10
791.30015400000002
 20
1044.4354759999997
 11
783.15806599999996
 21
1048.0993049999997
  0
LINE
  8
_0-0_LAYER001
  6
CONTINUOUS
 62
   18
 10
793.03767400000015
 20
1045.6869669999996
 11
791.30015400000002
 21
1044.4354759999997
  0
LINE
  8
_0-0_LAYER001
  6
CONTINUOUS
 62
   18
 10
802.88714800000002
 20
1067.5736279999996
 11
793.03767400000015
 21
1045.6869669999996
  0
LINE
  8
_0-0_LAYER001
  6
CONTINUOUS
 62
   18
 10
802.67143899999996
 20
1069.7065409999996
 11
794.53022499999997
 21
1073.3705589999995
  0
LINE
  8
_0-0_LAYER001
  6
CONTINUOUS
 62
   18
 10
802.88714800000002
 20
1067.5736279999996
 11
802.67143899999996
 21
1069.7065409999996
  0
LINE
  8
_0-0_LAYER001
  6
CONTINUOUS
 62
   18
 10
770.9949610000001
 20
1077.5384409999997
 11
762.33279900000014
 21
1081.4370709999998
  0
ARC
  8
_0-0_LAYER001
  6
CONTINUOUS
 62
   18
 10
794.54428400000006
 20
1085.5850279999995
 40
4.9989999999999997
 50
335.76955399999997
 51
65.780194999999978
  0
ARC
  8
_0-0_LAYER001
  6
CONTINUOUS
 62
   18
 10
777.58653000000004
 20
1077.2057579999996
 40
6.1470009999999995
 50
156.13071400000001
 51
190.13798399999999
  0
ARC
  8
_0-0_LAYER001
  6
CONTINUOUS
 62
   18
 10
788.59479600000009
 20
1060.8491829999998
 40
22.898997999999999
 50
138.16815399999999
 51
173.38367400000001
  0
ARC
  8
_0-0_LAYER001
  6
CONTINUOUS
 62
   18
 10
788.08797600000003
 20
1049.6730659999998
 40
6.1479999999999988
 50
336.10753399999999
 51
10.122273999999997
  0
ARC
  8
_0-0_LAYER001
  6
CONTINUOUS
 62
   18
 10
796.62156500000015
 20
1068.6347929999997
 40
6.1479999999999988
 50
301.44426399999998
 51
335.44652400000001
  0
ARC
  8
_0-0_LAYER001
  6
CONTINUOUS
 62
   18
 10
777.04517099999998
 20
1066.0443129999999
 40
22.936000999999997
 50
318.19624399999998
 51
353.35301399999997
  0
LINE
  8
_0-0_LAYER001
  6
CONTINUOUS
 62
   18
 10
785.81924900000013
 20
1144.3392759999997
 11
794.93957300000022
 21
1140.2352509999996
  0
LINE
  8
_0-0_LAYER001
  6
CONTINUOUS
 62
   18
 10
784.5892980000001
 20
1141.6027929999996
 11
793.70772699999998
 21
1137.5001079999997
  0
LINE
  8
_0-0_LAYER001
  6
CONTINUOUS
 62
   18
 10
794.93957300000022
 20
1140.2352509999996
 11
793.70772699999998
 21
1137.5001079999997
  0
LINE
  8
_0-0_LAYER001
  6
CONTINUOUS
 62
   18
 10
785.81924900000013
 20
1144.3392759999997
 11
784.5892980000001
 21
1141.6027929999996
  0
LINE
  8
_0-0_LAYER001
  6
CONTINUOUS
 62
   18
 10
790.3793290000001
 20
1142.2873269999996
 11
789.14848700000016
 21
1139.5508409999998
  0
LINE
  8
_0-0_LAYER001
  6
CONTINUOUS
 62
   18
 10
771.97742800000015
 20
1101.3950879999998
 11
776.09967800000004
 21
1105.6812769999997
  0
LINE
  8
_0-0_LAYER001
  6
CONTINUOUS
 62
   18
 10
771.97742800000015
 20
1101.3950879999998
 11
772.45192100000008
 21
1107.3220839999999
  0
LINE
  8
_0-0_LAYER001
  6
CONTINUOUS
 62
   18
 10
785.55724600000019
 20
1123.6839829999999
 11
779.929621
 21
1127.3755259999998
  0
LINE
  8
_0-0_LAYER001
  6
CONTINUOUS
 62
   18
 10
783.50541900000007
 20
1119.1237079999996
 11
777.87655400000006
 21
1122.8155139999999
  0
LINE
  8
_0-0_LAYER001
  6
CONTINUOUS
 62
   18
 10
781.45260000000007
 20
1114.5646059999999
 11
775.82572300000027
 21
1118.2551469999999
  0
LINE
  8
_0-0_LAYER001
  6
CONTINUOUS
 62
   18
 10
779.40156300000012
 20
1110.0043279999995
 11
773.77384600000016
 21
1113.6960649999996
  0
LINE
  8
_0-0_LAYER001
  6
CONTINUOUS
 62
   18
 10
777.86562900000013
 20
1106.5923019999996
 11
772.23822900000005
 21
1110.2839459999996
  0
LINE
  8
_0-0_LAYER001
  6
CONTINUOUS
 62
   18
 10
786.09355000000005
 20
1137.6385059999998
 11
772.45192100000008
 21
1107.3220839999999
  0
LINE
  8
_0-0_LAYER001
  6
CONTINUOUS
 62
   18
 10
784.5892980000001
 20
1141.6027929999996
 11
786.09355000000005
 21
1137.6385059999998
  0
LINE
  8
_0-0_LAYER001
  6
CONTINUOUS
 62
   18
 10
789.74015200000008
 20
1135.9945429999998
 11
776.09967800000004
 21
1105.6812769999997
  0
LINE
  8
_0-0_LAYER001
  6
CONTINUOUS
 62
   18
 10
793.70772699999998
 20
1137.5001079999997
 11
789.74015200000008
 21
1135.9945429999998
  0
LINE
  8
_0-0_LAYER001
  6
CONTINUOUS
 62
   18
 10
750.86669800000004
 20
1110.7216499999995
 11
748.76921000000016
 21
1111.6653919999999
  0
LINE
  8
_0-0_LAYER001
  6
CONTINUOUS
 62
   18
 10
726.24500300000011
 20
1056.0062389999998
 11
724.14746600000012
 21
1056.9499929999997
  0
LINE
  8
_0-0_LAYER001
  6
CONTINUOUS
 62
   18
 10
797.70757900000024
 20
1109.0529779999997
 11
759.95389300000011
 21
1126.0418909999999
  0
LINE
  8
_0-0_LAYER001
  6
CONTINUOUS
 62
   18
 10
750.86669800000004
 20
1110.7216499999995
 11
757.30930600000022
 21
1125.0387989999995
  0
LINE
  8
_0-0_LAYER001
  6
CONTINUOUS
 62
   18
 10
719.80233500000008
 20
1041.6891119999996
 11
726.24500300000011
 21
1056.0062389999998
  0
LINE
  8
_0-0_LAYER001
  6
CONTINUOUS
 62
   18
 10
758.55901300000016
 20
1022.0553869999999
 11
720.80552800000009
 21
1039.0443209999999
  0
LINE
  8
_0-0_LAYER001
  6
CONTINUOUS
 62
   18
 10
748.76921000000016
 20
1111.6653919999999
 11
755.21192799999994
 21
1125.9825169999999
  0
LINE
  8
_0-0_LAYER001
  6
CONTINUOUS
 62
   18
 10
798.65147200000013
 20
1111.1502389999996
 11
760.89778799999999
 21
1128.1392109999997
  0
LINE
  8
_0-0_LAYER001
  6
CONTINUOUS
 62
   18
 10
717.70474700000011
 20
1042.6328489999996
 11
724.14746600000012
 21
1056.9499929999997
  0
LINE
  8
_0-0_LAYER001
  6
CONTINUOUS
 62
   18
 10
757.61510400000009
 20
1019.9579869999998
 11
719.86168300000008
 21
1036.9470179999998
  0
LINE
  8
_0-0_LAYER001
  6
CONTINUOUS
 62
   18
 10
761.20360600000015
 20
1023.0586379999995
 11
798.71068300000002
 21
1106.4084709999997
  0
LINE
  8
_0-0_LAYER001
  6
CONTINUOUS
 62
   18
 10
800.80793800000026
 20
1105.4644379999995
 11
763.30086500000016
 21
1022.1146849999996
  0
ARC
  8
_0-0_LAYER001
  6
CONTINUOUS
 62
   18
 10
759.13322300000004
 20
1124.2179979999996
 40
2.000003
 50
65.772373000000002
 51
155.77236400000001
  0
ARC
  8
_0-0_LAYER001
  6
CONTINUOUS
 62
   18
 10
721.62625000000003
 20
1040.8682609999996
 40
2.000003
 50
155.77236400000001
 51
245.77236400000001
  0
ARC
  8
_0-0_LAYER001
  6
CONTINUOUS
 62
   18
 10
721.62625000000003
 20
1040.8682609999996
 40
4.2999999999999998
 50
155.77236400000001
 51
245.77236400000001
  0
ARC
  8
_0-0_LAYER001
  6
CONTINUOUS
 62
   18
 10
759.13322300000004
 20
1124.2179979999996
 40
4.2999999999999998
 50
65.772373000000002
 51
155.77236400000001
  0
ARC
  8
_0-0_LAYER001
  6
CONTINUOUS
 62
   18
 10
796.88664900000003
 20
1107.2290869999997
 40
2.000003
 50
335.77236399999998
 51
65.772373000000016
  0
ARC
  8
_0-0_LAYER001
  6
CONTINUOUS
 62
   18
 10
759.37968100000023
 20
1023.8792489999996
 40
2.000003
 50
245.77236400000001
 51
335.77236399999998
  0
ARC
  8
_0-0_LAYER001
  6
CONTINUOUS
 62
   18
 10
759.37968100000023
 20
1023.8792489999996
 40
4.2999999999999998
 50
245.77236400000001
 51
335.77236399999998
  0
ARC
  8
_0-0_LAYER001
  6
CONTINUOUS
 62
   18
 10
796.88664900000003
 20
1107.2290869999997
 40
4.2999999999999998
 50
335.77236399999998
 51
65.772373000000016
  0
LINE
  8
_0-0_LAYER001
  6
CONTINUOUS
 62
   18
 10
1264.875035
 20
978.43975999999975
 11
1248.460392
 21
941.9631059999997
  0
LINE
  8
_0-0_LAYER001
  6
CONTINUOUS
 62
   18
 10
1301.3506499999999
 20
962.02576399999953
 11
1284.9360960000001
 21
925.54903099999956
  0
LINE
  8
_0-0_LAYER001
  6
CONTINUOUS
 62
   18
 10
1264.875035
 20
978.43975999999975
 11
1301.3506499999999
 21
962.02576399999953
  0
LINE
  8
_0-0_LAYER001
  6
CONTINUOUS
 62
   18
 10
1271.6357620000001
 20
977.04215999999951
 11
1282.0735340000001
 21
975.04491699999971
  0
LINE
  8
_0-0_LAYER001
  6
CONTINUOUS
 62
   18
 10
1271.6357620000001
 20
977.04215999999951
 11
1303.9150690000001
 21
962.51660699999957
  0
LINE
  8
_0-0_LAYER001
  6
CONTINUOUS
 62
   18
 10
1421.7243800000001
 20
865.63915399999951
 11
1303.9150690000001
 21
918.65324499999952
  0
LINE
  8
_0-0_LAYER001
  6
CONTINUOUS
 62
   18
 10
1303.9150690000001
 20
962.51660699999957
 11
1303.9150690000001
 21
918.65324499999952
  0
LINE
  8
_0-0_LAYER001
  6
CONTINUOUS
 62
   18
 10
1301.3506499999999
 20
962.02576399999953
 11
1248.460392
 21
941.9631059999997
  0
LINE
  8
_0-0_LAYER001
  6
CONTINUOUS
 62
   18
 10
1264.875035
 20
978.43975999999975
 11
1284.9360960000001
 21
925.54903099999956
  0
LINE
  8
_0-0_LAYER001
  6
CONTINUOUS
 62
   18
 10
1578.5737260000001
 20
978.43975999999975
 11
1594.9883679999998
 21
941.9631059999997
  0
LINE
  8
_0-0_LAYER001
  6
CONTINUOUS
 62
   18
 10
1542.0981099999999
 20
962.02576399999953
 11
1558.5126640000001
 21
925.54903099999956
  0
LINE
  8
_0-0_LAYER001
  6
CONTINUOUS
 62
   18
 10
1578.5737260000001
 20
978.43975999999975
 11
1542.0981099999999
 21
962.02576399999953
  0
LINE
  8
_0-0_LAYER001
  6
CONTINUOUS
 62
   18
 10
1571.8129980000001
 20
977.04215999999951
 11
1561.3752260000001
 21
975.04491699999971
  0
LINE
  8
_0-0_LAYER001
  6
CONTINUOUS
 62
   18
 10
1571.8129980000001
 20
977.04215999999951
 11
1539.5336910000001
 21
962.51660699999957
  0
LINE
  8
_0-0_LAYER001
  6
CONTINUOUS
 62
   18
 10
1542.0981099999999
 20
962.02576399999953
 11
1594.9883679999998
 21
941.9631059999997
  0
LINE
  8
_0-0_LAYER001
  6
CONTINUOUS
 62
   18
 10
1578.5737260000001
 20
978.43975999999975
 11
1558.5126640000001
 21
925.54903099999956
  0
LINE
  8
_0-0_LAYER001
  6
CONTINUOUS
 62
   18
 10
1421.7243800000001
 20
865.63915399999951
 11
1539.5336910000001
 21
918.65324499999952
  0
LINE
  8
_0-0_LAYER001
  6
CONTINUOUS
 62
   18
 10
1539.5336910000001
 20
962.51660699999957
 11
1539.5336910000001
 21
918.65324499999952
  0
LINE
  8
_0-0_LAYER001
  6
CONTINUOUS
 62
   18
 10
1556.7628519999998
 20
968.51745399999982
 11
1553.0128519999998
 21
962.02226399999972
  0
LINE
  8
_0-0_LAYER001
  6
CONTINUOUS
 62
   18
 10
1553.0128519999998
 20
962.02226399999972
 11
1553.0128519999998
 21
969.52226399999972
  0
LINE
  8
_0-0_LAYER001
  6
CONTINUOUS
 62
   18
 10
1553.0128519999998
 20
962.02226399999972
 11
1590.4383640000001
 21
1101.6961769999998
  0
LINE
  8
_0-0_LAYER001
  6
CONTINUOUS
 62
   18
 10
1590.4383640000001
 20
1101.6961769999998
 11
1725.6215929999998
 21
1101.6961769999998
  0
LINE
  8
_0-0_LAYER001
  6
CONTINUOUS
 62
   18
 10
1950.8349720000001
 20
739.31944799999974
 11
2283.809307
 21
739.31944799999974
  0
LINE
  8
_0-0_LAYER001
  6
CONTINUOUS
 62
   18
 10
1784.6194730000002
 20
1023.3308509999997
 11
1782.6783310000001
 21
1030.5752939999998
  0
LINE
  8
_0-0_LAYER001
  6
CONTINUOUS
 62
   18
 10
1782.6783310000001
 20
1030.5752939999998
 11
1787.9816310000001
 21
1025.2719939999997
  0
LINE
  8
_0-0_LAYER001
  6
CONTINUOUS
 62
   18
 10
1782.6783310000001
 20
1030.5752939999998
 11
1967.6163179999999
 21
710.25330399999984
  0
LINE
  8
_0-0_LAYER001
  6
CONTINUOUS
 62
   18
 10
1967.6163179999999
 20
710.25330399999984
 11
2352.0586039999998
 21
710.25330399999984
  0
LINE
  8
_0-0_LAYER001
  6
CONTINUOUS
 62
   18
 10
1933.1832829999998
 20
770.21519899999976
 11
2169.308419
 21
770.21519899999976
  0
LINE
  8
_0-0_LAYER001
  6
CONTINUOUS
 62
   18
 10
1915.5066419999998
 20
800.19614699999966
 11
2107.8993300000002
 21
800.19614699999966
  0
TEXT
  8
_0-2_LAYER003
 62
    7
 10
1418.2585500703794
 20
1004.5548798603171
 40
20
 41
1
 50
24.227662000000009
  1
150
  0
TEXT
  8
_0-2_LAYER003
 62
    7
 10
1430.1837164782455
 20
1104.7262776863918
 40
20
 41
1
 50
24.227662000000002
  1
75
  0
TEXT
  8
_0-2_LAYER003
 62
    7
 10
1679.4196944026453
 20
1213.2452919979726
 40
20
 41
1
 50
24.227662000000034
  1
60
  0
TEXT
  8
_0-2_LAYER003
 62
    7
 10
1654.3768449461265
 20
688.53797005186743
 40
20
 41
1
 50
24.227662000000034
  1
300
  0
TEXT
  8
_0-2_LAYER003
 62
    7
 10
1157.0974057381136
 20
707.61823630445315
 40
20
 41
1
 50
-24.227705000000043
  1
300
  0
TEXT
  8
_0-2_LAYER003
 62
    7
 10
1586.5295181296456
 20
1108.2105180521637
 40
20
 41
1
 50
0
  1
桟木：４０ｘ４０
  0
TEXT
  8
_0-2_LAYER003
 62
    7
 10
998.8392708665358
 20
1146.9206540994344
 40
20
 41
1
 50
0
  1
谷樋カラー鋼板0.35ｍｍ以上
  0
TEXT
  8
_0-2_LAYER003
 62
    7
 10
1920.8617282808978
 20
807.67138218965658
 40
20
 41
1
 50
0
  1
瓦桟：15x30以上
  0
TEXT
  8
_0-2_LAYER003
 62
    7
 10
1936.4525964106222
 20
772.33208109561497
 40
20
 41
1
 50
0
  1
下葺材：ルーフィング
  0
TEXT
  8
_0-2_LAYER003
 62
    7
 10
1968.6737238787189
 20
714.12617341131113
 40
20
 41
1
 50
0
  1
　鋼製：C100x50x20x2.3@606　
  0
TEXT
  8
_0-2_LAYER003
 62
    7
 10
1951.0040733316982
 20
745.30790967075961
 40
20
 41
1
 50
0
  1
野地板：硬質木片セメントパネルｔ＝25
  0
LINE
  8
_0-2_LAYER003
  6
CONTINUOUS
 62
    7
 10
1084.310078
 20
1143.1685549999997
 11
994.76416137527792
 21
1143.1685549999997
  0
LINE
  8
_0-2_LAYER003
  6
CONTINUOUS
 62
    7
 10
1725.6215929999998
 20
1101.6961769999998
 11
1745.2046140193379
 21
1101.6961769999998
  0
LINE
  8
_0-2_LAYER003
  6
CONTINUOUS
 62
    7
 10
2283.809307
 20
739.31944799999974
 11
2354.2878622872313
 21
739.31944799999974
  0
TEXT
  8
_0-2_LAYER003
 62
    7
 10
1277.4785701276107
 20
676.70808989997295
 40
20
 41
1
 50
0
  1
この範囲ルーフィング２枚葺き
  0
TEXT
  8
_0-2_LAYER003
 62
    7
 10
1533.1688074550882
 20
1152.7492634608864
 40
20
 41
1
 50
24.227662000000006
  1
205
  0
TEXT
  8
_0-2_LAYER003
 62
    7
 10
1497.8295063610469
 20
1198.4824766414108
 40
20
 41
1
 50
24.227662000000006
  1
280
  0
TEXT
  8
_0-2_LAYER003
 62
    7
 10
1749.3621788539313
 20
1331.524551348391
 40
20
 41
1
 50
24.227661999999977
  1
280
  0
TEXT
  8
_0-2_LAYER003
 62
    7
 10
1963.4767678354774
 20
1454.1727139688883
 40
20
 41
1
 50
24.227662000000059
  1
280
  0
ENDSEC
  0
EOF
