  0
SECTION
  2
HEADER
  9
$ACADVER
  1
AC1009
  9
$INSBASE
 10
0
 20
0
 30
0
  9
$EXTMIN
 10
0
 20
0
  9
$EXTMAX
 10
2970
 20
2100
  9
$LIMMIN
 10
0
 20
0
  9
$LIMMAX
 10
2970
 20
2100
  9
$LTSCALE
 40
10
  0
ENDSEC
  0
SECTION
  2
TABLES
  0
TABLE
  2
LTYPE
 70
     9
  0
LTYPE
  2
CONTINUOUS
 70
    64
  3
実線
 72
    65
 73
     0
 40
0.0
  0
LTYPE
  2
DASHED1
 70
    64
  3
--  --  --  --  --  --  --  --  
 72
    65
 73
     2
 40
2.5
 49
1.25
 49
-1.25
  0
LTYPE
  2
DASHED2
 70
    64
  3
----    ----    ----    ----    
 72
    65
 73
     2
 40
5.0
 49
2.5
 49
-2.5
  0
LTYPE
  2
DASHED3
 70
    64
  3
------  ------  ------  ------  
 72
    65
 73
     2
 40
5.0
 49
3.75
 49
-1.25
  0
LTYPE
  2
CENTER1
 70
    64
  3
----- - ----- - ----- - ----- - 
 72
    65
 73
     4
 40
10.0
 49
6.25
 49
-1.25
 49
1.25
 49
-1.25
  0
LTYPE
  2
CENTER2
 70
    64
  3
----------  --  ----------  --  
 72
    65
 73
     4
 40
20.0
 49
12.5
 49
-2.5
 49
2.5
 49
-2.5
  0
LTYPE
  2
PHANTOM1
 70
    64
  3
--- - - --- - - --- - - --- - - 
 72
    65
 73
     6
 40
10.0
 49
3.25
 49
-1.25
 49
1.25
 49
-1.25
 49
1.25
 49
-1.25
  0
LTYPE
  2
PHANTOM2
 70
    64
  3
--------  -  -  --------  -  -  
 72
    65
 73
     6
 40
20.0
 49
10.0
 49
-2.5
 49
1.25
 49
-2.5
 49
1.25
 49
-2.5
  0
LTYPE
  2
DOT
 70
    64
  3
-   -   -   -   -   -   -   -   
 72
    65
 73
     2
 40
2.5
 49
0.625
 49
-1.875
  0
LTYPE
  2
DUMMY
 70
    64
  3
ダミー
 72
    65
 73
     0
 40
0.0
  0
LTYPE
  2
RAND1
 70
    64
  3
ランダム線1
 72
    65
 73
     4
 40
10.0
 49
1.0
 49
-2.0
 49
3.0
 49
-4.0
  0
LTYPE
  2
RAND2
 70
    64
  3
ランダム線2
 72
    65
 73
     4
 40
14.0
 49
2.0
 49
-3.0
 49
4.0
 49
-5.0
  0
LTYPE
  2
RAND3
 70
    64
  3
ランダム線3
 72
    65
 73
     4
 40
18.0
 49
3.0
 49
-4.0
 49
5.0
 49
-6.0
  0
LTYPE
  2
RAND4
 70
    64
  3
ランダム線4
 72
    65
 73
     4
 40
22.0
 49
4.0
 49
-5.0
 49
6.0
 49
-7.0
  0
LTYPE
  2
RAND5
 70
    64
  3
ランダム線5
 72
    65
 73
     4
 40
26.0
 49
5.0
 49
-6.0
 49
7.0
 49
-8.0
  0
LTYPE
  2
LONG1
 70
    64
  3
----------  --  ----------  --  
 72
    65
 73
     4
 40
40.0
 49
32.5
 49
-2.5
 49
2.5
 49
-2.5
  0
LTYPE
  2
LONG2
 70
    64
  3
--------  -  -  --------  -  -  
 72
    65
 73
     6
 40
40.0
 49
30.0
 49
-2.5
 49
1.25
 49
-2.5
 49
1.25
 49
-2.5
  0
LTYPE
  2
LONG3
 70
    64
  3
+++++++++++++++..+++++++++++++++
 72
    65
 73
     2
 40
40.0
 49
37.5
 49
-2.5
  0
LTYPE
  2
LONG4
 70
    64
  3
+++++++++++++++..+++++++++++++++
 72
    65
 73
     2
 40
80.0
 49
75.0
 49
-5.0
  0
LTYPE
  2
LONG5
 70
    64
  3
----------  --  ----------  --  
 72
    65
 73
     4
 40
60.0
 49
37.5
 49
-7.5
 49
7.5
 49
-7.5
  0
LTYPE
  2
dashed
 70
   64
  3
-------   -------------   ------
 72
   65
 73
    2
 40
7.5
 49
6
 49
-1.5
  0
LTYPE
  2
dashed_spaced
 70
   64
  3
----        --------        ----
 72
   65
 73
    2
 40
12
 49
6
 49
-6
  0
LTYPE
  2
long_dashed_dotted
 70
   64
  3
------------- --- --------------
 72
   65
 73
    4
 40
15.25
 49
12
 49
-1.5
 49
0.25
 49
-1.5
  0
LTYPE
  2
long_dashed_double-dotted
 70
   64
  3
----------- --- --- ------------
 72
   65
 73
    6
 40
17
 49
12
 49
-1.5
 49
0.25
 49
-1.5
 49
0.25
 49
-1.5
  0
LTYPE
  2
long_dashed_triplicate-dotted
 70
   64
  3
--------- --- --- --- ----------
 72
   65
 73
    8
 40
18.75
 49
12
 49
-1.5
 49
0.25
 49
-1.5
 49
0.25
 49
-1.5
 49
0.25
 49
-1.5
  0
LTYPE
  2
dotted
 70
   64
  3
   -       -       -       -    
 72
   65
 73
    2
 40
1.75
 49
0.25
 49
-1.5
  0
LTYPE
  2
chain
 70
   64
  3
-------------- -- --------------
 72
   65
 73
    4
 40
18.5
 49
12
 49
-1.5
 49
3.5
 49
-1.5
  0
LTYPE
  2
chain_double_dash
 70
   64
  3
------------ -- -- -------------
 72
   65
 73
    6
 40
23.5
 49
12
 49
-1.5
 49
3.5
 49
-1.5
 49
3.5
 49
-1.5
  0
LTYPE
  2
dashed_dotted
 70
   64
  3
-----------     -     ----------
 72
   65
 73
    4
 40
9.25
 49
6
 49
-1.5
 49
0.25
 49
-1.5
  0
LTYPE
  2
double-dashed_dotted
 70
   64
  3
------   -----------   -   -----
 72
   65
 73
    6
 40
16.75
 49
6
 49
-1.5
 49
6
 49
-1.5
 49
0.25
 49
-1.5
  0
LTYPE
  2
dashed_double-dotted
 70
   64
  3
---------    -    -    ---------
 72
   65
 73
    6
 40
11
 49
6
 49
-1.5
 49
0.25
 49
-1.5
 49
0.25
 49
-1.5
  0
LTYPE
  2
double-dashed_double-dotted
 70
   64
  3
-----   ---------   -   -   ----
 72
   65
 73
    8
 40
18.5
 49
6
 49
-1.5
 49
6
 49
-1.5
 49
0.25
 49
-1.5
 49
0.25
 49
-1.5
  0
LTYPE
  2
dashed_triplicate-dotted
 70
   64
  3
-------    -    -    -    ------
 72
   65
 73
    8
 40
12.75
 49
6
 49
-1.5
 49
0.25
 49
-1.5
 49
0.25
 49
-1.5
 49
0.25
 49
-1.5
  0
LTYPE
  2
double-dashed_triplicate-dotted
 70
   64
  3
-----  ---------  -  -  -  -----
 72
   65
 73
   10
 40
20.25
 49
6
 49
-1.5
 49
6
 49
-1.5
 49
0.25
 49
-1.5
 49
0.25
 49
-1.5
 49
0.25
 49
-1.5
  0
LTYPE
  2
undefined
 70
   64
  3
--------------------------------
 72
   65
 73
    0
 40
0
  0
LTYPE
  2
HIDDEN
 70
   64
  3
----        --------        ----
 72
   65
 73
    2
 40
2
 49
1
 49
-1
  0
LTYPE
  2
DASHED
 70
   64
  3
-------   -------------   ------
 72
   65
 73
    2
 40
10
 49
8
 49
-2
  0
LTYPE
  2
CENTER
 70
   64
  3
------------   ---   -----------
 72
   65
 73
    4
 40
20
 49
14
 49
-2
 49
2
 49
-2
  0
LTYPE
  2
PHANTOM
 70
   64
  3
---------   ---   ---   --------
 72
   65
 73
    6
 40
20
 49
10
 49
-2
 49
2
 49
-2
 49
2
 49
-2
  0
ENDTAB
  0
TABLE
  2
STYLE
  5
3
100
AcDbSymbolTable
 70
     1
  0
STYLE
  5
10
100
AcDbSymbolTableRecord
100
AcDbTextStyleTableRecord
  2
STANDARD
 70
     0
 40
0.0
 41
1.0
 50
0.0
 71
     0
 42
0.2
  3
txt
  4
bigfont.shx
  0
STYLE
  5
26
100
AcDbSymbolTableRecord
100
AcDbTextStyleTableRecord
  2
TATEGAKI
 70
    68
 40
0.0
 41
1.0
 50
0.0
 71
     0
 42
1.0
  3
txt
  4
bigfont.shx
  0
ENDTAB
  0
TABLE
  2
LAYER
 70
    6
  0
LAYER
  2
_0-0_1
 70
   64
 62
    7
  6
CONTINUOUS
  0
LAYER
  2
_0-1_2
 70
   64
 62
    7
  6
CONTINUOUS
  0
LAYER
  2
_0-2_3
 70
   64
 62
    7
  6
CONTINUOUS
  0
LAYER
  2
_0-3_4
 70
   64
 62
    7
  6
CONTINUOUS
  0
LAYER
  2
_0-4_6
 70
   64
 62
    7
  6
CONTINUOUS
  0
LAYER
  2
ADD_LINE
 70
   64
 62
    7
  6
CONTINUOUS
  0
ENDTAB
  0
ENDSEC
  0
SECTION
  2
BLOCKS
  0
ENDSEC
  0
SECTION
  2
ENTITIES
  0
LINE
  8
_0-0_1
  6
CONTINUOUS
 62
    4
 10
1210.4744749999991
 20
974.12878250000358
 11
1216.0784359999998
 21
975.8990515000005
  0
ARC
  8
_0-0_1
  6
CONTINUOUS
 62
    4
 10
1232.8632139999991
 20
977.61258050000106
 40
16.872017
 50
103.35714900000002
 51
185.82903500000003
  0
LINE
  8
_0-0_1
  6
CONTINUOUS
 62
    4
 10
1234.509372999999
 20
977.42709450000257
 11
1540.6838669999997
 21
1074.146401500002
  0
LINE
  8
_0-0_1
  6
CONTINUOUS
 62
    4
 10
1534.6048919999994
 20
1093.3899985000025
 11
1511.2199069999988
 21
1086.0027745000007
  0
LINE
  8
_0-0_1
  6
CONTINUOUS
 62
    4
 10
1228.9654350000001
 20
994.02819150000141
 11
1508.8105899999991
 21
1082.4301655000017
  0
ARC
  8
_0-0_1
  6
CONTINUOUS
 62
    4
 10
1514.4413569999997
 20
1080.9501965000018
 40
5.8220139999999994
 50
113.701938
 51
165.27368200000001
  0
LINE
  8
_0-0_1
  6
CONTINUOUS
 62
    4
 10
1210.4650810000003
 20
974.15851950000069
 11
1216.3481830000001
 21
955.53497750000315
  0
ARC
  8
_0-0_1
  6
CONTINUOUS
 62
    4
 10
1238.4071519999998
 20
961.01148350000221
 40
16.872017
 50
103.35714900000002
 51
192.69455200000002
  0
LINE
  8
_0-0_1
  6
CONTINUOUS
 62
    4
 10
1541.8398230000003
 20
1055.0353385000017
 11
1540.0783169999995
 21
1060.6115575000003
  0
LINE
  8
_0-0_1
  6
CONTINUOUS
 62
    4
 10
1534.6048919999994
 20
1093.3899985000025
 11
1546.2780810000004
 21
1056.4373665000021
  0
LINE
  8
_0-0_1
  6
CONTINUOUS
 62
    4
 10
1541.8398230000003
 20
1055.0353385000017
 11
1546.2780810000004
 21
1056.4373665000021
  0
LINE
  8
_0-0_1
  6
CONTINUOUS
 62
    4
 10
1221.9475640000001
 20
957.30379950000133
 11
1216.3481830000001
 21
955.53497750000315
  0
LINE
  8
_0-0_1
  6
CONTINUOUS
 62
    4
 10
1221.5770739999989
 20
959.99827950000326
 11
1540.0783169999995
 21
1060.6115575000003
  0
LINE
  8
_0-0_1
  6
CONTINUOUS
 62
    4
 10
1464.9952049999993
 20
1091.2379065000023
 11
1470.6136409999999
 21
1092.9616855000022
  0
ARC
  8
_0-0_1
  6
CONTINUOUS
 62
    4
 10
1487.4120389999989
 20
1094.5360945000029
 40
16.872017
 50
102.88244700000001
 51
185.354333
  0
LINE
  8
_0-0_1
  6
CONTINUOUS
 62
    4
 10
1489.0566060000001
 20
1094.3369765000025
 11
1796.0219130000005
 21
1188.5163005000031
  0
LINE
  8
_0-0_1
  6
CONTINUOUS
 62
    4
 10
1790.1025790000003
 20
1207.809601500001
 11
1766.6571939999994
 21
1200.6163765000019
  0
LINE
  8
_0-0_1
  6
CONTINUOUS
 62
    4
 10
1483.6503979999998
 20
1110.9834355000021
 11
1764.2183599999989
 21
1197.0638505000024
  0
ARC
  8
_0-0_1
  6
CONTINUOUS
 62
    4
 10
1769.8366729999998
 20
1195.5372825000013
 40
5.8220139999999994
 50
113.22723600000002
 51
164.79898000000003
  0
LINE
  8
_0-0_1
  6
CONTINUOUS
 62
    4
 10
1464.9860580000004
 20
1091.2677205000036
 11
1470.7146620000003
 21
1072.5960765000018
  0
ARC
  8
_0-0_1
  6
CONTINUOUS
 62
    4
 10
1492.8182459999989
 20
1077.8896355000034
 40
16.872017
 50
102.88244700000001
 51
192.21985000000001
  0
LINE
  8
_0-0_1
  6
CONTINUOUS
 62
    4
 10
1797.0194929999998
 20
1169.3963165000023
 11
1795.304247
 21
1174.9869375000017
  0
LINE
  8
_0-0_1
  6
CONTINUOUS
 62
    4
 10
1790.1025790000003
 20
1207.809601500001
 11
1801.4692139999988
 21
1170.7615255000019
  0
LINE
  8
_0-0_1
  6
CONTINUOUS
 62
    4
 10
1797.0194929999998
 20
1169.3963165000023
 11
1801.4692139999988
 21
1170.7615255000019
  0
LINE
  8
_0-0_1
  6
CONTINUOUS
 62
    4
 10
1476.3285049999995
 20
1074.3184465000013
 11
1470.7146620000003
 21
1072.5960765000018
  0
LINE
  8
_0-0_1
  6
CONTINUOUS
 62
    4
 10
1475.9803520000005
 20
1077.015902500003
 11
1795.304247
 21
1174.9869375000017
  0
LINE
  8
_0-0_1
  6
CONTINUOUS
 62
    4
 10
1720.3140399999993
 20
1206.1826545000004
 11
1725.9324749999996
 21
1207.9064345000006
  0
ARC
  8
_0-0_1
  6
CONTINUOUS
 62
    4
 10
1742.7308739999989
 20
1209.480842500001
 40
16.872017
 50
102.88244700000001
 51
185.354333
  0
LINE
  8
_0-0_1
  6
CONTINUOUS
 62
    4
 10
1744.3754399999998
 20
1209.2817245000006
 11
2051.3407470000002
 21
1303.4610485000012
  0
LINE
  8
_0-0_1
  6
CONTINUOUS
 62
    4
 10
2045.4214140000004
 20
1322.7543495000027
 11
2021.9760289999995
 21
1315.5611245000036
  0
LINE
  8
_0-0_1
  6
CONTINUOUS
 62
    4
 10
1738.9692319999995
 20
1225.9281835000038
 11
2019.5371940000005
 21
1312.0085995000009
  0
ARC
  8
_0-0_1
  6
CONTINUOUS
 62
    4
 10
2025.1555069999995
 20
1310.482030500003
 40
5.8220139999999994
 50
113.22723600000002
 51
164.79898000000003
  0
LINE
  8
_0-0_1
  6
CONTINUOUS
 62
    4
 10
1720.3048920000001
 20
1206.212469500002
 11
1726.033496
 21
1187.5408245000035
  0
ARC
  8
_0-0_1
  6
CONTINUOUS
 62
    4
 10
1748.1370800000004
 20
1192.8343835000014
 40
16.872017
 50
102.88244700000001
 51
192.21985000000001
  0
LINE
  8
_0-0_1
  6
CONTINUOUS
 62
    4
 10
2052.3383269999995
 20
1284.3410645000004
 11
2050.6230809999997
 21
1289.9316865000037
  0
LINE
  8
_0-0_1
  6
CONTINUOUS
 62
    4
 10
2045.4214140000004
 20
1322.7543495000027
 11
2056.7880480000003
 21
1285.7062735000036
  0
LINE
  8
_0-0_1
  6
CONTINUOUS
 62
    4
 10
2052.3383269999995
 20
1284.3410645000004
 11
2056.7880480000003
 21
1285.7062735000036
  0
LINE
  8
_0-0_1
  6
CONTINUOUS
 62
    4
 10
1731.6473389999992
 20
1189.263194500003
 11
1726.033496
 21
1187.5408245000035
  0
LINE
  8
_0-0_1
  6
CONTINUOUS
 62
    4
 10
1731.2991860000002
 20
1191.9606515000014
 11
2050.6230809999997
 21
1289.9316865000037
  0
LINE
  8
_0-0_1
  6
CONTINUOUS
 62
    4
 10
1975.632873999999
 20
1321.1274025000021
 11
1981.2513089999993
 21
1322.8511825000023
  0
ARC
  8
_0-0_1
  6
CONTINUOUS
 62
    4
 10
1998.0497080000005
 20
1324.4255915000031
 40
16.872017
 50
102.88244700000001
 51
185.354333
  0
LINE
  8
_0-0_1
  6
CONTINUOUS
 62
    4
 10
1999.6942739999995
 20
1324.2264725000023
 11
2079.2639559999989
 21
1348.6390655000032
  0
LINE
  8
_0-0_1
  6
CONTINUOUS
 62
    4
 10
1994.2880659999992
 20
1340.8729315000019
 11
2071.5862909999996
 21
1364.5886235000035
  0
LINE
  8
_0-0_1
  6
CONTINUOUS
 62
    4
 10
1975.6237270000001
 20
1321.1572175000038
 11
1981.3523299999997
 21
1302.4855735000019
  0
ARC
  8
_0-0_1
  6
CONTINUOUS
 62
    4
 10
2003.4559150000005
 20
1307.7791325000035
 40
16.872017
 50
102.88244700000001
 51
192.21985000000001
  0
LINE
  8
_0-0_1
  6
CONTINUOUS
 62
    4
 10
1986.9661729999989
 20
1304.2079435000014
 11
1981.3523299999997
 21
1302.4855735000019
  0
LINE
  8
_0-0_1
  6
CONTINUOUS
 62
    4
 10
1986.6180199999999
 20
1306.9053995000031
 11
2084.8461850000003
 21
1337.0425585000012
  0
LINE
  8
_0-0_1
  6
CONTINUOUS
 62
    4
 10
957.23328199999924
 20
859.5576925000023
 11
962.83724299999994
 21
861.32796150000286
  0
ARC
  8
_0-0_1
  6
CONTINUOUS
 62
    4
 10
979.62202099999922
 20
863.04149150000376
 40
16.872017
 50
103.35714900000002
 51
185.82903500000003
  0
LINE
  8
_0-0_1
  6
CONTINUOUS
 62
    4
 10
981.26817999999912
 20
862.85600550000163
 11
1287.4426739999999
 21
959.57531250000102
  0
LINE
  8
_0-0_1
  6
CONTINUOUS
 62
    4
 10
1281.3636989999995
 20
978.81890850000127
 11
1257.9787139999989
 21
971.43168550000337
  0
LINE
  8
_0-0_1
  6
CONTINUOUS
 62
    4
 10
975.72424200000023
 20
879.45710250000047
 11
1255.5693969999993
 21
967.85907650000081
  0
ARC
  8
_0-0_1
  6
CONTINUOUS
 62
    4
 10
1261.2001639999999
 20
966.37910750000083
 40
5.8220139999999994
 50
113.701938
 51
165.27368200000001
  0
LINE
  8
_0-0_1
  6
CONTINUOUS
 62
    4
 10
957.22388800000044
 20
859.58743050000339
 11
963.10699000000022
 21
840.96388850000221
  0
ARC
  8
_0-0_1
  6
CONTINUOUS
 62
    4
 10
985.16595899999993
 20
846.44039450000128
 40
16.872017
 50
103.35714900000002
 51
192.69455200000002
  0
LINE
  8
_0-0_1
  6
CONTINUOUS
 62
    4
 10
1288.5986290000001
 20
940.46424950000073
 11
1286.8371239999997
 21
946.04046750000271
  0
LINE
  8
_0-0_1
  6
CONTINUOUS
 62
    4
 10
1281.3636989999995
 20
978.81890850000127
 11
1293.0368870000002
 21
941.86627750000116
  0
LINE
  8
_0-0_1
  6
CONTINUOUS
 62
    4
 10
1288.5986290000001
 20
940.46424950000073
 11
1293.0368870000002
 21
941.86627750000116
  0
LINE
  8
_0-0_1
  6
CONTINUOUS
 62
    4
 10
968.70637100000022
 20
842.73271050000039
 11
963.10699000000022
 21
840.96388850000221
  0
LINE
  8
_0-0_1
  6
CONTINUOUS
 62
    4
 10
968.33588099999906
 20
845.42718950000199
 11
1286.8371239999997
 21
946.04046750000271
  0
LINE
  8
_0-4_6
  6
CONTINUOUS
 62
   18
 10
1656.1795700000002
 20
1038.6345495000023
 11
1590.0652570000002
 21
1063.7124355000014
  0
LINE
  8
_0-4_6
  6
CONTINUOUS
 62
   18
 10
1660.0485310000004
 20
1040.3756195000024
 11
1593.9341700000004
 21
1065.4534535000021
  0
LINE
  8
_0-4_6
  6
CONTINUOUS
 62
   18
 10
1849.6274279999998
 20
1125.6858605000016
 11
1783.5131139999994
 21
1150.7637465000007
  0
LINE
  8
_0-4_6
  6
CONTINUOUS
 62
   18
 10
1853.4963889999999
 20
1127.4269305000016
 11
1787.382028
 21
1152.5047645000013
  0
LINE
  8
_0-0_1
  6
CONTINUOUS
 62
   18
 10
1154.1120449999999
 20
653.68791850000343
 11
1146.8769680000005
 21
666.41167450000285
  0
LINE
  8
_0-0_1
  6
CONTINUOUS
 62
   18
 10
1180.5574990000005
 20
688.61587550000331
 11
1154.1262470000001
 21
663.35934650000127
  0
LINE
  8
_0-0_1
  6
CONTINUOUS
 62
   18
 10
1145.3642920000002
 20
654.98681150000266
 11
1124.4232809999994
 21
634.97651250000126
  0
LINE
  8
_0-0_1
  6
CONTINUOUS
 62
   18
 10
1145.3194869999988
 20
654.9439975000023
 11
1154.1120449999999
 21
653.68791850000343
  0
LINE
  8
_0-0_1
  6
CONTINUOUS
 62
   18
 10
1146.8769680000005
 20
666.41167450000285
 11
1154.1262470000001
 21
663.35934650000127
  0
LINE
  8
_0-3_4
  6
CONTINUOUS
 62
   18
 10
1037.9796269999988
 20
815.27435750000222
 11
1058.4977569999992
 21
769.67822950000118
  0
LINE
  8
_0-4_6
  6
CONTINUOUS
 62
   18
 10
1269.2838859999993
 20
864.53181550000227
 11
1203.1695729999992
 21
889.6096815000019
  0
LINE
  8
_0-4_6
  6
CONTINUOUS
 62
   18
 10
1273.1528490000001
 20
866.27283550000357
 11
1207.0385349999997
 21
891.35075150000193
  0
LINE
  8
_0-4_6
  6
CONTINUOUS
 62
   18
 10
1462.7317119999989
 20
951.58316350000314
 11
1396.6173989999988
 21
976.6610505000026
  0
LINE
  8
_0-4_6
  6
CONTINUOUS
 62
   18
 10
1466.6006739999993
 20
953.32423450000351
 11
1400.4863129999994
 21
978.40206850000322
  0
LINE
  8
_0-2_3
  6
DASHED
 62
   18
 10
1037.1589110000004
 20
817.09819850000349
 11
2099.6841409999997
 21
1295.233639500002
  0
LINE
  8
_0-1_2
  6
CONTINUOUS
 62
   18
 10
1169.4787029999989
 20
797.68791850000343
 11
1171.5761910000001
 21
798.63166050000291
  0
LINE
  8
_0-1_2
  6
CONTINUOUS
 62
   18
 10
1194.1003700000001
 20
742.97249450000163
 11
1196.1979069999998
 21
743.91624850000153
  0
LINE
  8
_0-1_2
  6
CONTINUOUS
 62
   18
 10
1122.6378210000003
 20
796.0192715000012
 11
1160.3915159999997
 21
813.00816450000275
  0
LINE
  8
_0-1_2
  6
CONTINUOUS
 62
   18
 10
1169.4787029999989
 20
797.68791850000343
 11
1163.036102
 21
812.0050715000034
  0
LINE
  8
_0-1_2
  6
CONTINUOUS
 62
   18
 10
1200.5430290000004
 20
728.65536450000218
 11
1194.1003700000001
 21
742.97249450000163
  0
LINE
  8
_0-1_2
  6
CONTINUOUS
 62
   18
 10
1161.7863409999991
 20
709.02166050000233
 11
1199.5398349999996
 21
726.01057450000371
  0
LINE
  8
_0-1_2
  6
CONTINUOUS
 62
   18
 10
1171.5761910000001
 20
798.63166050000291
 11
1165.1334809999989
 21
812.94878850000168
  0
LINE
  8
_0-1_2
  6
CONTINUOUS
 62
   18
 10
1121.6939289999991
 20
798.11653350000051
 11
1159.4476219999997
 21
815.10548550000021
  0
LINE
  8
_0-1_2
  6
CONTINUOUS
 62
   18
 10
1202.6406179999994
 20
729.59910050000326
 11
1196.1979069999998
 21
743.91624850000153
  0
LINE
  8
_0-1_2
  6
CONTINUOUS
 62
   18
 10
1162.7302490000002
 20
706.92425950000325
 11
1200.483678999999
 21
723.91327050000109
  0
LINE
  8
_0-1_2
  6
CONTINUOUS
 62
   18
 10
1159.1417490000003
 20
710.02491250000094
 11
1121.6347150000001
 21
793.37476550000065
  0
LINE
  8
_0-1_2
  6
CONTINUOUS
 62
   18
 10
1119.5374599999996
 20
792.43073350000122
 11
1157.0444900000002
 21
709.08096050000313
  0
LINE
  8
_0-0_1
  6
CONTINUOUS
 62
   18
 10
1124.6129760000003
 20
854.25933050000094
 11
1115.4926500000001
 21
850.15530950000175
  0
LINE
  8
_0-0_1
  6
CONTINUOUS
 62
   18
 10
1125.8429259999994
 20
851.52284650000365
 11
1116.7244950000004
 21
847.42016650000369
  0
LINE
  8
_0-0_1
  6
CONTINUOUS
 62
   18
 10
1115.4926500000001
 20
850.15530950000175
 11
1116.7244950000004
 21
847.42016650000369
  0
LINE
  8
_0-0_1
  6
CONTINUOUS
 62
   18
 10
1124.6129760000003
 20
854.25933050000094
 11
1125.8429259999994
 21
851.52284650000365
  0
LINE
  8
_0-0_1
  6
CONTINUOUS
 62
   18
 10
1120.0528959999992
 20
852.20738350000101
 11
1121.2837359999994
 21
849.47089650000271
  0
LINE
  8
_0-0_1
  6
CONTINUOUS
 62
   18
 10
1146.7264489999998
 20
792.93258750000314
 11
1142.6042010000001
 21
797.21877750000203
  0
LINE
  8
_0-0_1
  6
CONTINUOUS
 62
   18
 10
1146.7264489999998
 20
792.93258750000314
 11
1146.2519589999993
 21
798.85958350000146
  0
LINE
  8
_0-0_1
  6
CONTINUOUS
 62
   18
 10
1124.938963999999
 20
833.45946350000304
 11
1130.5667549999998
 21
837.1509115000008
  0
LINE
  8
_0-0_1
  6
CONTINUOUS
 62
   18
 10
1126.9909049999987
 20
828.90022350000072
 11
1132.6197759999995
 21
832.5907455000015
  0
LINE
  8
_0-0_1
  6
CONTINUOUS
 62
   18
 10
1129.0438830000003
 20
824.33991650000098
 11
1134.6714449999999
 21
828.03156450000097
  0
LINE
  8
_0-0_1
  6
CONTINUOUS
 62
   18
 10
1131.0947039999992
 20
819.77970850000202
 11
1136.7224370000004
 21
823.4722845000033
  0
LINE
  8
_0-0_1
  6
CONTINUOUS
 62
   18
 10
1133.1466419999997
 20
815.22148850000303
 11
1138.7742689999995
 21
818.91302950000318
  0
LINE
  8
_0-0_1
  6
CONTINUOUS
 62
   18
 10
1135.1984670000002
 20
810.66121350000321
 11
1140.8273339999996
 21
814.3530165000011
  0
LINE
  8
_0-0_1
  6
CONTINUOUS
 62
   18
 10
1137.2512829999996
 20
806.10211050000362
 11
1142.8781619999991
 21
809.79264850000254
  0
LINE
  8
_0-0_1
  6
CONTINUOUS
 62
   18
 10
1139.302318
 20
801.54183050000211
 11
1144.9300370000001
 21
805.23356550000244
  0
LINE
  8
_0-0_1
  6
CONTINUOUS
 62
   18
 10
1140.8382499999989
 20
798.12980450000032
 11
1146.4656529999993
 21
801.82144550000157
  0
LINE
  8
_0-0_1
  6
CONTINUOUS
 62
   18
 10
1124.3386719999999
 20
847.55856050000148
 11
1146.2519589999993
 21
798.85958350000146
  0
LINE
  8
_0-0_1
  6
CONTINUOUS
 62
   18
 10
1125.8429259999994
 20
851.52284650000365
 11
1124.3386719999999
 21
847.55856050000148
  0
LINE
  8
_0-0_1
  6
CONTINUOUS
 62
   18
 10
1120.6918750000004
 20
845.91467250000278
 11
1142.6042010000001
 21
797.21877750000203
  0
LINE
  8
_0-0_1
  6
CONTINUOUS
 62
   18
 10
1116.7244950000004
 20
847.42016650000369
 11
1120.6918750000004
 21
845.91467250000278
  0
LINE
  8
_0-1_2
  6
CONTINUOUS
 62
   18
 10
1165.1334790000001
 20
812.94883850000042
 11
1202.6407149999995
 21
729.59915450000335
  0
LINE
  8
_0-1_2
  6
CONTINUOUS
 62
   18
 10
1169.237083
 20
814.79544650000025
 11
1206.7443679999997
 21
731.4457945000031
  0
LINE
  8
_0-1_2
  6
CONTINUOUS
 62
   18
 10
1165.1334809999989
 20
812.94878850000168
 11
1169.2370840000003
 21
814.79542650000076
  0
LINE
  8
_0-1_2
  6
CONTINUOUS
 62
   18
 10
1206.7443679999997
 20
731.4457945000031
 11
1202.6404110000003
 21
729.59901150000223
  0
LINE
  8
_0-0_1
  6
CONTINUOUS
 62
   18
 10
1212.6123449999996
 20
718.4058305000035
 11
1175.6805690000001
 21
800.47962250000273
  0
LINE
  8
_0-0_1
  6
CONTINUOUS
 62
   18
 10
1184.1156039999987
 20
798.79224050000266
 11
1212.0193500000005
 21
736.78136050000103
  0
LINE
  8
_0-0_1
  6
CONTINUOUS
 62
   18
 10
1177.5038389999991
 20
801.3008155000025
 11
1175.6805690000001
 21
800.47962250000273
  0
LINE
  8
_0-0_1
  6
CONTINUOUS
 62
   18
 10
1287.2539689999994
 20
759.6701565000003
 11
1225.2424389999996
 21
731.76569250000102
  0
LINE
  8
_0-0_1
  6
CONTINUOUS
 62
   18
 10
1183.8865320000004
 20
771.27493350000077
 11
1181.1505509999988
 21
770.04327350000312
  0
LINE
  8
_0-0_1
  6
CONTINUOUS
 62
   18
 10
1177.3210299999992
 20
785.86517850000018
 11
1174.5851920000005
 21
784.63368450000053
  0
LINE
  8
_0-0_1
  6
CONTINUOUS
 62
   18
 10
1187.7151749999994
 20
755.45390250000128
 11
1174.5851920000005
 21
784.63368450000053
  0
LINE
  8
_0-0_1
  6
CONTINUOUS
 62
   18
 10
1190.4520309999989
 20
756.68475850000323
 11
1187.7151749999994
 21
755.45390250000128
  0
LINE
  8
_0-0_1
  6
CONTINUOUS
 62
   18
 10
1175.8507389999995
 20
760.06339350000053
 11
1183.9916689999991
 21
763.72730750000119
  0
LINE
  8
_0-0_1
  6
CONTINUOUS
 62
   18
 10
1170.1655849999988
 20
772.6982745000023
 11
1178.3064089999989
 21
776.36091250000027
  0
LINE
  8
_0-0_1
  6
CONTINUOUS
 62
   18
 10
1167.3215179999988
 20
779.01579650000349
 11
1175.4638579999992
 21
782.67974050000339
  0
LINE
  8
_0-0_1
  6
CONTINUOUS
 62
   18
 10
1167.1060569999991
 20
776.88532550000309
 11
1167.3215179999988
 21
779.01579650000349
  0
LINE
  8
_0-0_1
  6
CONTINUOUS
 62
   18
 10
1176.9543859999994
 20
754.99828450000132
 11
1167.1060569999991
 21
776.88532550000309
  0
LINE
  8
_0-0_1
  6
CONTINUOUS
 62
   18
 10
1178.6942189999991
 20
753.74508550000246
 11
1186.8356409999997
 21
757.4084705000023
  0
LINE
  8
_0-0_1
  6
CONTINUOUS
 62
   18
 10
1176.9543859999994
 20
754.99828450000132
 11
1178.6942189999991
 21
753.74508550000246
  0
LINE
  8
_0-0_1
  6
CONTINUOUS
 62
   18
 10
1160.0860369999991
 20
769.33721150000201
 11
1169.2249909999991
 21
755.90500950000205
  0
LINE
  8
_0-0_1
  6
CONTINUOUS
 62
   18
 10
1165.6425679999993
 20
771.83732450000025
 11
1174.7805580000004
 21
758.40427050000289
  0
LINE
  8
_0-0_1
  6
CONTINUOUS
 62
   18
 10
1199.6738960000002
 20
785.97533750000366
 11
1191.5330709999998
 21
782.31153750000158
  0
LINE
  8
_0-0_1
  6
CONTINUOUS
 62
   18
 10
1205.3593579999997
 20
773.3404995000019
 11
1197.2176230000005
 21
769.67718150000292
  0
LINE
  8
_0-0_1
  6
CONTINUOUS
 62
   18
 10
1208.2031139999999
 20
767.02299450000282
 11
1200.061087
 21
763.35901350000131
  0
LINE
  8
_0-0_1
  6
CONTINUOUS
 62
   18
 10
1208.4187889999994
 20
769.15339450000101
 11
1208.2031139999999
 21
767.02299450000282
  0
LINE
  8
_0-0_1
  6
CONTINUOUS
 62
   18
 10
1198.570248
 20
791.04047650000211
 11
1208.4187889999994
 21
769.15339450000101
  0
LINE
  8
_0-0_1
  6
CONTINUOUS
 62
   18
 10
1196.8308390000002
 20
792.29358350000257
 11
1188.689198
 21
788.63040950000141
  0
LINE
  8
_0-0_1
  6
CONTINUOUS
 62
   18
 10
1198.570248
 20
791.04047650000211
 11
1196.8308390000002
 21
792.29358350000257
  0
LINE
  8
_0-0_1
  6
CONTINUOUS
 62
   18
 10
1293.8648089999988
 20
757.16217250000045
 11
1294.6854810000004
 21
755.33820050000213
  0
LINE
  8
_0-0_1
  6
CONTINUOUS
 62
   18
 10
1294.6854810000004
 20
755.33820050000213
 11
1212.612513
 21
718.40541750000193
  0
LINE
  8
_0-0_1
  6
CONTINUOUS
 62
   18
 10
1168.7487149999997
 20
773.23472350000156
 11
1160.0860369999991
 21
769.33721150000201
  0
LINE
  8
_0-0_1
  6
CONTINUOUS
 62
   18
 10
1160.0860369999991
 20
769.33721150000201
 11
1159.0828389999988
 21
766.69251050000094
  0
LINE
  8
_0-0_1
  6
CONTINUOUS
 62
   18
 10
1175.3135139999995
 20
758.64499850000357
 11
1166.651699
 21
754.74696350000158
  0
LINE
  8
_0-0_1
  6
CONTINUOUS
 62
   18
 10
1160.0860369999991
 20
769.33721150000201
 11
1166.651699
 21
754.74696350000158
  0
LINE
  8
_0-0_1
  6
CONTINUOUS
 62
   18
 10
1164.0063449999998
 20
755.74977350000336
 11
1166.651699
 21
754.74696350000158
  0
LINE
  8
_0-0_1
  6
CONTINUOUS
 62
   18
 10
1159.0828389999988
 20
766.69251050000094
 11
1164.0063449999998
 21
755.74977350000336
  0
LINE
  8
_0-0_1
  6
CONTINUOUS
 62
   18
 10
1090.6426159999992
 20
734.79765550000229
 11
1094.7468219999992
 21
725.67744750000202
  0
LINE
  8
_0-0_1
  6
CONTINUOUS
 62
   18
 10
1093.3790950000002
 20
736.02771550000034
 11
1097.4818539999997
 21
726.90930750000189
  0
LINE
  8
_0-0_1
  6
CONTINUOUS
 62
   18
 10
1094.7468219999992
 20
725.67744750000202
 11
1097.4818539999997
 21
726.90930750000189
  0
LINE
  8
_0-0_1
  6
CONTINUOUS
 62
   18
 10
1090.6426159999992
 20
734.79765550000229
 11
1093.3790950000002
 21
736.02771550000034
  0
LINE
  8
_0-0_1
  6
CONTINUOUS
 62
   18
 10
1092.6946370000005
 20
730.23770850000074
 11
1095.4310740000001
 21
731.46852650000073
  0
LINE
  8
_0-0_1
  6
CONTINUOUS
 62
   18
 10
1151.9690019999998
 20
756.91221450000376
 11
1147.682847
 21
752.78983750000043
  0
LINE
  8
_0-0_1
  6
CONTINUOUS
 62
   18
 10
1151.9690019999998
 20
756.91221450000376
 11
1146.0419810000003
 21
756.4376035000023
  0
LINE
  8
_0-0_1
  6
CONTINUOUS
 62
   18
 10
1111.4424959999997
 20
735.12401450000107
 11
1107.7508600000001
 21
740.75176750000173
  0
LINE
  8
_0-0_1
  6
CONTINUOUS
 62
   18
 10
1116.0016830000004
 20
737.17602350000379
 11
1112.3110519999991
 21
742.80487050000374
  0
LINE
  8
_0-0_1
  6
CONTINUOUS
 62
   18
 10
1120.5619879999995
 20
739.22906150000199
 11
1116.8702049999993
 21
744.85651750000034
  0
LINE
  8
_0-0_1
  6
CONTINUOUS
 62
   18
 10
1125.1221119999991
 20
741.27997850000247
 11
1121.4294410000002
 21
746.90760750000118
  0
LINE
  8
_0-0_1
  6
CONTINUOUS
 62
   18
 10
1129.6803069999987
 20
743.33202650000021
 11
1125.9886800000004
 21
748.95956950000254
  0
LINE
  8
_0-0_1
  6
CONTINUOUS
 62
   18
 10
1134.2405490000001
 20
745.38394950000293
 11
1130.5486120000005
 21
751.01266050000049
  0
LINE
  8
_0-0_1
  6
CONTINUOUS
 62
   18
 10
1138.7996000000003
 20
747.43679350000093
 11
1135.1090029999996
 21
753.06364950000352
  0
LINE
  8
_0-0_1
  6
CONTINUOUS
 62
   18
 10
1143.3599249999988
 20
749.48794050000288
 11
1139.6680340000003
 21
755.1155725000026
  0
LINE
  8
_0-0_1
  6
CONTINUOUS
 62
   18
 10
1146.7718169999989
 20
751.02396750000116
 11
1143.080152999999
 21
756.65121850000287
  0
LINE
  8
_0-0_1
  6
CONTINUOUS
 62
   18
 10
1097.3433800000003
 20
734.52348150000034
 11
1146.0419810000003
 21
756.4376035000023
  0
LINE
  8
_0-0_1
  6
CONTINUOUS
 62
   18
 10
1093.3790950000002
 20
736.02771550000034
 11
1097.3433800000003
 21
734.52348150000034
  0
LINE
  8
_0-0_1
  6
CONTINUOUS
 62
   18
 10
1098.9872930000001
 20
730.87679650000064
 11
1147.682847
 21
752.78983750000043
  0
LINE
  8
_0-0_1
  6
CONTINUOUS
 62
   18
 10
1097.4818539999997
 20
726.90930750000189
 11
1098.9872930000001
 21
730.87679650000064
  0
LINE
  8
_0-2_3
  6
CONTINUOUS
 62
   18
 10
1162.9125889999996
 20
696.04048150000381
 11
2166.1631180000004
 21
1147.502265500003
  0
LINE
  8
_0-4_6
  6
CONTINUOUS
 62
   18
 10
1117.7727419999992
 20
796.35182050000367
 11
1171.1198079999995
 21
677.80200650000188
  0
LINE
  8
_0-4_6
  6
CONTINUOUS
 62
   18
 10
1072.1766129999996
 20
775.83371150000312
 11
1132.4996489999994
 21
641.78166350000174
  0
LINE
  8
_0-4_6
  6
CONTINUOUS
 62
   18
 10
1145.2764090000001
 20
735.23242350000146
 11
1079.1619819999996
 21
760.31038450000051
  0
LINE
  8
_0-4_6
  6
CONTINUOUS
 62
   18
 10
1147.0174779999998
 20
731.36349150000024
 11
1080.9031149999992
 21
756.44137550000232
  0
LINE
  8
_0-4_6
  6
CONTINUOUS
 62
   18
 10
1058.4977550000003
 20
769.67827950000355
 11
2121.0230899999988
 21
1247.8136495000035
  0
LINE
  8
_0-4_6
  6
CONTINUOUS
 62
   18
 10
1037.9796269999988
 20
815.27437750000172
 11
2100.5048850000003
 21
1293.4097585000018
  0
LINE
  8
_0-4_6
  6
CONTINUOUS
 62
   18
 10
1037.9796269999988
 20
815.27437750000172
 11
1058.4977550000003
 21
769.67827950000355
  0
ARC
  8
_0-1_2
  6
CONTINUOUS
 62
   18
 10
1161.2121850000003
 20
811.18427150000207
 40
2.000003
 50
24.227606000000002
 51
114.227597
  0
ARC
  8
_0-1_2
  6
CONTINUOUS
 62
   18
 10
1198.7191139999995
 20
727.83451450000211
 40
2.000003
 50
294.22760599999998
 51
24.22760599999997
  0
ARC
  8
_0-1_2
  6
CONTINUOUS
 62
   18
 10
1198.7191139999995
 20
727.83451450000211
 40
4.2999999999999998
 50
294.22760599999998
 51
24.22760599999997
  0
ARC
  8
_0-1_2
  6
CONTINUOUS
 62
   18
 10
1161.2121850000003
 20
811.18427150000207
 40
4.2999999999999998
 50
24.227606000000002
 51
114.227597
  0
ARC
  8
_0-1_2
  6
CONTINUOUS
 62
   18
 10
1123.4587499999998
 20
794.19538050000119
 40
2.000003
 50
114.227597
 51
204.22760600000001
  0
ARC
  8
_0-1_2
  6
CONTINUOUS
 62
   18
 10
1160.9656739999991
 20
710.84552250000343
 40
2.000003
 50
204.22760599999998
 51
294.22760599999998
  0
ARC
  8
_0-1_2
  6
CONTINUOUS
 62
   18
 10
1160.9656739999991
 20
710.84552250000343
 40
4.2999999999999998
 50
204.22760599999998
 51
294.22760599999998
  0
ARC
  8
_0-1_2
  6
CONTINUOUS
 62
   18
 10
1123.4587499999998
 20
794.19538050000119
 40
4.2999999999999998
 50
114.227597
 51
204.22760600000001
  0
ARC
  8
_0-0_1
  6
CONTINUOUS
 62
   18
 10
1221.1393909999988
 20
740.88716050000221
 40
10.001999
 50
204.23162600000001
 51
294.21885600000002
  0
ARC
  8
_0-0_1
  6
CONTINUOUS
 62
   18
 10
1179.5568279999989
 20
796.74163950000366
 40
4.9989999999999997
 50
24.224675999999999
 51
114.23531699999998
  0
ARC
  8
_0-0_1
  6
CONTINUOUS
 62
   18
 10
1289.3062979999995
 20
755.11145350000152
 40
4.9989999999999997
 50
24.224675999999999
 51
114.23531699999998
  0
ARC
  8
_0-0_1
  6
CONTINUOUS
 62
   18
 10
1173.3692890000002
 20
777.94742650000262
 40
6.1470010000000013
 50
204.58583600000003
 51
238.59310600000003
  0
ARC
  8
_0-0_1
  6
CONTINUOUS
 62
   18
 10
1181.9147670000002
 20
758.98339150000174
 40
6.1580000000000004
 50
169.89976100000001
 51
203.85441599999999
  0
ARC
  8
_0-0_1
  6
CONTINUOUS
 62
   18
 10
1192.9118909999997
 20
775.33859750000192
 40
22.898997999999999
 50
186.623276
 51
221.838796
  0
ARC
  8
_0-0_1
  6
CONTINUOUS
 62
   18
 10
1202.1527750000005
 20
768.09246650000205
 40
6.1479999999999997
 50
24.562656
 51
58.577396
  0
ARC
  8
_0-0_1
  6
CONTINUOUS
 62
   18
 10
1193.6206579999998
 20
787.05485650000264
 40
6.1479999999999997
 50
349.89938599999999
 51
23.901645999999964
  0
ARC
  8
_0-0_1
  6
CONTINUOUS
 62
   18
 10
1182.5762859999995
 20
770.68513650000023
 40
22.936000999999997
 50
6.6513660000000003
 51
41.808135999999998
  0
LINE
  8
_0-0_1
  6
CONTINUOUS
 62
   18
 10
903.52314800000022
 20
968.38209850000203
 11
925.06725000000006
 21
920.50619950000328
  0
CIRCLE
  8
_0-0_1
  6
CONTINUOUS
 62
   18
 10
904.54905700000018
 20
966.10229350000373
 40
1.6999999999999997
  0
LINE
  8
_0-0_1
  6
CONTINUOUS
 62
   18
 10
904.54905700000018
 20
966.10229350000373
 11
1159.8871829999989
 21
1081.0041715000007
  0
CIRCLE
  8
_0-0_1
  6
CONTINUOUS
 62
   18
 10
1159.8871829999989
 20
1081.0041715000007
 40
1.6999999999999997
  0
LINE
  8
_0-0_1
  6
CONTINUOUS
 62
   18
 10
1158.8612730000004
 20
1083.2839765000026
 11
1180.4053750000003
 21
1035.4080785000006
  0
LINE
  8
_0-0_1
  6
CONTINUOUS
 62
   18
 10
1150.6539959999991
 20
1101.5224145000029
 11
1172.1980979999989
 21
1053.6465155000005
  0
CIRCLE
  8
_0-0_1
  6
CONTINUOUS
 62
   18
 10
1151.6799059999994
 20
1099.242609500001
 40
1.6999999999999997
  0
LINE
  8
_0-0_1
  6
CONTINUOUS
 62
   18
 10
1151.6799059999994
 20
1099.242609500001
 11
1407.0180309999996
 21
1214.1444875000016
  0
CIRCLE
  8
_0-0_1
  6
CONTINUOUS
 62
   18
 10
1407.0180309999996
 20
1214.1444875000016
 40
1.6999999999999997
  0
LINE
  8
_0-0_1
  6
CONTINUOUS
 62
   18
 10
1405.9921219999997
 20
1216.4242925000035
 11
1427.5362239999995
 21
1168.5483935000011
  0
LINE
  8
_0-0_1
  6
CONTINUOUS
 62
   18
 10
1397.7848450000001
 20
1234.6627295000035
 11
1419.328947
 21
1186.7868315000014
  0
CIRCLE
  8
_0-0_1
  6
CONTINUOUS
 62
   18
 10
1398.8107540000001
 20
1232.3829255000019
 40
1.6999999999999997
  0
LINE
  8
_0-0_1
  6
CONTINUOUS
 62
   18
 10
1398.8107540000001
 20
1232.3829255000019
 11
1654.1488799999988
 21
1347.2848035000025
  0
CIRCLE
  8
_0-0_1
  6
CONTINUOUS
 62
   18
 10
1654.1488799999988
 20
1347.2848035000025
 40
1.6999999999999997
  0
LINE
  8
_0-0_1
  6
CONTINUOUS
 62
   18
 10
1653.1229700000004
 20
1349.5646075000004
 11
1674.6670729999987
 21
1301.688709500002
  0
LINE
  8
_0-0_1
  6
CONTINUOUS
 62
   18
 10
1644.915692999999
 20
1367.8030455000007
 11
1666.4597959999992
 21
1319.927146500002
  0
CIRCLE
  8
_0-0_1
  6
CONTINUOUS
 62
   18
 10
1645.9416029999993
 20
1365.5232405000024
 40
1.6999999999999997
  0
LINE
  8
_0-0_1
  6
CONTINUOUS
 62
   18
 10
1645.9416029999993
 20
1365.5232405000024
 11
1901.2797289999999
 21
1480.425118500003
  0
CIRCLE
  8
_0-0_1
  6
CONTINUOUS
 62
   18
 10
1901.2797289999999
 20
1480.425118500003
 40
1.6999999999999997
  0
LINE
  8
_0-0_1
  6
CONTINUOUS
 62
   18
 10
1900.2538189999996
 20
1482.7049235000013
 11
1921.7979209999994
 21
1434.8290245000026
  0
LINE
  8
_0-0_1
  6
CONTINUOUS
 62
   18
 10
1892.046542
 20
1500.9433615000016
 11
1913.5906439999999
 21
1453.0674625000029
  0
CIRCLE
  8
_0-0_1
  6
CONTINUOUS
 62
   18
 10
1893.0724520000003
 20
1498.6635565000033
 40
1.6999999999999997
  0
LINE
  8
_0-0_1
  6
CONTINUOUS
 62
   18
 10
1893.0724520000003
 20
1498.6635565000033
 11
1988.3427360000005
 21
1541.5350805000016
  0
LINE
  8
_0-0_1
  6
CONTINUOUS
 62
   18
 10
925.9508050000004
 20
918.54273850000027
 11
937.23581100000047
 21
893.46488750000208
  0
CIRCLE
  8
_0-0_1
  6
CONTINUOUS
 62
   18
 10
926.97671499999888
 20
916.2629345000023
 40
1.6999999999999997
  0
LINE
  8
_0-0_1
  6
CONTINUOUS
 62
   18
 10
926.97671499999888
 20
916.2629345000023
 11
995.37125500000002
 21
947.04040250000253
  0
CIRCLE
  8
_0-0_1
  6
CONTINUOUS
 62
   18
 10
995.37125500000002
 20
947.04040250000253
 40
1.6999999999999997
  0
LINE
  8
_0-0_1
  6
CONTINUOUS
 62
   18
 10
994.34534499999972
 20
949.32020750000083
 11
1005.6303509999998
 21
924.2423555000023
  0
CIRCLE
  8
_0-0_1
  6
CONTINUOUS
 62
   18
 10
995.37125500000002
 20
947.04040250000253
 40
1.6999999999999997
  0
LINE
  8
_0-0_1
  6
CONTINUOUS
 62
   18
 10
995.37125500000002
 20
947.04040250000253
 11
1182.3148399999991
 21
1031.1648125000029
  0
CIRCLE
  8
_0-0_1
  6
CONTINUOUS
 62
   18
 10
1182.3148399999991
 20
1031.1648125000029
 40
1.6999999999999997
  0
LINE
  8
_0-0_1
  6
CONTINUOUS
 62
   18
 10
1181.2889309999991
 20
1033.4446165000008
 11
1192.5739369999992
 21
1008.3667655000027
  0
CIRCLE
  8
_0-0_1
  6
CONTINUOUS
 62
   18
 10
1182.3148399999991
 20
1031.1648125000029
 40
1.6999999999999997
  0
LINE
  8
_0-0_1
  6
CONTINUOUS
 62
   18
 10
1182.3148399999991
 20
1031.1648125000029
 11
1237.0301529999997
 21
1055.7866435000033
  0
CIRCLE
  8
_0-0_1
  6
CONTINUOUS
 62
   18
 10
1237.0301529999997
 20
1055.7866435000033
 40
1.6999999999999997
  0
LINE
  8
_0-0_1
  6
CONTINUOUS
 62
   18
 10
1236.0042429999994
 20
1058.0664485000016
 11
1247.2892489999995
 21
1032.988596500003
  0
LINE
  8
_0-0_1
  6
CONTINUOUS
 62
   18
 10
1615.4808069999999
 20
1133.1355315000037
 11
1617.4219499999999
 21
1125.8910875000038
  0
LINE
  8
_0-0_1
  6
CONTINUOUS
 62
   18
 10
1617.4219499999999
 20
1125.8910875000038
 11
1612.118649
 21
1131.1943885000037
  0
LINE
  8
_0-0_1
  6
CONTINUOUS
 62
   18
 10
1617.4219499999999
 20
1125.8910875000038
 11
1562.2609789999988
 21
1221.4326925000023
  0
LINE
  8
_0-0_1
  6
CONTINUOUS
 62
   18
 10
1562.2609789999988
 20
1221.4326925000023
 11
1521.7609789999988
 21
1221.4326925000023
  0
LINE
  8
_0-0_1
  6
CONTINUOUS
 62
   18
 10
1517.4802710000004
 20
1034.1733185000012
 11
1545.0507349999989
 21
1045.9999625000019
  0
LINE
  8
_0-0_1
  6
CONTINUOUS
 62
   18
 10
1545.0507349999989
 20
1045.9999625000019
 11
1539.1374130000004
 21
1059.7851945000002
  0
LINE
  8
_0-0_1
  6
CONTINUOUS
 62
   18
 10
1539.1374130000004
 20
1059.7851945000002
 11
1511.566949
 21
1047.9585505000032
  0
LINE
  8
_0-0_1
  6
CONTINUOUS
 62
   18
 10
1511.566949
 20
1047.9585505000032
 11
1517.4802710000004
 21
1034.1733185000012
  0
LINE
  8
_0-0_1
  6
CONTINUOUS
 62
   18
 10
1539.1374130000004
 20
1059.7851945000002
 11
1517.4802710000004
 21
1034.1733185000012
  0
LINE
  8
_0-0_1
  6
CONTINUOUS
 62
   18
 10
1772.4879349999992
 20
1148.7368315000022
 11
1800.1554369999994
 21
1160.3346475000035
  0
LINE
  8
_0-0_1
  6
CONTINUOUS
 62
   18
 10
1800.1554369999994
 20
1160.3346475000035
 11
1794.3565289999988
 21
1174.1683985000018
  0
LINE
  8
_0-0_1
  6
CONTINUOUS
 62
   18
 10
1794.3565289999988
 20
1174.1683985000018
 11
1766.6890270000004
 21
1162.5705825000005
  0
LINE
  8
_0-0_1
  6
CONTINUOUS
 62
   18
 10
1766.6890270000004
 20
1162.5705825000005
 11
1772.4879349999992
 21
1148.7368315000022
  0
LINE
  8
_0-0_1
  6
CONTINUOUS
 62
   18
 10
1794.3565289999988
 20
1174.1683985000018
 11
1772.4879349999992
 21
1148.7368315000022
  0
LINE
  8
_0-0_1
  6
CONTINUOUS
 62
   18
 10
2027.8067699999992
 20
1263.6815795000002
 11
2055.4742709999991
 21
1275.2793965000019
  0
LINE
  8
_0-0_1
  6
CONTINUOUS
 62
   18
 10
2055.4742709999991
 20
1275.2793965000019
 11
2049.6753630000003
 21
1289.1131465000035
  0
LINE
  8
_0-0_1
  6
CONTINUOUS
 62
   18
 10
2049.6753630000003
 20
1289.1131465000035
 11
2022.007861
 21
1277.5153305000022
  0
LINE
  8
_0-0_1
  6
CONTINUOUS
 62
   18
 10
2022.007861
 20
1277.5153305000022
 11
2027.8067699999992
 21
1263.6815795000002
  0
LINE
  8
_0-0_1
  6
CONTINUOUS
 62
   18
 10
2049.6753630000003
 20
1289.1131465000035
 11
2027.8067699999992
 21
1263.6815795000002
  0
LINE
  8
_0-0_1
  6
CONTINUOUS
 62
   18
 10
1264.2390779999987
 20
919.60222850000355
 11
1291.8095419999991
 21
931.42887250000058
  0
LINE
  8
_0-0_1
  6
CONTINUOUS
 62
   18
 10
1291.8095419999991
 20
931.42887250000058
 11
1285.8962199999987
 21
945.21410450000258
  0
LINE
  8
_0-0_1
  6
CONTINUOUS
 62
   18
 10
1285.8962199999987
 20
945.21410450000258
 11
1258.3257560000002
 21
933.38746050000191
  0
LINE
  8
_0-0_1
  6
CONTINUOUS
 62
   18
 10
1258.3257560000002
 20
933.38746050000191
 11
1264.2390779999987
 21
919.60222850000355
  0
LINE
  8
_0-0_1
  6
CONTINUOUS
 62
   18
 10
1285.8962199999987
 20
945.21410450000258
 11
1264.2390779999987
 21
919.60222850000355
  0
LINE
  8
_0-0_1
  6
CONTINUOUS
 62
   18
 10
2116.1907169999995
 20
1132.6913705000006
 11
2054.1793239999988
 21
1104.7865755000021
  0
LINE
  8
_0-0_1
  6
CONTINUOUS
 62
   18
 10
2122.8016209999987
 20
1130.1833915000025
 11
2123.6223030000001
 21
1128.3593925000023
  0
LINE
  8
_0-0_1
  6
CONTINUOUS
 62
   18
 10
2123.6223030000001
 20
1128.3593925000023
 11
2041.5494629999994
 21
1091.4262385000002
  0
ARC
  8
_0-0_1
  6
CONTINUOUS
 62
   18
 10
2050.0762309999991
 20
1113.9080235000038
 40
10.001999
 50
204.23190399999996
 51
294.219134
  0
ARC
  8
_0-0_1
  6
CONTINUOUS
 62
   18
 10
2118.2430690000001
 20
1128.1326475000023
 40
4.9989999999999997
 50
24.224954
 51
114.23559500000002
  0
LINE
  8
_0-0_1
  6
CONTINUOUS
 62
   18
 10
2007.1035499999998
 20
1128.5642445000012
 11
2008.8433910000003
 21
1127.3110035000027
  0
LINE
  8
_0-0_1
  6
CONTINUOUS
 62
   18
 10
1990.2351330000001
 20
1142.9030385000005
 11
1999.3741529999988
 21
1129.4708815000013
  0
LINE
  8
_0-0_1
  6
CONTINUOUS
 62
   18
 10
1995.7916519999999
 20
1145.4031785000006
 11
2004.9297069999993
 21
1131.9701695000003
  0
LINE
  8
_0-0_1
  6
CONTINUOUS
 62
   18
 10
1990.2351330000001
 20
1142.9030385000005
 11
1989.2319459999999
 21
1140.258363500001
  0
LINE
  8
_0-0_1
  6
CONTINUOUS
 62
   18
 10
2005.4627120000005
 20
1132.2109225000022
 11
1996.8008659999996
 21
1128.3128225000037
  0
LINE
  8
_0-0_1
  6
CONTINUOUS
 62
   18
 10
1990.2351330000001
 20
1142.9030385000005
 11
1996.8008659999996
 21
1128.3128225000037
  0
LINE
  8
_0-0_1
  6
CONTINUOUS
 62
   18
 10
1994.1554980000001
 20
1129.3155895000018
 11
1996.8008659999996
 21
1128.3128225000037
  0
LINE
  8
_0-0_1
  6
CONTINUOUS
 62
   18
 10
1989.2319459999999
 20
1140.258363500001
 11
1994.1554980000001
 21
1129.3155895000018
  0
ARC
  8
_0-0_1
  6
CONTINUOUS
 62
   18
 10
2012.063913
 20
1132.5493245000034
 40
6.1580000000000004
 50
169.90003899999999
 51
203.85469399999999
  0
LINE
  8
_0-0_1
  6
CONTINUOUS
 62
   18
 10
2006.4403849999999
 20
1174.3214865000009
 11
2004.6171180000001
 21
1173.5002945000015
  0
LINE
  8
_0-0_1
  6
CONTINUOUS
 62
   18
 10
2041.5492849999991
 20
1091.4266515000018
 11
2004.6171180000001
 21
1173.5002945000015
  0
LINE
  8
_0-0_1
  6
CONTINUOUS
 62
   18
 10
2013.0521520000002
 20
1171.8129525000004
 11
2040.9562100000003
 21
1109.8022085000011
  0
LINE
  8
_0-0_1
  6
CONTINUOUS
 62
   18
 10
2014.0356199999987
 20
1144.840846500003
 11
2011.2996329999987
 21
1143.6092035000038
  0
LINE
  8
_0-0_1
  6
CONTINUOUS
 62
   18
 10
2007.4700429999994
 20
1159.4311395000004
 11
2004.7342119999994
 21
1158.1996025000008
  0
LINE
  8
_0-0_1
  6
CONTINUOUS
 62
   18
 10
2017.8643369999991
 20
1129.0198945000011
 11
2004.7342119999994
 21
1158.1996025000008
  0
LINE
  8
_0-0_1
  6
CONTINUOUS
 62
   18
 10
2020.6011870000002
 20
1130.2507635000038
 11
2017.8643369999991
 21
1129.0198945000011
  0
LINE
  8
_0-0_1
  6
CONTINUOUS
 62
   18
 10
2005.9998789999991
 20
1133.6293275000025
 11
2014.1407909999998
 21
1137.2932715000024
  0
LINE
  8
_0-0_1
  6
CONTINUOUS
 62
   18
 10
2000.3146639999995
 20
1146.2641805000021
 11
2008.4554709999993
 21
1149.9268285000035
  0
LINE
  8
_0-0_1
  6
CONTINUOUS
 62
   18
 10
1997.4705569999987
 20
1152.581658500003
 11
2005.6129389999987
 21
1156.2456445000025
  0
LINE
  8
_0-0_1
  6
CONTINUOUS
 62
   18
 10
1997.2551160000003
 20
1150.4511865000022
 11
1997.4705569999987
 21
1152.581658500003
  0
LINE
  8
_0-0_1
  6
CONTINUOUS
 62
   18
 10
2007.1035499999998
 20
1128.5642445000012
 11
1997.2551160000003
 21
1150.4511865000022
  0
LINE
  8
_0-0_1
  6
CONTINUOUS
 62
   18
 10
2008.8433910000003
 20
1127.3110035000027
 11
2016.9847950000003
 21
1130.9744475000007
  0
LINE
  8
_0-0_1
  6
CONTINUOUS
 62
   18
 10
2028.6105159999988
 20
1158.996126500002
 11
2020.4696989999993
 21
1155.3322865000009
  0
LINE
  8
_0-0_1
  6
CONTINUOUS
 62
   18
 10
2034.2960409999996
 20
1146.3612865000032
 11
2026.1543129999991
 21
1142.6979285000016
  0
LINE
  8
_0-0_1
  6
CONTINUOUS
 62
   18
 10
2037.1398279999994
 20
1140.0437945000012
 11
2028.9978169999995
 21
1136.3797935000002
  0
LINE
  8
_0-0_1
  6
CONTINUOUS
 62
   18
 10
2037.3554910000003
 20
1142.1742155000029
 11
2037.1398279999994
 21
1140.0437945000012
  0
LINE
  8
_0-0_1
  6
CONTINUOUS
 62
   18
 10
2027.5068439999995
 20
1164.0612495000023
 11
2037.3554910000003
 21
1142.1742155000029
  0
LINE
  8
_0-0_1
  6
CONTINUOUS
 62
   18
 10
2025.7674279999992
 20
1165.3143575000031
 11
2017.6258550000002
 21
1161.6511365000006
  0
LINE
  8
_0-0_1
  6
CONTINUOUS
 62
   18
 10
2027.5068439999995
 20
1164.0612495000023
 11
2025.7674279999992
 21
1165.3143575000031
  0
LINE
  8
_0-0_1
  6
CONTINUOUS
 62
   18
 10
1998.8977930000001
 20
1146.8005625000005
 11
1990.2351330000001
 21
1142.9030385000005
  0
ARC
  8
_0-0_1
  6
CONTINUOUS
 62
   18
 10
2008.4933860000001
 20
1169.7623295000012
 40
4.9989999999999997
 50
24.224954
 51
114.23559500000002
  0
ARC
  8
_0-0_1
  6
CONTINUOUS
 62
   18
 10
2003.518333
 20
1151.513317500001
 40
6.1470010000000013
 50
204.58611400000004
 51
238.59338400000001
  0
ARC
  8
_0-0_1
  6
CONTINUOUS
 62
   18
 10
2023.0609569999997
 20
1148.9046145000029
 40
22.898997999999999
 50
186.62355400000004
 51
221.83907400000001
  0
ARC
  8
_0-0_1
  6
CONTINUOUS
 62
   18
 10
2031.0894819999994
 20
1141.1132575000011
 40
6.1479999999999997
 50
24.562933999999998
 51
58.577674000000009
  0
ARC
  8
_0-0_1
  6
CONTINUOUS
 62
   18
 10
2022.5572739999989
 20
1160.075605500002
 40
6.1479999999999997
 50
349.89966399999997
 51
23.901923999999994
  0
ARC
  8
_0-0_1
  6
CONTINUOUS
 62
   18
 10
2011.5129699999998
 20
1143.7058415000029
 40
22.936000999999997
 50
6.651644000000001
 51
41.808413999999999
  0
LINE
  8
_0-0_1
  6
CONTINUOUS
 62
   18
 10
1960.7130409999991
 20
1153.7429695000028
 11
1958.6156469999987
 21
1152.799019500002
  0
LINE
  8
_0-0_1
  6
CONTINUOUS
 62
   18
 10
1985.335047999999
 20
1099.0276995000022
 11
1983.237611999999
 21
1098.0837205000025
  0
LINE
  8
_0-0_1
  6
CONTINUOUS
 62
   18
 10
1993.026946
 20
1187.6938765000014
 11
1955.2734179999989
 21
1170.7046145000022
  0
LINE
  8
_0-0_1
  6
CONTINUOUS
 62
   18
 10
1960.7130409999991
 20
1153.7429695000028
 11
1954.2702740000004
 21
1168.0600475000028
  0
LINE
  8
_0-0_1
  6
CONTINUOUS
 62
   18
 10
1991.7777589999987
 20
1084.7105915000029
 11
1985.335047999999
 21
1099.0276995000022
  0
LINE
  8
_0-0_1
  6
CONTINUOUS
 62
   18
 10
2032.1759569999995
 20
1100.6964855000006
 11
1994.4225459999998
 21
1083.7073885000027
  0
LINE
  8
_0-0_1
  6
CONTINUOUS
 62
   18
 10
1958.6156469999987
 20
1152.799019500002
 11
1952.172971
 21
1167.1161635000026
  0
LINE
  8
_0-0_1
  6
CONTINUOUS
 62
   18
 10
1992.0832659999996
 20
1189.7912335000037
 11
1954.329694
 21
1172.8020125000003
  0
LINE
  8
_0-0_1
  6
CONTINUOUS
 62
   18
 10
1989.6803029999992
 20
1083.7665625000009
 11
1983.237611999999
 21
1098.0837205000025
  0
LINE
  8
_0-0_1
  6
CONTINUOUS
 62
   18
 10
2033.1197319999992
 20
1098.5990255000033
 11
1995.3662899999999
 21
1081.6100405000034
  0
LINE
  8
_0-0_1
  6
CONTINUOUS
 62
   18
 10
2033.178985999999
 20
1103.3411635000011
 11
1995.6714620000002
 21
1186.6907955000024
  0
LINE
  8
_0-0_1
  6
CONTINUOUS
 62
   18
 10
1997.7689190000001
 20
1187.634379500003
 11
2035.2763849999992
 21
1104.2848025000021
  0
ARC
  8
_0-0_1
  6
CONTINUOUS
 62
   18
 10
1956.0942209999994
 20
1168.8807825000004
 40
2.000003
 50
114.227773
 51
204.22776400000001
  0
ARC
  8
_0-0_1
  6
CONTINUOUS
 62
   18
 10
1993.6017419999989
 20
1085.5312915000031
 40
2.000003
 50
204.22776400000001
 51
294.22776399999998
  0
ARC
  8
_0-0_1
  6
CONTINUOUS
 62
   18
 10
1993.6017419999989
 20
1085.5312915000031
 40
4.2999999999999998
 50
204.22776400000001
 51
294.22776399999998
  0
ARC
  8
_0-0_1
  6
CONTINUOUS
 62
   18
 10
1956.0942209999994
 20
1168.8807825000004
 40
4.2999999999999998
 50
114.227773
 51
204.22776400000001
  0
ARC
  8
_0-0_1
  6
CONTINUOUS
 62
   18
 10
1993.8475760000001
 20
1185.8698505000029
 40
2.000003
 50
24.227764000000004
 51
114.22777300000001
  0
ARC
  8
_0-0_1
  6
CONTINUOUS
 62
   18
 10
2031.3551759999991
 20
1102.5202975000029
 40
2.000003
 50
294.22776399999998
 51
24.227763999999983
  0
ARC
  8
_0-0_1
  6
CONTINUOUS
 62
   18
 10
2031.3551759999991
 20
1102.5202975000029
 40
4.2999999999999998
 50
294.22776399999998
 51
24.227763999999983
  0
ARC
  8
_0-0_1
  6
CONTINUOUS
 62
   18
 10
1993.8475760000001
 20
1185.8698505000029
 40
4.2999999999999998
 50
24.227764000000004
 51
114.22777300000001
  0
LINE
  8
_0-0_1
  6
CONTINUOUS
 62
   18
 10
1957.2057399999994
 20
1228.9252335000019
 11
1948.0854149999996
 21
1224.8212125000027
  0
LINE
  8
_0-0_1
  6
CONTINUOUS
 62
   18
 10
1958.4356900000002
 20
1226.188749500001
 11
1949.3172589999995
 21
1222.086069500001
  0
LINE
  8
_0-0_1
  6
CONTINUOUS
 62
   18
 10
1948.0854149999996
 20
1224.8212125000027
 11
1949.3172589999995
 21
1222.086069500001
  0
LINE
  8
_0-0_1
  6
CONTINUOUS
 62
   18
 10
1957.2057399999994
 20
1228.9252335000019
 11
1958.4356900000002
 21
1226.188749500001
  0
LINE
  8
_0-0_1
  6
CONTINUOUS
 62
   18
 10
1952.6456600000001
 20
1226.873286500002
 11
1953.8765000000003
 21
1224.1368005000004
  0
LINE
  8
_0-0_1
  6
CONTINUOUS
 62
   18
 10
1979.3192129999989
 20
1167.5984905000005
 11
1975.1969649999992
 21
1171.8846815000034
  0
LINE
  8
_0-0_1
  6
CONTINUOUS
 62
   18
 10
1979.3192129999989
 20
1167.5984905000005
 11
1978.8447230000002
 21
1173.5254865000024
  0
LINE
  8
_0-0_1
  6
CONTINUOUS
 62
   18
 10
1957.5317279999999
 20
1208.1253675000007
 11
1963.1595189999989
 21
1211.8168145000018
  0
LINE
  8
_0-0_1
  6
CONTINUOUS
 62
   18
 10
1959.58367
 20
1203.566127500002
 11
1965.212540999999
 21
1207.2566495000028
  0
LINE
  8
_0-0_1
  6
CONTINUOUS
 62
   18
 10
1961.6366469999994
 20
1199.005819500002
 11
1967.264208999999
 21
1202.6974675000019
  0
LINE
  8
_0-0_1
  6
CONTINUOUS
 62
   18
 10
1963.6874680000001
 20
1194.445611500003
 11
1969.3152009999994
 21
1198.1381875000006
  0
LINE
  8
_0-0_1
  6
CONTINUOUS
 62
   18
 10
1965.7394059999988
 20
1189.8873925000007
 11
1971.3670330000004
 21
1193.5789325000005
  0
LINE
  8
_0-0_1
  6
CONTINUOUS
 62
   18
 10
1967.7912309999992
 20
1185.3271165000006
 11
1973.4200980000005
 21
1189.0189195000021
  0
LINE
  8
_0-0_1
  6
CONTINUOUS
 62
   18
 10
1969.844047999999
 20
1180.768013500001
 11
1975.470926
 21
1184.4585515000035
  0
LINE
  8
_0-0_1
  6
CONTINUOUS
 62
   18
 10
1971.8950819999991
 20
1176.2077345000034
 11
1977.5228009999992
 21
1179.8994685000034
  0
LINE
  8
_0-0_1
  6
CONTINUOUS
 62
   18
 10
1973.4310139999998
 20
1172.7957075000013
 11
1979.0584170000002
 21
1176.4873485000026
  0
LINE
  8
_0-0_1
  6
CONTINUOUS
 62
   18
 10
1956.9314359999989
 20
1222.2244635000025
 11
1978.8447230000002
 21
1173.5254865000024
  0
LINE
  8
_0-0_1
  6
CONTINUOUS
 62
   18
 10
1958.4356900000002
 20
1226.188749500001
 11
1956.9314359999989
 21
1222.2244635000025
  0
LINE
  8
_0-0_1
  6
CONTINUOUS
 62
   18
 10
1953.2846399999999
 20
1220.5805765000005
 11
1975.1969649999992
 21
1171.8846815000034
  0
LINE
  8
_0-0_1
  6
CONTINUOUS
 62
   18
 10
1949.3172589999995
 20
1222.086069500001
 11
1953.2846399999999
 21
1220.5805765000005
  0
LINE
  8
_0-0_1
  6
CONTINUOUS
 62
   18
 10
1050.4274740000001
 20
824.16565850000188
 11
1034.423295999999
 21
859.73058450000099
  0
LINE
  8
_0-0_1
  6
CONTINUOUS
 62
   18
 10
1070.9001019999996
 20
876.14511550000316
 11
1034.423295999999
 21
859.73058450000099
  0
LINE
  8
_0-0_1
  6
CONTINUOUS
 62
   18
 10
1070.9001019999996
 20
876.14511550000316
 11
1087.3146039999992
 21
839.66821750000236
  0
LINE
  8
_0-0_1
  6
CONTINUOUS
 62
   18
 10
1070.9001019999996
 20
876.14511550000316
 11
1050.4274740000001
 21
824.16565850000188
  0
LINE
  8
_0-0_1
  6
CONTINUOUS
 62
   18
 10
1087.3146039999992
 20
839.66821750000236
 11
1034.423295999999
 21
859.73058450000099
  0
LINE
  8
_0-0_1
  6
CONTINUOUS
 62
   18
 10
1068.6354570000003
 20
835.87850550000076
 11
1072.3854570000003
 21
842.37369650000255
  0
LINE
  8
_0-0_1
  6
CONTINUOUS
 62
   18
 10
1072.3854570000003
 20
842.37369650000255
 11
1072.3854570000003
 21
834.87369650000255
  0
LINE
  8
_0-0_1
  6
CONTINUOUS
 62
   18
 10
1072.3854570000003
 20
842.37369650000255
 11
1018.5313719999995
 21
641.38751350000166
  0
LINE
  8
_0-0_1
  6
CONTINUOUS
 62
   18
 10
1018.5313719999995
 20
641.38751350000166
 11
879.03137199999946
 21
641.38751350000166
  0
LINE
  8
_0-0_1
  6
CONTINUOUS
 62
   18
 10
1117.9220889999997
 20
688.12798750000366
 11
1121.6720889999997
 21
694.62317850000181
  0
LINE
  8
_0-0_1
  6
CONTINUOUS
 62
   18
 10
1121.6720889999997
 20
694.62317850000181
 11
1121.6720889999997
 21
687.12317850000181
  0
LINE
  8
_0-0_1
  6
CONTINUOUS
 62
   18
 10
1121.6720889999997
 20
694.62317850000181
 11
1085.1885929999989
 21
558.464919500002
  0
LINE
  8
_0-0_1
  6
CONTINUOUS
 62
   18
 10
1085.1885929999989
 20
558.464919500002
 11
803.8368819999996
 21
558.464919500002
  0
LINE
  8
_0-0_1
  6
CONTINUOUS
 62
   18
 10
1696.5246619999998
 20
755.07992250000098
 11
1963.8337460000002
 21
755.07992250000098
  0
LINE
  8
_0-0_1
  6
CONTINUOUS
 62
   18
 10
1530.3091640000002
 20
1039.0913255000014
 11
1528.3680210000002
 21
1046.3357695000013
  0
LINE
  8
_0-0_1
  6
CONTINUOUS
 62
   18
 10
1528.3680210000002
 20
1046.3357695000013
 11
1533.6713220000001
 21
1041.0324685000014
  0
LINE
  8
_0-0_1
  6
CONTINUOUS
 62
   18
 10
1528.3680210000002
 20
1046.3357695000013
 11
1713.3060079999996
 21
726.01377850000063
  0
LINE
  8
_0-0_1
  6
CONTINUOUS
 62
   18
 10
1678.8729729999995
 20
785.97567350000099
 11
1914.9981090000001
 21
785.97567350000099
  0
LINE
  8
_0-0_1
  6
CONTINUOUS
 62
   18
 10
1661.1963319999995
 20
815.95662150000135
 11
1853.5890199999994
 21
815.95662150000135
  0
TEXT
  8
_0-0_1
 62
    7
 10
1746.2951237047812
 20
1421.5277068073128
 40
20
 41
1
 50
24.227692999999942
  1
280
  0
TEXT
  8
_0-2_3
 62
    7
 10
1514.416166208418
 20
1297.7426994220366
 40
20
 41
1
 50
24.227693000000016
  1
280
  0
TEXT
  8
_0-2_3
 62
    7
 10
1268.5896022461079
 20
1166.9838888037864
 40
20
 41
1
 50
24.227692999999974
  1
280
  0
TEXT
  8
_0-2_3
 62
    7
 10
953.02500595406468
 20
935.10493130742316
 40
20
 41
1
 50
24.227692999999988
  1
75
  0
TEXT
  8
_0-2_3
 62
    7
 10
1082.0403657640713
 20
994.38225878769663
 40
20
 41
1
 50
24.227692999999988
  1
205
  0
TEXT
  8
_0-2_3
 62
    7
 10
1008.8154318178513
 20
1024.0209225278331
 40
20
 41
1
 50
24.227692999999988
  1
280
  0
TEXT
  8
_0-2_3
 62
    7
 10
1200.5950207246181
 20
1048.4292338432399
 40
20
 41
1
 50
24.227693000000013
  1
60
  0
TEXT
  8
_0-2_3
 62
    7
 10
803.08823644513814
 20
562.00645834334989
 40
20
 41
1
 50
0
  1
破風板：薄型ＡＬＣパネル　
  0
TEXT
  8
_0-2_3
 62
    7
 10
1667.1778248032629
 20
821.95973490145207
 40
20
 41
1
 50
0
  1
瓦桟：15x30以上
  0
TEXT
  8
_0-2_3
 62
    7
 10
1680.6447920346875
 20
791.43460917689004
 40
20
 41
1
 50
0
  1
下葺材：ルーフィング
  0
TEXT
  8
_0-0_1
 62
    7
 10
1695.9073548969684
 20
757.31829219061467
 40
20
 41
1
 50
0
  1
下地：ALCパネル　t＝50
  0
TEXT
  8
_0-2_3
 62
    7
 10
1711.1699177592495
 20
728.58876209690925
 40
20
 41
1
 50
0
  1
鋼製：C100x50x20x2.3
  0
LINE
  8
_0-2_3
  6
CONTINUOUS
 62
    7
 10
1521.7609789999988
 20
1221.4326925000023
 11
1501.9830267644561
 21
1221.4326925000023
  0
TEXT
  8
_0-0_1
 62
    7
 10
864.54657781036587
 20
645.99136307750598
 40
20
 41
1
 50
0
  1
　瓦座：40x40　
  0
TEXT
  8
_0-2_3
 62
    7
 10
1500.1874311335996
 20
1225.9687518441856
 40
20
 41
1
 50
0
  1
桟　瓦
  0
LINE
  8
_0-0_1
  6
CONTINUOUS
 62
   18
 10
1713.3060079999996
 20
726.01377850000063
 11
1956.2687213711743
 21
726.01377850000063
  0
ENDSEC
  0
EOF
