  0
SECTION
  2
HEADER
  9
$ACADVER
  1
AC1018
  9
$ACADMAINTVER
 70
     0
  9
$DWGCODEPAGE
  3
ANSI_932
  9
$INSBASE
 10
0.0
 20
0.0
 30
0.0
  9
$EXTMIN
 10
571.6035537230818
 20
648.976140898857
 30
-0.0015258207003583
  9
$EXTMAX
 10
2398.396460107057
 20
1458.874515861825
 30
0.0000000349246037
  9
$LIMMIN
 10
0.0
 20
0.0
  9
$LIMMAX
 10
2970.0
 20
2100.0
  9
$ORTHOMODE
 70
     0
  9
$REGENMODE
 70
     1
  9
$FILLMODE
 70
     1
  9
$QTEXTMODE
 70
     0
  9
$MIRRTEXT
 70
     0
  9
$LTSCALE
 40
10.0
  9
$ATTMODE
 70
     1
  9
$TEXTSIZE
 40
0.2
  9
$TRACEWID
 40
0.05
  9
$TEXTSTYLE
  7
STANDARD
  9
$CLAYER
  8
0
  9
$CELTYPE
  6
CONTINUOUS
  9
$CECOLOR
 62
   256
  9
$CELTSCALE
 40
1.0
  9
$DISPSILH
 70
     0
  9
$DIMSCALE
 40
1.0
  9
$DIMASZ
 40
0.18
  9
$DIMEXO
 40
0.0625
  9
$DIMDLI
 40
0.38
  9
$DIMRND
 40
0.0
  9
$DIMDLE
 40
0.0
  9
$DIMEXE
 40
0.18
  9
$DIMTP
 40
0.0
  9
$DIMTM
 40
0.0
  9
$DIMTXT
 40
0.18
  9
$DIMCEN
 40
0.09
  9
$DIMTSZ
 40
0.0
  9
$DIMTOL
 70
     0
  9
$DIMLIM
 70
     0
  9
$DIMTIH
 70
     1
  9
$DIMTOH
 70
     1
  9
$DIMSE1
 70
     0
  9
$DIMSE2
 70
     0
  9
$DIMTAD
 70
     0
  9
$DIMZIN
 70
     0
  9
$DIMBLK
  1

  9
$DIMASO
 70
     1
  9
$DIMSHO
 70
     1
  9
$DIMPOST
  1

  9
$DIMAPOST
  1

  9
$DIMALT
 70
     0
  9
$DIMALTD
 70
     2
  9
$DIMALTF
 40
25.4
  9
$DIMLFAC
 40
1.0
  9
$DIMTOFL
 70
     0
  9
$DIMTVP
 40
0.0
  9
$DIMTIX
 70
     0
  9
$DIMSOXD
 70
     0
  9
$DIMSAH
 70
     0
  9
$DIMBLK1
  1

  9
$DIMBLK2
  1

  9
$DIMSTYLE
  2
Standard
  9
$DIMCLRD
 70
     0
  9
$DIMCLRE
 70
     0
  9
$DIMCLRT
 70
     0
  9
$DIMTFAC
 40
1.0
  9
$DIMGAP
 40
0.09
  9
$DIMJUST
 70
     0
  9
$DIMSD1
 70
     0
  9
$DIMSD2
 70
     0
  9
$DIMTOLJ
 70
     1
  9
$DIMTZIN
 70
     0
  9
$DIMALTZ
 70
     0
  9
$DIMALTTZ
 70
     0
  9
$DIMUPT
 70
     0
  9
$DIMDEC
 70
     4
  9
$DIMTDEC
 70
     4
  9
$DIMALTU
 70
     2
  9
$DIMALTTD
 70
     2
  9
$DIMTXSTY
  7
STANDARD
  9
$DIMAUNIT
 70
     0
  9
$DIMADEC
 70
     0
  9
$DIMALTRND
 40
0.0
  9
$DIMAZIN
 70
     0
  9
$DIMDSEP
 70
    46
  9
$DIMATFIT
 70
     3
  9
$DIMFRAC
 70
     0
  9
$DIMLDRBLK
  1

  9
$DIMLUNIT
 70
     2
  9
$DIMLWD
 70
    -2
  9
$DIMLWE
 70
    -2
  9
$DIMTMOVE
 70
     0
  9
$LUNITS
 70
     2
  9
$LUPREC
 70
     4
  9
$SKETCHINC
 40
0.1
  9
$FILLETRAD
 40
0.0
  9
$AUNITS
 70
     0
  9
$AUPREC
 70
     0
  9
$MENU
  1
.
  9
$ELEVATION
 40
0.0
  9
$PELEVATION
 40
0.0
  9
$THICKNESS
 40
0.0
  9
$LIMCHECK
 70
     0
  9
$CHAMFERA
 40
0.0
  9
$CHAMFERB
 40
0.0
  9
$CHAMFERC
 40
0.0
  9
$CHAMFERD
 40
0.0
  9
$SKPOLY
 70
     0
  9
$TDCREATE
 40
2454405.766906099
  9
$TDUCREATE
 40
2454405.391906099
  9
$TDUPDATE
 40
2454405.772537616
  9
$TDUUPDATE
 40
2454405.397537616
  9
$TDINDWG
 40
0.0056391088
  9
$TDUSRTIMER
 40
0.0056391088
  9
$USRTIMER
 70
     1
  9
$ANGBASE
 50
0.0
  9
$ANGDIR
 70
     0
  9
$PDMODE
 70
     0
  9
$PDSIZE
 40
0.0
  9
$PLINEWID
 40
0.0
  9
$SPLFRAME
 70
     0
  9
$SPLINETYPE
 70
     6
  9
$SPLINESEGS
 70
     8
  9
$HANDSEED
  5
2F8
  9
$SURFTAB1
 70
     6
  9
$SURFTAB2
 70
     6
  9
$SURFTYPE
 70
     6
  9
$SURFU
 70
     6
  9
$SURFV
 70
     6
  9
$UCSBASE
  2

  9
$UCSNAME
  2

  9
$UCSORG
 10
0.0
 20
0.0
 30
0.0
  9
$UCSXDIR
 10
1.0
 20
0.0
 30
0.0
  9
$UCSYDIR
 10
0.0
 20
1.0
 30
0.0
  9
$UCSORTHOREF
  2

  9
$UCSORTHOVIEW
 70
     0
  9
$UCSORGTOP
 10
0.0
 20
0.0
 30
0.0
  9
$UCSORGBOTTOM
 10
0.0
 20
0.0
 30
0.0
  9
$UCSORGLEFT
 10
0.0
 20
0.0
 30
0.0
  9
$UCSORGRIGHT
 10
0.0
 20
0.0
 30
0.0
  9
$UCSORGFRONT
 10
0.0
 20
0.0
 30
0.0
  9
$UCSORGBACK
 10
0.0
 20
0.0
 30
0.0
  9
$PUCSBASE
  2

  9
$PUCSNAME
  2

  9
$PUCSORG
 10
0.0
 20
0.0
 30
0.0
  9
$PUCSXDIR
 10
1.0
 20
0.0
 30
0.0
  9
$PUCSYDIR
 10
0.0
 20
1.0
 30
0.0
  9
$PUCSORTHOREF
  2

  9
$PUCSORTHOVIEW
 70
     0
  9
$PUCSORGTOP
 10
0.0
 20
0.0
 30
0.0
  9
$PUCSORGBOTTOM
 10
0.0
 20
0.0
 30
0.0
  9
$PUCSORGLEFT
 10
0.0
 20
0.0
 30
0.0
  9
$PUCSORGRIGHT
 10
0.0
 20
0.0
 30
0.0
  9
$PUCSORGFRONT
 10
0.0
 20
0.0
 30
0.0
  9
$PUCSORGBACK
 10
0.0
 20
0.0
 30
0.0
  9
$USERI1
 70
     0
  9
$USERI2
 70
     0
  9
$USERI3
 70
     0
  9
$USERI4
 70
     0
  9
$USERI5
 70
     0
  9
$USERR1
 40
0.0
  9
$USERR2
 40
0.0
  9
$USERR3
 40
0.0
  9
$USERR4
 40
0.0
  9
$USERR5
 40
0.0
  9
$WORLDVIEW
 70
     1
  9
$SHADEDGE
 70
     3
  9
$SHADEDIF
 70
    70
  9
$TILEMODE
 70
     1
  9
$MAXACTVP
 70
    64
  9
$PINSBASE
 10
0.0
 20
0.0
 30
0.0
  9
$PLIMCHECK
 70
     0
  9
$PEXTMIN
 10
1.000000000000000E+20
 20
1.000000000000000E+20
 30
1.000000000000000E+20
  9
$PEXTMAX
 10
-1.000000000000000E+20
 20
-1.000000000000000E+20
 30
-1.000000000000000E+20
  9
$PLIMMIN
 10
0.0
 20
0.0
  9
$PLIMMAX
 10
12.0
 20
9.0
  9
$UNITMODE
 70
     0
  9
$VISRETAIN
 70
     1
  9
$PLINEGEN
 70
     0
  9
$PSLTSCALE
 70
     1
  9
$TREEDEPTH
 70
  3020
  9
$CMLSTYLE
  2
Standard
  9
$CMLJUST
 70
     0
  9
$CMLSCALE
 40
1.0
  9
$PROXYGRAPHICS
 70
     1
  9
$MEASUREMENT
 70
     0
  9
$CELWEIGHT
370
    -1
  9
$ENDCAPS
280
     0
  9
$JOINSTYLE
280
     0
  9
$LWDISPLAY
290
     0
  9
$INSUNITS
 70
     0
  9
$HYPERLINKBASE
  1

  9
$STYLESHEET
  1

  9
$XEDIT
290
     1
  9
$CEPSNTYPE
380
     0
  9
$PSTYLEMODE
290
     1
  9
$FINGERPRINTGUID
  2
{3AD2EF7C-04BB-4C5F-B069-04A25048F62F}
  9
$VERSIONGUID
  2
{9D689ECB-E721-4D4B-8C00-08E6E084B74E}
  9
$EXTNAMES
290
     1
  9
$PSVPSCALE
 40
0.0
  9
$OLESTARTUP
290
     0
  9
$SORTENTS
280
   127
  9
$INDEXCTL
280
     0
  9
$HIDETEXT
280
     0
  9
$XCLIPFRAME
290
     0
  9
$HALOGAP
280
     0
  9
$OBSCOLOR
 70
   257
  9
$OBSLTYPE
280
     0
  9
$INTERSECTIONDISPLAY
280
     0
  9
$INTERSECTIONCOLOR
 70
   257
  9
$DIMASSOC
280
     1
  9
$PROJECTNAME
  1

  0
ENDSEC
  0
SECTION
  2
CLASSES
  0
CLASS
  1
ACDBDICTIONARYWDFLT
  2
AcDbDictionaryWithDefault
  3
ObjectDBX Classes
 90
        0
 91
        1
280
     0
281
     0
  0
ENDSEC
  0
SECTION
  2
TABLES
  0
TABLE
  2
VPORT
  5
8
330
0
100
AcDbSymbolTable
 70
     2
  0
VPORT
  5
2F7
330
8
100
AcDbSymbolTableRecord
100
AcDbViewportTableRecord
  2
*Active
 70
     0
 10
0.0
 20
0.0
 11
1.0
 21
1.0
 12
1451.78930735615
 22
809.3288226523641
 13
0.0
 23
0.0
 14
1.0
 24
1.0
 15
0.0
 25
0.0
 16
0.0
 26
0.0
 36
1.0
 17
0.0
 27
0.0
 37
0.0
 40
777.5443950607013
 41
1.326027397260274
 42
50.0
 43
0.0
 44
0.0
 50
0.0
 51
0.0
 71
     0
 72
   100
 73
     1
 74
     1
 75
     0
 76
     0
 77
     0
 78
     0
281
     0
 65
     1
110
0.0
120
0.0
130
0.0
111
1.0
121
0.0
131
0.0
112
0.0
122
1.0
132
0.0
 79
     0
146
0.0
  0
ENDTAB
  0
TABLE
  2
LTYPE
  5
5
330
0
100
AcDbSymbolTable
 70
    38
  0
LTYPE
  5
13
330
5
100
AcDbSymbolTableRecord
100
AcDbLinetypeTableRecord
  2
ByBlock
 70
     0
  3

 72
    65
 73
     0
 40
0.0
  0
LTYPE
  5
14
330
5
100
AcDbSymbolTableRecord
100
AcDbLinetypeTableRecord
  2
ByLayer
 70
     0
  3

 72
    65
 73
     0
 40
0.0
  0
LTYPE
  5
15
330
5
100
AcDbSymbolTableRecord
100
AcDbLinetypeTableRecord
  2
CONTINUOUS
 70
     0
  3
実線
 72
    65
 73
     0
 40
0.0
  0
LTYPE
  5
24
330
5
100
AcDbSymbolTableRecord
100
AcDbLinetypeTableRecord
  2
DASHED1
 70
     0
  3
--  --  --  --  --  --  --  --  
 72
    65
 73
     2
 40
2.5
 49
1.25
 74
     0
 49
-1.25
 74
     0
  0
LTYPE
  5
25
330
5
100
AcDbSymbolTableRecord
100
AcDbLinetypeTableRecord
  2
DASHED2
 70
     0
  3
----    ----    ----    ----    
 72
    65
 73
     2
 40
5.0
 49
2.5
 74
     0
 49
-2.5
 74
     0
  0
LTYPE
  5
26
330
5
100
AcDbSymbolTableRecord
100
AcDbLinetypeTableRecord
  2
DASHED3
 70
     0
  3
------  ------  ------  ------  
 72
    65
 73
     2
 40
5.0
 49
3.75
 74
     0
 49
-1.25
 74
     0
  0
LTYPE
  5
27
330
5
100
AcDbSymbolTableRecord
100
AcDbLinetypeTableRecord
  2
CENTER1
 70
     0
  3
----- - ----- - ----- - ----- - 
 72
    65
 73
     4
 40
10.0
 49
6.25
 74
     0
 49
-1.25
 74
     0
 49
1.25
 74
     0
 49
-1.25
 74
     0
  0
LTYPE
  5
28
330
5
100
AcDbSymbolTableRecord
100
AcDbLinetypeTableRecord
  2
CENTER2
 70
     0
  3
----------  --  ----------  --  
 72
    65
 73
     4
 40
20.0
 49
12.5
 74
     0
 49
-2.5
 74
     0
 49
2.5
 74
     0
 49
-2.5
 74
     0
  0
LTYPE
  5
29
330
5
100
AcDbSymbolTableRecord
100
AcDbLinetypeTableRecord
  2
PHANTOM1
 70
     0
  3
--- - - --- - - --- - - --- - - 
 72
    65
 73
     6
 40
10.0
 49
3.25
 74
     0
 49
-1.25
 74
     0
 49
1.25
 74
     0
 49
-1.25
 74
     0
 49
1.25
 74
     0
 49
-1.25
 74
     0
  0
LTYPE
  5
2A
330
5
100
AcDbSymbolTableRecord
100
AcDbLinetypeTableRecord
  2
PHANTOM2
 70
     0
  3
--------  -  -  --------  -  -  
 72
    65
 73
     6
 40
20.0
 49
10.0
 74
     0
 49
-2.5
 74
     0
 49
1.25
 74
     0
 49
-2.5
 74
     0
 49
1.25
 74
     0
 49
-2.5
 74
     0
  0
LTYPE
  5
2B
330
5
100
AcDbSymbolTableRecord
100
AcDbLinetypeTableRecord
  2
DOT
 70
     0
  3
-   -   -   -   -   -   -   -   
 72
    65
 73
     2
 40
2.5
 49
0.625
 74
     0
 49
-1.875
 74
     0
  0
LTYPE
  5
2C
330
5
100
AcDbSymbolTableRecord
100
AcDbLinetypeTableRecord
  2
DUMMY
 70
     0
  3
ダミー
 72
    65
 73
     0
 40
0.0
  0
LTYPE
  5
2D
330
5
100
AcDbSymbolTableRecord
100
AcDbLinetypeTableRecord
  2
RAND1
 70
     0
  3
ランダム線1
 72
    65
 73
     4
 40
10.0
 49
1.0
 74
     0
 49
-2.0
 74
     0
 49
3.0
 74
     0
 49
-4.0
 74
     0
  0
LTYPE
  5
2E
330
5
100
AcDbSymbolTableRecord
100
AcDbLinetypeTableRecord
  2
RAND2
 70
     0
  3
ランダム線2
 72
    65
 73
     4
 40
14.0
 49
2.0
 74
     0
 49
-3.0
 74
     0
 49
4.0
 74
     0
 49
-5.0
 74
     0
  0
LTYPE
  5
2F
330
5
100
AcDbSymbolTableRecord
100
AcDbLinetypeTableRecord
  2
RAND3
 70
     0
  3
ランダム線3
 72
    65
 73
     4
 40
18.0
 49
3.0
 74
     0
 49
-4.0
 74
     0
 49
5.0
 74
     0
 49
-6.0
 74
     0
  0
LTYPE
  5
30
330
5
100
AcDbSymbolTableRecord
100
AcDbLinetypeTableRecord
  2
RAND4
 70
     0
  3
ランダム線4
 72
    65
 73
     4
 40
22.0
 49
4.0
 74
     0
 49
-5.0
 74
     0
 49
6.0
 74
     0
 49
-7.0
 74
     0
  0
LTYPE
  5
31
330
5
100
AcDbSymbolTableRecord
100
AcDbLinetypeTableRecord
  2
RAND5
 70
     0
  3
ランダム線5
 72
    65
 73
     4
 40
26.0
 49
5.0
 74
     0
 49
-6.0
 74
     0
 49
7.0
 74
     0
 49
-8.0
 74
     0
  0
LTYPE
  5
32
330
5
100
AcDbSymbolTableRecord
100
AcDbLinetypeTableRecord
  2
LONG1
 70
     0
  3
----------  --  ----------  --  
 72
    65
 73
     4
 40
40.0
 49
32.5
 74
     0
 49
-2.5
 74
     0
 49
2.5
 74
     0
 49
-2.5
 74
     0
  0
LTYPE
  5
33
330
5
100
AcDbSymbolTableRecord
100
AcDbLinetypeTableRecord
  2
LONG2
 70
     0
  3
--------  -  -  --------  -  -  
 72
    65
 73
     6
 40
40.0
 49
30.0
 74
     0
 49
-2.5
 74
     0
 49
1.25
 74
     0
 49
-2.5
 74
     0
 49
1.25
 74
     0
 49
-2.5
 74
     0
  0
LTYPE
  5
34
330
5
100
AcDbSymbolTableRecord
100
AcDbLinetypeTableRecord
  2
LONG3
 70
     0
  3
+++++++++++++++..+++++++++++++++
 72
    65
 73
     2
 40
40.0
 49
37.5
 74
     0
 49
-2.5
 74
     0
  0
LTYPE
  5
35
330
5
100
AcDbSymbolTableRecord
100
AcDbLinetypeTableRecord
  2
LONG4
 70
     0
  3
+++++++++++++++..+++++++++++++++
 72
    65
 73
     2
 40
80.0
 49
75.0
 74
     0
 49
-5.0
 74
     0
  0
LTYPE
  5
36
330
5
100
AcDbSymbolTableRecord
100
AcDbLinetypeTableRecord
  2
LONG5
 70
     0
  3
----------  --  ----------  --  
 72
    65
 73
     4
 40
60.0
 49
37.5
 74
     0
 49
-7.5
 74
     0
 49
7.5
 74
     0
 49
-7.5
 74
     0
  0
LTYPE
  5
37
330
5
100
AcDbSymbolTableRecord
100
AcDbLinetypeTableRecord
  2
DASHED
 70
     0
  3
-------   -------------   ------
 72
    65
 73
     2
 40
50.0
 49
40.0
 74
     0
 49
-10.0
 74
     0
  0
LTYPE
  5
38
330
5
100
AcDbSymbolTableRecord
100
AcDbLinetypeTableRecord
  2
DASHED_SPACED
 70
     0
  3
----        --------        ----
 72
    65
 73
     2
 40
12.0
 49
6.0
 74
     0
 49
-6.0
 74
     0
  0
LTYPE
  5
39
330
5
100
AcDbSymbolTableRecord
100
AcDbLinetypeTableRecord
  2
LONG_DASHED_DOTTED
 70
     0
  3
------------- --- --------------
 72
    65
 73
     4
 40
15.25
 49
12.0
 74
     0
 49
-1.5
 74
     0
 49
0.25
 74
     0
 49
-1.5
 74
     0
  0
LTYPE
  5
3A
330
5
100
AcDbSymbolTableRecord
100
AcDbLinetypeTableRecord
  2
LONG_DASHED_DOUBLE-DOTTED
 70
     0
  3
----------- --- --- ------------
 72
    65
 73
     6
 40
17.0
 49
12.0
 74
     0
 49
-1.5
 74
     0
 49
0.25
 74
     0
 49
-1.5
 74
     0
 49
0.25
 74
     0
 49
-1.5
 74
     0
  0
LTYPE
  5
3B
330
5
100
AcDbSymbolTableRecord
100
AcDbLinetypeTableRecord
  2
LONG_DASHED_TRIPLICATE-DOTTED
 70
     0
  3
--------- --- --- --- ----------
 72
    65
 73
     8
 40
18.75
 49
12.0
 74
     0
 49
-1.5
 74
     0
 49
0.25
 74
     0
 49
-1.5
 74
     0
 49
0.25
 74
     0
 49
-1.5
 74
     0
 49
0.25
 74
     0
 49
-1.5
 74
     0
  0
LTYPE
  5
3C
330
5
100
AcDbSymbolTableRecord
100
AcDbLinetypeTableRecord
  2
DOTTED
 70
     0
  3
   -       -       -       -    
 72
    65
 73
     2
 40
1.75
 49
0.25
 74
     0
 49
-1.5
 74
     0
  0
LTYPE
  5
3D
330
5
100
AcDbSymbolTableRecord
100
AcDbLinetypeTableRecord
  2
CHAIN
 70
     0
  3
-------------- -- --------------
 72
    65
 73
     4
 40
18.5
 49
12.0
 74
     0
 49
-1.5
 74
     0
 49
3.5
 74
     0
 49
-1.5
 74
     0
  0
LTYPE
  5
3E
330
5
100
AcDbSymbolTableRecord
100
AcDbLinetypeTableRecord
  2
CHAIN_DOUBLE_DASH
 70
     0
  3
------------ -- -- -------------
 72
    65
 73
     6
 40
23.5
 49
12.0
 74
     0
 49
-1.5
 74
     0
 49
3.5
 74
     0
 49
-1.5
 74
     0
 49
3.5
 74
     0
 49
-1.5
 74
     0
  0
LTYPE
  5
3F
330
5
100
AcDbSymbolTableRecord
100
AcDbLinetypeTableRecord
  2
DASHED_DOTTED
 70
     0
  3
-----------     -     ----------
 72
    65
 73
     4
 40
9.25
 49
6.0
 74
     0
 49
-1.5
 74
     0
 49
0.25
 74
     0
 49
-1.5
 74
     0
  0
LTYPE
  5
40
330
5
100
AcDbSymbolTableRecord
100
AcDbLinetypeTableRecord
  2
DOUBLE-DASHED_DOTTED
 70
     0
  3
------   -----------   -   -----
 72
    65
 73
     6
 40
16.75
 49
6.0
 74
     0
 49
-1.5
 74
     0
 49
6.0
 74
     0
 49
-1.5
 74
     0
 49
0.25
 74
     0
 49
-1.5
 74
     0
  0
LTYPE
  5
41
330
5
100
AcDbSymbolTableRecord
100
AcDbLinetypeTableRecord
  2
DASHED_DOUBLE-DOTTED
 70
     0
  3
---------    -    -    ---------
 72
    65
 73
     6
 40
11.0
 49
6.0
 74
     0
 49
-1.5
 74
     0
 49
0.25
 74
     0
 49
-1.5
 74
     0
 49
0.25
 74
     0
 49
-1.5
 74
     0
  0
LTYPE
  5
42
330
5
100
AcDbSymbolTableRecord
100
AcDbLinetypeTableRecord
  2
DOUBLE-DASHED_DOUBLE-DOTTED
 70
     0
  3
-----   ---------   -   -   ----
 72
    65
 73
     8
 40
18.5
 49
6.0
 74
     0
 49
-1.5
 74
     0
 49
6.0
 74
     0
 49
-1.5
 74
     0
 49
0.25
 74
     0
 49
-1.5
 74
     0
 49
0.25
 74
     0
 49
-1.5
 74
     0
  0
LTYPE
  5
43
330
5
100
AcDbSymbolTableRecord
100
AcDbLinetypeTableRecord
  2
DASHED_TRIPLICATE-DOTTED
 70
     0
  3
-------    -    -    -    ------
 72
    65
 73
     8
 40
12.75
 49
6.0
 74
     0
 49
-1.5
 74
     0
 49
0.25
 74
     0
 49
-1.5
 74
     0
 49
0.25
 74
     0
 49
-1.5
 74
     0
 49
0.25
 74
     0
 49
-1.5
 74
     0
  0
LTYPE
  5
44
330
5
100
AcDbSymbolTableRecord
100
AcDbLinetypeTableRecord
  2
DOUBLE-DASHED_TRIPLICATE-DOTTED
 70
     0
  3
-----  ---------  -  -  -  -----
 72
    65
 73
    10
 40
20.25
 49
6.0
 74
     0
 49
-1.5
 74
     0
 49
6.0
 74
     0
 49
-1.5
 74
     0
 49
0.25
 74
     0
 49
-1.5
 74
     0
 49
0.25
 74
     0
 49
-1.5
 74
     0
 49
0.25
 74
     0
 49
-1.5
 74
     0
  0
LTYPE
  5
45
330
5
100
AcDbSymbolTableRecord
100
AcDbLinetypeTableRecord
  2
UNDEFINED
 70
     0
  3
--------------------------------
 72
    65
 73
     0
 40
0.0
  0
LTYPE
  5
46
330
5
100
AcDbSymbolTableRecord
100
AcDbLinetypeTableRecord
  2
HIDDEN
 70
     0
  3
----        --------        ----
 72
    65
 73
     2
 40
10.0
 49
5.0
 74
     0
 49
-5.0
 74
     0
  0
LTYPE
  5
47
330
5
100
AcDbSymbolTableRecord
100
AcDbLinetypeTableRecord
  2
CENTER
 70
     0
  3
------------   ---   -----------
 72
    65
 73
     4
 40
100.0
 49
70.0
 74
     0
 49
-10.0
 74
     0
 49
10.0
 74
     0
 49
-10.0
 74
     0
  0
LTYPE
  5
48
330
5
100
AcDbSymbolTableRecord
100
AcDbLinetypeTableRecord
  2
PHANTOM
 70
     0
  3
---------   ---   ---   --------
 72
    65
 73
     6
 40
100.0
 49
50.0
 74
     0
 49
-10.0
 74
     0
 49
10.0
 74
     0
 49
-10.0
 74
     0
 49
10.0
 74
     0
 49
-10.0
 74
     0
  0
ENDTAB
  0
TABLE
  2
LAYER
  5
2
330
0
100
AcDbSymbolTable
 70
     6
  0
LAYER
  5
10
330
2
100
AcDbSymbolTableRecord
100
AcDbLayerTableRecord
  2
0
 70
     0
 62
     7
  6
CONTINUOUS
370
    -3
390
F
  0
LAYER
  5
4A
330
2
100
AcDbSymbolTableRecord
100
AcDbLayerTableRecord
  2
_0-0_LAYER001
 70
     0
 62
     7
  6
CONTINUOUS
370
    -3
390
F
  0
LAYER
  5
4B
330
2
100
AcDbSymbolTableRecord
100
AcDbLayerTableRecord
  2
_0-1_LAYER002
 70
     0
 62
     7
  6
CONTINUOUS
370
    -3
390
F
  0
LAYER
  5
4C
330
2
100
AcDbSymbolTableRecord
100
AcDbLayerTableRecord
  2
_0-2_LAYER003
 70
     0
 62
     7
  6
CONTINUOUS
370
    -3
390
F
  0
LAYER
  5
4D
330
2
100
AcDbSymbolTableRecord
100
AcDbLayerTableRecord
  2
_0-3_LAYER009
 70
     0
 62
     7
  6
CONTINUOUS
370
    -3
390
F
  0
LAYER
  5
4E
330
2
100
AcDbSymbolTableRecord
100
AcDbLayerTableRecord
  2
ADD_LINE
 70
     0
 62
     7
  6
CONTINUOUS
370
    -3
390
F
  0
ENDTAB
  0
TABLE
  2
STYLE
  5
3
330
0
100
AcDbSymbolTable
 70
     2
  0
STYLE
  5
11
330
3
100
AcDbSymbolTableRecord
100
AcDbTextStyleTableRecord
  2
STANDARD
 70
     0
 40
0.0
 41
1.0
 50
0.0
 71
     0
 42
0.2
  3
txt
  4
bigfont.shx
  0
STYLE
  5
49
330
3
100
AcDbSymbolTableRecord
100
AcDbTextStyleTableRecord
  2
TATEGAKI
 70
     4
 40
0.0
 41
1.0
 50
0.0
 71
     0
 42
1.0
  3
txt
  4
bigfont.shx
  0
ENDTAB
  0
TABLE
  2
VIEW
  5
6
330
0
100
AcDbSymbolTable
 70
     0
  0
ENDTAB
  0
TABLE
  2
UCS
  5
7
330
0
100
AcDbSymbolTable
 70
     0
  0
ENDTAB
  0
TABLE
  2
APPID
  5
9
330
0
100
AcDbSymbolTable
 70
     1
  0
APPID
  5
12
330
9
100
AcDbSymbolTableRecord
100
AcDbRegAppTableRecord
  2
ACAD
 70
     0
  0
ENDTAB
  0
TABLE
  2
DIMSTYLE
  5
A
330
0
100
AcDbSymbolTable
 70
     1
100
AcDbDimStyleTable
 71
     0
  0
DIMSTYLE
105
2F5
330
A
100
AcDbSymbolTableRecord
100
AcDbDimStyleTableRecord
  2
Standard
 70
     0
340
11
  0
ENDTAB
  0
TABLE
  2
BLOCK_RECORD
  5
1
330
0
100
AcDbSymbolTable
 70
     0
  0
BLOCK_RECORD
  5
20
330
1
100
AcDbSymbolTableRecord
100
AcDbBlockTableRecord
  2
*Model_Space
340
23
  0
BLOCK_RECORD
  5
1C
330
1
100
AcDbSymbolTableRecord
100
AcDbBlockTableRecord
  2
*Paper_Space
340
1F
  0
ENDTAB
  0
ENDSEC
  0
SECTION
  2
BLOCKS
  0
BLOCK
  5
21
330
20
100
AcDbEntity
  8
0
100
AcDbBlockBegin
  2
*Model_Space
 70
     0
 10
0.0
 20
0.0
 30
0.0
  3
*Model_Space
  1

  0
ENDBLK
  5
22
330
20
100
AcDbEntity
  8
0
100
AcDbBlockEnd
  0
BLOCK
  5
1D
330
1C
100
AcDbEntity
 67
     1
  8
0
100
AcDbBlockBegin
  2
*Paper_Space
 70
     0
 10
0.0
 20
0.0
 30
0.0
  3
*Paper_Space
  1

  0
ENDBLK
  5
1E
330
1C
100
AcDbEntity
 67
     1
  8
0
100
AcDbBlockEnd
  0
ENDSEC
  0
SECTION
  2
ENTITIES
  0
LINE
  5
52
330
20
100
AcDbEntity
  8
_0-3_LAYER009
  6
Continuous
 62
     2
100
AcDbLine
 10
1516.704773499999
 20
1176.1663925
 30
0.0
 11
669.6351214999993
 21
794.9858054999999
 31
0.0
  0
LINE
  5
53
330
20
100
AcDbEntity
  8
_0-2_LAYER003
  6
Continuous
 62
     2
100
AcDbLine
 10
1516.704773499999
 20
1052.8005485
 30
0.0
 11
715.8011594999993
 21
692.3946844999997
 31
0.0
  0
LINE
  5
54
330
20
100
AcDbEntity
  8
_0-2_LAYER003
  6
Continuous
 62
     2
100
AcDbLine
 10
1516.704773499999
 20
1173.4249315
 30
0.0
 11
1385.501932499999
 21
1114.3837535
 31
0.0
  0
LINE
  5
55
330
20
100
AcDbEntity
  8
_0-2_LAYER003
  6
Continuous
 62
     2
100
AcDbLine
 10
1385.501932499999
 20
1114.3837535
 30
0.0
 11
1384.476009499999
 21
1116.6635565
 31
0.0
  0
LINE
  5
56
330
20
100
AcDbEntity
  8
_0-3_LAYER009
  6
Continuous
 62
     2
100
AcDbLine
 10
1516.704773499999
 20
1176.1663925
 30
0.0
 11
2368.5542945
 21
792.8348684999998
 31
0.0
  0
LINE
  5
57
330
20
100
AcDbEntity
  8
_0-2_LAYER003
  6
Continuous
 62
     2
100
AcDbLine
 10
1516.704773499999
 20
1052.8005485
 30
0.0
 11
2328.1791565
 21
687.6378484999996
 31
0.0
  0
LINE
  5
58
330
20
100
AcDbEntity
  8
_0-2_LAYER003
  6
Continuous
 62
     2
100
AcDbLine
 10
1516.704773499999
 20
1173.4249315
 30
0.0
 11
1647.9076145
 21
1114.3837535
 31
0.0
  0
LINE
  5
59
330
20
100
AcDbEntity
  8
_0-2_LAYER003
  6
Continuous
 62
     2
100
AcDbLine
 10
1647.9076145
 20
1114.3837535
 30
0.0
 11
1648.933537499999
 21
1116.6635565
 31
0.0
  0
LINE
  5
5A
330
20
100
AcDbEntity
  8
_0-0_LAYER001
  6
Continuous
 62
     1
100
AcDbLine
 10
1515.678863499999
 20
1178.446196499999
 30
0.0
 11
668.6092114999996
 21
797.2656104999998
 31
0.0
  0
LINE
  5
5B
330
20
100
AcDbEntity
  8
_0-0_LAYER001
  6
Continuous
 62
     1
100
AcDbLine
 10
1514.6529535
 20
1180.7260015
 30
0.0
 11
667.5833014999994
 21
799.5454145
 31
0.0
  0
LINE
  5
5C
330
20
100
AcDbEntity
  8
_0-0_LAYER001
  6
Continuous
 62
     1
100
AcDbLine
 10
1513.627043499999
 20
1183.0058055
 30
0.0
 11
666.5573914999994
 21
801.8252195
 31
0.0
  0
LINE
  5
5D
330
20
100
AcDbEntity
  8
_0-0_LAYER001
  6
Continuous
 62
     1
100
AcDbLine
 10
1512.601133499999
 20
1185.2856105
 30
0.0
 11
665.5314814999997
 21
804.1050244999999
 31
0.0
  0
LINE
  5
5E
330
20
100
AcDbEntity
  8
_0-0_LAYER001
  6
Continuous
 62
     1
100
AcDbLine
 10
1511.575223499999
 20
1187.5654145
 30
0.0
 11
664.5055714999994
 21
806.3848284999998
 31
0.0
  0
LINE
  5
5F
330
20
100
AcDbEntity
  8
_0-0_LAYER001
  6
Continuous
 62
     1
100
AcDbLine
 10
1510.549313499999
 20
1189.8452195
 30
0.0
 11
663.4796614999995
 21
808.6646334999997
 31
0.0
  0
LINE
  5
60
330
20
100
AcDbEntity
  8
_0-0_LAYER001
  6
Continuous
 62
     1
100
AcDbLine
 10
1509.523403499999
 20
1192.1250235
 30
0.0
 11
662.4537514999996
 21
810.9444374999998
 31
0.0
  0
LINE
  5
61
330
20
100
AcDbEntity
  8
_0-0_LAYER001
  6
Continuous
 62
     1
100
AcDbLine
 10
1508.497493499999
 20
1194.4048285
 30
0.0
 11
661.4278414999994
 21
813.2242424999997
 31
0.0
  0
LINE
  5
62
330
20
100
AcDbEntity
  8
_0-0_LAYER001
  6
Continuous
 62
     1
100
AcDbLine
 10
1507.471583499999
 20
1196.6846335
 30
0.0
 11
660.4019314999995
 21
815.5040464999999
 31
0.0
  0
LINE
  5
63
330
20
100
AcDbEntity
  8
_0-0_LAYER001
  6
Continuous
 62
     1
100
AcDbLine
 10
1517.7306835
 20
1178.446196499999
 30
0.0
 11
2369.580204499999
 21
795.1146735
 31
0.0
  0
LINE
  5
64
330
20
100
AcDbEntity
  8
_0-0_LAYER001
  6
Continuous
 62
     1
100
AcDbLine
 10
1518.756593499999
 20
1180.7260015
 30
0.0
 11
2370.6061145
 21
797.3944775
 31
0.0
  0
LINE
  5
65
330
20
100
AcDbEntity
  8
_0-0_LAYER001
  6
Continuous
 62
     1
100
AcDbLine
 10
1519.782503499999
 20
1183.0058055
 30
0.0
 11
2371.6320245
 21
799.6742825
 31
0.0
  0
LINE
  5
66
330
20
100
AcDbEntity
  8
_0-0_LAYER001
  6
Continuous
 62
     1
100
AcDbLine
 10
1520.8084135
 20
1185.2856105
 30
0.0
 11
2372.657934499999
 21
801.9540864999999
 31
0.0
  0
LINE
  5
67
330
20
100
AcDbEntity
  8
_0-0_LAYER001
  6
Continuous
 62
     1
100
AcDbLine
 10
1521.834323499999
 20
1187.5654145
 30
0.0
 11
2373.683844499999
 21
804.2338914999996
 31
0.0
  0
LINE
  5
68
330
20
100
AcDbEntity
  8
_0-0_LAYER001
  6
Continuous
 62
     1
100
AcDbLine
 10
1522.860233499999
 20
1189.8452195
 30
0.0
 11
2374.7097545
 21
806.5136964999998
 31
0.0
  0
LINE
  5
69
330
20
100
AcDbEntity
  8
_0-0_LAYER001
  6
Continuous
 62
     1
100
AcDbLine
 10
1523.8861435
 20
1192.1250235
 30
0.0
 11
2375.735664499999
 21
808.7935004999998
 31
0.0
  0
LINE
  5
6A
330
20
100
AcDbEntity
  8
_0-0_LAYER001
  6
Continuous
 62
     1
100
AcDbLine
 10
1524.912053499999
 20
1194.4048285
 30
0.0
 11
2376.761574499999
 21
811.0733054999998
 31
0.0
  0
LINE
  5
6B
330
20
100
AcDbEntity
  8
_0-0_LAYER001
  6
Continuous
 62
     1
100
AcDbLine
 10
1525.937963499999
 20
1196.6846335
 30
0.0
 11
2377.7874845
 21
813.3531094999998
 31
0.0
  0
LINE
  5
6C
330
20
100
AcDbEntity
  8
_0-0_LAYER001
  6
Continuous
 62
     4
100
AcDbLine
 10
642.3255664999998
 20
855.6736604999999
 30
0.0
 11
727.1978464999997
 21
882.4844764999996
 31
0.0
  0
LINE
  5
6D
330
20
100
AcDbEntity
  8
_0-0_LAYER001
  6
Continuous
 62
     4
100
AcDbLine
 10
721.1188704999995
 20
901.7280724999999
 30
0.0
 11
697.7338864999997
 21
894.3408494999999
 31
0.0
  0
LINE
  5
6E
330
20
100
AcDbEntity
  8
_0-0_LAYER001
  6
Continuous
 62
     4
100
AcDbLine
 10
635.0948484999994
 20
871.7419104999999
 30
0.0
 11
695.3245684999997
 21
890.7682394999998
 31
0.0
  0
ARC
  5
6F
330
20
100
AcDbEntity
  8
_0-0_LAYER001
  6
Continuous
 62
     4
100
AcDbCircle
 10
700.9553354999994
 20
889.2882714999998
 30
0.0
 40
5.822014
100
AcDbArc
 50
113.701938
 51
165.273682
  0
LINE
  5
70
330
20
100
AcDbEntity
  8
_0-0_LAYER001
  6
Continuous
 62
     4
100
AcDbLine
 10
728.3538014999993
 20
863.3734134999999
 30
0.0
 11
726.5922964999995
 21
868.9496314999999
 31
0.0
  0
LINE
  5
71
330
20
100
AcDbEntity
  8
_0-0_LAYER001
  6
Continuous
 62
     4
100
AcDbLine
 10
721.1188704999995
 20
901.7280724999999
 30
0.0
 11
732.7920594999997
 21
864.7754414999997
 31
0.0
  0
LINE
  5
72
330
20
100
AcDbEntity
  8
_0-0_LAYER001
  6
Continuous
 62
     4
100
AcDbLine
 10
728.3538014999993
 20
863.3734134999999
 30
0.0
 11
732.7920594999997
 21
864.7754414999997
 31
0.0
  0
LINE
  5
73
330
20
100
AcDbEntity
  8
_0-0_LAYER001
  6
Continuous
 62
     4
100
AcDbLine
 10
647.5828324999992
 20
843.9908564999997
 30
0.0
 11
726.5922964999995
 21
868.9496314999999
 31
0.0
  0
LINE
  5
74
330
20
100
AcDbEntity
  8
_0-0_LAYER001
  6
Continuous
 62
     4
100
AcDbLine
 10
651.5091844999996
 20
899.5759804999998
 30
0.0
 11
657.1276194999995
 21
901.2997604999998
 31
0.0
  0
ARC
  5
75
330
20
100
AcDbEntity
  8
_0-0_LAYER001
  6
Continuous
 62
     4
100
AcDbCircle
 10
673.9260184999994
 20
902.8741684999999
 30
0.0
 40
16.872017
100
AcDbArc
 50
102.882447
 51
185.354333
  0
LINE
  5
76
330
20
100
AcDbEntity
  8
_0-0_LAYER001
  6
Continuous
 62
     4
100
AcDbLine
 10
675.5705844999994
 20
902.6750505
 30
0.0
 11
982.5358914999997
 21
996.8543754999998
 31
0.0
  0
LINE
  5
77
330
20
100
AcDbEntity
  8
_0-0_LAYER001
  6
Continuous
 62
     4
100
AcDbLine
 10
976.6165584999994
 20
1016.1476755
 30
0.0
 11
953.1711734999992
 21
1008.9544505
 31
0.0
  0
LINE
  5
78
330
20
100
AcDbEntity
  8
_0-0_LAYER001
  6
Continuous
 62
     4
100
AcDbLine
 10
670.1643764999996
 20
919.3215094999997
 30
0.0
 11
950.7323394999994
 21
1005.4019255
 31
0.0
  0
ARC
  5
79
330
20
100
AcDbEntity
  8
_0-0_LAYER001
  6
Continuous
 62
     4
100
AcDbCircle
 10
956.3506514999993
 20
1003.8753565
 30
0.0
 40
5.822014
100
AcDbArc
 50
113.227236
 51
164.79898
  0
LINE
  5
7A
330
20
100
AcDbEntity
  8
_0-0_LAYER001
  6
Continuous
 62
     4
100
AcDbLine
 10
651.5000374999995
 20
899.6057954999999
 30
0.0
 11
657.2286404999994
 21
880.9341514999998
 31
0.0
  0
ARC
  5
7B
330
20
100
AcDbEntity
  8
_0-0_LAYER001
  6
Continuous
 62
     4
100
AcDbCircle
 10
679.3322254999993
 20
886.2277104999998
 30
0.0
 40
16.872017
100
AcDbArc
 50
102.882447
 51
192.21985
  0
LINE
  5
7C
330
20
100
AcDbEntity
  8
_0-0_LAYER001
  6
Continuous
 62
     4
100
AcDbLine
 10
983.5334714999993
 20
977.7343904999998
 30
0.0
 11
981.8182254999996
 21
983.3250124999999
 31
0.0
  0
LINE
  5
7D
330
20
100
AcDbEntity
  8
_0-0_LAYER001
  6
Continuous
 62
     4
100
AcDbLine
 10
976.6165584999994
 20
1016.1476755
 30
0.0
 11
987.9831924999994
 21
979.0995994999999
 31
0.0
  0
LINE
  5
7E
330
20
100
AcDbEntity
  8
_0-0_LAYER001
  6
Continuous
 62
     4
100
AcDbLine
 10
983.5334714999993
 20
977.7343904999998
 30
0.0
 11
987.9831924999994
 21
979.0995994999999
 31
0.0
  0
LINE
  5
7F
330
20
100
AcDbEntity
  8
_0-0_LAYER001
  6
Continuous
 62
     4
100
AcDbLine
 10
662.8424834999996
 20
882.6565214999998
 30
0.0
 11
657.2286404999994
 21
880.9341514999998
 31
0.0
  0
LINE
  5
80
330
20
100
AcDbEntity
  8
_0-0_LAYER001
  6
Continuous
 62
     4
100
AcDbLine
 10
662.4943304999998
 20
885.3539774999998
 30
0.0
 11
981.8182254999996
 21
983.3250124999999
 31
0.0
  0
LINE
  5
81
330
20
100
AcDbEntity
  8
_0-0_LAYER001
  6
Continuous
 62
     4
100
AcDbLine
 10
906.8280184999993
 20
1014.5207295
 30
0.0
 11
912.4464534999999
 21
1016.2445085
 31
0.0
  0
ARC
  5
82
330
20
100
AcDbEntity
  8
_0-0_LAYER001
  6
Continuous
 62
     4
100
AcDbCircle
 10
929.2448524999995
 20
1017.8189175
 30
0.0
 40
16.872017
100
AcDbArc
 50
102.882447
 51
185.354333
  0
LINE
  5
83
330
20
100
AcDbEntity
  8
_0-0_LAYER001
  6
Continuous
 62
     4
100
AcDbLine
 10
930.8894184999994
 20
1017.6197995
 30
0.0
 11
1237.8547255
 21
1111.7991235
 31
0.0
  0
LINE
  5
84
330
20
100
AcDbEntity
  8
_0-0_LAYER001
  6
Continuous
 62
     4
100
AcDbLine
 10
1231.935392499999
 20
1131.0924235
 30
0.0
 11
1208.4900075
 21
1123.8991995
 31
0.0
  0
LINE
  5
85
330
20
100
AcDbEntity
  8
_0-0_LAYER001
  6
Continuous
 62
     4
100
AcDbLine
 10
925.4832104999996
 20
1034.266258499999
 30
0.0
 11
1206.051173499999
 21
1120.3466735
 31
0.0
  0
ARC
  5
86
330
20
100
AcDbEntity
  8
_0-0_LAYER001
  6
Continuous
 62
     4
100
AcDbCircle
 10
1211.6694855
 20
1118.820104499999
 30
0.0
 40
5.822014
100
AcDbArc
 50
113.227236
 51
164.79898
  0
LINE
  5
87
330
20
100
AcDbEntity
  8
_0-0_LAYER001
  6
Continuous
 62
     4
100
AcDbLine
 10
906.8188714999996
 20
1014.5505435
 30
0.0
 11
912.5474744999996
 21
995.8788995
 31
0.0
  0
ARC
  5
88
330
20
100
AcDbEntity
  8
_0-0_LAYER001
  6
Continuous
 62
     4
100
AcDbCircle
 10
934.6510594999998
 20
1001.1724585
 30
0.0
 40
16.872017
100
AcDbArc
 50
102.882447
 51
192.21985
  0
LINE
  5
89
330
20
100
AcDbEntity
  8
_0-0_LAYER001
  6
Continuous
 62
     4
100
AcDbLine
 10
1238.8523055
 20
1092.6791395
 30
0.0
 11
1237.137059499999
 21
1098.2697605
 31
0.0
  0
LINE
  5
8A
330
20
100
AcDbEntity
  8
_0-0_LAYER001
  6
Continuous
 62
     4
100
AcDbLine
 10
1231.935392499999
 20
1131.0924235
 30
0.0
 11
1243.302027499999
 21
1094.044348499999
 31
0.0
  0
LINE
  5
8B
330
20
100
AcDbEntity
  8
_0-0_LAYER001
  6
Continuous
 62
     4
100
AcDbLine
 10
1238.8523055
 20
1092.6791395
 30
0.0
 11
1243.302027499999
 21
1094.044348499999
 31
0.0
  0
LINE
  5
8C
330
20
100
AcDbEntity
  8
_0-0_LAYER001
  6
Continuous
 62
     4
100
AcDbLine
 10
918.1613174999991
 20
997.6012694999999
 30
0.0
 11
912.5474744999996
 21
995.8788995
 31
0.0
  0
LINE
  5
8D
330
20
100
AcDbEntity
  8
_0-0_LAYER001
  6
Continuous
 62
     4
100
AcDbLine
 10
917.8131644999993
 20
1000.298725499999
 30
0.0
 11
1237.137059499999
 21
1098.2697605
 31
0.0
  0
LINE
  5
8E
330
20
100
AcDbEntity
  8
_0-0_LAYER001
  6
Continuous
 62
     4
100
AcDbLine
 10
1162.146852499999
 20
1129.4654775
 30
0.0
 11
1167.765287499999
 21
1131.189256499999
 31
0.0
  0
ARC
  5
8F
330
20
100
AcDbEntity
  8
_0-0_LAYER001
  6
Continuous
 62
     4
100
AcDbCircle
 10
1184.563686499999
 20
1132.7636655
 30
0.0
 40
16.872017
100
AcDbArc
 50
102.882447
 51
185.354333
  0
LINE
  5
90
330
20
100
AcDbEntity
  8
_0-0_LAYER001
  6
Continuous
 62
     4
100
AcDbLine
 10
1186.208252499999
 20
1132.5645475
 30
0.0
 11
1493.173559499999
 21
1226.7438715
 31
0.0
  0
LINE
  5
91
330
20
100
AcDbEntity
  8
_0-0_LAYER001
  6
Continuous
 62
     4
100
AcDbLine
 10
1487.254226499999
 20
1246.0371725
 30
0.0
 11
1463.808841499999
 21
1238.8439475
 31
0.0
  0
LINE
  5
92
330
20
100
AcDbEntity
  8
_0-0_LAYER001
  6
Continuous
 62
     4
100
AcDbLine
 10
1180.802044499999
 20
1149.2110065
 30
0.0
 11
1461.370007499999
 21
1235.2914225
 31
0.0
  0
ARC
  5
93
330
20
100
AcDbEntity
  8
_0-0_LAYER001
  6
Continuous
 62
     4
100
AcDbCircle
 10
1466.988319499999
 20
1233.764853499999
 30
0.0
 40
5.822014
100
AcDbArc
 50
113.227236
 51
164.79898
  0
LINE
  5
94
330
20
100
AcDbEntity
  8
_0-0_LAYER001
  6
Continuous
 62
     4
100
AcDbLine
 10
1162.137705499999
 20
1129.4952925
 30
0.0
 11
1167.866308499999
 21
1110.8236475
 31
0.0
  0
ARC
  5
95
330
20
100
AcDbEntity
  8
_0-0_LAYER001
  6
Continuous
 62
     4
100
AcDbCircle
 10
1189.969893499999
 20
1116.1172065
 30
0.0
 40
16.872017
100
AcDbArc
 50
102.882447
 51
192.21985
  0
LINE
  5
96
330
20
100
AcDbEntity
  8
_0-0_LAYER001
  6
Continuous
 62
     4
100
AcDbLine
 10
1494.171139499999
 20
1207.6238875
 30
0.0
 11
1492.4558945
 21
1213.214509499999
 31
0.0
  0
LINE
  5
97
330
20
100
AcDbEntity
  8
_0-0_LAYER001
  6
Continuous
 62
     4
100
AcDbLine
 10
1487.254226499999
 20
1246.0371725
 30
0.0
 11
1498.620861499999
 21
1208.9890965
 31
0.0
  0
LINE
  5
98
330
20
100
AcDbEntity
  8
_0-0_LAYER001
  6
Continuous
 62
     4
100
AcDbLine
 10
1494.171139499999
 20
1207.6238875
 30
0.0
 11
1498.620861499999
 21
1208.9890965
 31
0.0
  0
LINE
  5
99
330
20
100
AcDbEntity
  8
_0-0_LAYER001
  6
Continuous
 62
     4
100
AcDbLine
 10
1173.480151499999
 20
1112.546017499999
 30
0.0
 11
1167.866308499999
 21
1110.8236475
 31
0.0
  0
LINE
  5
9A
330
20
100
AcDbEntity
  8
_0-0_LAYER001
  6
Continuous
 62
     4
100
AcDbLine
 10
1173.131998499999
 20
1115.243474499999
 30
0.0
 11
1492.4558945
 21
1213.214509499999
 31
0.0
  0
LINE
  5
9B
330
20
100
AcDbEntity
  8
_0-0_LAYER001
  6
Continuous
 62
     4
100
AcDbLine
 10
2391.0838515
 20
855.6736604999999
 30
0.0
 11
2306.211571499999
 21
882.4844764999996
 31
0.0
  0
LINE
  5
9C
330
20
100
AcDbEntity
  8
_0-0_LAYER001
  6
Continuous
 62
     4
100
AcDbLine
 10
2312.2905475
 20
901.7280724999999
 30
0.0
 11
2335.675531499999
 21
894.3408494999999
 31
0.0
  0
LINE
  5
9D
330
20
100
AcDbEntity
  8
_0-0_LAYER001
  6
Continuous
 62
     4
100
AcDbLine
 10
2398.3145695
 20
871.7419104999999
 30
0.0
 11
2338.084849499999
 21
890.7682394999998
 31
0.0
  0
ARC
  5
9E
330
20
100
AcDbEntity
  8
_0-0_LAYER001
  6
Continuous
 62
     4
100
AcDbCircle
 10
2332.454081499999
 20
889.2882714999998
 30
0.0
 40
5.822014
100
AcDbArc
 50
14.726318
 51
66.29806199999999
  0
LINE
  5
9F
330
20
100
AcDbEntity
  8
_0-0_LAYER001
  6
Continuous
 62
     4
100
AcDbLine
 10
2305.0556165
 20
863.3734134999999
 30
0.0
 11
2306.817121499999
 21
868.9496314999999
 31
0.0
  0
LINE
  5
A0
330
20
100
AcDbEntity
  8
_0-0_LAYER001
  6
Continuous
 62
     4
100
AcDbLine
 10
2312.2905475
 20
901.7280724999999
 30
0.0
 11
2300.6173585
 21
864.7754414999997
 31
0.0
  0
LINE
  5
A1
330
20
100
AcDbEntity
  8
_0-0_LAYER001
  6
Continuous
 62
     4
100
AcDbLine
 10
2305.0556165
 20
863.3734134999999
 30
0.0
 11
2300.6173585
 21
864.7754414999997
 31
0.0
  0
LINE
  5
A2
330
20
100
AcDbEntity
  8
_0-0_LAYER001
  6
Continuous
 62
     4
100
AcDbLine
 10
2385.8265855
 20
843.9908564999997
 30
0.0
 11
2306.817121499999
 21
868.9496314999999
 31
0.0
  0
LINE
  5
A3
330
20
100
AcDbEntity
  8
_0-0_LAYER001
  6
Continuous
 62
     4
100
AcDbLine
 10
2381.9002335
 20
899.5759804999998
 30
0.0
 11
2376.281798499999
 21
901.2997604999998
 31
0.0
  0
ARC
  5
A4
330
20
100
AcDbEntity
  8
_0-0_LAYER001
  6
Continuous
 62
     4
100
AcDbCircle
 10
2359.4833995
 20
902.8741684999999
 30
0.0
 40
16.872017
100
AcDbArc
 50
354.645667
 51
77.11755299999999
  0
LINE
  5
A5
330
20
100
AcDbEntity
  8
_0-0_LAYER001
  6
Continuous
 62
     4
100
AcDbLine
 10
2357.8388335
 20
902.6750505
 30
0.0
 11
2050.8735265
 21
996.8543754999998
 31
0.0
  0
LINE
  5
A6
330
20
100
AcDbEntity
  8
_0-0_LAYER001
  6
Continuous
 62
     4
100
AcDbLine
 10
2056.792859499999
 20
1016.1476755
 30
0.0
 11
2080.2382445
 21
1008.9544505
 31
0.0
  0
LINE
  5
A7
330
20
100
AcDbEntity
  8
_0-0_LAYER001
  6
Continuous
 62
     4
100
AcDbLine
 10
2363.245041499999
 20
919.3215094999997
 30
0.0
 11
2082.6770785
 21
1005.4019255
 31
0.0
  0
ARC
  5
A8
330
20
100
AcDbEntity
  8
_0-0_LAYER001
  6
Continuous
 62
     4
100
AcDbCircle
 10
2077.058766499999
 20
1003.8753565
 30
0.0
 40
5.822014
100
AcDbArc
 50
15.20102
 51
66.77276400000001
  0
LINE
  5
A9
330
20
100
AcDbEntity
  8
_0-0_LAYER001
  6
Continuous
 62
     4
100
AcDbLine
 10
2381.909380499999
 20
899.6057954999999
 30
0.0
 11
2376.1807775
 21
880.9341514999998
 31
0.0
  0
ARC
  5
AA
330
20
100
AcDbEntity
  8
_0-0_LAYER001
  6
Continuous
 62
     4
100
AcDbCircle
 10
2354.0771925
 20
886.2277104999998
 30
0.0
 40
16.872017
100
AcDbArc
 50
347.7801500000001
 51
77.11755300000007
  0
LINE
  5
AB
330
20
100
AcDbEntity
  8
_0-0_LAYER001
  6
Continuous
 62
     4
100
AcDbLine
 10
2049.8759465
 20
977.7343904999998
 30
0.0
 11
2051.5911925
 21
983.3250124999999
 31
0.0
  0
LINE
  5
AC
330
20
100
AcDbEntity
  8
_0-0_LAYER001
  6
Continuous
 62
     4
100
AcDbLine
 10
2056.792859499999
 20
1016.1476755
 30
0.0
 11
2045.426224499999
 21
979.0995994999999
 31
0.0
  0
LINE
  5
AD
330
20
100
AcDbEntity
  8
_0-0_LAYER001
  6
Continuous
 62
     4
100
AcDbLine
 10
2049.8759465
 20
977.7343904999998
 30
0.0
 11
2045.426224499999
 21
979.0995994999999
 31
0.0
  0
LINE
  5
AE
330
20
100
AcDbEntity
  8
_0-0_LAYER001
  6
Continuous
 62
     4
100
AcDbLine
 10
2370.5669345
 20
882.6565214999998
 30
0.0
 11
2376.1807775
 21
880.9341514999998
 31
0.0
  0
LINE
  5
AF
330
20
100
AcDbEntity
  8
_0-0_LAYER001
  6
Continuous
 62
     4
100
AcDbLine
 10
2370.9150875
 20
885.3539774999998
 30
0.0
 11
2051.5911925
 21
983.3250124999999
 31
0.0
  0
LINE
  5
B0
330
20
100
AcDbEntity
  8
_0-0_LAYER001
  6
Continuous
 62
     4
100
AcDbLine
 10
2126.5813995
 20
1014.5207295
 30
0.0
 11
2120.9629645
 21
1016.2445085
 31
0.0
  0
ARC
  5
B1
330
20
100
AcDbEntity
  8
_0-0_LAYER001
  6
Continuous
 62
     4
100
AcDbCircle
 10
2104.164565499999
 20
1017.8189175
 30
0.0
 40
16.872017
100
AcDbArc
 50
354.645667
 51
77.11755299999999
  0
LINE
  5
B2
330
20
100
AcDbEntity
  8
_0-0_LAYER001
  6
Continuous
 62
     4
100
AcDbLine
 10
2102.5199995
 20
1017.6197995
 30
0.0
 11
1795.5546925
 21
1111.7991235
 31
0.0
  0
LINE
  5
B3
330
20
100
AcDbEntity
  8
_0-0_LAYER001
  6
Continuous
 62
     4
100
AcDbLine
 10
1801.4740255
 20
1131.0924235
 30
0.0
 11
1824.9194105
 21
1123.8991995
 31
0.0
  0
LINE
  5
B4
330
20
100
AcDbEntity
  8
_0-0_LAYER001
  6
Continuous
 62
     4
100
AcDbLine
 10
2107.9262075
 20
1034.266258499999
 30
0.0
 11
1827.358244499999
 21
1120.3466735
 31
0.0
  0
ARC
  5
B5
330
20
100
AcDbEntity
  8
_0-0_LAYER001
  6
Continuous
 62
     4
100
AcDbCircle
 10
1821.7399325
 20
1118.820104499999
 30
0.0
 40
5.822014
100
AcDbArc
 50
15.20102
 51
66.77276400000001
  0
LINE
  5
B6
330
20
100
AcDbEntity
  8
_0-0_LAYER001
  6
Continuous
 62
     4
100
AcDbLine
 10
2126.5905465
 20
1014.5505435
 30
0.0
 11
2120.8619435
 21
995.8788995
 31
0.0
  0
ARC
  5
B7
330
20
100
AcDbEntity
  8
_0-0_LAYER001
  6
Continuous
 62
     4
100
AcDbCircle
 10
2098.758358499999
 20
1001.1724585
 30
0.0
 40
16.872017
100
AcDbArc
 50
347.7801500000001
 51
77.11755300000007
  0
LINE
  5
B8
330
20
100
AcDbEntity
  8
_0-0_LAYER001
  6
Continuous
 62
     4
100
AcDbLine
 10
1794.557112499999
 20
1092.6791395
 30
0.0
 11
1796.272357499999
 21
1098.2697605
 31
0.0
  0
LINE
  5
B9
330
20
100
AcDbEntity
  8
_0-0_LAYER001
  6
Continuous
 62
     4
100
AcDbLine
 10
1801.4740255
 20
1131.0924235
 30
0.0
 11
1790.107390499999
 21
1094.044348499999
 31
0.0
  0
LINE
  5
BA
330
20
100
AcDbEntity
  8
_0-0_LAYER001
  6
Continuous
 62
     4
100
AcDbLine
 10
1794.557112499999
 20
1092.6791395
 30
0.0
 11
1790.107390499999
 21
1094.044348499999
 31
0.0
  0
LINE
  5
BB
330
20
100
AcDbEntity
  8
_0-0_LAYER001
  6
Continuous
 62
     4
100
AcDbLine
 10
2115.2481005
 20
997.6012694999999
 30
0.0
 11
2120.8619435
 21
995.8788995
 31
0.0
  0
LINE
  5
BC
330
20
100
AcDbEntity
  8
_0-0_LAYER001
  6
Continuous
 62
     4
100
AcDbLine
 10
2115.5962535
 20
1000.298725499999
 30
0.0
 11
1796.272357499999
 21
1098.2697605
 31
0.0
  0
LINE
  5
BD
330
20
100
AcDbEntity
  8
_0-0_LAYER001
  6
Continuous
 62
     4
100
AcDbLine
 10
1871.2625655
 20
1129.4654775
 30
0.0
 11
1865.6441305
 21
1131.189256499999
 31
0.0
  0
ARC
  5
BE
330
20
100
AcDbEntity
  8
_0-0_LAYER001
  6
Continuous
 62
     4
100
AcDbCircle
 10
1848.8457315
 20
1132.7636655
 30
0.0
 40
16.872017
100
AcDbArc
 50
354.645667
 51
77.11755299999999
  0
LINE
  5
BF
330
20
100
AcDbEntity
  8
_0-0_LAYER001
  6
Continuous
 62
     4
100
AcDbLine
 10
1847.2011655
 20
1132.5645475
 30
0.0
 11
1540.235858499999
 21
1226.7438715
 31
0.0
  0
LINE
  5
C0
330
20
100
AcDbEntity
  8
_0-0_LAYER001
  6
Continuous
 62
     4
100
AcDbLine
 10
1546.155191499999
 20
1246.0371725
 30
0.0
 11
1569.600576499999
 21
1238.8439475
 31
0.0
  0
LINE
  5
C1
330
20
100
AcDbEntity
  8
_0-0_LAYER001
  6
Continuous
 62
     4
100
AcDbLine
 10
1852.607373499999
 20
1149.2110065
 30
0.0
 11
1572.039410499999
 21
1235.2914225
 31
0.0
  0
ARC
  5
C2
330
20
100
AcDbEntity
  8
_0-0_LAYER001
  6
Continuous
 62
     4
100
AcDbCircle
 10
1566.421097499999
 20
1233.764853499999
 30
0.0
 40
5.822014
100
AcDbArc
 50
15.20102
 51
66.77276400000001
  0
LINE
  5
C3
330
20
100
AcDbEntity
  8
_0-0_LAYER001
  6
Continuous
 62
     4
100
AcDbLine
 10
1871.2717125
 20
1129.4952925
 30
0.0
 11
1865.543109499999
 21
1110.8236475
 31
0.0
  0
ARC
  5
C4
330
20
100
AcDbEntity
  8
_0-0_LAYER001
  6
Continuous
 62
     4
100
AcDbCircle
 10
1843.4395245
 20
1116.1172065
 30
0.0
 40
16.872017
100
AcDbArc
 50
347.7801500000001
 51
77.11755300000007
  0
LINE
  5
C5
330
20
100
AcDbEntity
  8
_0-0_LAYER001
  6
Continuous
 62
     4
100
AcDbLine
 10
1539.2382785
 20
1207.6238875
 30
0.0
 11
1540.953523499999
 21
1213.214509499999
 31
0.0
  0
LINE
  5
C6
330
20
100
AcDbEntity
  8
_0-0_LAYER001
  6
Continuous
 62
     4
100
AcDbLine
 10
1546.155191499999
 20
1246.0371725
 30
0.0
 11
1534.788556499999
 21
1208.9890965
 31
0.0
  0
LINE
  5
C7
330
20
100
AcDbEntity
  8
_0-0_LAYER001
  6
Continuous
 62
     4
100
AcDbLine
 10
1539.2382785
 20
1207.6238875
 30
0.0
 11
1534.788556499999
 21
1208.9890965
 31
0.0
  0
LINE
  5
C8
330
20
100
AcDbEntity
  8
_0-0_LAYER001
  6
Continuous
 62
     4
100
AcDbLine
 10
1859.929266499999
 20
1112.546017499999
 30
0.0
 11
1865.543109499999
 21
1110.8236475
 31
0.0
  0
LINE
  5
C9
330
20
100
AcDbEntity
  8
_0-0_LAYER001
  6
Continuous
 62
     4
100
AcDbLine
 10
1860.277419499999
 20
1115.243474499999
 30
0.0
 11
1540.953523499999
 21
1213.214509499999
 31
0.0
  0
LINE
  5
CA
330
20
100
AcDbEntity
  8
_0-0_LAYER001
  6
Continuous
 62
     1
100
AcDbLine
 10
1447.897362499999
 20
1231.157910499999
 30
0.0
 11
1450.176307499999
 21
1233.4368565
 31
0.0
  0
LINE
  5
CB
330
20
100
AcDbEntity
  8
_0-0_LAYER001
  6
Continuous
 62
     1
100
AcDbLine
 10
1442.796997499999
 20
1229.5930795
 30
0.0
 11
1449.195710499999
 21
1235.9917925
 31
0.0
  0
LINE
  5
CC
330
20
100
AcDbEntity
  8
_0-0_LAYER001
  6
Continuous
 62
     1
100
AcDbLine
 10
1441.289909499999
 20
1231.6215255
 30
0.0
 11
1448.215113499999
 21
1238.5467295
 31
0.0
  0
LINE
  5
CD
330
20
100
AcDbEntity
  8
_0-0_LAYER001
  6
Continuous
 62
     1
100
AcDbLine
 10
1440.593070499999
 20
1234.4602205
 30
0.0
 11
1447.234515499999
 21
1241.1016665
 31
0.0
  0
LINE
  5
CE
330
20
100
AcDbEntity
  8
_0-0_LAYER001
  6
Continuous
 62
     1
100
AcDbLine
 10
1439.638325499999
 20
1237.0410095
 30
0.0
 11
1446.253918499999
 21
1243.6566025
 31
0.0
  0
LINE
  5
CF
330
20
100
AcDbEntity
  8
_0-0_LAYER001
  6
Continuous
 62
     1
100
AcDbLine
 10
1438.525500499999
 20
1239.4637185
 30
0.0
 11
1440.678198499999
 21
1241.6164165
 31
0.0
  0
LINE
  5
D0
330
20
100
AcDbEntity
  8
_0-0_LAYER001
  6
Continuous
 62
     1
100
AcDbLine
 10
1449.950881499999
 20
1245.7891135
 30
0.0
 11
1451.4024975
 21
1232.2333135
 31
0.0
  0
LINE
  5
D1
330
20
100
AcDbEntity
  8
_0-0_LAYER001
  6
Continuous
 62
     1
100
AcDbLine
 10
1454.114735499999
 20
1233.0654485
 30
0.0
 11
1446.100463499999
 21
1244.0564295
 31
0.0
  0
LINE
  5
D2
330
20
100
AcDbEntity
  8
_0-0_LAYER001
  6
Continuous
 62
     1
100
AcDbLine
 10
1585.512055499999
 20
1231.157910499999
 30
0.0
 11
1583.2331095
 21
1233.4368565
 31
0.0
  0
LINE
  5
D3
330
20
100
AcDbEntity
  8
_0-0_LAYER001
  6
Continuous
 62
     1
100
AcDbLine
 10
1590.612420499999
 20
1229.5930795
 30
0.0
 11
1584.213707499999
 21
1235.9917925
 31
0.0
  0
LINE
  5
D4
330
20
100
AcDbEntity
  8
_0-0_LAYER001
  6
Continuous
 62
     1
100
AcDbLine
 10
1592.1195085
 20
1231.6215255
 30
0.0
 11
1585.1943045
 21
1238.5467295
 31
0.0
  0
LINE
  5
D5
330
20
100
AcDbEntity
  8
_0-0_LAYER001
  6
Continuous
 62
     1
100
AcDbLine
 10
1592.816347499999
 20
1234.4602205
 30
0.0
 11
1586.174901499999
 21
1241.1016665
 31
0.0
  0
LINE
  5
D6
330
20
100
AcDbEntity
  8
_0-0_LAYER001
  6
Continuous
 62
     1
100
AcDbLine
 10
1593.771092499999
 20
1237.0410095
 30
0.0
 11
1587.155499499999
 21
1243.6566025
 31
0.0
  0
LINE
  5
D7
330
20
100
AcDbEntity
  8
_0-0_LAYER001
  6
Continuous
 62
     1
100
AcDbLine
 10
1594.883917499999
 20
1239.4637185
 30
0.0
 11
1592.731219499999
 21
1241.6164165
 31
0.0
  0
LINE
  5
D8
330
20
100
AcDbEntity
  8
_0-0_LAYER001
  6
Continuous
 62
     1
100
AcDbLine
 10
1583.458536499999
 20
1245.7891135
 30
0.0
 11
1582.0069205
 21
1232.2333135
 31
0.0
  0
LINE
  5
D9
330
20
100
AcDbEntity
  8
_0-0_LAYER001
  6
Continuous
 62
     1
100
AcDbLine
 10
1579.2946825
 20
1233.0654485
 30
0.0
 11
1587.308954499999
 21
1244.0564295
 31
0.0
  0
LINE
  5
DA
330
20
100
AcDbEntity
  8
_0-0_LAYER001
  6
Continuous
 62
     1
100
AcDbLine
 10
1446.100463499999
 20
1244.0564295
 30
0.0
 11
1450.718748499999
 21
1232.0235335
 31
0.0
  0
LINE
  5
DB
330
20
100
AcDbEntity
  8
_0-0_LAYER001
  6
Continuous
 62
     1
100
AcDbLine
 10
1587.308954499999
 20
1244.0564295
 30
0.0
 11
1582.690669499999
 21
1232.0235335
 31
0.0
  0
LINE
  5
DC
330
20
100
AcDbEntity
  8
_0-0_LAYER001
  6
Continuous
 62
     7
100
AcDbLine
 10
1516.704773499999
 20
1203.5810235
 30
0.0
 11
2377.5262065
 21
816.2110944999998
 31
0.0
  0
LINE
  5
DD
330
20
100
AcDbEntity
  8
_0-0_LAYER001
  6
Continuous
 62
     7
100
AcDbLine
 10
1516.704708499999
 20
1203.5810235
 30
0.0
 11
659.3763794999993
 21
817.7829924999999
 31
0.0
  0
LINE
  5
DE
330
20
100
AcDbEntity
  8
_0-0_LAYER001
  6
Continuous
 62
     7
100
AcDbLine
 10
1922.2742755
 20
1073.4769245
 30
0.0
 11
1916.970974499999
 21
1068.173623499999
 31
0.0
  0
LINE
  5
DF
330
20
100
AcDbEntity
  8
_0-0_LAYER001
  6
Continuous
 62
     7
100
AcDbLine
 10
1916.970974499999
 20
1068.173623499999
 30
0.0
 11
1918.912117499999
 21
1075.4180665
 31
0.0
  0
LINE
  5
E0
330
20
100
AcDbEntity
  8
_0-0_LAYER001
  6
Continuous
 62
     7
100
AcDbLine
 10
1916.970974499999
 20
1068.173623499999
 30
0.0
 11
1978.5449755
 21
1174.8229215
 31
0.0
  0
LINE
  5
E1
330
20
100
AcDbEntity
  8
_0-0_LAYER001
  6
Continuous
 62
     7
100
AcDbLine
 10
1978.5449755
 20
1174.8229215
 30
0.0
 11
2019.0449755
 21
1174.8229215
 31
0.0
  0
LINE
  5
E2
330
20
100
AcDbEntity
  8
_0-0_LAYER001
  6
Continuous
 62
     7
100
AcDbLine
 10
1596.6630195
 20
1244.5122765
 30
0.0
 11
1591.3597185
 21
1239.208976499999
 31
0.0
  0
LINE
  5
E3
330
20
100
AcDbEntity
  8
_0-0_LAYER001
  6
Continuous
 62
     7
100
AcDbLine
 10
1591.3597185
 20
1239.208976499999
 30
0.0
 11
1593.3008615
 21
1246.4534195
 31
0.0
  0
LINE
  5
E4
330
20
100
AcDbEntity
  8
_0-0_LAYER001
  6
Continuous
 62
     7
100
AcDbLine
 10
1591.3597185
 20
1239.208976499999
 30
0.0
 11
1633.941629499999
 21
1312.9630105
 31
0.0
  0
LINE
  5
E5
330
20
100
AcDbEntity
  8
_0-0_LAYER001
  6
Continuous
 62
     7
100
AcDbLine
 10
1633.941629499999
 20
1312.9630105
 30
0.0
 11
1731.441629499999
 21
1312.9630105
 31
0.0
  0
LINE
  5
E6
330
20
100
AcDbEntity
  8
_0-0_LAYER001
  6
Continuous
 62
     7
100
AcDbLine
 10
1487.5981155
 20
1178.2107015
 30
0.0
 11
1485.137428499999
 21
1180.9962385
 31
0.0
  0
LINE
  5
E7
330
20
100
AcDbEntity
  8
_0-0_LAYER001
  6
Continuous
 62
     7
100
AcDbLine
 10
1487.5981155
 20
1178.2107015
 30
0.0
 11
1487.4586535
 21
1181.9243075
 31
0.0
  0
LINE
  5
E8
330
20
100
AcDbEntity
  8
_0-0_LAYER001
  6
Continuous
 62
     7
100
AcDbLine
 10
1483.189984499999
 20
1183.7830885
 30
0.0
 11
1486.801840499999
 21
1185.9394515
 31
0.0
  0
LINE
  5
E9
330
20
100
AcDbEntity
  8
_0-0_LAYER001
  6
Continuous
 62
     7
100
AcDbLine
 10
1484.058803499999
 20
1181.6118445
 30
0.0
 11
1487.670459499999
 21
1183.7681575
 31
0.0
  0
LINE
  5
EA
330
20
100
AcDbEntity
  8
_0-0_LAYER001
  6
Continuous
 62
     7
100
AcDbLine
 10
1456.267799499999
 20
1264.9544505
 30
0.0
 11
1450.464118499999
 21
1262.6330505
 31
0.0
  0
LINE
  5
EB
330
20
100
AcDbEntity
  8
_0-0_LAYER001
  6
Continuous
 62
     7
100
AcDbLine
 10
1456.963424499999
 20
1263.2131375
 30
0.0
 11
1451.160924499999
 21
1260.8925065
 31
0.0
  0
LINE
  5
EC
330
20
100
AcDbEntity
  8
_0-0_LAYER001
  6
Continuous
 62
     7
100
AcDbLine
 10
1450.464118499999
 20
1262.6330505
 30
0.0
 11
1451.160924499999
 21
1260.8925065
 31
0.0
  0
LINE
  5
ED
330
20
100
AcDbEntity
  8
_0-0_LAYER001
  6
Continuous
 62
     7
100
AcDbLine
 10
1456.267799499999
 20
1264.9544505
 30
0.0
 11
1456.963424499999
 21
1263.2131375
 31
0.0
  0
LINE
  5
EE
330
20
100
AcDbEntity
  8
_0-0_LAYER001
  6
Continuous
 62
     7
100
AcDbLine
 10
1453.366005499999
 20
1263.7937875
 30
0.0
 11
1454.062187499999
 21
1262.052450499999
 31
0.0
  0
LINE
  5
EF
330
20
100
AcDbEntity
  8
_0-0_LAYER001
  6
Continuous
 62
     7
100
AcDbLine
 10
1455.920987499999
 20
1251.9575625
 30
0.0
 11
1459.532899499999
 21
1254.1137445
 31
0.0
  0
LINE
  5
F0
330
20
100
AcDbEntity
  8
_0-0_LAYER001
  6
Continuous
 62
     7
100
AcDbLine
 10
1457.081693499999
 20
1249.056281499999
 30
0.0
 11
1460.694237499999
 21
1251.2118755
 31
0.0
  0
LINE
  5
F1
330
20
100
AcDbEntity
  8
_0-0_LAYER001
  6
Continuous
 62
     7
100
AcDbLine
 10
1458.242962499999
 20
1246.1543445
 30
0.0
 11
1461.854712499999
 21
1248.310656499999
 31
0.0
  0
LINE
  5
F2
330
20
100
AcDbEntity
  8
_0-0_LAYER001
  6
Continuous
 62
     7
100
AcDbLine
 10
1459.402949499999
 20
1243.2525065
 30
0.0
 11
1463.014799499999
 21
1245.4093945
 31
0.0
  0
LINE
  5
F3
330
20
100
AcDbEntity
  8
_0-0_LAYER001
  6
Continuous
 62
     7
100
AcDbLine
 10
1460.563662499999
 20
1240.3518815
 30
0.0
 11
1464.175443499999
 21
1242.5081255
 31
0.0
  0
LINE
  5
F4
330
20
100
AcDbEntity
  8
_0-0_LAYER001
  6
Continuous
 62
     7
100
AcDbLine
 10
1461.724237499999
 20
1237.4499565
 30
0.0
 11
1465.336774499999
 21
1239.6063505
 31
0.0
  0
LINE
  5
F5
330
20
100
AcDbEntity
  8
_0-0_LAYER001
  6
Continuous
 62
     7
100
AcDbLine
 10
1462.885474499999
 20
1234.5487755
 30
0.0
 11
1466.496768499999
 21
1236.7044125
 31
0.0
  0
LINE
  5
F6
330
20
100
AcDbEntity
  8
_0-0_LAYER001
  6
Continuous
 62
     7
100
AcDbLine
 10
1464.045555499999
 20
1231.646887499999
 30
0.0
 11
1467.657412499999
 21
1233.8032505
 31
0.0
  0
LINE
  5
F7
330
20
100
AcDbEntity
  8
_0-0_LAYER001
  6
Continuous
 62
     7
100
AcDbLine
 10
1464.914374499999
 20
1229.475644499999
 30
0.0
 11
1468.526030499999
 21
1231.6319565
 31
0.0
  0
LINE
  5
F8
330
20
100
AcDbEntity
  8
_0-0_LAYER001
  6
Continuous
 62
     7
100
AcDbLine
 10
1455.919180499999
 20
1260.7774815
 30
0.0
 11
1487.4586535
 21
1181.9243075
 31
0.0
  0
LINE
  5
F9
330
20
100
AcDbEntity
  8
_0-0_LAYER001
  6
Continuous
 62
     7
100
AcDbLine
 10
1456.963424499999
 20
1263.2131375
 30
0.0
 11
1455.919180499999
 21
1260.7774815
 31
0.0
  0
LINE
  5
FA
330
20
100
AcDbEntity
  8
_0-0_LAYER001
  6
Continuous
 62
     7
100
AcDbLine
 10
1453.598518499999
 20
1259.8474625
 30
0.0
 11
1485.137850499999
 21
1180.9960225
 31
0.0
  0
LINE
  5
FB
330
20
100
AcDbEntity
  8
_0-0_LAYER001
  6
Continuous
 62
     7
100
AcDbLine
 10
1451.160924499999
 20
1260.8925065
 30
0.0
 11
1453.598518499999
 21
1259.8474625
 31
0.0
  0
LINE
  5
FC
330
20
100
AcDbEntity
  8
_0-0_LAYER001
  6
Continuous
 62
     7
100
AcDbLine
 10
1466.074537499999
 20
1226.5735855
 30
0.0
 11
1469.687074499999
 21
1228.7299795
 31
0.0
  0
LINE
  5
FD
330
20
100
AcDbEntity
  8
_0-0_LAYER001
  6
Continuous
 62
     7
100
AcDbLine
 10
1467.2357745
 20
1223.6724045
 30
0.0
 11
1470.847068499999
 21
1225.828042499999
 31
0.0
  0
LINE
  5
FE
330
20
100
AcDbEntity
  8
_0-0_LAYER001
  6
Continuous
 62
     7
100
AcDbLine
 10
1468.395856499999
 20
1220.7705175
 30
0.0
 11
1472.0077125
 21
1222.926879499999
 31
0.0
  0
LINE
  5
FF
330
20
100
AcDbEntity
  8
_0-0_LAYER001
  6
Continuous
 62
     7
100
AcDbLine
 10
1469.264674499999
 20
1218.5992735
 30
0.0
 11
1472.876331499999
 21
1220.755585499999
 31
0.0
  0
LINE
  5
100
330
20
100
AcDbEntity
  8
_0-0_LAYER001
  6
Continuous
 62
     7
100
AcDbLine
 10
1470.424837499999
 20
1215.6972155
 30
0.0
 11
1474.037375499999
 21
1217.8536095
 31
0.0
  0
LINE
  5
101
330
20
100
AcDbEntity
  8
_0-0_LAYER001
  6
Continuous
 62
     7
100
AcDbLine
 10
1471.586075499999
 20
1212.7960345
 30
0.0
 11
1475.197369499999
 21
1214.9516715
 31
0.0
  0
LINE
  5
102
330
20
100
AcDbEntity
  8
_0-0_LAYER001
  6
Continuous
 62
     7
100
AcDbLine
 10
1472.746156499999
 20
1209.8941465
 30
0.0
 11
1476.3580125
 21
1212.0505095
 31
0.0
  0
LINE
  5
103
330
20
100
AcDbEntity
  8
_0-0_LAYER001
  6
Continuous
 62
     7
100
AcDbLine
 10
1473.614975499999
 20
1207.7229025
 30
0.0
 11
1477.226631499999
 21
1209.8792155
 31
0.0
  0
LINE
  5
104
330
20
100
AcDbEntity
  8
_0-0_LAYER001
  6
Continuous
 62
     7
100
AcDbLine
 10
1474.775138499999
 20
1204.8208445
 30
0.0
 11
1478.387675499999
 21
1206.9772385
 31
0.0
  0
LINE
  5
105
330
20
100
AcDbEntity
  8
_0-0_LAYER001
  6
Continuous
 62
     7
100
AcDbLine
 10
1475.936375499999
 20
1201.9196635
 30
0.0
 11
1479.5476695
 21
1204.0753005
 31
0.0
  0
LINE
  5
106
330
20
100
AcDbEntity
  8
_0-0_LAYER001
  6
Continuous
 62
     7
100
AcDbLine
 10
1477.096456499999
 20
1199.0177755
 30
0.0
 11
1480.708313499999
 21
1201.1741385
 31
0.0
  0
LINE
  5
107
330
20
100
AcDbEntity
  8
_0-0_LAYER001
  6
Continuous
 62
     7
100
AcDbLine
 10
1477.965275499999
 20
1196.8465325
 30
0.0
 11
1481.5769315
 21
1199.002844499999
 31
0.0
  0
LINE
  5
108
330
20
100
AcDbEntity
  8
_0-0_LAYER001
  6
Continuous
 62
     7
100
AcDbLine
 10
1479.125438499999
 20
1193.944474499999
 30
0.0
 11
1482.737976499999
 21
1196.1008675
 31
0.0
  0
LINE
  5
109
330
20
100
AcDbEntity
  8
_0-0_LAYER001
  6
Continuous
 62
     7
100
AcDbLine
 10
1480.2866765
 20
1191.0432925
 30
0.0
 11
1483.897969499999
 21
1193.1989305
 31
0.0
  0
LINE
  5
10A
330
20
100
AcDbEntity
  8
_0-0_LAYER001
  6
Continuous
 62
     7
100
AcDbLine
 10
1481.4467575
 20
1188.1414055
 30
0.0
 11
1485.058613499999
 21
1190.2977675
 31
0.0
  0
LINE
  5
10B
330
20
100
AcDbEntity
  8
_0-0_LAYER001
  6
Continuous
 62
     7
100
AcDbLine
 10
1482.315576499999
 20
1185.9701615
 30
0.0
 11
1485.927232499999
 21
1188.1264745
 31
0.0
  0
LINE
  5
10C
330
20
100
AcDbEntity
  8
_0-0_LAYER001
  6
Continuous
 62
     7
100
AcDbLine
 10
1457.650392499999
 20
1236.0948635
 30
0.0
 11
1516.704708499999
 21
1262.6692415
 31
0.0
  0
LINE
  5
10D
330
20
100
AcDbEntity
  8
_0-0_LAYER001
  6
Continuous
 62
     7
100
AcDbLine
 10
1516.704708499999
 20
1262.6692415
 30
0.0
 11
1511.780342499999
 21
1273.612303499999
 31
0.0
  0
LINE
  5
10E
330
20
100
AcDbEntity
  8
_0-0_LAYER001
  6
Continuous
 62
     7
100
AcDbLine
 10
1457.650392499999
 20
1236.0948635
 30
0.0
 11
1452.726026499999
 21
1247.0379255
 31
0.0
  0
LINE
  5
10F
330
20
100
AcDbEntity
  8
_0-0_LAYER001
  6
Continuous
 62
     7
100
AcDbLine
 10
1511.780342499999
 20
1273.612303499999
 30
0.0
 11
1457.650392499999
 21
1236.0948635
 31
0.0
  0
LINE
  5
110
330
20
100
AcDbEntity
  8
_0-0_LAYER001
  6
Continuous
 62
     7
100
AcDbLine
 10
1575.759025499999
 20
1236.0948635
 30
0.0
 11
1516.704708499999
 21
1262.6692415
 31
0.0
  0
LINE
  5
111
330
20
100
AcDbEntity
  8
_0-0_LAYER001
  6
Continuous
 62
     7
100
AcDbLine
 10
1521.629075499999
 20
1273.612303499999
 30
0.0
 11
1575.759025499999
 21
1236.0948635
 31
0.0
  0
LINE
  5
112
330
20
100
AcDbEntity
  8
_0-0_LAYER001
  6
Continuous
 62
     7
100
AcDbLine
 10
1575.759025499999
 20
1236.0948635
 30
0.0
 11
1580.683391499999
 21
1247.0379255
 31
0.0
  0
LINE
  5
113
330
20
100
AcDbEntity
  8
_0-0_LAYER001
  6
Continuous
 62
     7
100
AcDbLine
 10
1516.704708499999
 20
1262.6692415
 30
0.0
 11
1521.629075499999
 21
1273.612303499999
 31
0.0
  0
LINE
  5
114
330
20
100
AcDbEntity
  8
_0-0_LAYER001
  6
Continuous
 62
     7
100
AcDbLine
 10
1577.141618499999
 20
1264.9544505
 30
0.0
 11
1582.945299499999
 21
1262.6330505
 31
0.0
  0
LINE
  5
115
330
20
100
AcDbEntity
  8
_0-0_LAYER001
  6
Continuous
 62
     7
100
AcDbLine
 10
1576.445993499999
 20
1263.2131375
 30
0.0
 11
1582.248493499999
 21
1260.8925065
 31
0.0
  0
LINE
  5
116
330
20
100
AcDbEntity
  8
_0-0_LAYER001
  6
Continuous
 62
     7
100
AcDbLine
 10
1582.945299499999
 20
1262.6330505
 30
0.0
 11
1582.248493499999
 21
1260.8925065
 31
0.0
  0
LINE
  5
117
330
20
100
AcDbEntity
  8
_0-0_LAYER001
  6
Continuous
 62
     7
100
AcDbLine
 10
1577.141618499999
 20
1264.9544505
 30
0.0
 11
1576.445993499999
 21
1263.2131375
 31
0.0
  0
LINE
  5
118
330
20
100
AcDbEntity
  8
_0-0_LAYER001
  6
Continuous
 62
     7
100
AcDbLine
 10
1580.043412499999
 20
1263.7937875
 30
0.0
 11
1579.347230499999
 21
1262.052450499999
 31
0.0
  0
LINE
  5
119
330
20
100
AcDbEntity
  8
_0-0_LAYER001
  6
Continuous
 62
     7
100
AcDbLine
 10
1577.488430499999
 20
1251.9575625
 30
0.0
 11
1573.876518499999
 21
1254.1137445
 31
0.0
  0
LINE
  5
11A
330
20
100
AcDbEntity
  8
_0-0_LAYER001
  6
Continuous
 62
     7
100
AcDbLine
 10
1576.3277245
 20
1249.056281499999
 30
0.0
 11
1572.715180499999
 21
1251.2118755
 31
0.0
  0
LINE
  5
11B
330
20
100
AcDbEntity
  8
_0-0_LAYER001
  6
Continuous
 62
     7
100
AcDbLine
 10
1575.166455499999
 20
1246.1543445
 30
0.0
 11
1571.554705499999
 21
1248.310656499999
 31
0.0
  0
LINE
  5
11C
330
20
100
AcDbEntity
  8
_0-0_LAYER001
  6
Continuous
 62
     7
100
AcDbLine
 10
1574.0064685
 20
1243.2525065
 30
0.0
 11
1570.394618499999
 21
1245.4093945
 31
0.0
  0
LINE
  5
11D
330
20
100
AcDbEntity
  8
_0-0_LAYER001
  6
Continuous
 62
     7
100
AcDbLine
 10
1572.845755499999
 20
1240.3518815
 30
0.0
 11
1569.2339745
 21
1242.5081255
 31
0.0
  0
LINE
  5
11E
330
20
100
AcDbEntity
  8
_0-0_LAYER001
  6
Continuous
 62
     7
100
AcDbLine
 10
1571.685180499999
 20
1237.4499565
 30
0.0
 11
1568.072643499999
 21
1239.6063505
 31
0.0
  0
LINE
  5
11F
330
20
100
AcDbEntity
  8
_0-0_LAYER001
  6
Continuous
 62
     7
100
AcDbLine
 10
1570.523943499999
 20
1234.5487755
 30
0.0
 11
1566.912649499999
 21
1236.7044125
 31
0.0
  0
LINE
  5
120
330
20
100
AcDbEntity
  8
_0-0_LAYER001
  6
Continuous
 62
     7
100
AcDbLine
 10
1569.363862499999
 20
1231.646887499999
 30
0.0
 11
1565.752005499999
 21
1233.8032505
 31
0.0
  0
LINE
  5
121
330
20
100
AcDbEntity
  8
_0-0_LAYER001
  6
Continuous
 62
     7
100
AcDbLine
 10
1568.495043499999
 20
1229.475644499999
 30
0.0
 11
1564.883387499999
 21
1231.6319565
 31
0.0
  0
LINE
  5
122
330
20
100
AcDbEntity
  8
_0-0_LAYER001
  6
Continuous
 62
     7
100
AcDbLine
 10
1577.490237499999
 20
1260.7774815
 30
0.0
 11
1545.950764499999
 21
1181.9243075
 31
0.0
  0
LINE
  5
123
330
20
100
AcDbEntity
  8
_0-0_LAYER001
  6
Continuous
 62
     7
100
AcDbLine
 10
1576.445993499999
 20
1263.2131375
 30
0.0
 11
1577.490237499999
 21
1260.7774815
 31
0.0
  0
LINE
  5
124
330
20
100
AcDbEntity
  8
_0-0_LAYER001
  6
Continuous
 62
     7
100
AcDbLine
 10
1579.810899499999
 20
1259.8474625
 30
0.0
 11
1548.2715675
 21
1180.9960225
 31
0.0
  0
LINE
  5
125
330
20
100
AcDbEntity
  8
_0-0_LAYER001
  6
Continuous
 62
     7
100
AcDbLine
 10
1582.248493499999
 20
1260.8925065
 30
0.0
 11
1579.810899499999
 21
1259.8474625
 31
0.0
  0
LINE
  5
126
330
20
100
AcDbEntity
  8
_0-0_LAYER001
  6
Continuous
 62
     7
100
AcDbLine
 10
1545.811302499999
 20
1178.2107015
 30
0.0
 11
1548.271989499999
 21
1180.9962385
 31
0.0
  0
LINE
  5
127
330
20
100
AcDbEntity
  8
_0-0_LAYER001
  6
Continuous
 62
     7
100
AcDbLine
 10
1545.811302499999
 20
1178.2107015
 30
0.0
 11
1545.950764499999
 21
1181.9243075
 31
0.0
  0
LINE
  5
128
330
20
100
AcDbEntity
  8
_0-0_LAYER001
  6
Continuous
 62
     7
100
AcDbLine
 10
1550.219433499999
 20
1183.7830885
 30
0.0
 11
1546.6075775
 21
1185.9394515
 31
0.0
  0
LINE
  5
129
330
20
100
AcDbEntity
  8
_0-0_LAYER001
  6
Continuous
 62
     7
100
AcDbLine
 10
1549.350614499999
 20
1181.6118445
 30
0.0
 11
1545.738958499999
 21
1183.7681575
 31
0.0
  0
LINE
  5
12A
330
20
100
AcDbEntity
  8
_0-0_LAYER001
  6
Continuous
 62
     7
100
AcDbLine
 10
1567.334880499999
 20
1226.5735855
 30
0.0
 11
1563.722343499999
 21
1228.7299795
 31
0.0
  0
LINE
  5
12B
330
20
100
AcDbEntity
  8
_0-0_LAYER001
  6
Continuous
 62
     7
100
AcDbLine
 10
1566.173643499999
 20
1223.6724045
 30
0.0
 11
1562.5623495
 21
1225.828042499999
 31
0.0
  0
LINE
  5
12C
330
20
100
AcDbEntity
  8
_0-0_LAYER001
  6
Continuous
 62
     7
100
AcDbLine
 10
1565.0135615
 20
1220.7705175
 30
0.0
 11
1561.401705499999
 21
1222.926879499999
 31
0.0
  0
LINE
  5
12D
330
20
100
AcDbEntity
  8
_0-0_LAYER001
  6
Continuous
 62
     7
100
AcDbLine
 10
1564.144743499999
 20
1218.5992735
 30
0.0
 11
1560.533086499999
 21
1220.755585499999
 31
0.0
  0
LINE
  5
12E
330
20
100
AcDbEntity
  8
_0-0_LAYER001
  6
Continuous
 62
     7
100
AcDbLine
 10
1562.984580499999
 20
1215.6972155
 30
0.0
 11
1559.372042499999
 21
1217.8536095
 31
0.0
  0
LINE
  5
12F
330
20
100
AcDbEntity
  8
_0-0_LAYER001
  6
Continuous
 62
     7
100
AcDbLine
 10
1561.8233425
 20
1212.7960345
 30
0.0
 11
1558.212048499999
 21
1214.9516715
 31
0.0
  0
LINE
  5
130
330
20
100
AcDbEntity
  8
_0-0_LAYER001
  6
Continuous
 62
     7
100
AcDbLine
 10
1560.6632615
 20
1209.8941465
 30
0.0
 11
1557.051405499999
 21
1212.0505095
 31
0.0
  0
LINE
  5
131
330
20
100
AcDbEntity
  8
_0-0_LAYER001
  6
Continuous
 62
     7
100
AcDbLine
 10
1559.794442499999
 20
1207.7229025
 30
0.0
 11
1556.182786499999
 21
1209.8792155
 31
0.0
  0
LINE
  5
132
330
20
100
AcDbEntity
  8
_0-0_LAYER001
  6
Continuous
 62
     7
100
AcDbLine
 10
1558.634279499999
 20
1204.8208445
 30
0.0
 11
1555.021742499999
 21
1206.9772385
 31
0.0
  0
LINE
  5
133
330
20
100
AcDbEntity
  8
_0-0_LAYER001
  6
Continuous
 62
     7
100
AcDbLine
 10
1557.4730425
 20
1201.9196635
 30
0.0
 11
1553.861748499999
 21
1204.0753005
 31
0.0
  0
LINE
  5
134
330
20
100
AcDbEntity
  8
_0-0_LAYER001
  6
Continuous
 62
     7
100
AcDbLine
 10
1556.312961499999
 20
1199.0177755
 30
0.0
 11
1552.7011045
 21
1201.1741385
 31
0.0
  0
LINE
  5
135
330
20
100
AcDbEntity
  8
_0-0_LAYER001
  6
Continuous
 62
     7
100
AcDbLine
 10
1555.444142499999
 20
1196.8465325
 30
0.0
 11
1551.832486499999
 21
1199.002844499999
 31
0.0
  0
LINE
  5
136
330
20
100
AcDbEntity
  8
_0-0_LAYER001
  6
Continuous
 62
     7
100
AcDbLine
 10
1554.283979499999
 20
1193.944474499999
 30
0.0
 11
1550.671441499999
 21
1196.1008675
 31
0.0
  0
LINE
  5
137
330
20
100
AcDbEntity
  8
_0-0_LAYER001
  6
Continuous
 62
     7
100
AcDbLine
 10
1553.122741499999
 20
1191.0432925
 30
0.0
 11
1549.511448499999
 21
1193.1989305
 31
0.0
  0
LINE
  5
138
330
20
100
AcDbEntity
  8
_0-0_LAYER001
  6
Continuous
 62
     7
100
AcDbLine
 10
1551.962660499999
 20
1188.1414055
 30
0.0
 11
1548.3508045
 21
1190.2977675
 31
0.0
  0
LINE
  5
139
330
20
100
AcDbEntity
  8
_0-0_LAYER001
  6
Continuous
 62
     7
100
AcDbLine
 10
1551.093841499999
 20
1185.9701615
 30
0.0
 11
1547.482185499999
 21
1188.1264745
 31
0.0
  0
LINE
  5
13A
330
20
100
AcDbEntity
  8
_0-0_LAYER001
  6
Continuous
 62
     7
100
AcDbLine
 10
1423.918024499999
 20
1253.8128895
 30
0.0
 11
1432.1253015
 21
1235.5744515
 31
0.0
  0
LINE
  5
13B
330
20
100
AcDbEntity
  8
_0-0_LAYER001
  6
Continuous
 62
     7
100
AcDbLine
 10
1609.6354345
 20
1253.748070499999
 30
0.0
 11
1601.428157499999
 21
1235.509633499999
 31
0.0
  0
LINE
  5
13C
330
20
100
AcDbEntity
  8
_0-0_LAYER001
  6
Continuous
 62
     7
100
AcDbLine
 10
1428.111108499999
 20
1245.0983935
 30
0.0
 11
1427.135208499999
 21
1245.7880495
 31
0.0
  0
LINE
  5
13D
330
20
100
AcDbEntity
  8
_0-0_LAYER001
  6
Continuous
 62
     7
100
AcDbLine
 10
1428.677602499999
 20
1242.1924995
 30
0.0
 11
1427.135208499999
 21
1245.7880495
 31
0.0
  0
LINE
  5
13E
330
20
100
AcDbEntity
  8
_0-0_LAYER001
  6
Continuous
 62
     7
100
AcDbLine
 10
1428.850302499999
 20
1243.375224499999
 30
0.0
 11
1428.677602499999
 21
1242.1924995
 31
0.0
  0
LINE
  5
13F
330
20
100
AcDbEntity
  8
_0-0_LAYER001
  6
Continuous
 62
     7
100
AcDbLine
 10
1435.932308499999
 20
1246.4133995
 30
0.0
 11
1439.393995499999
 21
1248.9182815
 31
0.0
  0
LINE
  5
140
330
20
100
AcDbEntity
  8
_0-0_LAYER001
  6
Continuous
 62
     7
100
AcDbLine
 10
1428.850302499999
 20
1243.375224499999
 30
0.0
 11
1435.932308499999
 21
1246.4133995
 31
0.0
  0
LINE
  5
141
330
20
100
AcDbEntity
  8
_0-0_LAYER001
  6
Continuous
 62
     7
100
AcDbLine
 10
1439.393995499999
 20
1248.9182815
 30
0.0
 11
1434.728458499999
 21
1247.9372935
 31
0.0
  0
LINE
  5
142
330
20
100
AcDbEntity
  8
_0-0_LAYER001
  6
Continuous
 62
     7
100
AcDbLine
 10
1428.111108499999
 20
1245.0983935
 30
0.0
 11
1434.728458499999
 21
1247.9372935
 31
0.0
  0
LINE
  5
143
330
20
100
AcDbEntity
  8
_0-0_LAYER001
  6
Continuous
 62
     7
100
AcDbLine
 10
1605.2983095
 20
1245.0983935
 30
0.0
 11
1606.274209499999
 21
1245.7880495
 31
0.0
  0
LINE
  5
144
330
20
100
AcDbEntity
  8
_0-0_LAYER001
  6
Continuous
 62
     7
100
AcDbLine
 10
1604.731815499999
 20
1242.1924995
 30
0.0
 11
1606.274209499999
 21
1245.7880495
 31
0.0
  0
LINE
  5
145
330
20
100
AcDbEntity
  8
_0-0_LAYER001
  6
Continuous
 62
     7
100
AcDbLine
 10
1604.559115499999
 20
1243.375224499999
 30
0.0
 11
1604.731815499999
 21
1242.1924995
 31
0.0
  0
LINE
  5
146
330
20
100
AcDbEntity
  8
_0-0_LAYER001
  6
Continuous
 62
     7
100
AcDbLine
 10
1597.477109499999
 20
1246.4133995
 30
0.0
 11
1594.015422499999
 21
1248.9182815
 31
0.0
  0
LINE
  5
147
330
20
100
AcDbEntity
  8
_0-0_LAYER001
  6
Continuous
 62
     7
100
AcDbLine
 10
1604.559115499999
 20
1243.375224499999
 30
0.0
 11
1597.477109499999
 21
1246.4133995
 31
0.0
  0
LINE
  5
148
330
20
100
AcDbEntity
  8
_0-0_LAYER001
  6
Continuous
 62
     7
100
AcDbLine
 10
1594.015422499999
 20
1248.9182815
 30
0.0
 11
1598.680959499999
 21
1247.9372935
 31
0.0
  0
LINE
  5
149
330
20
100
AcDbEntity
  8
_0-0_LAYER001
  6
Continuous
 62
     7
100
AcDbLine
 10
1605.2983095
 20
1245.0983935
 30
0.0
 11
1598.680959499999
 21
1247.9372935
 31
0.0
  0
LINE
  5
14A
330
20
100
AcDbEntity
  8
_0-0_LAYER001
  6
Continuous
 62
     7
100
AcDbLine
 10
1535.100539499999
 20
1294.7297015
 30
0.0
 11
1529.797238499999
 21
1289.4264005
 31
0.0
  0
LINE
  5
14B
330
20
100
AcDbEntity
  8
_0-0_LAYER001
  6
Continuous
 62
     7
100
AcDbLine
 10
1529.797238499999
 20
1289.4264005
 30
0.0
 11
1531.738381499999
 21
1296.6708445
 31
0.0
  0
LINE
  5
14C
330
20
100
AcDbEntity
  8
_0-0_LAYER001
  6
Continuous
 62
     7
100
AcDbLine
 10
1529.797238499999
 20
1289.4264005
 30
0.0
 11
1612.900898499999
 21
1433.3661625
 31
0.0
  0
LINE
  5
14D
330
20
100
AcDbEntity
  8
_0-0_LAYER001
  6
Continuous
 62
     7
100
AcDbLine
 10
1612.900898499999
 20
1433.3661625
 30
0.0
 11
1846.900898499999
 21
1433.3661625
 31
0.0
  0
LINE
  5
14E
330
20
100
AcDbEntity
  8
_0-0_LAYER001
  6
DASHED
 62
     7
100
AcDbLine
 10
658.7608324999997
 20
819.1508744999998
 30
0.0
 11
1516.7047095
 21
1205.225902499999
 31
0.0
  0
LINE
  5
14F
330
20
100
AcDbEntity
  8
_0-0_LAYER001
  6
DASHED
 62
     7
100
AcDbLine
 10
2378.0643935
 20
817.6133354999999
 30
0.0
 11
1516.7047095
 21
1205.225902499999
 31
0.0
  0
LINE
  5
150
330
20
100
AcDbEntity
  8
_0-0_LAYER001
  6
Continuous
 62
     7
100
AcDbLine
 10
1506.445676499999
 20
1198.9644385
 30
0.0
 11
1516.704772499999
 21
1176.1663925
 31
0.0
  0
LINE
  5
151
330
20
100
AcDbEntity
  8
_0-0_LAYER001
  6
Continuous
 62
     7
100
AcDbLine
 10
1526.9638705
 20
1198.9644385
 30
0.0
 11
1516.704773499999
 21
1176.1663925
 31
0.0
  0
LINE
  5
152
330
20
100
AcDbEntity
  8
_0-1_LAYER002
  6
Continuous
 62
     7
100
AcDbLine
 10
1461.831434499999
 20
1061.0049195
 30
0.0
 11
1463.928545499999
 21
1061.9485745
 31
0.0
  0
LINE
  5
153
330
20
100
AcDbEntity
  8
_0-1_LAYER002
  6
Continuous
 62
     7
100
AcDbLine
 10
1437.207696499999
 20
1115.7195475
 30
0.0
 11
1439.305560499999
 21
1116.6631545
 31
0.0
  0
LINE
  5
154
330
20
100
AcDbEntity
  8
_0-1_LAYER002
  6
Continuous
 62
     7
100
AcDbLine
 10
1431.052296499999
 20
1129.3991175
 30
0.0
 11
1437.207696499999
 21
1115.7195475
 31
0.0
  0
LINE
  5
155
330
20
100
AcDbEntity
  8
_0-1_LAYER002
  6
Continuous
 62
     7
100
AcDbLine
 10
1391.005793499999
 20
1114.3389445
 30
0.0
 11
1427.481551499999
 21
1130.7529665
 31
0.0
  0
LINE
  5
156
330
20
100
AcDbEntity
  8
_0-1_LAYER002
  6
Continuous
 62
     7
100
AcDbLine
 10
1426.538970499999
 20
1132.8499835
 30
0.0
 11
1390.061316499999
 21
1116.434899499999
 31
0.0
  0
LINE
  5
157
330
20
100
AcDbEntity
  8
_0-1_LAYER002
  6
Continuous
 62
     7
100
AcDbLine
 10
1433.149941499999
 20
1130.3426855
 30
0.0
 11
1439.305560499999
 21
1116.6631545
 31
0.0
  0
LINE
  5
158
330
20
100
AcDbEntity
  8
_0-1_LAYER002
  6
Continuous
 62
     7
100
AcDbLine
 10
1424.487135499999
 20
1027.7499105
 30
0.0
 11
1387.553897499999
 21
1109.8236935
 31
0.0
  0
LINE
  5
159
330
20
100
AcDbEntity
  8
_0-1_LAYER002
  6
Continuous
 62
     7
100
AcDbLine
 10
1467.576853499999
 20
1041.6578915
 30
0.0
 11
1431.098102499999
 21
1025.2424815
 31
0.0
  0
LINE
  5
15A
330
20
100
AcDbEntity
  8
_0-1_LAYER002
  6
Continuous
 62
     7
100
AcDbLine
 10
1470.084170499999
 20
1048.268913499999
 30
0.0
 11
1463.928545499999
 21
1061.9485745
 31
0.0
  0
LINE
  5
15B
330
20
100
AcDbEntity
  8
_0-1_LAYER002
  6
Continuous
 62
     7
100
AcDbLine
 10
1467.987363499999
 20
1047.325381499999
 30
0.0
 11
1461.831434499999
 21
1061.0049195
 31
0.0
  0
LINE
  5
15C
330
20
100
AcDbEntity
  8
_0-1_LAYER002
  6
Continuous
 62
     7
100
AcDbLine
 10
1430.155688499999
 20
1027.3395755
 30
0.0
 11
1466.6332365
 21
1043.7548045
 31
0.0
  0
LINE
  5
15D
330
20
100
AcDbEntity
  8
_0-1_LAYER002
  6
Continuous
 62
     7
100
AcDbLine
 10
1426.585086499999
 20
1028.6936005
 30
0.0
 11
1389.651975499999
 21
1110.768410499999
 31
0.0
  0
LINE
  5
15E
330
20
100
AcDbEntity
  8
_0-0_LAYER001
  6
Continuous
 62
     7
100
AcDbLine
 10
1430.643316499999
 20
1014.072945499999
 30
0.0
 11
1393.709401499999
 21
1096.1457095
 31
0.0
  0
LINE
  5
15F
330
20
100
AcDbEntity
  8
_0-0_LAYER001
  6
Continuous
 62
     7
100
AcDbLine
 10
1389.378070499999
 20
1088.7135735
 30
0.0
 11
1417.283617499999
 21
1026.7034775
 31
0.0
  0
LINE
  5
160
330
20
100
AcDbEntity
  8
_0-0_LAYER001
  6
Continuous
 62
     7
100
AcDbLine
 10
1391.885450499999
 20
1095.325698499999
 30
0.0
 11
1393.709401499999
 21
1096.1457095
 31
0.0
  0
LINE
  5
161
330
20
100
AcDbEntity
  8
_0-0_LAYER001
  6
Continuous
 62
     7
100
AcDbLine
 10
1350.256863499999
 20
985.5748104999996
 30
0.0
 11
1412.267978499999
 21
1013.4803905
 31
0.0
  0
LINE
  5
162
330
20
100
AcDbEntity
  8
_0-0_LAYER001
  6
Continuous
 62
     7
100
AcDbLine
 10
1408.117624499999
 20
1069.7320785
 30
0.0
 11
1410.854008499999
 21
1070.9629745
 31
0.0
  0
LINE
  5
163
330
20
100
AcDbEntity
  8
_0-0_LAYER001
  6
Continuous
 62
     7
100
AcDbLine
 10
1401.551807499999
 20
1084.3222405
 30
0.0
 11
1404.288039499999
 21
1085.5531795
 31
0.0
  0
LINE
  5
164
330
20
100
AcDbEntity
  8
_0-0_LAYER001
  6
Continuous
 62
     7
100
AcDbLine
 10
1417.419457499999
 20
1056.3739575
 30
0.0
 11
1404.288039499999
 21
1085.5531795
 31
0.0
  0
LINE
  5
165
330
20
100
AcDbEntity
  8
_0-0_LAYER001
  6
Continuous
 62
     7
100
AcDbLine
 10
1414.683118499999
 20
1055.1419925
 30
0.0
 11
1417.419457499999
 21
1056.3739575
 31
0.0
  0
LINE
  5
166
330
20
100
AcDbEntity
  8
_0-0_LAYER001
  6
Continuous
 62
     7
100
AcDbLine
 10
1416.690664499999
 20
1082.3615225
 30
0.0
 11
1427.359753499999
 21
1087.163453499999
 31
0.0
  0
LINE
  5
167
330
20
100
AcDbEntity
  8
_0-0_LAYER001
  6
Continuous
 62
     7
100
AcDbLine
 10
1423.256009499999
 20
1067.772341499999
 30
0.0
 11
1433.925365499999
 21
1072.5731825
 31
0.0
  0
LINE
  5
168
330
20
100
AcDbEntity
  8
_0-0_LAYER001
  6
Continuous
 62
     7
100
AcDbLine
 10
1421.838050499999
 20
1068.3108655
 30
0.0
 11
1413.696726499999
 21
1064.6477565
 31
0.0
  0
LINE
  5
169
330
20
100
AcDbEntity
  8
_0-0_LAYER001
  6
Continuous
 62
     7
100
AcDbLine
 10
1416.152082499999
 20
1080.945372499999
 30
0.0
 11
1408.011781499999
 21
1077.281515499999
 31
0.0
  0
LINE
  5
16A
330
20
100
AcDbEntity
  8
_0-0_LAYER001
  6
Continuous
 62
     7
100
AcDbLine
 10
1413.310022499999
 20
1087.263740499999
 30
0.0
 11
1405.167680499999
 21
1083.5996175
 31
0.0
  0
LINE
  5
16B
330
20
100
AcDbEntity
  8
_0-0_LAYER001
  6
Continuous
 62
     7
100
AcDbLine
 10
1415.047368499999
 20
1086.012067499999
 30
0.0
 11
1413.310022499999
 21
1087.263740499999
 31
0.0
  0
LINE
  5
16C
330
20
100
AcDbEntity
  8
_0-0_LAYER001
  6
Continuous
 62
     7
100
AcDbLine
 10
1424.896981499999
 20
1064.1256105
 30
0.0
 11
1415.047368499999
 21
1086.012067499999
 31
0.0
  0
LINE
  5
16D
330
20
100
AcDbEntity
  8
_0-0_LAYER001
  6
Continuous
 62
     7
100
AcDbLine
 10
1424.681177499999
 20
1061.9923625
 30
0.0
 11
1416.539924499999
 21
1058.3285155
 31
0.0
  0
LINE
  5
16E
330
20
100
AcDbEntity
  8
_0-0_LAYER001
  6
Continuous
 62
     7
100
AcDbLine
 10
1424.896981499999
 20
1064.1256105
 30
0.0
 11
1424.681177499999
 21
1061.9923625
 31
0.0
  0
LINE
  5
16F
330
20
100
AcDbEntity
  8
_0-0_LAYER001
  6
Continuous
 62
     7
100
AcDbLine
 10
1434.929279499999
 20
1075.2182235
 30
0.0
 11
1433.925365499999
 21
1072.5731825
 31
0.0
  0
LINE
  5
170
330
20
100
AcDbEntity
  8
_0-0_LAYER001
  6
Continuous
 62
     7
100
AcDbLine
 10
1430.004499499999
 20
1086.1603665
 30
0.0
 11
1434.929279499999
 21
1075.2182235
 31
0.0
  0
LINE
  5
171
330
20
100
AcDbEntity
  8
_0-0_LAYER001
  6
Continuous
 62
     7
100
AcDbLine
 10
1427.359753499999
 20
1087.163453499999
 30
0.0
 11
1430.004499499999
 21
1086.1603665
 31
0.0
  0
LINE
  5
172
330
20
100
AcDbEntity
  8
_0-0_LAYER001
  6
Continuous
 62
     7
100
AcDbLine
 10
1427.359753499999
 20
1087.163453499999
 30
0.0
 11
1433.925365499999
 21
1072.5731825
 31
0.0
  0
LINE
  5
173
330
20
100
AcDbEntity
  8
_0-0_LAYER001
  6
Continuous
 62
     7
100
AcDbLine
 10
1427.359753499999
 20
1087.163453499999
 30
0.0
 11
1431.352063499999
 21
1071.4153565
 31
0.0
  0
LINE
  5
174
330
20
100
AcDbEntity
  8
_0-0_LAYER001
  6
Continuous
 62
     7
100
AcDbLine
 10
1421.803609499999
 20
1084.6629375
 30
0.0
 11
1425.797020499999
 21
1068.914856499999
 31
0.0
  0
LINE
  5
175
330
20
100
AcDbEntity
  8
_0-0_LAYER001
  6
Continuous
 62
     7
100
AcDbLine
 10
1388.652506499999
 20
1068.568897499999
 30
0.0
 11
1396.793634499999
 21
1072.2319185
 31
0.0
  0
LINE
  5
176
330
20
100
AcDbEntity
  8
_0-0_LAYER001
  6
Continuous
 62
     7
100
AcDbLine
 10
1394.338230499999
 20
1055.934220499999
 30
0.0
 11
1402.479673499999
 21
1059.5983165
 31
0.0
  0
LINE
  5
177
330
20
100
AcDbEntity
  8
_0-0_LAYER001
  6
Continuous
 62
     7
100
AcDbLine
 10
1397.180592499999
 20
1049.6160555
 30
0.0
 11
1405.322626499999
 21
1053.279905499999
 31
0.0
  0
LINE
  5
178
330
20
100
AcDbEntity
  8
_0-0_LAYER001
  6
Continuous
 62
     7
100
AcDbLine
 10
1395.442936499999
 20
1050.8675055
 30
0.0
 11
1397.180592499999
 21
1049.6160555
 31
0.0
  0
LINE
  5
179
330
20
100
AcDbEntity
  8
_0-0_LAYER001
  6
Continuous
 62
     7
100
AcDbLine
 10
1385.593524499999
 20
1072.7541605
 30
0.0
 11
1395.442936499999
 21
1050.8675055
 31
0.0
  0
LINE
  5
17A
330
20
100
AcDbEntity
  8
_0-0_LAYER001
  6
Continuous
 62
     7
100
AcDbLine
 10
1385.809192499999
 20
1074.8870835
 30
0.0
 11
1393.950427499999
 21
1078.5511295
 31
0.0
  0
LINE
  5
17B
330
20
100
AcDbEntity
  8
_0-0_LAYER001
  6
Continuous
 62
     7
100
AcDbLine
 10
1385.593524499999
 20
1072.7541605
 30
0.0
 11
1385.809192499999
 21
1074.8870835
 31
0.0
  0
LINE
  5
17C
330
20
100
AcDbEntity
  8
_0-0_LAYER001
  6
Continuous
 62
     7
100
AcDbLine
 10
1347.749602499999
 20
978.9636514999999
 30
0.0
 11
1348.570419499999
 21
977.1397945
 31
0.0
  0
LINE
  5
17D
330
20
100
AcDbEntity
  8
_0-0_LAYER001
  6
Continuous
 62
     7
100
AcDbLine
 10
1348.570419499999
 20
977.1397945
 30
0.0
 11
1430.643492499999
 21
1014.0725625
 31
0.0
  0
LINE
  5
17E
330
20
100
AcDbEntity
  8
_0-0_LAYER001
  6
Continuous
 62
     7
100
AcDbLine
 10
1402.459033499999
 20
1152.0478465
 30
0.0
 11
1393.338707499999
 21
1147.9438165
 31
0.0
  0
LINE
  5
17F
330
20
100
AcDbEntity
  8
_0-0_LAYER001
  6
Continuous
 62
     7
100
AcDbLine
 10
1403.688982499999
 20
1149.3113625
 30
0.0
 11
1394.570491499999
 21
1145.208681499999
 31
0.0
  0
LINE
  5
180
330
20
100
AcDbEntity
  8
_0-0_LAYER001
  6
Continuous
 62
     7
100
AcDbLine
 10
1393.338707499999
 20
1147.9438165
 30
0.0
 11
1394.570491499999
 21
1145.208681499999
 31
0.0
  0
LINE
  5
181
330
20
100
AcDbEntity
  8
_0-0_LAYER001
  6
Continuous
 62
     7
100
AcDbLine
 10
1402.459033499999
 20
1152.0478465
 30
0.0
 11
1403.688982499999
 21
1149.3113625
 31
0.0
  0
LINE
  5
182
330
20
100
AcDbEntity
  8
_0-0_LAYER001
  6
Continuous
 62
     7
100
AcDbLine
 10
1414.341480499999
 20
1113.6549455
 30
0.0
 11
1410.219232499999
 21
1117.9411365
 31
0.0
  0
LINE
  5
183
330
20
100
AcDbEntity
  8
_0-0_LAYER001
  6
Continuous
 62
     7
100
AcDbLine
 10
1414.341480499999
 20
1113.6549455
 30
0.0
 11
1413.866999499999
 21
1119.5819625
 31
0.0
  0
LINE
  5
184
330
20
100
AcDbEntity
  8
_0-0_LAYER001
  6
Continuous
 62
     7
100
AcDbLine
 10
1402.784969499999
 20
1131.2479775
 30
0.0
 11
1408.412799499999
 21
1134.9394565
 31
0.0
  0
LINE
  5
185
330
20
100
AcDbEntity
  8
_0-0_LAYER001
  6
Continuous
 62
     7
100
AcDbLine
 10
1404.836950499999
 20
1126.6887295
 30
0.0
 11
1410.465830499999
 21
1130.3792815
 31
0.0
  0
LINE
  5
186
330
20
100
AcDbEntity
  8
_0-0_LAYER001
  6
Continuous
 62
     7
100
AcDbLine
 10
1398.709738499999
 20
1140.5020585
 30
0.0
 11
1404.337420499999
 21
1144.1946615
 31
0.0
  0
LINE
  5
187
330
20
100
AcDbEntity
  8
_0-0_LAYER001
  6
Continuous
 62
     7
100
AcDbLine
 10
1400.761684499999
 20
1135.9438695
 30
0.0
 11
1406.389302499999
 21
1139.6353895
 31
0.0
  0
LINE
  5
188
330
20
100
AcDbEntity
  8
_0-0_LAYER001
  6
Continuous
 62
     7
100
AcDbLine
 10
1402.813500499999
 20
1131.3835635
 30
0.0
 11
1408.442316499999
 21
1135.0754035
 31
0.0
  0
LINE
  5
189
330
20
100
AcDbEntity
  8
_0-0_LAYER001
  6
Continuous
 62
     7
100
AcDbLine
 10
1404.866326499999
 20
1126.8244605
 30
0.0
 11
1410.493205499999
 21
1130.5150075
 31
0.0
  0
LINE
  5
18A
330
20
100
AcDbEntity
  8
_0-0_LAYER001
  6
Continuous
 62
     7
100
AcDbLine
 10
1406.917350499999
 20
1122.264180499999
 30
0.0
 11
1412.545079499999
 21
1125.955914499999
 31
0.0
  0
LINE
  5
18B
330
20
100
AcDbEntity
  8
_0-0_LAYER001
  6
Continuous
 62
     7
100
AcDbLine
 10
1408.453281499999
 20
1118.8521835
 30
0.0
 11
1414.080693499999
 21
1122.5438245
 31
0.0
  0
LINE
  5
18C
330
20
100
AcDbEntity
  8
_0-0_LAYER001
  6
Continuous
 62
     7
100
AcDbLine
 10
1402.225227499999
 20
1145.4539885
 30
0.0
 11
1413.866999499999
 21
1119.5819625
 31
0.0
  0
LINE
  5
18D
330
20
100
AcDbEntity
  8
_0-0_LAYER001
  6
Continuous
 62
     7
100
AcDbLine
 10
1403.688982499999
 20
1149.3113625
 30
0.0
 11
1402.225227499999
 21
1145.4539885
 31
0.0
  0
LINE
  5
18E
330
20
100
AcDbEntity
  8
_0-0_LAYER001
  6
Continuous
 62
     7
100
AcDbLine
 10
1398.645045499999
 20
1143.6625435
 30
0.0
 11
1410.219232499999
 21
1117.9411365
 31
0.0
  0
LINE
  5
18F
330
20
100
AcDbEntity
  8
_0-0_LAYER001
  6
Continuous
 62
     7
100
AcDbLine
 10
1394.570491499999
 20
1145.208681499999
 30
0.0
 11
1398.645045499999
 21
1143.6625435
 31
0.0
  0
ARC
  5
190
330
20
100
AcDbEntity
  8
_0-1_LAYER002
  6
Continuous
 62
     7
100
AcDbCircle
 10
1428.589862499999
 20
1128.2906885
 30
0.0
 40
2.7
100
AcDbArc
 50
24.240375
 51
114.2324789999999
  0
ARC
  5
191
330
20
100
AcDbEntity
  8
_0-1_LAYER002
  6
Continuous
 62
     7
100
AcDbCircle
 10
1392.114153499999
 20
1111.8766985
 30
0.0
 40
2.7
100
AcDbArc
 50
114.2324789999999
 51
204.212799
  0
ARC
  5
192
330
20
100
AcDbEntity
  8
_0-1_LAYER002
  6
Continuous
 62
     7
100
AcDbCircle
 10
1392.112094499999
 20
1111.8756905
 30
0.0
 40
4.998999999999999
100
AcDbArc
 50
114.220089
 51
204.230739
  0
ARC
  5
193
330
20
100
AcDbEntity
  8
_0-1_LAYER002
  6
Continuous
 62
     7
100
AcDbCircle
 10
1428.590860499999
 20
1128.2919425
 30
0.0
 40
4.998999999999999
100
AcDbArc
 50
24.224354
 51
114.241359
  0
ARC
  5
194
330
20
100
AcDbEntity
  8
_0-1_LAYER002
  6
Continuous
 62
     7
100
AcDbCircle
 10
1429.046213499999
 20
1029.8007325
 30
0.0
 40
4.998999999999999
100
AcDbArc
 50
204.209459
 51
294.234999
  0
ARC
  5
195
330
20
100
AcDbEntity
  8
_0-1_LAYER002
  6
Continuous
 62
     7
100
AcDbCircle
 10
1465.525868499999
 20
1046.2170225
 30
0.0
 40
4.998999999999999
100
AcDbArc
 50
294.213709
 51
24.24563999999999
  0
ARC
  5
196
330
20
100
AcDbEntity
  8
_0-1_LAYER002
  6
Continuous
 62
     7
100
AcDbCircle
 10
1465.524716499999
 20
1046.2170535
 30
0.0
 40
2.7
100
AcDbArc
 50
294.220669
 51
24.24037499999999
  0
ARC
  5
197
330
20
100
AcDbEntity
  8
_0-1_LAYER002
  6
Continuous
 62
     7
100
AcDbCircle
 10
1429.047063499999
 20
1029.801689499999
 30
0.0
 40
2.7
100
AcDbArc
 50
204.212799
 51
294.220669
  0
ARC
  5
198
330
20
100
AcDbEntity
  8
_0-0_LAYER001
  6
Continuous
 62
     7
100
AcDbCircle
 10
1408.162249499999
 20
1022.6006645
 30
0.0
 40
10.001999
100
AcDbArc
 50
294.236659
 51
24.22389600000002
  0
ARC
  5
199
330
20
100
AcDbEntity
  8
_0-0_LAYER001
  6
Continuous
 62
     7
100
AcDbCircle
 10
1393.936210499999
 20
1090.7655075
 30
0.0
 40
4.998999999999999
100
AcDbArc
 50
114.220089
 51
204.230739
  0
ARC
  5
19A
330
20
100
AcDbEntity
  8
_0-0_LAYER001
  6
Continuous
 62
     7
100
AcDbCircle
 10
1352.307589499999
 20
981.0154085
 30
0.0
 40
4.998999999999999
100
AcDbArc
 50
114.220089
 51
204.230739
  0
ARC
  5
19B
330
20
100
AcDbEntity
  8
_0-0_LAYER001
  6
Continuous
 62
     7
100
AcDbCircle
 10
1410.098679499999
 20
1082.0288185
 30
0.0
 40
6.147001
100
AcDbArc
 50
349.8624590000001
 51
23.86973900000008
  0
ARC
  5
19C
330
20
100
AcDbEntity
  8
_0-0_LAYER001
  6
Continuous
 62
     7
100
AcDbCircle
 10
1418.624719499999
 20
1063.056011499999
 30
0.0
 40
6.158
100
AcDbArc
 50
24.60092500000002
 51
58.555576
  0
ARC
  5
19D
330
20
100
AcDbEntity
  8
_0-0_LAYER001
  6
Continuous
 62
     7
100
AcDbCircle
 10
1399.090475499999
 20
1065.672142499999
 30
0.0
 40
22.898998
100
AcDbArc
 50
6.616489999999999
 51
41.83200400000001
  0
ARC
  5
19E
330
20
100
AcDbEntity
  8
_0-0_LAYER001
  6
Continuous
 62
     7
100
AcDbCircle
 10
1400.392664499999
 20
1054.8536315
 30
0.0
 40
6.147999999999998
100
AcDbArc
 50
169.878009
 51
203.892749
  0
ARC
  5
19F
330
20
100
AcDbEntity
  8
_0-0_LAYER001
  6
Continuous
 62
     7
100
AcDbCircle
 10
1391.859051499999
 20
1073.8152475
 30
0.0
 40
6.147999999999998
100
AcDbArc
 50
204.5537590000001
 51
238.556019
  0
ARC
  5
1A0
330
20
100
AcDbEntity
  8
_0-0_LAYER001
  6
Continuous
 62
     7
100
AcDbCircle
 10
1411.435399499999
 20
1071.2249515
 30
0.0
 40
22.936001
100
AcDbArc
 50
186.647319
 51
221.804089
  0
LINE
  5
1A1
330
20
100
AcDbEntity
  8
_0-1_LAYER002
  6
Continuous
 62
     7
100
AcDbLine
 10
1571.578112499999
 20
1061.0049195
 30
0.0
 11
1569.4810005
 21
1061.9485745
 31
0.0
  0
LINE
  5
1A2
330
20
100
AcDbEntity
  8
_0-1_LAYER002
  6
Continuous
 62
     7
100
AcDbLine
 10
1596.201850499999
 20
1115.7195475
 30
0.0
 11
1594.103986499999
 21
1116.6631545
 31
0.0
  0
LINE
  5
1A3
330
20
100
AcDbEntity
  8
_0-1_LAYER002
  6
Continuous
 62
     7
100
AcDbLine
 10
1602.357250499999
 20
1129.3991175
 30
0.0
 11
1596.201850499999
 21
1115.7195475
 31
0.0
  0
LINE
  5
1A4
330
20
100
AcDbEntity
  8
_0-1_LAYER002
  6
Continuous
 62
     7
100
AcDbLine
 10
1642.4037535
 20
1114.3389445
 30
0.0
 11
1605.927995499999
 21
1130.7529665
 31
0.0
  0
LINE
  5
1A5
330
20
100
AcDbEntity
  8
_0-1_LAYER002
  6
Continuous
 62
     7
100
AcDbLine
 10
1606.870575499999
 20
1132.8499835
 30
0.0
 11
1643.3482305
 21
1116.434899499999
 31
0.0
  0
LINE
  5
1A6
330
20
100
AcDbEntity
  8
_0-1_LAYER002
  6
Continuous
 62
     7
100
AcDbLine
 10
1600.259604499999
 20
1130.3426855
 30
0.0
 11
1594.103986499999
 21
1116.6631545
 31
0.0
  0
LINE
  5
1A7
330
20
100
AcDbEntity
  8
_0-1_LAYER002
  6
Continuous
 62
     7
100
AcDbLine
 10
1608.922410499999
 20
1027.7499105
 30
0.0
 11
1645.8556485
 21
1109.8236935
 31
0.0
  0
LINE
  5
1A8
330
20
100
AcDbEntity
  8
_0-1_LAYER002
  6
Continuous
 62
     7
100
AcDbLine
 10
1565.832692499999
 20
1041.6578915
 30
0.0
 11
1602.311444499999
 21
1025.2424815
 31
0.0
  0
LINE
  5
1A9
330
20
100
AcDbEntity
  8
_0-1_LAYER002
  6
Continuous
 62
     7
100
AcDbLine
 10
1563.3253765
 20
1048.268913499999
 30
0.0
 11
1569.4810005
 21
1061.9485745
 31
0.0
  0
LINE
  5
1AA
330
20
100
AcDbEntity
  8
_0-1_LAYER002
  6
Continuous
 62
     7
100
AcDbLine
 10
1565.422182499999
 20
1047.325381499999
 30
0.0
 11
1571.578112499999
 21
1061.0049195
 31
0.0
  0
LINE
  5
1AB
330
20
100
AcDbEntity
  8
_0-1_LAYER002
  6
Continuous
 62
     7
100
AcDbLine
 10
1603.2538575
 20
1027.3395755
 30
0.0
 11
1566.776309499999
 21
1043.7548045
 31
0.0
  0
LINE
  5
1AC
330
20
100
AcDbEntity
  8
_0-1_LAYER002
  6
Continuous
 62
     7
100
AcDbLine
 10
1606.824460499999
 20
1028.6936005
 30
0.0
 11
1643.757571499999
 21
1110.768410499999
 31
0.0
  0
LINE
  5
1AD
330
20
100
AcDbEntity
  8
_0-0_LAYER001
  6
Continuous
 62
     7
100
AcDbLine
 10
1602.766230499999
 20
1014.072945499999
 30
0.0
 11
1639.7001455
 21
1096.1457095
 31
0.0
  0
LINE
  5
1AE
330
20
100
AcDbEntity
  8
_0-0_LAYER001
  6
Continuous
 62
     7
100
AcDbLine
 10
1644.0314755
 20
1088.7135735
 30
0.0
 11
1616.125928499999
 21
1026.7034775
 31
0.0
  0
LINE
  5
1AF
330
20
100
AcDbEntity
  8
_0-0_LAYER001
  6
Continuous
 62
     7
100
AcDbLine
 10
1641.524096499999
 20
1095.325698499999
 30
0.0
 11
1639.7001455
 21
1096.1457095
 31
0.0
  0
LINE
  5
1B0
330
20
100
AcDbEntity
  8
_0-0_LAYER001
  6
Continuous
 62
     7
100
AcDbLine
 10
1683.152683499999
 20
985.5748104999996
 30
0.0
 11
1621.141568499999
 21
1013.4803905
 31
0.0
  0
LINE
  5
1B1
330
20
100
AcDbEntity
  8
_0-0_LAYER001
  6
Continuous
 62
     7
100
AcDbLine
 10
1625.291922499999
 20
1069.7320785
 30
0.0
 11
1622.555537499999
 21
1070.9629745
 31
0.0
  0
LINE
  5
1B2
330
20
100
AcDbEntity
  8
_0-0_LAYER001
  6
Continuous
 62
     7
100
AcDbLine
 10
1631.857739499999
 20
1084.3222405
 30
0.0
 11
1629.121506499999
 21
1085.5531795
 31
0.0
  0
LINE
  5
1B3
330
20
100
AcDbEntity
  8
_0-0_LAYER001
  6
Continuous
 62
     7
100
AcDbLine
 10
1615.990089499999
 20
1056.3739575
 30
0.0
 11
1629.121506499999
 21
1085.5531795
 31
0.0
  0
LINE
  5
1B4
330
20
100
AcDbEntity
  8
_0-0_LAYER001
  6
Continuous
 62
     7
100
AcDbLine
 10
1618.726428499999
 20
1055.1419925
 30
0.0
 11
1615.990089499999
 21
1056.3739575
 31
0.0
  0
LINE
  5
1B5
330
20
100
AcDbEntity
  8
_0-0_LAYER001
  6
Continuous
 62
     7
100
AcDbLine
 10
1616.718882499999
 20
1082.3615225
 30
0.0
 11
1606.0497925
 21
1087.163453499999
 31
0.0
  0
LINE
  5
1B6
330
20
100
AcDbEntity
  8
_0-0_LAYER001
  6
Continuous
 62
     7
100
AcDbLine
 10
1610.153537499999
 20
1067.772341499999
 30
0.0
 11
1599.4841815
 21
1072.5731825
 31
0.0
  0
LINE
  5
1B7
330
20
100
AcDbEntity
  8
_0-0_LAYER001
  6
Continuous
 62
     7
100
AcDbLine
 10
1611.571496499999
 20
1068.3108655
 30
0.0
 11
1619.7128205
 21
1064.6477565
 31
0.0
  0
LINE
  5
1B8
330
20
100
AcDbEntity
  8
_0-0_LAYER001
  6
Continuous
 62
     7
100
AcDbLine
 10
1617.257463499999
 20
1080.945372499999
 30
0.0
 11
1625.3977655
 21
1077.281515499999
 31
0.0
  0
LINE
  5
1B9
330
20
100
AcDbEntity
  8
_0-0_LAYER001
  6
Continuous
 62
     7
100
AcDbLine
 10
1620.099523499999
 20
1087.263740499999
 30
0.0
 11
1628.241866499999
 21
1083.5996175
 31
0.0
  0
LINE
  5
1BA
330
20
100
AcDbEntity
  8
_0-0_LAYER001
  6
Continuous
 62
     7
100
AcDbLine
 10
1618.362177499999
 20
1086.012067499999
 30
0.0
 11
1620.099523499999
 21
1087.263740499999
 31
0.0
  0
LINE
  5
1BB
330
20
100
AcDbEntity
  8
_0-0_LAYER001
  6
Continuous
 62
     7
100
AcDbLine
 10
1608.512564499999
 20
1064.1256105
 30
0.0
 11
1618.362177499999
 21
1086.012067499999
 31
0.0
  0
LINE
  5
1BC
330
20
100
AcDbEntity
  8
_0-0_LAYER001
  6
Continuous
 62
     7
100
AcDbLine
 10
1608.728369499999
 20
1061.9923625
 30
0.0
 11
1616.869622499999
 21
1058.3285155
 31
0.0
  0
LINE
  5
1BD
330
20
100
AcDbEntity
  8
_0-0_LAYER001
  6
Continuous
 62
     7
100
AcDbLine
 10
1608.512564499999
 20
1064.1256105
 30
0.0
 11
1608.728369499999
 21
1061.9923625
 31
0.0
  0
LINE
  5
1BE
330
20
100
AcDbEntity
  8
_0-0_LAYER001
  6
Continuous
 62
     7
100
AcDbLine
 10
1598.480266499999
 20
1075.2182235
 30
0.0
 11
1599.4841815
 21
1072.5731825
 31
0.0
  0
LINE
  5
1BF
330
20
100
AcDbEntity
  8
_0-0_LAYER001
  6
Continuous
 62
     7
100
AcDbLine
 10
1603.405047499999
 20
1086.1603665
 30
0.0
 11
1598.480266499999
 21
1075.2182235
 31
0.0
  0
LINE
  5
1C0
330
20
100
AcDbEntity
  8
_0-0_LAYER001
  6
Continuous
 62
     7
100
AcDbLine
 10
1606.0497925
 20
1087.163453499999
 30
0.0
 11
1603.405047499999
 21
1086.1603665
 31
0.0
  0
LINE
  5
1C1
330
20
100
AcDbEntity
  8
_0-0_LAYER001
  6
Continuous
 62
     7
100
AcDbLine
 10
1606.0497925
 20
1087.163453499999
 30
0.0
 11
1599.4841815
 21
1072.5731825
 31
0.0
  0
LINE
  5
1C2
330
20
100
AcDbEntity
  8
_0-0_LAYER001
  6
Continuous
 62
     7
100
AcDbLine
 10
1606.0497925
 20
1087.163453499999
 30
0.0
 11
1602.057482499999
 21
1071.4153565
 31
0.0
  0
LINE
  5
1C3
330
20
100
AcDbEntity
  8
_0-0_LAYER001
  6
Continuous
 62
     7
100
AcDbLine
 10
1611.605936499999
 20
1084.6629375
 30
0.0
 11
1607.612526499999
 21
1068.914856499999
 31
0.0
  0
LINE
  5
1C4
330
20
100
AcDbEntity
  8
_0-0_LAYER001
  6
Continuous
 62
     7
100
AcDbLine
 10
1644.757040499999
 20
1068.568897499999
 30
0.0
 11
1636.615912499999
 21
1072.2319185
 31
0.0
  0
LINE
  5
1C5
330
20
100
AcDbEntity
  8
_0-0_LAYER001
  6
Continuous
 62
     7
100
AcDbLine
 10
1639.071315499999
 20
1055.934220499999
 30
0.0
 11
1630.9298725
 21
1059.5983165
 31
0.0
  0
LINE
  5
1C6
330
20
100
AcDbEntity
  8
_0-0_LAYER001
  6
Continuous
 62
     7
100
AcDbLine
 10
1636.228953499999
 20
1049.6160555
 30
0.0
 11
1628.0869205
 21
1053.279905499999
 31
0.0
  0
LINE
  5
1C7
330
20
100
AcDbEntity
  8
_0-0_LAYER001
  6
Continuous
 62
     7
100
AcDbLine
 10
1637.966610499999
 20
1050.8675055
 30
0.0
 11
1636.228953499999
 21
1049.6160555
 31
0.0
  0
LINE
  5
1C8
330
20
100
AcDbEntity
  8
_0-0_LAYER001
  6
Continuous
 62
     7
100
AcDbLine
 10
1647.8160215
 20
1072.7541605
 30
0.0
 11
1637.966610499999
 21
1050.8675055
 31
0.0
  0
LINE
  5
1C9
330
20
100
AcDbEntity
  8
_0-0_LAYER001
  6
Continuous
 62
     7
100
AcDbLine
 10
1647.6003535
 20
1074.8870835
 30
0.0
 11
1639.459119499999
 21
1078.5511295
 31
0.0
  0
LINE
  5
1CA
330
20
100
AcDbEntity
  8
_0-0_LAYER001
  6
Continuous
 62
     7
100
AcDbLine
 10
1647.8160215
 20
1072.7541605
 30
0.0
 11
1647.6003535
 21
1074.8870835
 31
0.0
  0
LINE
  5
1CB
330
20
100
AcDbEntity
  8
_0-0_LAYER001
  6
Continuous
 62
     7
100
AcDbLine
 10
1685.659943499999
 20
978.9636514999999
 30
0.0
 11
1684.839126499999
 21
977.1397945
 31
0.0
  0
LINE
  5
1CC
330
20
100
AcDbEntity
  8
_0-0_LAYER001
  6
Continuous
 62
     7
100
AcDbLine
 10
1684.839126499999
 20
977.1397945
 30
0.0
 11
1602.766053499999
 21
1014.0725625
 31
0.0
  0
LINE
  5
1CD
330
20
100
AcDbEntity
  8
_0-0_LAYER001
  6
Continuous
 62
     7
100
AcDbLine
 10
1630.950512499999
 20
1152.0478465
 30
0.0
 11
1640.070838499999
 21
1147.9438165
 31
0.0
  0
LINE
  5
1CE
330
20
100
AcDbEntity
  8
_0-0_LAYER001
  6
Continuous
 62
     7
100
AcDbLine
 10
1629.720563499999
 20
1149.3113625
 30
0.0
 11
1638.839055499999
 21
1145.208681499999
 31
0.0
  0
LINE
  5
1CF
330
20
100
AcDbEntity
  8
_0-0_LAYER001
  6
Continuous
 62
     7
100
AcDbLine
 10
1640.070838499999
 20
1147.9438165
 30
0.0
 11
1638.839055499999
 21
1145.208681499999
 31
0.0
  0
LINE
  5
1D0
330
20
100
AcDbEntity
  8
_0-0_LAYER001
  6
Continuous
 62
     7
100
AcDbLine
 10
1630.950512499999
 20
1152.0478465
 30
0.0
 11
1629.720563499999
 21
1149.3113625
 31
0.0
  0
LINE
  5
1D1
330
20
100
AcDbEntity
  8
_0-0_LAYER001
  6
Continuous
 62
     7
100
AcDbLine
 10
1619.068066499999
 20
1113.6549455
 30
0.0
 11
1623.190313499999
 21
1117.9411365
 31
0.0
  0
LINE
  5
1D2
330
20
100
AcDbEntity
  8
_0-0_LAYER001
  6
Continuous
 62
     7
100
AcDbLine
 10
1619.068066499999
 20
1113.6549455
 30
0.0
 11
1619.542546499999
 21
1119.5819625
 31
0.0
  0
LINE
  5
1D3
330
20
100
AcDbEntity
  8
_0-0_LAYER001
  6
Continuous
 62
     7
100
AcDbLine
 10
1630.6245775
 20
1131.2479775
 30
0.0
 11
1624.996747499999
 21
1134.9394565
 31
0.0
  0
LINE
  5
1D4
330
20
100
AcDbEntity
  8
_0-0_LAYER001
  6
Continuous
 62
     7
100
AcDbLine
 10
1628.572596499999
 20
1126.6887295
 30
0.0
 11
1622.9437165
 21
1130.3792815
 31
0.0
  0
LINE
  5
1D5
330
20
100
AcDbEntity
  8
_0-0_LAYER001
  6
Continuous
 62
     7
100
AcDbLine
 10
1634.699807499999
 20
1140.5020585
 30
0.0
 11
1629.0721255
 21
1144.1946615
 31
0.0
  0
LINE
  5
1D6
330
20
100
AcDbEntity
  8
_0-0_LAYER001
  6
Continuous
 62
     7
100
AcDbLine
 10
1632.647861499999
 20
1135.9438695
 30
0.0
 11
1627.020243499999
 21
1139.6353895
 31
0.0
  0
LINE
  5
1D7
330
20
100
AcDbEntity
  8
_0-0_LAYER001
  6
Continuous
 62
     7
100
AcDbLine
 10
1630.596045499999
 20
1131.3835635
 30
0.0
 11
1624.967230499999
 21
1135.0754035
 31
0.0
  0
LINE
  5
1D8
330
20
100
AcDbEntity
  8
_0-0_LAYER001
  6
Continuous
 62
     7
100
AcDbLine
 10
1628.543220499999
 20
1126.8244605
 30
0.0
 11
1622.916341499999
 21
1130.5150075
 31
0.0
  0
LINE
  5
1D9
330
20
100
AcDbEntity
  8
_0-0_LAYER001
  6
Continuous
 62
     7
100
AcDbLine
 10
1626.492196499999
 20
1122.264180499999
 30
0.0
 11
1620.864467499999
 21
1125.955914499999
 31
0.0
  0
LINE
  5
1DA
330
20
100
AcDbEntity
  8
_0-0_LAYER001
  6
Continuous
 62
     7
100
AcDbLine
 10
1624.9562655
 20
1118.8521835
 30
0.0
 11
1619.328852499999
 21
1122.5438245
 31
0.0
  0
LINE
  5
1DB
330
20
100
AcDbEntity
  8
_0-0_LAYER001
  6
Continuous
 62
     7
100
AcDbLine
 10
1631.184319499999
 20
1145.4539885
 30
0.0
 11
1619.542546499999
 21
1119.5819625
 31
0.0
  0
LINE
  5
1DC
330
20
100
AcDbEntity
  8
_0-0_LAYER001
  6
Continuous
 62
     7
100
AcDbLine
 10
1629.720563499999
 20
1149.3113625
 30
0.0
 11
1631.184319499999
 21
1145.4539885
 31
0.0
  0
LINE
  5
1DD
330
20
100
AcDbEntity
  8
_0-0_LAYER001
  6
Continuous
 62
     7
100
AcDbLine
 10
1634.7645015
 20
1143.6625435
 30
0.0
 11
1623.190313499999
 21
1117.9411365
 31
0.0
  0
LINE
  5
1DE
330
20
100
AcDbEntity
  8
_0-0_LAYER001
  6
Continuous
 62
     7
100
AcDbLine
 10
1638.839055499999
 20
1145.208681499999
 30
0.0
 11
1634.7645015
 21
1143.6625435
 31
0.0
  0
ARC
  5
1DF
330
20
100
AcDbEntity
  8
_0-1_LAYER002
  6
Continuous
 62
     7
100
AcDbCircle
 10
1604.8196835
 20
1128.2906885
 30
0.0
 40
2.7
100
AcDbArc
 50
65.76752100000001
 51
155.759625
  0
ARC
  5
1E0
330
20
100
AcDbEntity
  8
_0-1_LAYER002
  6
Continuous
 62
     7
100
AcDbCircle
 10
1641.2953925
 20
1111.8766985
 30
0.0
 40
2.7
100
AcDbArc
 50
335.787201
 51
65.76752099999999
  0
ARC
  5
1E1
330
20
100
AcDbEntity
  8
_0-1_LAYER002
  6
Continuous
 62
     7
100
AcDbCircle
 10
1641.297451499999
 20
1111.8756905
 30
0.0
 40
4.998999999999999
100
AcDbArc
 50
335.769261
 51
65.77991100000004
  0
ARC
  5
1E2
330
20
100
AcDbEntity
  8
_0-1_LAYER002
  6
Continuous
 62
     7
100
AcDbCircle
 10
1604.818685499999
 20
1128.2919425
 30
0.0
 40
4.998999999999999
100
AcDbArc
 50
65.758641
 51
155.775646
  0
ARC
  5
1E3
330
20
100
AcDbEntity
  8
_0-1_LAYER002
  6
Continuous
 62
     7
100
AcDbCircle
 10
1604.363333499999
 20
1029.8007325
 30
0.0
 40
4.998999999999999
100
AcDbArc
 50
245.765001
 51
335.7905410000001
  0
ARC
  5
1E4
330
20
100
AcDbEntity
  8
_0-1_LAYER002
  6
Continuous
 62
     7
100
AcDbCircle
 10
1567.883678499999
 20
1046.2170225
 30
0.0
 40
4.998999999999999
100
AcDbArc
 50
155.75436
 51
245.786291
  0
ARC
  5
1E5
330
20
100
AcDbEntity
  8
_0-1_LAYER002
  6
Continuous
 62
     7
100
AcDbCircle
 10
1567.884830499999
 20
1046.2170535
 30
0.0
 40
2.7
100
AcDbArc
 50
155.759625
 51
245.779331
  0
ARC
  5
1E6
330
20
100
AcDbEntity
  8
_0-1_LAYER002
  6
Continuous
 62
     7
100
AcDbCircle
 10
1604.362482499999
 20
1029.801689499999
 30
0.0
 40
2.7
100
AcDbArc
 50
245.7793310000001
 51
335.7872010000001
  0
ARC
  5
1E7
330
20
100
AcDbEntity
  8
_0-0_LAYER001
  6
Continuous
 62
     7
100
AcDbCircle
 10
1625.247297499999
 20
1022.6006645
 30
0.0
 40
10.001999
100
AcDbArc
 50
155.776104
 51
245.763341
  0
ARC
  5
1E8
330
20
100
AcDbEntity
  8
_0-0_LAYER001
  6
Continuous
 62
     7
100
AcDbCircle
 10
1639.473336499999
 20
1090.7655075
 30
0.0
 40
4.998999999999999
100
AcDbArc
 50
335.769261
 51
65.77991100000004
  0
ARC
  5
1E9
330
20
100
AcDbEntity
  8
_0-0_LAYER001
  6
Continuous
 62
     7
100
AcDbCircle
 10
1681.101956499999
 20
981.0154085
 30
0.0
 40
4.998999999999999
100
AcDbArc
 50
335.769261
 51
65.77991100000004
  0
ARC
  5
1EA
330
20
100
AcDbEntity
  8
_0-0_LAYER001
  6
Continuous
 62
     7
100
AcDbCircle
 10
1623.310867499999
 20
1082.0288185
 30
0.0
 40
6.147001
100
AcDbArc
 50
156.130261
 51
190.137541
  0
ARC
  5
1EB
330
20
100
AcDbEntity
  8
_0-0_LAYER001
  6
Continuous
 62
     7
100
AcDbCircle
 10
1614.784827499999
 20
1063.056011499999
 30
0.0
 40
6.158
100
AcDbArc
 50
121.444424
 51
155.399075
  0
ARC
  5
1EC
330
20
100
AcDbEntity
  8
_0-0_LAYER001
  6
Continuous
 62
     7
100
AcDbCircle
 10
1634.319071499999
 20
1065.672142499999
 30
0.0
 40
22.898998
100
AcDbArc
 50
138.167996
 51
173.38351
  0
ARC
  5
1ED
330
20
100
AcDbEntity
  8
_0-0_LAYER001
  6
Continuous
 62
     7
100
AcDbCircle
 10
1633.016882499999
 20
1054.8536315
 30
0.0
 40
6.147999999999998
100
AcDbArc
 50
336.107251
 51
10.12199099999996
  0
ARC
  5
1EE
330
20
100
AcDbEntity
  8
_0-0_LAYER001
  6
Continuous
 62
     7
100
AcDbCircle
 10
1641.550494499999
 20
1073.8152475
 30
0.0
 40
6.147999999999998
100
AcDbArc
 50
301.443981
 51
335.446241
  0
ARC
  5
1EF
330
20
100
AcDbEntity
  8
_0-0_LAYER001
  6
Continuous
 62
     7
100
AcDbCircle
 10
1621.974147499999
 20
1071.2249515
 30
0.0
 40
22.936001
100
AcDbArc
 50
318.195911
 51
353.352681
  0
LINE
  5
1F0
330
20
100
AcDbEntity
  8
_0-0_LAYER001
  6
Continuous
 62
     7
100
AcDbLine
 10
1516.704773499999
 20
1203.5810235
 30
0.0
 11
1141.833698499999
 21
1034.8893745
 31
0.0
  0
LINE
  5
1F1
330
20
100
AcDbEntity
  8
_0-0_LAYER001
  6
Continuous
 62
     7
100
AcDbLine
 10
1516.704773499999
 20
1203.5810235
 30
0.0
 11
1891.575847499999
 21
1034.8893745
 31
0.0
  0
LINE
  5
1F2
330
20
100
AcDbEntity
  8
_0-0_LAYER001
  6
Continuous
 62
     7
100
AcDbLine
 10
703.9942504999995
 20
842.5113924999998
 30
0.0
 11
731.5647144999993
 21
854.3380364999999
 31
0.0
  0
LINE
  5
1F3
330
20
100
AcDbEntity
  8
_0-0_LAYER001
  6
Continuous
 62
     7
100
AcDbLine
 10
731.5647144999993
 20
854.3380364999999
 30
0.0
 11
725.6513914999997
 21
868.1232684999999
 31
0.0
  0
LINE
  5
1F4
330
20
100
AcDbEntity
  8
_0-0_LAYER001
  6
Continuous
 62
     7
100
AcDbLine
 10
725.6513914999997
 20
868.1232684999999
 30
0.0
 11
698.0809274999996
 21
856.2966245
 31
0.0
  0
LINE
  5
1F5
330
20
100
AcDbEntity
  8
_0-0_LAYER001
  6
Continuous
 62
     7
100
AcDbLine
 10
698.0809274999996
 20
856.2966245
 30
0.0
 11
703.9942504999995
 21
842.5113924999998
 31
0.0
  0
LINE
  5
1F6
330
20
100
AcDbEntity
  8
_0-0_LAYER001
  6
Continuous
 62
     7
100
AcDbLine
 10
725.6513914999997
 20
868.1232684999999
 30
0.0
 11
703.9942504999995
 21
842.5113924999998
 31
0.0
  0
LINE
  5
1F7
330
20
100
AcDbEntity
  8
_0-0_LAYER001
  6
Continuous
 62
     7
100
AcDbLine
 10
959.0019144999997
 20
957.0749055
 30
0.0
 11
986.6694154999997
 21
968.6727225
 31
0.0
  0
LINE
  5
1F8
330
20
100
AcDbEntity
  8
_0-0_LAYER001
  6
Continuous
 62
     7
100
AcDbLine
 10
986.6694154999997
 20
968.6727225
 30
0.0
 11
980.8705074999993
 21
982.5064734999997
 31
0.0
  0
LINE
  5
1F9
330
20
100
AcDbEntity
  8
_0-0_LAYER001
  6
Continuous
 62
     7
100
AcDbLine
 10
980.8705074999993
 20
982.5064734999997
 30
0.0
 11
953.2030054999996
 21
970.9086564999999
 31
0.0
  0
LINE
  5
1FA
330
20
100
AcDbEntity
  8
_0-0_LAYER001
  6
Continuous
 62
     7
100
AcDbLine
 10
953.2030054999996
 20
970.9086564999999
 30
0.0
 11
959.0019144999997
 21
957.0749055
 31
0.0
  0
LINE
  5
1FB
330
20
100
AcDbEntity
  8
_0-0_LAYER001
  6
Continuous
 62
     7
100
AcDbLine
 10
980.8705074999993
 20
982.5064734999997
 30
0.0
 11
959.0019144999997
 21
957.0749055
 31
0.0
  0
LINE
  5
1FC
330
20
100
AcDbEntity
  8
_0-0_LAYER001
  6
Continuous
 62
     7
100
AcDbLine
 10
1214.320748499999
 20
1072.0196545
 30
0.0
 11
1241.988249499999
 21
1083.6174705
 31
0.0
  0
LINE
  5
1FD
330
20
100
AcDbEntity
  8
_0-0_LAYER001
  6
Continuous
 62
     7
100
AcDbLine
 10
1241.988249499999
 20
1083.6174705
 30
0.0
 11
1236.189341499999
 21
1097.4512215
 31
0.0
  0
LINE
  5
1FE
330
20
100
AcDbEntity
  8
_0-0_LAYER001
  6
Continuous
 62
     7
100
AcDbLine
 10
1236.189341499999
 20
1097.4512215
 30
0.0
 11
1208.521839499999
 21
1085.853405499999
 31
0.0
  0
LINE
  5
1FF
330
20
100
AcDbEntity
  8
_0-0_LAYER001
  6
Continuous
 62
     7
100
AcDbLine
 10
1208.521839499999
 20
1085.853405499999
 30
0.0
 11
1214.320748499999
 21
1072.0196545
 31
0.0
  0
LINE
  5
200
330
20
100
AcDbEntity
  8
_0-0_LAYER001
  6
Continuous
 62
     7
100
AcDbLine
 10
1236.189341499999
 20
1097.4512215
 30
0.0
 11
1214.320748499999
 21
1072.0196545
 31
0.0
  0
LINE
  5
201
330
20
100
AcDbEntity
  8
_0-0_LAYER001
  6
Continuous
 62
     7
100
AcDbLine
 10
1469.6395825
 20
1186.9644025
 30
0.0
 11
1497.307084499999
 21
1198.5622185
 31
0.0
  0
LINE
  5
202
330
20
100
AcDbEntity
  8
_0-0_LAYER001
  6
Continuous
 62
     7
100
AcDbLine
 10
1497.307084499999
 20
1198.5622185
 30
0.0
 11
1491.508175499999
 21
1212.3959695
 31
0.0
  0
LINE
  5
203
330
20
100
AcDbEntity
  8
_0-0_LAYER001
  6
Continuous
 62
     7
100
AcDbLine
 10
1491.508175499999
 20
1212.3959695
 30
0.0
 11
1463.840674499999
 21
1200.7981535
 31
0.0
  0
LINE
  5
204
330
20
100
AcDbEntity
  8
_0-0_LAYER001
  6
Continuous
 62
     7
100
AcDbLine
 10
1463.840674499999
 20
1200.7981535
 30
0.0
 11
1469.6395825
 21
1186.9644025
 31
0.0
  0
LINE
  5
205
330
20
100
AcDbEntity
  8
_0-0_LAYER001
  6
Continuous
 62
     7
100
AcDbLine
 10
1491.508175499999
 20
1212.3959695
 30
0.0
 11
1469.6395825
 21
1186.9644025
 31
0.0
  0
LINE
  5
206
330
20
100
AcDbEntity
  8
_0-0_LAYER001
  6
Continuous
 62
     7
100
AcDbLine
 10
571.6854304999998
 20
1012.6516255
 30
0.0
 11
593.5320104999996
 21
1022.4825625
 31
0.0
  0
CIRCLE
  5
207
330
20
100
AcDbEntity
  8
_0-0_LAYER001
  6
Continuous
 62
     7
100
AcDbCircle
 10
593.5320104999996
 20
1022.4825625
 30
0.0
 40
1.699999999999999
  0
LINE
  5
208
330
20
100
AcDbEntity
  8
_0-0_LAYER001
  6
Continuous
 62
     7
100
AcDbLine
 10
592.5061004999991
 20
1024.7623665
 30
0.0
 11
614.0502024999996
 21
976.8864684999998
 31
0.0
  0
LINE
  5
209
330
20
100
AcDbEntity
  8
_0-0_LAYER001
  6
Continuous
 62
     7
100
AcDbLine
 10
584.2988234999994
 20
1043.0008045
 30
0.0
 11
605.8429254999996
 21
995.1249054999998
 31
0.0
  0
CIRCLE
  5
20A
330
20
100
AcDbEntity
  8
_0-0_LAYER001
  6
Continuous
 62
     7
100
AcDbCircle
 10
585.3247334999998
 20
1040.720999499999
 30
0.0
 40
1.699999999999999
  0
LINE
  5
20B
330
20
100
AcDbEntity
  8
_0-0_LAYER001
  6
Continuous
 62
     7
100
AcDbLine
 10
585.3247334999998
 20
1040.720999499999
 30
0.0
 11
840.6628584999994
 21
1155.6228775
 31
0.0
  0
CIRCLE
  5
20C
330
20
100
AcDbEntity
  8
_0-0_LAYER001
  6
Continuous
 62
     7
100
AcDbCircle
 10
840.6628584999994
 20
1155.6228775
 30
0.0
 40
1.699999999999999
  0
LINE
  5
20D
330
20
100
AcDbEntity
  8
_0-0_LAYER001
  6
Continuous
 62
     7
100
AcDbLine
 10
839.6369494999994
 20
1157.9026825
 30
0.0
 11
861.1810514999998
 21
1110.0267835
 31
0.0
  0
LINE
  5
20E
330
20
100
AcDbEntity
  8
_0-0_LAYER001
  6
Continuous
 62
     7
100
AcDbLine
 10
831.4296724999996
 20
1176.141119499999
 30
0.0
 11
852.9737744999994
 21
1128.265221499999
 31
0.0
  0
CIRCLE
  5
20F
330
20
100
AcDbEntity
  8
_0-0_LAYER001
  6
Continuous
 62
     7
100
AcDbCircle
 10
832.4555814999994
 20
1173.861315499999
 30
0.0
 40
1.699999999999999
  0
LINE
  5
210
330
20
100
AcDbEntity
  8
_0-0_LAYER001
  6
Continuous
 62
     7
100
AcDbLine
 10
832.4555814999994
 20
1173.861315499999
 30
0.0
 11
1087.7937075
 21
1288.7631935
 31
0.0
  0
CIRCLE
  5
211
330
20
100
AcDbEntity
  8
_0-0_LAYER001
  6
Continuous
 62
     7
100
AcDbCircle
 10
1087.7937075
 20
1288.7631935
 30
0.0
 40
1.699999999999999
  0
LINE
  5
212
330
20
100
AcDbEntity
  8
_0-0_LAYER001
  6
Continuous
 62
     7
100
AcDbLine
 10
1086.7677975
 20
1291.0429985
 30
0.0
 11
1108.3118995
 21
1243.1670995
 31
0.0
  0
LINE
  5
213
330
20
100
AcDbEntity
  8
_0-0_LAYER001
  6
Continuous
 62
     7
100
AcDbLine
 10
1078.560520499999
 20
1309.281435499999
 30
0.0
 11
1100.104622499999
 21
1261.405537499999
 31
0.0
  0
CIRCLE
  5
214
330
20
100
AcDbEntity
  8
_0-0_LAYER001
  6
Continuous
 62
     7
100
AcDbCircle
 10
1079.5864305
 20
1307.0016305
 30
0.0
 40
1.699999999999999
  0
LINE
  5
215
330
20
100
AcDbEntity
  8
_0-0_LAYER001
  6
Continuous
 62
     7
100
AcDbLine
 10
1079.5864305
 20
1307.0016305
 30
0.0
 11
1334.9245565
 21
1421.9035095
 31
0.0
  0
CIRCLE
  5
216
330
20
100
AcDbEntity
  8
_0-0_LAYER001
  6
Continuous
 62
     7
100
AcDbCircle
 10
1334.9245565
 20
1421.9035095
 30
0.0
 40
1.699999999999999
  0
LINE
  5
217
330
20
100
AcDbEntity
  8
_0-0_LAYER001
  6
Continuous
 62
     7
100
AcDbLine
 10
1333.8986465
 20
1424.1833135
 30
0.0
 11
1355.4427485
 21
1376.3074155
 31
0.0
  0
LINE
  5
218
330
20
100
AcDbEntity
  8
_0-0_LAYER001
  6
Continuous
 62
     7
100
AcDbLine
 10
2329.4151675
 20
842.5113924999998
 30
0.0
 11
2301.8447035
 21
854.3380364999999
 31
0.0
  0
LINE
  5
219
330
20
100
AcDbEntity
  8
_0-0_LAYER001
  6
Continuous
 62
     7
100
AcDbLine
 10
2301.8447035
 20
854.3380364999999
 30
0.0
 11
2307.7580255
 21
868.1232684999999
 31
0.0
  0
LINE
  5
21A
330
20
100
AcDbEntity
  8
_0-0_LAYER001
  6
Continuous
 62
     7
100
AcDbLine
 10
2307.7580255
 20
868.1232684999999
 30
0.0
 11
2335.3284895
 21
856.2966245
 31
0.0
  0
LINE
  5
21B
330
20
100
AcDbEntity
  8
_0-0_LAYER001
  6
Continuous
 62
     7
100
AcDbLine
 10
2335.3284895
 20
856.2966245
 30
0.0
 11
2329.4151675
 21
842.5113924999998
 31
0.0
  0
LINE
  5
21C
330
20
100
AcDbEntity
  8
_0-0_LAYER001
  6
Continuous
 62
     7
100
AcDbLine
 10
2307.7580255
 20
868.1232684999999
 30
0.0
 11
2329.4151675
 21
842.5113924999998
 31
0.0
  0
LINE
  5
21D
330
20
100
AcDbEntity
  8
_0-0_LAYER001
  6
Continuous
 62
     7
100
AcDbLine
 10
2074.4075035
 20
957.0749055
 30
0.0
 11
2046.7400025
 21
968.6727225
 31
0.0
  0
LINE
  5
21E
330
20
100
AcDbEntity
  8
_0-0_LAYER001
  6
Continuous
 62
     7
100
AcDbLine
 10
2046.7400025
 20
968.6727225
 30
0.0
 11
2052.5389105
 21
982.5064734999997
 31
0.0
  0
LINE
  5
21F
330
20
100
AcDbEntity
  8
_0-0_LAYER001
  6
Continuous
 62
     7
100
AcDbLine
 10
2052.5389105
 20
982.5064734999997
 30
0.0
 11
2080.2064125
 21
970.9086564999999
 31
0.0
  0
LINE
  5
220
330
20
100
AcDbEntity
  8
_0-0_LAYER001
  6
Continuous
 62
     7
100
AcDbLine
 10
2080.2064125
 20
970.9086564999999
 30
0.0
 11
2074.4075035
 21
957.0749055
 31
0.0
  0
LINE
  5
221
330
20
100
AcDbEntity
  8
_0-0_LAYER001
  6
Continuous
 62
     7
100
AcDbLine
 10
2052.5389105
 20
982.5064734999997
 30
0.0
 11
2074.4075035
 21
957.0749055
 31
0.0
  0
LINE
  5
222
330
20
100
AcDbEntity
  8
_0-0_LAYER001
  6
Continuous
 62
     7
100
AcDbLine
 10
1819.0886695
 20
1072.0196545
 30
0.0
 11
1791.421167499999
 21
1083.6174705
 31
0.0
  0
LINE
  5
223
330
20
100
AcDbEntity
  8
_0-0_LAYER001
  6
Continuous
 62
     7
100
AcDbLine
 10
1791.421167499999
 20
1083.6174705
 30
0.0
 11
1797.220076499999
 21
1097.4512215
 31
0.0
  0
LINE
  5
224
330
20
100
AcDbEntity
  8
_0-0_LAYER001
  6
Continuous
 62
     7
100
AcDbLine
 10
1797.220076499999
 20
1097.4512215
 30
0.0
 11
1824.8875775
 21
1085.853405499999
 31
0.0
  0
LINE
  5
225
330
20
100
AcDbEntity
  8
_0-0_LAYER001
  6
Continuous
 62
     7
100
AcDbLine
 10
1824.8875775
 20
1085.853405499999
 30
0.0
 11
1819.0886695
 21
1072.0196545
 31
0.0
  0
LINE
  5
226
330
20
100
AcDbEntity
  8
_0-0_LAYER001
  6
Continuous
 62
     7
100
AcDbLine
 10
1797.220076499999
 20
1097.4512215
 30
0.0
 11
1819.0886695
 21
1072.0196545
 31
0.0
  0
LINE
  5
227
330
20
100
AcDbEntity
  8
_0-0_LAYER001
  6
Continuous
 62
     7
100
AcDbLine
 10
1563.769835499999
 20
1186.9644025
 30
0.0
 11
1536.102333499999
 21
1198.5622185
 31
0.0
  0
LINE
  5
228
330
20
100
AcDbEntity
  8
_0-0_LAYER001
  6
Continuous
 62
     7
100
AcDbLine
 10
1536.102333499999
 20
1198.5622185
 30
0.0
 11
1541.901242499999
 21
1212.3959695
 31
0.0
  0
LINE
  5
229
330
20
100
AcDbEntity
  8
_0-0_LAYER001
  6
Continuous
 62
     7
100
AcDbLine
 10
1541.901242499999
 20
1212.3959695
 30
0.0
 11
1569.5687435
 21
1200.7981535
 31
0.0
  0
LINE
  5
22A
330
20
100
AcDbEntity
  8
_0-0_LAYER001
  6
Continuous
 62
     7
100
AcDbLine
 10
1569.5687435
 20
1200.7981535
 30
0.0
 11
1563.769835499999
 21
1186.9644025
 31
0.0
  0
LINE
  5
22B
330
20
100
AcDbEntity
  8
_0-0_LAYER001
  6
Continuous
 62
     7
100
AcDbLine
 10
1541.901242499999
 20
1212.3959695
 30
0.0
 11
1563.769835499999
 21
1186.9644025
 31
0.0
  0
ARC
  5
22C
330
20
100
AcDbEntity
  8
_0-0_LAYER001
  6
Continuous
 62
     7
100
AcDbCircle
 10
1416.508583499999
 20
1227.3121555
 30
0.0
 40
25.186167
100
AcDbArc
 50
4.372613
 51
31.35746200000001
  0
ARC
  5
22D
330
20
100
AcDbEntity
  8
_0-0_LAYER001
  6
Continuous
 62
     7
100
AcDbCircle
 10
1616.900834499999
 20
1227.3121555
 30
0.0
 40
25.186167
100
AcDbArc
 50
148.642538
 51
175.627387
  0
LINE
  5
22E
330
20
100
AcDbEntity
  8
_0-0_LAYER001
  6
Continuous
 62
     7
100
AcDbLine
 10
1433.230771499999
 20
1238.2650825
 30
0.0
 11
1515.303740499999
 21
1275.1978285
 31
0.0
  0
LINE
  5
22F
330
20
100
AcDbEntity
  8
_0-0_LAYER001
  6
Continuous
 62
     7
100
AcDbLine
 10
1515.303740499999
 20
1275.1978285
 30
0.0
 11
1509.148282499999
 21
1288.8766565
 31
0.0
  0
LINE
  5
230
330
20
100
AcDbEntity
  8
_0-0_LAYER001
  6
Continuous
 62
     7
100
AcDbLine
 10
1509.148282499999
 20
1288.8766565
 30
0.0
 11
1427.075313499999
 21
1251.9439105
 31
0.0
  0
LINE
  5
231
330
20
100
AcDbEntity
  8
_0-0_LAYER001
  6
Continuous
 62
     7
100
AcDbLine
 10
1427.075313499999
 20
1251.9439105
 30
0.0
 11
1433.230771499999
 21
1238.2650825
 31
0.0
  0
LINE
  5
232
330
20
100
AcDbEntity
  8
_0-0_LAYER001
  6
Continuous
 62
     7
100
AcDbLine
 10
1433.230771499999
 20
1238.2650825
 30
0.0
 11
1509.148282499999
 21
1288.8766565
 31
0.0
  0
LINE
  5
233
330
20
100
AcDbEntity
  8
_0-0_LAYER001
  6
Continuous
 62
     7
100
AcDbLine
 10
1600.2781065
 20
1238.2203255
 30
0.0
 11
1518.205137499999
 21
1275.1530715
 31
0.0
  0
LINE
  5
234
330
20
100
AcDbEntity
  8
_0-0_LAYER001
  6
Continuous
 62
     7
100
AcDbLine
 10
1518.205137499999
 20
1275.1530715
 30
0.0
 11
1524.360595499999
 21
1288.8318995
 31
0.0
  0
LINE
  5
235
330
20
100
AcDbEntity
  8
_0-0_LAYER001
  6
Continuous
 62
     7
100
AcDbLine
 10
1524.360595499999
 20
1288.8318995
 30
0.0
 11
1606.433564499999
 21
1251.8991535
 31
0.0
  0
LINE
  5
236
330
20
100
AcDbEntity
  8
_0-0_LAYER001
  6
Continuous
 62
     7
100
AcDbLine
 10
1606.433564499999
 20
1251.8991535
 30
0.0
 11
1600.2781065
 21
1238.2203255
 31
0.0
  0
LINE
  5
237
330
20
100
AcDbEntity
  8
_0-0_LAYER001
  6
Continuous
 62
     7
100
AcDbLine
 10
1600.2781065
 20
1238.2203255
 30
0.0
 11
1524.360595499999
 21
1288.8318995
 31
0.0
  0
LINE
  5
238
330
20
100
AcDbEntity
  8
_0-0_LAYER001
  6
Continuous
 62
     7
100
AcDbLine
 10
1449.950881499999
 20
1245.7891135
 30
0.0
 11
1454.758483499999
 21
1233.2629555
 31
0.0
  0
LINE
  5
239
330
20
100
AcDbEntity
  8
_0-0_LAYER001
  6
Continuous
 62
     7
100
AcDbLine
 10
1583.458536499999
 20
1245.7891135
 30
0.0
 11
1578.650934499999
 21
1233.2629555
 31
0.0
  0
LINE
  5
23A
330
20
100
AcDbEntity
  8
_0-0_LAYER001
  6
Continuous
 62
     7
100
AcDbLine
 10
1406.693842499999
 20
1224.1303225
 30
0.0
 11
1416.399859499999
 21
1223.4741845
 31
0.0
  0
LINE
  5
23B
330
20
100
AcDbEntity
  8
_0-0_LAYER001
  6
Continuous
 62
     7
100
AcDbLine
 10
1432.1253015
 20
1235.5744515
 30
0.0
 11
1406.693842499999
 21
1224.1303225
 31
0.0
  0
LINE
  5
23C
330
20
100
AcDbEntity
  8
_0-0_LAYER001
  6
Continuous
 62
     7
100
AcDbLine
 10
1626.715575499999
 20
1224.1303225
 30
0.0
 11
1617.0095585
 21
1223.4741845
 31
0.0
  0
LINE
  5
23D
330
20
100
AcDbEntity
  8
_0-0_LAYER001
  6
Continuous
 62
     7
100
AcDbLine
 10
1601.428157499999
 20
1235.509633499999
 30
0.0
 11
1626.715575499999
 21
1224.1303225
 31
0.0
  0
LINE
  5
23E
330
20
100
AcDbEntity
  8
_0-0_LAYER001
  6
Continuous
 62
     7
100
AcDbLine
 10
1516.704708499999
 20
1295.5667965
 30
0.0
 11
1423.918024499999
 21
1253.8128895
 31
0.0
  0
LINE
  5
23F
330
20
100
AcDbEntity
  8
_0-0_LAYER001
  6
Continuous
 62
     7
100
AcDbLine
 10
1516.704708499999
 20
1295.5667965
 30
0.0
 11
1609.6354345
 21
1253.748070499999
 31
0.0
  0
LINE
  5
240
330
20
100
AcDbEntity
  8
_0-0_LAYER001
  6
Continuous
 62
     7
100
AcDbLine
 10
771.8322754999997
 20
725.2848464999998
 30
0.0
 11
833.8434644999995
 21
753.1900954999998
 31
0.0
  0
LINE
  5
241
330
20
100
AcDbEntity
  8
_0-0_LAYER001
  6
Continuous
 62
     7
100
AcDbLine
 10
769.3249764999997
 20
718.6736844999998
 30
0.0
 11
770.1458514999993
 21
716.8497724999999
 31
0.0
  0
LINE
  5
242
330
20
100
AcDbEntity
  8
_0-0_LAYER001
  6
Continuous
 62
     7
100
AcDbLine
 10
770.1458514999993
 20
716.8497724999999
 30
0.0
 11
852.2190304999993
 21
753.7821714999999
 31
0.0
  0
ARC
  5
243
330
20
100
AcDbEntity
  8
_0-0_LAYER001
  6
Continuous
 62
     7
100
AcDbCircle
 10
829.7377934999994
 20
762.3103834999998
 30
0.0
 40
10.001999
100
AcDbArc
 50
294.236266
 51
24.22349600000002
  0
ARC
  5
244
330
20
100
AcDbEntity
  8
_0-0_LAYER001
  6
Continuous
 62
     7
100
AcDbCircle
 10
773.8830784999995
 20
720.7254265
 30
0.0
 40
4.998999999999999
100
AcDbArc
 50
114.219805
 51
204.230446
  0
LINE
  5
245
330
20
100
AcDbEntity
  8
_0-0_LAYER001
  6
Continuous
 62
     7
100
AcDbLine
 10
847.2681004999994
 20
804.1928914999997
 30
0.0
 11
847.0522084999995
 21
802.0595724999997
 31
0.0
  0
LINE
  5
246
330
20
100
AcDbEntity
  8
_0-0_LAYER001
  6
Continuous
 62
     7
100
AcDbLine
 10
847.7235594999998
 20
826.3274134999997
 30
0.0
 11
851.7156954999997
 21
810.5791634999999
 31
0.0
  0
LINE
  5
247
330
20
100
AcDbEntity
  8
_0-0_LAYER001
  6
Continuous
 62
     7
100
AcDbLine
 10
842.1672564999994
 20
823.8267934999999
 30
0.0
 11
846.1606694999996
 21
808.0787014999998
 31
0.0
  0
LINE
  5
248
330
20
100
AcDbEntity
  8
_0-0_LAYER001
  6
Continuous
 62
     7
100
AcDbLine
 10
847.7235594999998
 20
826.3274134999997
 30
0.0
 11
850.3682554999997
 21
825.3242814999998
 31
0.0
  0
LINE
  5
249
330
20
100
AcDbEntity
  8
_0-0_LAYER001
  6
Continuous
 62
     7
100
AcDbLine
 10
845.6269904999993
 20
807.8394474999999
 30
0.0
 11
854.2890434999993
 21
811.7370854999998
 31
0.0
  0
LINE
  5
24A
330
20
100
AcDbEntity
  8
_0-0_LAYER001
  6
Continuous
 62
     7
100
AcDbLine
 10
847.7235594999998
 20
826.3274134999997
 30
0.0
 11
854.2890434999993
 21
811.7370854999998
 31
0.0
  0
LINE
  5
24B
330
20
100
AcDbEntity
  8
_0-0_LAYER001
  6
Continuous
 62
     7
100
AcDbLine
 10
855.2929484999994
 20
814.3820214999998
 30
0.0
 11
854.2890434999993
 21
811.7370854999998
 31
0.0
  0
LINE
  5
24C
330
20
100
AcDbEntity
  8
_0-0_LAYER001
  6
Continuous
 62
     7
100
AcDbLine
 10
850.3682554999997
 20
825.3242814999998
 30
0.0
 11
855.2929484999994
 21
814.3820214999998
 31
0.0
  0
ARC
  5
24D
330
20
100
AcDbEntity
  8
_0-0_LAYER001
  6
Continuous
 62
     7
100
AcDbCircle
 10
840.9957814999993
 20
803.1232745
 30
0.0
 40
6.158
100
AcDbArc
 50
24.600706
 51
58.555361
  0
LINE
  5
24E
330
20
100
AcDbEntity
  8
_0-0_LAYER001
  6
Continuous
 62
     7
100
AcDbLine
 10
813.4613774999992
 20
835.0355634999997
 30
0.0
 11
815.2851854999994
 21
835.8555514999999
 31
0.0
  0
LINE
  5
24F
330
20
100
AcDbEntity
  8
_0-0_LAYER001
  6
Continuous
 62
     7
100
AcDbLine
 10
852.2188394999995
 20
753.7825784999999
 30
0.0
 11
815.2851854999994
 21
835.8555514999999
 31
0.0
  0
LINE
  5
250
330
20
100
AcDbEntity
  8
_0-0_LAYER001
  6
Continuous
 62
     7
100
AcDbLine
 10
810.9539204999997
 20
828.4233874999999
 30
0.0
 11
838.8591724999995
 21
766.4131814999998
 31
0.0
  0
LINE
  5
251
330
20
100
AcDbEntity
  8
_0-0_LAYER001
  6
Continuous
 62
     7
100
AcDbLine
 10
830.4886764999997
 20
809.7993434999999
 30
0.0
 11
833.2250014999996
 21
811.0302354999999
 31
0.0
  0
LINE
  5
252
330
20
100
AcDbEntity
  8
_0-0_LAYER001
  6
Continuous
 62
     7
100
AcDbLine
 10
823.9230314999996
 20
824.3896054999998
 30
0.0
 11
826.6591734999996
 21
825.6204514999998
 31
0.0
  0
LINE
  5
253
330
20
100
AcDbEntity
  8
_0-0_LAYER001
  6
Continuous
 62
     7
100
AcDbLine
 10
839.7904894999998
 20
796.4412794999998
 30
0.0
 11
826.6591734999996
 21
825.6204514999998
 31
0.0
  0
LINE
  5
254
330
20
100
AcDbEntity
  8
_0-0_LAYER001
  6
Continuous
 62
     7
100
AcDbLine
 10
837.0541714999994
 20
795.2092275
 30
0.0
 11
839.7904894999998
 21
796.4412794999998
 31
0.0
  0
LINE
  5
255
330
20
100
AcDbEntity
  8
_0-0_LAYER001
  6
Continuous
 62
     7
100
AcDbLine
 10
844.2091484999997
 20
808.3780994999997
 30
0.0
 11
836.0678314999995
 21
804.7150564999999
 31
0.0
  0
LINE
  5
256
330
20
100
AcDbEntity
  8
_0-0_LAYER001
  6
Continuous
 62
     7
100
AcDbLine
 10
838.5231744999996
 20
821.0126114999997
 30
0.0
 11
830.3828964999993
 21
817.3487874999999
 31
0.0
  0
LINE
  5
257
330
20
100
AcDbEntity
  8
_0-0_LAYER001
  6
Continuous
 62
     7
100
AcDbLine
 10
835.6811424999998
 20
827.3310224999999
 30
0.0
 11
827.5388184999997
 21
823.6669075
 31
0.0
  0
LINE
  5
258
330
20
100
AcDbEntity
  8
_0-0_LAYER001
  6
Continuous
 62
     7
100
AcDbLine
 10
837.4185534999998
 20
826.0793324999998
 30
0.0
 11
835.6811424999998
 21
827.3310224999999
 31
0.0
  0
LINE
  5
259
330
20
100
AcDbEntity
  8
_0-0_LAYER001
  6
Continuous
 62
     7
100
AcDbLine
 10
847.2681004999994
 20
804.1928914999997
 30
0.0
 11
837.4185534999998
 21
826.0793324999998
 31
0.0
  0
LINE
  5
25A
330
20
100
AcDbEntity
  8
_0-0_LAYER001
  6
Continuous
 62
     7
100
AcDbLine
 10
847.0522084999995
 20
802.0595724999997
 30
0.0
 11
838.9109394999996
 21
798.3958294999999
 31
0.0
  0
LINE
  5
25B
330
20
100
AcDbEntity
  8
_0-0_LAYER001
  6
Continuous
 62
     7
100
AcDbLine
 10
810.2281914999993
 20
808.2787344999998
 30
0.0
 11
818.3693674999995
 21
811.9417764999997
 31
0.0
  0
LINE
  5
25C
330
20
100
AcDbEntity
  8
_0-0_LAYER001
  6
Continuous
 62
     7
100
AcDbLine
 10
815.9139504999995
 20
795.6440004999998
 30
0.0
 11
824.0553694999993
 21
799.3080424999998
 31
0.0
  0
LINE
  5
25D
330
20
100
AcDbEntity
  8
_0-0_LAYER001
  6
Continuous
 62
     7
100
AcDbLine
 10
818.7562044999994
 20
789.3258184999998
 30
0.0
 11
826.8982924999995
 21
792.9896474999998
 31
0.0
  0
LINE
  5
25E
330
20
100
AcDbEntity
  8
_0-0_LAYER001
  6
Continuous
 62
     7
100
AcDbLine
 10
817.0186844999994
 20
790.5773094999998
 30
0.0
 11
818.7562044999994
 21
789.3258184999998
 31
0.0
  0
LINE
  5
25F
330
20
100
AcDbEntity
  8
_0-0_LAYER001
  6
Continuous
 62
     7
100
AcDbLine
 10
807.1692104999996
 20
812.4639714999998
 30
0.0
 11
817.0186844999994
 21
790.5773094999998
 31
0.0
  0
LINE
  5
260
330
20
100
AcDbEntity
  8
_0-0_LAYER001
  6
Continuous
 62
     7
100
AcDbLine
 10
807.3849194999993
 20
814.5968834999999
 30
0.0
 11
815.5261344999995
 21
818.2609014999998
 31
0.0
  0
LINE
  5
261
330
20
100
AcDbEntity
  8
_0-0_LAYER001
  6
Continuous
 62
     7
100
AcDbLine
 10
807.1692104999996
 20
812.4639714999998
 30
0.0
 11
807.3849194999993
 21
814.5968834999999
 31
0.0
  0
LINE
  5
262
330
20
100
AcDbEntity
  8
_0-0_LAYER001
  6
Continuous
 62
     7
100
AcDbLine
 10
839.0613974999997
 20
822.4287834999996
 30
0.0
 11
847.7235594999998
 21
826.3274134999997
 31
0.0
  0
ARC
  5
263
330
20
100
AcDbEntity
  8
_0-0_LAYER001
  6
Continuous
 62
     7
100
AcDbCircle
 10
815.5120744999994
 20
830.4753704999997
 30
0.0
 40
4.998999999999999
100
AcDbArc
 50
114.219805
 51
204.230446
  0
ARC
  5
264
330
20
100
AcDbEntity
  8
_0-0_LAYER001
  6
Continuous
 62
     7
100
AcDbCircle
 10
832.4698294999993
 20
822.0961004999997
 30
0.0
 40
6.147001
100
AcDbArc
 50
349.8620160000001
 51
23.86928600000006
  0
ARC
  5
265
330
20
100
AcDbEntity
  8
_0-0_LAYER001
  6
Continuous
 62
     7
100
AcDbCircle
 10
821.4615624999998
 20
805.7395254999999
 30
0.0
 40
22.898998
100
AcDbArc
 50
6.616325999999999
 51
41.83184600000001
  0
ARC
  5
266
330
20
100
AcDbEntity
  8
_0-0_LAYER001
  6
Continuous
 62
     7
100
AcDbCircle
 10
821.9683824999998
 20
794.5634084999998
 30
0.0
 40
6.147999999999998
100
AcDbArc
 50
169.877726
 51
203.8924660000001
  0
ARC
  5
267
330
20
100
AcDbEntity
  8
_0-0_LAYER001
  6
Continuous
 62
     7
100
AcDbCircle
 10
813.4347934999997
 20
813.5251354999997
 30
0.0
 40
6.147999999999998
100
AcDbArc
 50
204.553476
 51
238.555736
  0
ARC
  5
268
330
20
100
AcDbEntity
  8
_0-0_LAYER001
  6
Continuous
 62
     7
100
AcDbCircle
 10
833.0111874999994
 20
810.9346564999999
 30
0.0
 40
22.936001
100
AcDbArc
 50
186.646986
 51
221.803756
  0
LINE
  5
269
330
20
100
AcDbEntity
  8
_0-0_LAYER001
  6
Continuous
 62
     7
100
AcDbLine
 10
824.2371094999993
 20
889.2296184999999
 30
0.0
 11
815.1167854999993
 21
885.1255934999997
 31
0.0
  0
LINE
  5
26A
330
20
100
AcDbEntity
  8
_0-0_LAYER001
  6
Continuous
 62
     7
100
AcDbLine
 10
825.4670604999997
 20
886.4931354999999
 30
0.0
 11
816.3486314999996
 21
882.3904514999998
 31
0.0
  0
LINE
  5
26B
330
20
100
AcDbEntity
  8
_0-0_LAYER001
  6
Continuous
 62
     7
100
AcDbLine
 10
815.1167854999993
 20
885.1255934999997
 30
0.0
 11
816.3486314999996
 21
882.3904514999998
 31
0.0
  0
LINE
  5
26C
330
20
100
AcDbEntity
  8
_0-0_LAYER001
  6
Continuous
 62
     7
100
AcDbLine
 10
824.2371094999993
 20
889.2296184999999
 30
0.0
 11
825.4670604999997
 21
886.4931354999999
 31
0.0
  0
LINE
  5
26D
330
20
100
AcDbEntity
  8
_0-0_LAYER001
  6
Continuous
 62
     7
100
AcDbLine
 10
819.6770304999995
 20
887.1776694999999
 30
0.0
 11
820.9078714999996
 21
884.4411834999998
 31
0.0
  0
LINE
  5
26E
330
20
100
AcDbEntity
  8
_0-0_LAYER001
  6
Continuous
 62
     7
100
AcDbLine
 10
838.0789314999997
 20
846.2854314999997
 30
0.0
 11
833.9566804999995
 21
850.5716194999999
 31
0.0
  0
LINE
  5
26F
330
20
100
AcDbEntity
  8
_0-0_LAYER001
  6
Continuous
 62
     7
100
AcDbLine
 10
838.0789314999997
 20
846.2854314999997
 30
0.0
 11
837.6044374999997
 21
852.2124274999999
 31
0.0
  0
LINE
  5
270
330
20
100
AcDbEntity
  8
_0-0_LAYER001
  6
Continuous
 62
     7
100
AcDbLine
 10
824.4991124999996
 20
868.5743255
 30
0.0
 11
830.1267374999994
 21
872.2658694999999
 31
0.0
  0
LINE
  5
271
330
20
100
AcDbEntity
  8
_0-0_LAYER001
  6
Continuous
 62
     7
100
AcDbLine
 10
826.5509394999993
 20
864.0140504999997
 30
0.0
 11
832.1798044999997
 21
867.7058574999998
 31
0.0
  0
LINE
  5
272
330
20
100
AcDbEntity
  8
_0-0_LAYER001
  6
Continuous
 62
     7
100
AcDbLine
 10
828.6037584999993
 20
859.4549495
 30
0.0
 11
834.2306354999998
 21
863.1454894999999
 31
0.0
  0
LINE
  5
273
330
20
100
AcDbEntity
  8
_0-0_LAYER001
  6
Continuous
 62
     7
100
AcDbLine
 10
830.6547954999997
 20
854.8946704999998
 30
0.0
 11
836.2825124999993
 21
858.5864084999998
 31
0.0
  0
LINE
  5
274
330
20
100
AcDbEntity
  8
_0-0_LAYER001
  6
Continuous
 62
     7
100
AcDbLine
 10
832.1907294999997
 20
851.4826454999999
 30
0.0
 11
837.8181294999995
 21
855.1742895
 31
0.0
  0
LINE
  5
275
330
20
100
AcDbEntity
  8
_0-0_LAYER001
  6
Continuous
 62
     7
100
AcDbLine
 10
823.9628084999994
 20
882.5288495
 30
0.0
 11
837.6044374999997
 21
852.2124274999999
 31
0.0
  0
LINE
  5
276
330
20
100
AcDbEntity
  8
_0-0_LAYER001
  6
Continuous
 62
     7
100
AcDbLine
 10
825.4670604999997
 20
886.4931354999999
 30
0.0
 11
823.9628084999994
 21
882.5288495
 31
0.0
  0
LINE
  5
277
330
20
100
AcDbEntity
  8
_0-0_LAYER001
  6
Continuous
 62
     7
100
AcDbLine
 10
820.3162064999997
 20
880.8848855
 30
0.0
 11
833.9566804999995
 21
850.5716194999999
 31
0.0
  0
LINE
  5
278
330
20
100
AcDbEntity
  8
_0-0_LAYER001
  6
Continuous
 62
     7
100
AcDbLine
 10
816.3486314999996
 20
882.3904514999998
 30
0.0
 11
820.3162064999997
 21
880.8848855
 31
0.0
  0
LINE
  5
279
330
20
100
AcDbEntity
  8
_0-0_LAYER001
  6
Continuous
 62
     7
100
AcDbLine
 10
859.1896604999996
 20
855.6119924999999
 30
0.0
 11
861.2871484999997
 21
856.5557344999998
 31
0.0
  0
LINE
  5
27A
330
20
100
AcDbEntity
  8
_0-0_LAYER001
  6
Continuous
 62
     7
100
AcDbLine
 10
883.8113554999996
 20
800.8965814999998
 30
0.0
 11
885.9088924999998
 21
801.8403364999997
 31
0.0
  0
LINE
  5
27B
330
20
100
AcDbEntity
  8
_0-0_LAYER001
  6
Continuous
 62
     7
100
AcDbLine
 10
812.3487804999994
 20
853.9433204999996
 30
0.0
 11
850.1024664999995
 21
870.9322334999997
 31
0.0
  0
LINE
  5
27C
330
20
100
AcDbEntity
  8
_0-0_LAYER001
  6
Continuous
 62
     7
100
AcDbLine
 10
859.1896604999996
 20
855.6119924999999
 30
0.0
 11
852.7470524999994
 21
869.9291414999999
 31
0.0
  0
LINE
  5
27D
330
20
100
AcDbEntity
  8
_0-0_LAYER001
  6
Continuous
 62
     7
100
AcDbLine
 10
890.2540234999996
 20
786.5794544999999
 30
0.0
 11
883.8113554999996
 21
800.8965814999998
 31
0.0
  0
LINE
  5
27E
330
20
100
AcDbEntity
  8
_0-0_LAYER001
  6
Continuous
 62
     7
100
AcDbLine
 10
851.4973454999994
 20
766.9457294999999
 30
0.0
 11
889.2508304999996
 21
783.9346634999998
 31
0.0
  0
LINE
  5
27F
330
20
100
AcDbEntity
  8
_0-0_LAYER001
  6
Continuous
 62
     7
100
AcDbLine
 10
861.2871484999997
 20
856.5557344999998
 30
0.0
 11
854.8444304999993
 21
870.8728595000001
 31
0.0
  0
LINE
  5
280
330
20
100
AcDbEntity
  8
_0-0_LAYER001
  6
Continuous
 62
     7
100
AcDbLine
 10
811.4048864999995
 20
856.0405814999997
 30
0.0
 11
849.1585704999994
 21
873.0295544999998
 31
0.0
  0
LINE
  5
281
330
20
100
AcDbEntity
  8
_0-0_LAYER001
  6
Continuous
 62
     7
100
AcDbLine
 10
892.3516114999994
 20
787.5231914999998
 30
0.0
 11
885.9088924999998
 21
801.8403364999997
 31
0.0
  0
LINE
  5
282
330
20
100
AcDbEntity
  8
_0-0_LAYER001
  6
Continuous
 62
     7
100
AcDbLine
 10
852.4412544999995
 20
764.8483294999998
 30
0.0
 11
890.1946754999993
 21
781.8373604999998
 31
0.0
  0
LINE
  5
283
330
20
100
AcDbEntity
  8
_0-0_LAYER001
  6
Continuous
 62
     7
100
AcDbLine
 10
848.8527524999994
 20
767.9489804999998
 30
0.0
 11
811.3456754999997
 21
851.2988134999998
 31
0.0
  0
LINE
  5
284
330
20
100
AcDbEntity
  8
_0-0_LAYER001
  6
Continuous
 62
     7
100
AcDbLine
 10
809.2484204999998
 20
850.3547804999998
 30
0.0
 11
846.7554944999998
 21
767.0050274999998
 31
0.0
  0
ARC
  5
285
330
20
100
AcDbEntity
  8
_0-0_LAYER001
  6
Continuous
 62
     7
100
AcDbCircle
 10
850.9231354999997
 20
869.1083404999998
 30
0.0
 40
2.000002999999999
100
AcDbArc
 50
24.227636
 51
114.227627
  0
ARC
  5
286
330
20
100
AcDbEntity
  8
_0-0_LAYER001
  6
Continuous
 62
     7
100
AcDbCircle
 10
888.4301084999998
 20
785.7586034999997
 30
0.0
 40
2.000002999999999
100
AcDbArc
 50
294.227636
 51
24.22763600000004
  0
ARC
  5
287
330
20
100
AcDbEntity
  8
_0-0_LAYER001
  6
Continuous
 62
     7
100
AcDbCircle
 10
888.4301084999998
 20
785.7586034999997
 30
0.0
 40
4.299999999999999
100
AcDbArc
 50
294.227636
 51
24.22763600000004
  0
ARC
  5
288
330
20
100
AcDbEntity
  8
_0-0_LAYER001
  6
Continuous
 62
     7
100
AcDbCircle
 10
850.9231354999997
 20
869.1083404999998
 30
0.0
 40
4.299999999999999
100
AcDbArc
 50
24.227636
 51
114.227627
  0
ARC
  5
289
330
20
100
AcDbEntity
  8
_0-0_LAYER001
  6
Continuous
 62
     7
100
AcDbCircle
 10
813.1697094999994
 20
852.1194294999997
 30
0.0
 40
2.000002999999999
100
AcDbArc
 50
114.227627
 51
204.227636
  0
ARC
  5
28A
330
20
100
AcDbEntity
  8
_0-0_LAYER001
  6
Continuous
 62
     7
100
AcDbCircle
 10
850.6766774999997
 20
768.7695914999998
 30
0.0
 40
2.000002999999999
100
AcDbArc
 50
204.227636
 51
294.227636
  0
ARC
  5
28B
330
20
100
AcDbEntity
  8
_0-0_LAYER001
  6
Continuous
 62
     7
100
AcDbCircle
 10
850.6766774999997
 20
768.7695914999998
 30
0.0
 40
4.299999999999999
100
AcDbArc
 50
204.227636
 51
294.227636
  0
ARC
  5
28C
330
20
100
AcDbEntity
  8
_0-0_LAYER001
  6
Continuous
 62
     7
100
AcDbCircle
 10
813.1697094999994
 20
852.1194294999997
 30
0.0
 40
4.299999999999999
100
AcDbArc
 50
114.227627
 51
204.227636
  0
LINE
  5
28D
330
20
100
AcDbEntity
  8
_0-0_LAYER001
  6
Continuous
 62
     7
100
AcDbLine
 10
2261.5772715
 20
725.2848464999998
 30
0.0
 11
2199.566081499999
 21
753.1900954999998
 31
0.0
  0
LINE
  5
28E
330
20
100
AcDbEntity
  8
_0-0_LAYER001
  6
Continuous
 62
     7
100
AcDbLine
 10
2264.0845695
 20
718.6736844999998
 30
0.0
 11
2263.2636955
 21
716.8497724999999
 31
0.0
  0
LINE
  5
28F
330
20
100
AcDbEntity
  8
_0-0_LAYER001
  6
Continuous
 62
     7
100
AcDbLine
 10
2263.2636955
 20
716.8497724999999
 30
0.0
 11
2181.190515499999
 21
753.7821714999999
 31
0.0
  0
ARC
  5
290
330
20
100
AcDbEntity
  8
_0-0_LAYER001
  6
Continuous
 62
     7
100
AcDbCircle
 10
2203.6717535
 20
762.3103834999998
 30
0.0
 40
10.001999
100
AcDbArc
 50
155.776504
 51
245.763734
  0
ARC
  5
291
330
20
100
AcDbEntity
  8
_0-0_LAYER001
  6
Continuous
 62
     7
100
AcDbCircle
 10
2259.5264675
 20
720.7254265
 30
0.0
 40
4.998999999999999
100
AcDbArc
 50
335.769554
 51
65.78019500000002
  0
LINE
  5
292
330
20
100
AcDbEntity
  8
_0-0_LAYER001
  6
Continuous
 62
     7
100
AcDbLine
 10
2186.1414455
 20
804.1928914999997
 30
0.0
 11
2186.3573385
 21
802.0595724999997
 31
0.0
  0
LINE
  5
293
330
20
100
AcDbEntity
  8
_0-0_LAYER001
  6
Continuous
 62
     7
100
AcDbLine
 10
2185.6859865
 20
826.3274134999997
 30
0.0
 11
2181.693851499999
 21
810.5791634999999
 31
0.0
  0
LINE
  5
294
330
20
100
AcDbEntity
  8
_0-0_LAYER001
  6
Continuous
 62
     7
100
AcDbLine
 10
2191.2422895
 20
823.8267934999999
 30
0.0
 11
2187.2488765
 21
808.0787014999998
 31
0.0
  0
LINE
  5
295
330
20
100
AcDbEntity
  8
_0-0_LAYER001
  6
Continuous
 62
     7
100
AcDbLine
 10
2185.6859865
 20
826.3274134999997
 30
0.0
 11
2183.0412905
 21
825.3242814999998
 31
0.0
  0
LINE
  5
296
330
20
100
AcDbEntity
  8
_0-0_LAYER001
  6
Continuous
 62
     7
100
AcDbLine
 10
2187.7825555
 20
807.8394474999999
 30
0.0
 11
2179.1205025
 21
811.7370854999998
 31
0.0
  0
LINE
  5
297
330
20
100
AcDbEntity
  8
_0-0_LAYER001
  6
Continuous
 62
     7
100
AcDbLine
 10
2185.6859865
 20
826.3274134999997
 30
0.0
 11
2179.1205025
 21
811.7370854999998
 31
0.0
  0
LINE
  5
298
330
20
100
AcDbEntity
  8
_0-0_LAYER001
  6
Continuous
 62
     7
100
AcDbLine
 10
2178.116597499999
 20
814.3820214999998
 30
0.0
 11
2179.1205025
 21
811.7370854999998
 31
0.0
  0
LINE
  5
299
330
20
100
AcDbEntity
  8
_0-0_LAYER001
  6
Continuous
 62
     7
100
AcDbLine
 10
2183.0412905
 20
825.3242814999998
 30
0.0
 11
2178.116597499999
 21
814.3820214999998
 31
0.0
  0
ARC
  5
29A
330
20
100
AcDbEntity
  8
_0-0_LAYER001
  6
Continuous
 62
     7
100
AcDbCircle
 10
2192.4137655
 20
803.1232745
 30
0.0
 40
6.158
100
AcDbArc
 50
121.444639
 51
155.399294
  0
LINE
  5
29B
330
20
100
AcDbEntity
  8
_0-0_LAYER001
  6
Continuous
 62
     7
100
AcDbLine
 10
2219.9481695
 20
835.0355634999997
 30
0.0
 11
2218.1243615
 21
835.8555514999999
 31
0.0
  0
LINE
  5
29C
330
20
100
AcDbEntity
  8
_0-0_LAYER001
  6
Continuous
 62
     7
100
AcDbLine
 10
2181.1907065
 20
753.7825784999999
 30
0.0
 11
2218.1243615
 21
835.8555514999999
 31
0.0
  0
LINE
  5
29D
330
20
100
AcDbEntity
  8
_0-0_LAYER001
  6
Continuous
 62
     7
100
AcDbLine
 10
2222.455626499999
 20
828.4233874999999
 30
0.0
 11
2194.5503745
 21
766.4131814999998
 31
0.0
  0
LINE
  5
29E
330
20
100
AcDbEntity
  8
_0-0_LAYER001
  6
Continuous
 62
     7
100
AcDbLine
 10
2202.9208695
 20
809.7993434999999
 30
0.0
 11
2200.1845445
 21
811.0302354999999
 31
0.0
  0
LINE
  5
29F
330
20
100
AcDbEntity
  8
_0-0_LAYER001
  6
Continuous
 62
     7
100
AcDbLine
 10
2209.4865155
 20
824.3896054999998
 30
0.0
 11
2206.7503735
 21
825.6204514999998
 31
0.0
  0
LINE
  5
2A0
330
20
100
AcDbEntity
  8
_0-0_LAYER001
  6
Continuous
 62
     7
100
AcDbLine
 10
2193.6190575
 20
796.4412794999998
 30
0.0
 11
2206.7503735
 21
825.6204514999998
 31
0.0
  0
LINE
  5
2A1
330
20
100
AcDbEntity
  8
_0-0_LAYER001
  6
Continuous
 62
     7
100
AcDbLine
 10
2196.355375499999
 20
795.2092275
 30
0.0
 11
2193.6190575
 21
796.4412794999998
 31
0.0
  0
LINE
  5
2A2
330
20
100
AcDbEntity
  8
_0-0_LAYER001
  6
Continuous
 62
     7
100
AcDbLine
 10
2189.2003975
 20
808.3780994999997
 30
0.0
 11
2197.3417145
 21
804.7150564999999
 31
0.0
  0
LINE
  5
2A3
330
20
100
AcDbEntity
  8
_0-0_LAYER001
  6
Continuous
 62
     7
100
AcDbLine
 10
2194.886372499999
 20
821.0126114999997
 30
0.0
 11
2203.0266495
 21
817.3487874999999
 31
0.0
  0
LINE
  5
2A4
330
20
100
AcDbEntity
  8
_0-0_LAYER001
  6
Continuous
 62
     7
100
AcDbLine
 10
2197.7284045
 20
827.3310224999999
 30
0.0
 11
2205.8707275
 21
823.6669075
 31
0.0
  0
LINE
  5
2A5
330
20
100
AcDbEntity
  8
_0-0_LAYER001
  6
Continuous
 62
     7
100
AcDbLine
 10
2195.9909935
 20
826.0793324999998
 30
0.0
 11
2197.7284045
 21
827.3310224999999
 31
0.0
  0
LINE
  5
2A6
330
20
100
AcDbEntity
  8
_0-0_LAYER001
  6
Continuous
 62
     7
100
AcDbLine
 10
2186.1414455
 20
804.1928914999997
 30
0.0
 11
2195.9909935
 21
826.0793324999998
 31
0.0
  0
LINE
  5
2A7
330
20
100
AcDbEntity
  8
_0-0_LAYER001
  6
Continuous
 62
     7
100
AcDbLine
 10
2186.3573385
 20
802.0595724999997
 30
0.0
 11
2194.4986075
 21
798.3958294999999
 31
0.0
  0
LINE
  5
2A8
330
20
100
AcDbEntity
  8
_0-0_LAYER001
  6
Continuous
 62
     7
100
AcDbLine
 10
2223.1813555
 20
808.2787344999998
 30
0.0
 11
2215.0401795
 21
811.9417764999997
 31
0.0
  0
LINE
  5
2A9
330
20
100
AcDbEntity
  8
_0-0_LAYER001
  6
Continuous
 62
     7
100
AcDbLine
 10
2217.4955965
 20
795.6440004999998
 30
0.0
 11
2209.354176499999
 21
799.3080424999998
 31
0.0
  0
LINE
  5
2AA
330
20
100
AcDbEntity
  8
_0-0_LAYER001
  6
Continuous
 62
     7
100
AcDbLine
 10
2214.6533415
 20
789.3258184999998
 30
0.0
 11
2206.5112535
 21
792.9896474999998
 31
0.0
  0
LINE
  5
2AB
330
20
100
AcDbEntity
  8
_0-0_LAYER001
  6
Continuous
 62
     7
100
AcDbLine
 10
2216.390862499999
 20
790.5773094999998
 30
0.0
 11
2214.6533415
 21
789.3258184999998
 31
0.0
  0
LINE
  5
2AC
330
20
100
AcDbEntity
  8
_0-0_LAYER001
  6
Continuous
 62
     7
100
AcDbLine
 10
2226.2403365
 20
812.4639714999998
 30
0.0
 11
2216.390862499999
 21
790.5773094999998
 31
0.0
  0
LINE
  5
2AD
330
20
100
AcDbEntity
  8
_0-0_LAYER001
  6
Continuous
 62
     7
100
AcDbLine
 10
2226.0246275
 20
814.5968834999999
 30
0.0
 11
2217.883412499999
 21
818.2609014999998
 31
0.0
  0
LINE
  5
2AE
330
20
100
AcDbEntity
  8
_0-0_LAYER001
  6
Continuous
 62
     7
100
AcDbLine
 10
2226.2403365
 20
812.4639714999998
 30
0.0
 11
2226.0246275
 21
814.5968834999999
 31
0.0
  0
LINE
  5
2AF
330
20
100
AcDbEntity
  8
_0-0_LAYER001
  6
Continuous
 62
     7
100
AcDbLine
 10
2194.3481495
 20
822.4287834999996
 30
0.0
 11
2185.6859865
 21
826.3274134999997
 31
0.0
  0
ARC
  5
2B0
330
20
100
AcDbEntity
  8
_0-0_LAYER001
  6
Continuous
 62
     7
100
AcDbCircle
 10
2217.8974715
 20
830.4753704999997
 30
0.0
 40
4.998999999999999
100
AcDbArc
 50
335.769554
 51
65.78019500000002
  0
ARC
  5
2B1
330
20
100
AcDbEntity
  8
_0-0_LAYER001
  6
Continuous
 62
     7
100
AcDbCircle
 10
2200.9397175
 20
822.0961004999997
 30
0.0
 40
6.147001
100
AcDbArc
 50
156.130714
 51
190.1379839999999
  0
ARC
  5
2B2
330
20
100
AcDbEntity
  8
_0-0_LAYER001
  6
Continuous
 62
     7
100
AcDbCircle
 10
2211.9479845
 20
805.7395254999999
 30
0.0
 40
22.898998
100
AcDbArc
 50
138.168154
 51
173.383674
  0
ARC
  5
2B3
330
20
100
AcDbEntity
  8
_0-0_LAYER001
  6
Continuous
 62
     7
100
AcDbCircle
 10
2211.4411645
 20
794.5634084999998
 30
0.0
 40
6.147999999999998
100
AcDbArc
 50
336.107534
 51
10.12227399999999
  0
ARC
  5
2B4
330
20
100
AcDbEntity
  8
_0-0_LAYER001
  6
Continuous
 62
     7
100
AcDbCircle
 10
2219.9747535
 20
813.5251354999997
 30
0.0
 40
6.147999999999998
100
AcDbArc
 50
301.444264
 51
335.446524
  0
ARC
  5
2B5
330
20
100
AcDbEntity
  8
_0-0_LAYER001
  6
Continuous
 62
     7
100
AcDbCircle
 10
2200.3983585
 20
810.9346564999999
 30
0.0
 40
22.936001
100
AcDbArc
 50
318.196244
 51
353.353014
  0
LINE
  5
2B6
330
20
100
AcDbEntity
  8
_0-0_LAYER001
  6
Continuous
 62
     7
100
AcDbLine
 10
2209.172437499999
 20
889.2296184999999
 30
0.0
 11
2218.2927605
 21
885.1255934999997
 31
0.0
  0
LINE
  5
2B7
330
20
100
AcDbEntity
  8
_0-0_LAYER001
  6
Continuous
 62
     7
100
AcDbLine
 10
2207.942486499999
 20
886.4931354999999
 30
0.0
 11
2217.0609145
 21
882.3904514999998
 31
0.0
  0
LINE
  5
2B8
330
20
100
AcDbEntity
  8
_0-0_LAYER001
  6
Continuous
 62
     7
100
AcDbLine
 10
2218.2927605
 20
885.1255934999997
 30
0.0
 11
2217.0609145
 21
882.3904514999998
 31
0.0
  0
LINE
  5
2B9
330
20
100
AcDbEntity
  8
_0-0_LAYER001
  6
Continuous
 62
     7
100
AcDbLine
 10
2209.172437499999
 20
889.2296184999999
 30
0.0
 11
2207.942486499999
 21
886.4931354999999
 31
0.0
  0
LINE
  5
2BA
330
20
100
AcDbEntity
  8
_0-0_LAYER001
  6
Continuous
 62
     7
100
AcDbLine
 10
2213.732516499999
 20
887.1776694999999
 30
0.0
 11
2212.501674499999
 21
884.4411834999998
 31
0.0
  0
LINE
  5
2BB
330
20
100
AcDbEntity
  8
_0-0_LAYER001
  6
Continuous
 62
     7
100
AcDbLine
 10
2195.3306155
 20
846.2854314999997
 30
0.0
 11
2199.4528655
 21
850.5716194999999
 31
0.0
  0
LINE
  5
2BC
330
20
100
AcDbEntity
  8
_0-0_LAYER001
  6
Continuous
 62
     7
100
AcDbLine
 10
2195.3306155
 20
846.2854314999997
 30
0.0
 11
2195.8051085
 21
852.2124274999999
 31
0.0
  0
LINE
  5
2BD
330
20
100
AcDbEntity
  8
_0-0_LAYER001
  6
Continuous
 62
     7
100
AcDbLine
 10
2208.9104345
 20
868.5743255
 30
0.0
 11
2203.2828095
 21
872.2658694999999
 31
0.0
  0
LINE
  5
2BE
330
20
100
AcDbEntity
  8
_0-0_LAYER001
  6
Continuous
 62
     7
100
AcDbLine
 10
2206.8586065
 20
864.0140504999997
 30
0.0
 11
2201.2297415
 21
867.7058574999998
 31
0.0
  0
LINE
  5
2BF
330
20
100
AcDbEntity
  8
_0-0_LAYER001
  6
Continuous
 62
     7
100
AcDbLine
 10
2204.805787499999
 20
859.4549495
 30
0.0
 11
2199.178911499999
 21
863.1454894999999
 31
0.0
  0
LINE
  5
2C0
330
20
100
AcDbEntity
  8
_0-0_LAYER001
  6
Continuous
 62
     7
100
AcDbLine
 10
2202.7547515
 20
854.8946704999998
 30
0.0
 11
2197.127034499999
 21
858.5864084999998
 31
0.0
  0
LINE
  5
2C1
330
20
100
AcDbEntity
  8
_0-0_LAYER001
  6
Continuous
 62
     7
100
AcDbLine
 10
2201.2188165
 20
851.4826454999999
 30
0.0
 11
2195.5914165
 21
855.1742895
 31
0.0
  0
LINE
  5
2C2
330
20
100
AcDbEntity
  8
_0-0_LAYER001
  6
Continuous
 62
     7
100
AcDbLine
 10
2209.446737499999
 20
882.5288495
 30
0.0
 11
2195.8051085
 21
852.2124274999999
 31
0.0
  0
LINE
  5
2C3
330
20
100
AcDbEntity
  8
_0-0_LAYER001
  6
Continuous
 62
     7
100
AcDbLine
 10
2207.942486499999
 20
886.4931354999999
 30
0.0
 11
2209.446737499999
 21
882.5288495
 31
0.0
  0
LINE
  5
2C4
330
20
100
AcDbEntity
  8
_0-0_LAYER001
  6
Continuous
 62
     7
100
AcDbLine
 10
2213.093339499999
 20
880.8848855
 30
0.0
 11
2199.4528655
 21
850.5716194999999
 31
0.0
  0
LINE
  5
2C5
330
20
100
AcDbEntity
  8
_0-0_LAYER001
  6
Continuous
 62
     7
100
AcDbLine
 10
2217.0609145
 20
882.3904514999998
 30
0.0
 11
2213.093339499999
 21
880.8848855
 31
0.0
  0
LINE
  5
2C6
330
20
100
AcDbEntity
  8
_0-0_LAYER001
  6
Continuous
 62
     7
100
AcDbLine
 10
2174.2198855
 20
855.6119924999999
 30
0.0
 11
2172.1223985
 21
856.5557344999998
 31
0.0
  0
LINE
  5
2C7
330
20
100
AcDbEntity
  8
_0-0_LAYER001
  6
Continuous
 62
     7
100
AcDbLine
 10
2149.5981905
 20
800.8965814999998
 30
0.0
 11
2147.500653499999
 21
801.8403364999997
 31
0.0
  0
LINE
  5
2C8
330
20
100
AcDbEntity
  8
_0-0_LAYER001
  6
Continuous
 62
     7
100
AcDbLine
 10
2221.0607665
 20
853.9433204999996
 30
0.0
 11
2183.3070805
 21
870.9322334999997
 31
0.0
  0
LINE
  5
2C9
330
20
100
AcDbEntity
  8
_0-0_LAYER001
  6
Continuous
 62
     7
100
AcDbLine
 10
2174.2198855
 20
855.6119924999999
 30
0.0
 11
2180.662494499999
 21
869.9291414999999
 31
0.0
  0
LINE
  5
2CA
330
20
100
AcDbEntity
  8
_0-0_LAYER001
  6
Continuous
 62
     7
100
AcDbLine
 10
2143.1555235
 20
786.5794544999999
 30
0.0
 11
2149.5981905
 21
800.8965814999998
 31
0.0
  0
LINE
  5
2CB
330
20
100
AcDbEntity
  8
_0-0_LAYER001
  6
Continuous
 62
     7
100
AcDbLine
 10
2181.9122005
 20
766.9457294999999
 30
0.0
 11
2144.158716499999
 21
783.9346634999998
 31
0.0
  0
LINE
  5
2CC
330
20
100
AcDbEntity
  8
_0-0_LAYER001
  6
Continuous
 62
     7
100
AcDbLine
 10
2172.1223985
 20
856.5557344999998
 30
0.0
 11
2178.5651155
 21
870.8728595000001
 31
0.0
  0
LINE
  5
2CD
330
20
100
AcDbEntity
  8
_0-0_LAYER001
  6
Continuous
 62
     7
100
AcDbLine
 10
2222.0046595
 20
856.0405814999997
 30
0.0
 11
2184.250976499999
 21
873.0295544999998
 31
0.0
  0
LINE
  5
2CE
330
20
100
AcDbEntity
  8
_0-0_LAYER001
  6
Continuous
 62
     7
100
AcDbLine
 10
2141.0579355
 20
787.5231914999998
 30
0.0
 11
2147.500653499999
 21
801.8403364999997
 31
0.0
  0
LINE
  5
2CF
330
20
100
AcDbEntity
  8
_0-0_LAYER001
  6
Continuous
 62
     7
100
AcDbLine
 10
2180.968291499999
 20
764.8483294999998
 30
0.0
 11
2143.214871499999
 21
781.8373604999998
 31
0.0
  0
LINE
  5
2D0
330
20
100
AcDbEntity
  8
_0-0_LAYER001
  6
Continuous
 62
     7
100
AcDbLine
 10
2184.5567945
 20
767.9489804999998
 30
0.0
 11
2222.0638715
 21
851.2988134999998
 31
0.0
  0
LINE
  5
2D1
330
20
100
AcDbEntity
  8
_0-0_LAYER001
  6
Continuous
 62
     7
100
AcDbLine
 10
2224.161126499999
 20
850.3547804999998
 30
0.0
 11
2186.6540525
 21
767.0050274999998
 31
0.0
  0
ARC
  5
2D2
330
20
100
AcDbEntity
  8
_0-0_LAYER001
  6
Continuous
 62
     7
100
AcDbCircle
 10
2182.486410500001
 20
869.1083404999998
 30
0.0
 40
2.000002999999999
100
AcDbArc
 50
65.772373
 51
155.772364
  0
ARC
  5
2D3
330
20
100
AcDbEntity
  8
_0-0_LAYER001
  6
Continuous
 62
     7
100
AcDbCircle
 10
2144.979437499999
 20
785.7586034999997
 30
0.0
 40
2.000002999999999
100
AcDbArc
 50
155.772364
 51
245.772364
  0
ARC
  5
2D4
330
20
100
AcDbEntity
  8
_0-0_LAYER001
  6
Continuous
 62
     7
100
AcDbCircle
 10
2144.979437499999
 20
785.7586034999997
 30
0.0
 40
4.299999999999999
100
AcDbArc
 50
155.772364
 51
245.772364
  0
ARC
  5
2D5
330
20
100
AcDbEntity
  8
_0-0_LAYER001
  6
Continuous
 62
     7
100
AcDbCircle
 10
2182.486410500001
 20
869.1083404999998
 30
0.0
 40
4.299999999999999
100
AcDbArc
 50
65.772373
 51
155.772364
  0
ARC
  5
2D6
330
20
100
AcDbEntity
  8
_0-0_LAYER001
  6
Continuous
 62
     7
100
AcDbCircle
 10
2220.2398365
 20
852.1194294999997
 30
0.0
 40
2.000002999999999
100
AcDbArc
 50
335.772364
 51
65.77237300000001
  0
ARC
  5
2D7
330
20
100
AcDbEntity
  8
_0-0_LAYER001
  6
Continuous
 62
     7
100
AcDbCircle
 10
2182.7328695
 20
768.7695914999998
 30
0.0
 40
2.000002999999999
100
AcDbArc
 50
245.772364
 51
335.772364
  0
ARC
  5
2D8
330
20
100
AcDbEntity
  8
_0-0_LAYER001
  6
Continuous
 62
     7
100
AcDbCircle
 10
2182.7328695
 20
768.7695914999998
 30
0.0
 40
4.299999999999999
100
AcDbArc
 50
245.772364
 51
335.772364
  0
ARC
  5
2D9
330
20
100
AcDbEntity
  8
_0-0_LAYER001
  6
Continuous
 62
     7
100
AcDbCircle
 10
2220.2398365
 20
852.1194294999997
 30
0.0
 40
4.299999999999999
100
AcDbArc
 50
335.772364
 51
65.77237300000001
  0
LINE
  5
2DA
330
20
100
AcDbEntity
  8
_0-0_LAYER001
  6
Continuous
 62
     7
100
AcDbLine
 10
1571.686840499999
 20
1266.7659425
 30
0.0
 11
1566.383539499999
 21
1261.4626415
 31
0.0
  0
LINE
  5
2DB
330
20
100
AcDbEntity
  8
_0-0_LAYER001
  6
Continuous
 62
     7
100
AcDbLine
 10
1566.383539499999
 20
1261.4626415
 30
0.0
 11
1568.324682499999
 21
1268.7070855
 31
0.0
  0
LINE
  5
2DC
330
20
100
AcDbEntity
  8
_0-0_LAYER001
  6
Continuous
 62
     7
100
AcDbLine
 10
1566.383539499999
 20
1261.4626415
 30
0.0
 11
1627.8121505
 21
1367.8601165
 31
0.0
  0
LINE
  5
2DD
330
20
100
AcDbEntity
  8
_0-0_LAYER001
  6
Continuous
 62
     7
100
AcDbLine
 10
1627.8121505
 20
1367.8601165
 30
0.0
 11
1774.8121505
 21
1367.8601165
 31
0.0
  0
LINE
  5
2DE
330
20
100
AcDbEntity
  8
_0-0_LAYER001
  6
Continuous
 62
     7
100
AcDbLine
 10
1136.992879499999
 20
678.1999824999997
 30
0.0
 11
1469.967214499999
 21
678.1999824999997
 31
0.0
  0
LINE
  5
2DF
330
20
100
AcDbEntity
  8
_0-0_LAYER001
  6
Continuous
 62
     7
100
AcDbLine
 10
970.7773804999996
 20
962.2113855
 30
0.0
 11
968.8362384999997
 21
969.4558284999997
 31
0.0
  0
LINE
  5
2E0
330
20
100
AcDbEntity
  8
_0-0_LAYER001
  6
Continuous
 62
     7
100
AcDbLine
 10
968.8362384999997
 20
969.4558284999997
 30
0.0
 11
974.1395394999997
 21
964.1525275000001
 31
0.0
  0
LINE
  5
2E1
330
20
100
AcDbEntity
  8
_0-0_LAYER001
  6
Continuous
 62
     7
100
AcDbLine
 10
968.8362384999997
 20
969.4558284999997
 30
0.0
 11
1153.774225499999
 21
649.1338374999997
 31
0.0
  0
LINE
  5
2E2
330
20
100
AcDbEntity
  8
_0-0_LAYER001
  6
Continuous
 62
     7
100
AcDbLine
 10
1153.774225499999
 20
649.1338374999997
 30
0.0
 11
1538.2165115
 21
649.1338374999997
 31
0.0
  0
LINE
  5
2E3
330
20
100
AcDbEntity
  8
_0-0_LAYER001
  6
Continuous
 62
     7
100
AcDbLine
 10
1119.341190499999
 20
709.0957334999998
 30
0.0
 11
1355.466326499999
 21
709.0957334999998
 31
0.0
  0
LINE
  5
2E4
330
20
100
AcDbEntity
  8
_0-0_LAYER001
  6
Continuous
 62
     7
100
AcDbLine
 10
1101.664549499999
 20
739.0766814999998
 30
0.0
 11
1294.057237499999
 21
739.0766814999998
 31
0.0
  0
TEXT
  5
2E5
330
20
100
AcDbEntity
  8
_0-2_LAYER003
 62
     7
100
AcDbText
 10
1569.718640256875
 20
1032.428639581694
 30
0.0
 40
20.0
  1
280
 50
24.22766200000041
100
AcDbText
  0
TEXT
  5
2E6
330
20
100
AcDbEntity
  8
_0-2_LAYER003
 62
     7
100
AcDbText
 10
1186.422461634027
 20
1372.230828213661
 30
0.0
 40
20.0
  1
280
 50
24.22766200000004
100
AcDbText
  0
TEXT
  5
2E7
330
20
100
AcDbEntity
  8
_0-2_LAYER003
 62
     7
100
AcDbText
 10
966.2018102401006
 20
1246.65045675762
 30
0.0
 40
20.0
  1
280
 50
24.227662
100
AcDbText
  0
TEXT
  5
2E8
330
20
100
AcDbEntity
  8
_0-2_LAYER003
 62
     7
100
AcDbText
 10
700.481024260652
 20
1111.970058384475
 30
0.0
 40
20.0
  1
280
 50
24.22766199999998
100
AcDbText
  0
TEXT
  5
2E9
330
20
100
AcDbEntity
  8
_0-2_LAYER003
 62
     7
100
AcDbText
 10
1612.18065206981
 20
1438.763976898612
 30
0.0
 40
20.0
  1
棟押さえ　カラー鋼板0.35ｍｍ以上
100
AcDbText
  0
TEXT
  5
2EA
330
20
100
AcDbEntity
  8
_0-2_LAYER003
 62
     7
100
AcDbText
 10
1634.637694251752
 20
1318.799135520915
 30
0.0
 40
20.0
  1
弾性シール材
100
AcDbText
  0
TEXT
  5
2EB
330
20
100
AcDbEntity
  8
_0-2_LAYER003
 62
     7
100
AcDbText
 10
1630.169923440007
 20
1372.412385261857
 30
0.0
 40
20.0
  1
笠木：１５ｘ９０
100
AcDbText
  0
TEXT
  5
2EC
330
20
100
AcDbEntity
  8
_0-2_LAYER003
 62
     7
100
AcDbText
 10
1972.401167619686
 20
1179.404686194467
 30
0.0
 40
20.0
  1
桟　瓦
100
AcDbText
  0
TEXT
  5
2ED
330
20
100
AcDbEntity
  8
_0-2_LAYER003
 62
     7
100
AcDbText
 10
1105.563736902094
 20
742.4628473520495
 30
0.0
 40
20.0
  1
瓦桟：15x30以上
100
AcDbText
  0
TEXT
  5
2EE
330
20
100
AcDbEntity
  8
_0-2_LAYER003
 62
     7
100
AcDbText
 10
1123.248887124751
 20
712.2940616781054
 30
0.0
 40
20.0
  1
下葺材：ルーフィング
100
AcDbText
  0
TEXT
  5
2EF
330
20
100
AcDbEntity
  8
_0-2_LAYER003
 62
     7
100
AcDbText
 10
1134.692219621764
 20
681.0849730498873
 30
0.0
 40
20.0
  1
野地板：硬質木片セメントパネルｔ＝25
100
AcDbText
  0
TEXT
  5
2F0
330
20
100
AcDbEntity
  8
_0-2_LAYER003
 62
     7
100
AcDbText
 10
1158.619187570065
 20
652.9967932844909
 30
0.0
 40
20.0
  1
　鋼製：C100x50x20x2.3@606　
100
AcDbText
  0
LINE
  5
2F1
330
20
100
AcDbEntity
  8
_0-2_LAYER003
  6
Continuous
 62
     7
100
AcDbLine
 10
2019.0449755
 20
1174.8229215
 30
0.0
 11
2040.796092794363
 21
1174.8229215
 31
0.0
  0
LINE
  5
2F2
330
20
100
AcDbEntity
  8
_0-2_LAYER003
  6
Continuous
 62
     7
100
AcDbLine
 10
1731.441629499999
 20
1312.9630105
 30
0.0
 11
1759.914295140399
 21
1312.9630105
 31
0.0
  0
LINE
  5
2F3
330
20
100
AcDbEntity
  8
_0-2_LAYER003
  6
Continuous
 62
     7
100
AcDbLine
 10
1774.8121505
 20
1367.8601165
 30
0.0
 11
1809.848836945549
 21
1367.8601165
 31
0.0
  0
LINE
  5
2F4
330
20
100
AcDbEntity
  8
_0-2_LAYER003
  6
Continuous
 62
     7
100
AcDbLine
 10
1846.900898499999
 20
1433.3661625
 30
0.0
 11
1967.974885995187
 21
1433.3661625
 31
0.0
  0
ENDSEC
  0
SECTION
  2
OBJECTS
  0
DICTIONARY
  5
C
330
0
100
AcDbDictionary
281
     1
  3
ACAD_COLOR
350
1B
  3
ACAD_GROUP
350
D
  3
ACAD_LAYOUT
350
19
  3
ACAD_MATERIAL
350
1A
  3
ACAD_MLINESTYLE
350
16
  3
ACAD_PLOTSETTINGS
350
18
  3
ACAD_PLOTSTYLENAME
350
E
  0
DICTIONARY
  5
1B
102
{ACAD_REACTORS
330
C
102
}
330
C
100
AcDbDictionary
281
     1
  0
DICTIONARY
  5
D
102
{ACAD_REACTORS
330
C
102
}
330
C
100
AcDbDictionary
281
     1
  0
DICTIONARY
  5
19
102
{ACAD_REACTORS
330
C
102
}
330
C
100
AcDbDictionary
281
     1
  3
Model
350
23
  3
レイアウト1
350
1F
  0
DICTIONARY
  5
1A
102
{ACAD_REACTORS
330
C
102
}
330
C
100
AcDbDictionary
281
     1
  0
DICTIONARY
  5
16
102
{ACAD_REACTORS
330
C
102
}
330
C
100
AcDbDictionary
281
     1
  3
Standard
350
17
  0
DICTIONARY
  5
18
102
{ACAD_REACTORS
330
C
102
}
330
C
100
AcDbDictionary
281
     1
  0
ACDBDICTIONARYWDFLT
  5
E
102
{ACAD_REACTORS
330
C
102
}
330
C
100
AcDbDictionary
281
     1
  3
Normal
350
F
100
AcDbDictionaryWithDefault
340
F
  0
LAYOUT
  5
23
102
{ACAD_REACTORS
330
19
102
}
330
19
100
AcDbPlotSettings
  1

  2
Microsoft Office Document Image Writer
  4

  6

 40
0.0
 41
0.0
 42
0.0
 43
0.0
 44
0.0
 45
0.0
 46
0.0
 47
0.0
 48
0.0
 49
0.0
140
0.0
141
0.0
142
1.0
143
1.0
 70
  1712
 72
     0
 73
     0
 74
     0
  7

 75
     0
147
1.0
 76
     0
 77
     2
 78
   300
148
0.0
149
0.0
100
AcDbLayout
  1
Model
 70
     1
 71
     0
 10
0.0
 20
0.0
 11
12.0
 21
9.0
 12
0.0
 22
0.0
 32
0.0
 14
0.0
 24
0.0
 34
0.0
 15
0.0
 25
0.0
 35
0.0
146
0.0
 13
0.0
 23
0.0
 33
0.0
 16
1.0
 26
0.0
 36
0.0
 17
0.0
 27
1.0
 37
0.0
 76
     0
330
20
  0
LAYOUT
  5
1F
102
{ACAD_REACTORS
330
19
102
}
330
19
100
AcDbPlotSettings
  1

  2
Microsoft Office Document Image Writer
  4

  6

 40
0.0
 41
0.0
 42
0.0
 43
0.0
 44
0.0
 45
0.0
 46
0.0
 47
0.0
 48
0.0
 49
0.0
140
0.0
141
0.0
142
1.0
143
1.0
 70
   688
 72
     0
 73
     0
 74
     5
  7

 75
    16
147
1.0
 76
     0
 77
     2
 78
   300
148
0.0
149
0.0
100
AcDbLayout
  1
レイアウト1
 70
     1
 71
     1
 10
0.0
 20
0.0
 11
12.0
 21
9.0
 12
0.0
 22
0.0
 32
0.0
 14
1.000000000000000E+20
 24
1.000000000000000E+20
 34
1.000000000000000E+20
 15
-1.000000000000000E+20
 25
-1.000000000000000E+20
 35
-1.000000000000000E+20
146
0.0
 13
0.0
 23
0.0
 33
0.0
 16
1.0
 26
0.0
 36
0.0
 17
0.0
 27
1.0
 37
0.0
 76
     0
330
1C
  0
MLINESTYLE
  5
17
102
{ACAD_REACTORS
330
16
102
}
330
16
100
AcDbMlineStyle
  2
STANDARD
 70
     0
  3

 62
   256
 51
90.0
 52
90.0
 71
     2
 49
0.5
 62
   256
  6
BYLAYER
 49
-0.5
 62
   256
  6
BYLAYER
  0
ACDBPLACEHOLDER
  5
F
102
{ACAD_REACTORS
330
E
102
}
330
E
  0
ENDSEC
  0
EOF
