  0
SECTION
  2
HEADER
  9
$ACADVER
  1
AC1009
  9
$INSBASE
 10
0
 20
0
 30
0
  9
$EXTMIN
 10
0
 20
0
  9
$EXTMAX
 10
2970
 20
2100
  9
$LIMMIN
 10
0
 20
0
  9
$LIMMAX
 10
2970
 20
2100
  9
$LTSCALE
 40
10
  0
ENDSEC
  0
SECTION
  2
TABLES
  0
TABLE
  2
LTYPE
 70
     9
  0
LTYPE
  2
CONTINUOUS
 70
    64
  3
実線
 72
    65
 73
     0
 40
0.0
  0
LTYPE
  2
DASHED1
 70
    64
  3
--  --  --  --  --  --  --  --  
 72
    65
 73
     2
 40
2.5
 49
1.25
 49
-1.25
  0
LTYPE
  2
DASHED2
 70
    64
  3
----    ----    ----    ----    
 72
    65
 73
     2
 40
5.0
 49
2.5
 49
-2.5
  0
LTYPE
  2
DASHED3
 70
    64
  3
------  ------  ------  ------  
 72
    65
 73
     2
 40
5.0
 49
3.75
 49
-1.25
  0
LTYPE
  2
CENTER1
 70
    64
  3
----- - ----- - ----- - ----- - 
 72
    65
 73
     4
 40
10.0
 49
6.25
 49
-1.25
 49
1.25
 49
-1.25
  0
LTYPE
  2
CENTER2
 70
    64
  3
----------  --  ----------  --  
 72
    65
 73
     4
 40
20.0
 49
12.5
 49
-2.5
 49
2.5
 49
-2.5
  0
LTYPE
  2
PHANTOM1
 70
    64
  3
--- - - --- - - --- - - --- - - 
 72
    65
 73
     6
 40
10.0
 49
3.25
 49
-1.25
 49
1.25
 49
-1.25
 49
1.25
 49
-1.25
  0
LTYPE
  2
PHANTOM2
 70
    64
  3
--------  -  -  --------  -  -  
 72
    65
 73
     6
 40
20.0
 49
10.0
 49
-2.5
 49
1.25
 49
-2.5
 49
1.25
 49
-2.5
  0
LTYPE
  2
DOT
 70
    64
  3
-   -   -   -   -   -   -   -   
 72
    65
 73
     2
 40
2.5
 49
0.625
 49
-1.875
  0
LTYPE
  2
DUMMY
 70
    64
  3
ダミー
 72
    65
 73
     0
 40
0.0
  0
LTYPE
  2
RAND1
 70
    64
  3
ランダム線1
 72
    65
 73
     4
 40
10.0
 49
1.0
 49
-2.0
 49
3.0
 49
-4.0
  0
LTYPE
  2
RAND2
 70
    64
  3
ランダム線2
 72
    65
 73
     4
 40
14.0
 49
2.0
 49
-3.0
 49
4.0
 49
-5.0
  0
LTYPE
  2
RAND3
 70
    64
  3
ランダム線3
 72
    65
 73
     4
 40
18.0
 49
3.0
 49
-4.0
 49
5.0
 49
-6.0
  0
LTYPE
  2
RAND4
 70
    64
  3
ランダム線4
 72
    65
 73
     4
 40
22.0
 49
4.0
 49
-5.0
 49
6.0
 49
-7.0
  0
LTYPE
  2
RAND5
 70
    64
  3
ランダム線5
 72
    65
 73
     4
 40
26.0
 49
5.0
 49
-6.0
 49
7.0
 49
-8.0
  0
LTYPE
  2
LONG1
 70
    64
  3
----------  --  ----------  --  
 72
    65
 73
     4
 40
40.0
 49
32.5
 49
-2.5
 49
2.5
 49
-2.5
  0
LTYPE
  2
LONG2
 70
    64
  3
--------  -  -  --------  -  -  
 72
    65
 73
     6
 40
40.0
 49
30.0
 49
-2.5
 49
1.25
 49
-2.5
 49
1.25
 49
-2.5
  0
LTYPE
  2
LONG3
 70
    64
  3
+++++++++++++++..+++++++++++++++
 72
    65
 73
     2
 40
40.0
 49
37.5
 49
-2.5
  0
LTYPE
  2
LONG4
 70
    64
  3
+++++++++++++++..+++++++++++++++
 72
    65
 73
     2
 40
80.0
 49
75.0
 49
-5.0
  0
LTYPE
  2
LONG5
 70
    64
  3
----------  --  ----------  --  
 72
    65
 73
     4
 40
60.0
 49
37.5
 49
-7.5
 49
7.5
 49
-7.5
  0
LTYPE
  2
dashed
 70
   64
  3
-------   -------------   ------
 72
   65
 73
    2
 40
7.5
 49
6
 49
-1.5
  0
LTYPE
  2
dashed_spaced
 70
   64
  3
----        --------        ----
 72
   65
 73
    2
 40
12
 49
6
 49
-6
  0
LTYPE
  2
long_dashed_dotted
 70
   64
  3
------------- --- --------------
 72
   65
 73
    4
 40
15.25
 49
12
 49
-1.5
 49
0.25
 49
-1.5
  0
LTYPE
  2
long_dashed_double-dotted
 70
   64
  3
----------- --- --- ------------
 72
   65
 73
    6
 40
17
 49
12
 49
-1.5
 49
0.25
 49
-1.5
 49
0.25
 49
-1.5
  0
LTYPE
  2
long_dashed_triplicate-dotted
 70
   64
  3
--------- --- --- --- ----------
 72
   65
 73
    8
 40
18.75
 49
12
 49
-1.5
 49
0.25
 49
-1.5
 49
0.25
 49
-1.5
 49
0.25
 49
-1.5
  0
LTYPE
  2
dotted
 70
   64
  3
   -       -       -       -    
 72
   65
 73
    2
 40
1.75
 49
0.25
 49
-1.5
  0
LTYPE
  2
chain
 70
   64
  3
-------------- -- --------------
 72
   65
 73
    4
 40
18.5
 49
12
 49
-1.5
 49
3.5
 49
-1.5
  0
LTYPE
  2
chain_double_dash
 70
   64
  3
------------ -- -- -------------
 72
   65
 73
    6
 40
23.5
 49
12
 49
-1.5
 49
3.5
 49
-1.5
 49
3.5
 49
-1.5
  0
LTYPE
  2
dashed_dotted
 70
   64
  3
-----------     -     ----------
 72
   65
 73
    4
 40
9.25
 49
6
 49
-1.5
 49
0.25
 49
-1.5
  0
LTYPE
  2
double-dashed_dotted
 70
   64
  3
------   -----------   -   -----
 72
   65
 73
    6
 40
16.75
 49
6
 49
-1.5
 49
6
 49
-1.5
 49
0.25
 49
-1.5
  0
LTYPE
  2
dashed_double-dotted
 70
   64
  3
---------    -    -    ---------
 72
   65
 73
    6
 40
11
 49
6
 49
-1.5
 49
0.25
 49
-1.5
 49
0.25
 49
-1.5
  0
LTYPE
  2
double-dashed_double-dotted
 70
   64
  3
-----   ---------   -   -   ----
 72
   65
 73
    8
 40
18.5
 49
6
 49
-1.5
 49
6
 49
-1.5
 49
0.25
 49
-1.5
 49
0.25
 49
-1.5
  0
LTYPE
  2
dashed_triplicate-dotted
 70
   64
  3
-------    -    -    -    ------
 72
   65
 73
    8
 40
12.75
 49
6
 49
-1.5
 49
0.25
 49
-1.5
 49
0.25
 49
-1.5
 49
0.25
 49
-1.5
  0
LTYPE
  2
double-dashed_triplicate-dotted
 70
   64
  3
-----  ---------  -  -  -  -----
 72
   65
 73
   10
 40
20.25
 49
6
 49
-1.5
 49
6
 49
-1.5
 49
0.25
 49
-1.5
 49
0.25
 49
-1.5
 49
0.25
 49
-1.5
  0
LTYPE
  2
undefined
 70
   64
  3
--------------------------------
 72
   65
 73
    0
 40
0
  0
LTYPE
  2
HIDDEN
 70
   64
  3
----        --------        ----
 72
   65
 73
    2
 40
10
 49
5
 49
-5
  0
LTYPE
  2
DASHED
 70
   64
  3
-------   -------------   ------
 72
   65
 73
    2
 40
50
 49
40
 49
-10
  0
LTYPE
  2
CENTER
 70
   64
  3
------------   ---   -----------
 72
   65
 73
    4
 40
100
 49
70
 49
-10
 49
10
 49
-10
  0
LTYPE
  2
PHANTOM
 70
   64
  3
---------   ---   ---   --------
 72
   65
 73
    6
 40
100
 49
50
 49
-10
 49
10
 49
-10
 49
10
 49
-10
  0
ENDTAB
  0
TABLE
  2
STYLE
  5
3
100
AcDbSymbolTable
 70
     1
  0
STYLE
  5
10
100
AcDbSymbolTableRecord
100
AcDbTextStyleTableRecord
  2
STANDARD
 70
     0
 40
0.0
 41
1.0
 50
0.0
 71
     0
 42
0.2
  3
txt
  4
bigfont.shx
  0
STYLE
  5
26
100
AcDbSymbolTableRecord
100
AcDbTextStyleTableRecord
  2
TATEGAKI
 70
    68
 40
0.0
 41
1.0
 50
0.0
 71
     0
 42
1.0
  3
txt
  4
bigfont.shx
  0
ENDTAB
  0
TABLE
  2
LAYER
 70
    7
  0
LAYER
  2
_0-0_LAYER001
 70
   64
 62
    7
  6
CONTINUOUS
  0
LAYER
  2
_0-1_LAYER002
 70
   64
 62
    7
  6
CONTINUOUS
  0
LAYER
  2
_0-2_LAYER003
 70
   64
 62
    7
  6
CONTINUOUS
  0
LAYER
  2
_0-3_LAYER004
 70
   64
 62
    7
  6
CONTINUOUS
  0
LAYER
  2
_0-4_LAYER006
 70
   64
 62
    7
  6
CONTINUOUS
  0
LAYER
  2
_0-5_LAYER009
 70
   64
 62
    7
  6
CONTINUOUS
  0
LAYER
  2
ADD_LINE
 70
   64
 62
    7
  6
CONTINUOUS
  0
ENDTAB
  0
ENDSEC
  0
SECTION
  2
BLOCKS
  0
ENDSEC
  0
SECTION
  2
ENTITIES
  0
LINE
  8
_0-0_LAYER001
  6
CONTINUOUS
 62
    4
 10
1407.7274669999999
 20
1225.4204755000001
 11
1422.499583
 21
1228.0251985
  0
LINE
  8
_0-0_LAYER001
  6
CONTINUOUS
 62
    4
 10
1422.499583
 20
1228.0251985
 11
1423.1096729999999
 21
1234.9985615000001
  0
LINE
  8
_0-0_LAYER001
  6
CONTINUOUS
 62
    4
 10
1407.7274649999999
 20
1225.4204755000001
 11
1410.0806710000002
 21
1252.3177425000001
  0
LINE
  8
_0-0_LAYER001
  6
CONTINUOUS
 62
    4
 10
1625.7274630000002
 20
1225.4204655000001
 11
1610.9553470000001
 21
1228.0251895000001
  0
LINE
  8
_0-0_LAYER001
  6
CONTINUOUS
 62
    4
 10
1610.955348
 20
1228.0251895000001
 11
1610.3452580000001
 21
1234.9985525
  0
LINE
  8
_0-0_LAYER001
  6
CONTINUOUS
 62
    4
 10
1625.7274650000002
 20
1225.4204655000001
 11
1623.374262
 21
1252.3177325000001
  0
LINE
  8
_0-0_LAYER001
  6
CONTINUOUS
 62
    4
 10
1623.374262
 20
1252.3177325000001
 11
1537.637831
 21
1324.2591535000001
  0
LINE
  8
_0-0_LAYER001
  6
CONTINUOUS
 62
    4
 10
1410.0806710000002
 20
1252.3177425000001
 11
1495.8171110000001
 21
1324.2591575000001
  0
ARC
  8
_0-0_LAYER001
  6
CONTINUOUS
 62
    4
 10
1516.7274689999999
 20
1301.5522875000001
 40
30.868188
 50
47.358561000000002
 51
132.64142799999999
  0
LINE
  8
_0-0_LAYER001
  6
CONTINUOUS
 62
    4
 10
1610.3452580000001
 20
1234.9985525
 11
1538.4758420000001
 21
1295.3041645000003
  0
LINE
  8
_0-0_LAYER001
  6
CONTINUOUS
 62
    4
 10
1423.1096729999999
 20
1234.9985615000001
 11
1500.2890029999999
 21
1299.7597085000002
  0
ARC
  8
_0-0_LAYER001
  6
CONTINUOUS
 62
    4
 10
1516.727468
 20
1274.7772895000001
 40
29.905591000000001
 50
43.344959000000003
 51
123.34497000000002
  0
LINE
  8
_0-0_LAYER001
  6
CONTINUOUS
 62
    4
 10
642.32556699999986
 20
851.12460350000015
 11
727.19784600000003
 21
877.93541950000008
  0
LINE
  8
_0-0_LAYER001
  6
CONTINUOUS
 62
    4
 10
721.11887000000013
 20
897.17901649999999
 11
697.73388599999998
 21
889.79179250000016
  0
LINE
  8
_0-0_LAYER001
  6
CONTINUOUS
 62
    4
 10
635.09484900000007
 20
867.19285450000007
 11
695.324568
 21
886.2191835000001
  0
ARC
  8
_0-0_LAYER001
  6
CONTINUOUS
 62
    4
 10
700.95533599999999
 20
884.73921450000012
 40
5.8220139999999994
 50
113.701938
 51
165.27368200000001
  0
LINE
  8
_0-0_LAYER001
  6
CONTINUOUS
 62
    4
 10
728.35380099999998
 20
858.82435650000002
 11
726.59229600000003
 21
864.40057550000006
  0
LINE
  8
_0-0_LAYER001
  6
CONTINUOUS
 62
    4
 10
721.11887000000013
 20
897.17901649999999
 11
732.79205899999988
 21
860.22638449999999
  0
LINE
  8
_0-0_LAYER001
  6
CONTINUOUS
 62
    4
 10
728.35380099999998
 20
858.82435650000002
 11
732.79205899999988
 21
860.22638449999999
  0
LINE
  8
_0-0_LAYER001
  6
CONTINUOUS
 62
    4
 10
647.58283299999994
 20
839.44179950000012
 11
726.59229600000003
 21
864.40057550000006
  0
LINE
  8
_0-0_LAYER001
  6
CONTINUOUS
 62
    4
 10
651.50918400000012
 20
895.02692449999995
 11
657.12761899999987
 21
896.7507035000001
  0
ARC
  8
_0-0_LAYER001
  6
CONTINUOUS
 62
    4
 10
673.92601799999989
 20
898.32511250000016
 40
16.872017
 50
102.88244700000001
 51
185.35433299999997
  0
LINE
  8
_0-0_LAYER001
  6
CONTINUOUS
 62
    4
 10
675.57058400000005
 20
898.12599450000016
 11
982.53589199999988
 21
992.30531850000011
  0
LINE
  8
_0-0_LAYER001
  6
CONTINUOUS
 62
    4
 10
976.61655800000005
 20
1011.5986195
 11
953.17117299999995
 21
1004.4053945000001
  0
LINE
  8
_0-0_LAYER001
  6
CONTINUOUS
 62
    4
 10
670.16437600000006
 20
914.77245349999998
 11
950.73233899999991
 21
1000.8528685000001
  0
ARC
  8
_0-0_LAYER001
  6
CONTINUOUS
 62
    4
 10
956.35065199999985
 20
999.32630050000012
 40
5.8220139999999994
 50
113.22723600000002
 51
164.79898000000003
  0
LINE
  8
_0-0_LAYER001
  6
CONTINUOUS
 62
    4
 10
651.50003700000002
 20
895.05673850000017
 11
657.22864099999993
 21
876.38509450000015
  0
ARC
  8
_0-0_LAYER001
  6
CONTINUOUS
 62
    4
 10
679.33222499999988
 20
881.67865350000011
 40
16.872017
 50
102.88244700000001
 51
192.21985000000001
  0
LINE
  8
_0-0_LAYER001
  6
CONTINUOUS
 62
    4
 10
983.53347200000007
 20
973.18533449999995
 11
981.81822599999987
 21
978.77595550000001
  0
LINE
  8
_0-0_LAYER001
  6
CONTINUOUS
 62
    4
 10
976.61655800000005
 20
1011.5986195
 11
987.98319300000003
 21
974.5505435
  0
LINE
  8
_0-0_LAYER001
  6
CONTINUOUS
 62
    4
 10
983.53347200000007
 20
973.18533449999995
 11
987.98319300000003
 21
974.5505435
  0
LINE
  8
_0-0_LAYER001
  6
CONTINUOUS
 62
    4
 10
662.84248400000013
 20
878.10746450000011
 11
657.22864099999993
 21
876.38509450000015
  0
LINE
  8
_0-0_LAYER001
  6
CONTINUOUS
 62
    4
 10
662.49432999999999
 20
880.80492049999998
 11
981.81822599999987
 21
978.77595550000001
  0
LINE
  8
_0-0_LAYER001
  6
CONTINUOUS
 62
    4
 10
906.82801799999993
 20
1009.9716725000001
 11
912.4464539999999
 21
1011.6954525000001
  0
ARC
  8
_0-0_LAYER001
  6
CONTINUOUS
 62
    4
 10
929.24485200000004
 20
1013.2698605
 40
16.872017
 50
102.88244700000001
 51
185.35433299999997
  0
LINE
  8
_0-0_LAYER001
  6
CONTINUOUS
 62
    4
 10
930.88941799999998
 20
1013.0707425000001
 11
1237.854726
 21
1107.2500665
  0
LINE
  8
_0-0_LAYER001
  6
CONTINUOUS
 62
    4
 10
1231.9353919999999
 20
1126.5433675000002
 11
1208.4900069999999
 21
1119.3501424999999
  0
LINE
  8
_0-0_LAYER001
  6
CONTINUOUS
 62
    4
 10
925.4832110000001
 20
1029.7172015000001
 11
1206.0511730000001
 21
1115.7976175000001
  0
ARC
  8
_0-0_LAYER001
  6
CONTINUOUS
 62
    4
 10
1211.669486
 20
1114.2710485
 40
5.8220139999999994
 50
113.22723600000002
 51
164.79898000000003
  0
LINE
  8
_0-0_LAYER001
  6
CONTINUOUS
 62
    4
 10
906.81887099999994
 20
1010.0014874999999
 11
912.54747500000008
 21
991.32984250000004
  0
ARC
  8
_0-0_LAYER001
  6
CONTINUOUS
 62
    4
 10
934.65105900000003
 20
996.6234015
 40
16.872017
 50
102.88244700000001
 51
192.21985000000001
  0
LINE
  8
_0-0_LAYER001
  6
CONTINUOUS
 62
    4
 10
1238.852306
 20
1088.1300825000001
 11
1237.13706
 21
1093.7207045
  0
LINE
  8
_0-0_LAYER001
  6
CONTINUOUS
 62
    4
 10
1231.9353919999999
 20
1126.5433675000002
 11
1243.302027
 21
1089.4952915000001
  0
LINE
  8
_0-0_LAYER001
  6
CONTINUOUS
 62
    4
 10
1238.852306
 20
1088.1300825000001
 11
1243.302027
 21
1089.4952915000001
  0
LINE
  8
_0-0_LAYER001
  6
CONTINUOUS
 62
    4
 10
918.16131799999994
 20
993.0522125
 11
912.54747500000008
 21
991.32984250000004
  0
LINE
  8
_0-0_LAYER001
  6
CONTINUOUS
 62
    4
 10
917.81316500000003
 20
995.74966949999998
 11
1237.13706
 21
1093.7207045
  0
LINE
  8
_0-0_LAYER001
  6
CONTINUOUS
 62
    4
 10
1162.1468519999999
 20
1124.9164205
 11
1167.7652880000001
 21
1126.6402005
  0
ARC
  8
_0-0_LAYER001
  6
CONTINUOUS
 62
    4
 10
1184.563686
 20
1128.2146095000001
 40
16.872017
 50
102.88244700000001
 51
185.35433299999997
  0
LINE
  8
_0-0_LAYER001
  6
CONTINUOUS
 62
    4
 10
1186.208253
 20
1128.0154904999999
 11
1493.17356
 21
1222.1948155
  0
LINE
  8
_0-0_LAYER001
  6
CONTINUOUS
 62
    4
 10
1487.254226
 20
1241.4881155
 11
1463.808841
 21
1234.2948914999999
  0
LINE
  8
_0-0_LAYER001
  6
CONTINUOUS
 62
    4
 10
1180.8020449999999
 20
1144.6619495
 11
1461.370007
 21
1230.7423655
  0
ARC
  8
_0-0_LAYER001
  6
CONTINUOUS
 62
    4
 10
1466.9883199999999
 20
1229.2157965000001
 40
5.8220139999999994
 50
113.22723600000002
 51
164.79898000000003
  0
LINE
  8
_0-0_LAYER001
  6
CONTINUOUS
 62
    4
 10
1162.1377049999999
 20
1124.9462355000001
 11
1167.866309
 21
1106.2745915
  0
ARC
  8
_0-0_LAYER001
  6
CONTINUOUS
 62
    4
 10
1189.969893
 20
1111.5681505
 40
16.872017
 50
102.88244700000001
 51
192.21985000000001
  0
LINE
  8
_0-0_LAYER001
  6
CONTINUOUS
 62
    4
 10
1494.1711399999999
 20
1203.0748315000001
 11
1492.4558939999999
 21
1208.6654525000001
  0
LINE
  8
_0-0_LAYER001
  6
CONTINUOUS
 62
    4
 10
1487.254226
 20
1241.4881155
 11
1498.6208609999999
 21
1204.4400395
  0
LINE
  8
_0-0_LAYER001
  6
CONTINUOUS
 62
    4
 10
1494.1711399999999
 20
1203.0748315000001
 11
1498.6208609999999
 21
1204.4400395
  0
LINE
  8
_0-0_LAYER001
  6
CONTINUOUS
 62
    4
 10
1173.4801519999999
 20
1107.9969615
 11
1167.866309
 21
1106.2745915
  0
LINE
  8
_0-0_LAYER001
  6
CONTINUOUS
 62
    4
 10
1173.131999
 20
1110.6944175000001
 11
1492.4558939999999
 21
1208.6654525000001
  0
LINE
  8
_0-0_LAYER001
  6
CONTINUOUS
 62
    4
 10
2391.0838510000003
 20
851.12460350000015
 11
2306.2115720000002
 21
877.93541950000008
  0
LINE
  8
_0-0_LAYER001
  6
CONTINUOUS
 62
    4
 10
2312.2905480000004
 20
897.17901649999999
 11
2335.6755320000002
 21
889.79179250000016
  0
LINE
  8
_0-0_LAYER001
  6
CONTINUOUS
 62
    4
 10
2398.3145689999997
 20
867.19285450000007
 11
2338.0848499999997
 21
886.2191835000001
  0
ARC
  8
_0-0_LAYER001
  6
CONTINUOUS
 62
    4
 10
2332.4540819999997
 20
884.73921450000012
 40
5.8220139999999994
 50
14.726318000000001
 51
66.298061999999987
  0
LINE
  8
_0-0_LAYER001
  6
CONTINUOUS
 62
    4
 10
2305.055617
 20
858.82435650000002
 11
2306.8171219999999
 21
864.40057550000006
  0
LINE
  8
_0-0_LAYER001
  6
CONTINUOUS
 62
    4
 10
2312.2905480000004
 20
897.17901649999999
 11
2300.6173589999999
 21
860.22638449999999
  0
LINE
  8
_0-0_LAYER001
  6
CONTINUOUS
 62
    4
 10
2305.055617
 20
858.82435650000002
 11
2300.6173589999999
 21
860.22638449999999
  0
LINE
  8
_0-0_LAYER001
  6
CONTINUOUS
 62
    4
 10
2385.8265849999998
 20
839.44179950000012
 11
2306.8171219999999
 21
864.40057550000006
  0
LINE
  8
_0-0_LAYER001
  6
CONTINUOUS
 62
    4
 10
2381.9002340000002
 20
895.02692449999995
 11
2376.2817990000003
 21
896.7507035000001
  0
ARC
  8
_0-0_LAYER001
  6
CONTINUOUS
 62
    4
 10
2359.4833999999996
 20
898.32511250000016
 40
16.872017
 50
354.645667
 51
77.117552999999987
  0
LINE
  8
_0-0_LAYER001
  6
CONTINUOUS
 62
    4
 10
2357.8388339999997
 20
898.12599450000016
 11
2050.8735259999999
 21
992.30531850000011
  0
LINE
  8
_0-0_LAYER001
  6
CONTINUOUS
 62
    4
 10
2056.79286
 20
1011.5986195
 11
2080.238245
 21
1004.4053945000001
  0
LINE
  8
_0-0_LAYER001
  6
CONTINUOUS
 62
    4
 10
2363.2450419999996
 20
914.77245349999998
 11
2082.6770789999996
 21
1000.8528685000001
  0
ARC
  8
_0-0_LAYER001
  6
CONTINUOUS
 62
    4
 10
2077.0587659999997
 20
999.32630050000012
 40
5.8220139999999994
 50
15.201020000000003
 51
66.772764000000009
  0
LINE
  8
_0-0_LAYER001
  6
CONTINUOUS
 62
    4
 10
2381.9093809999999
 20
895.05673850000017
 11
2376.1807769999996
 21
876.38509450000015
  0
ARC
  8
_0-0_LAYER001
  6
CONTINUOUS
 62
    4
 10
2354.0771930000001
 20
881.67865350000011
 40
16.872017
 50
347.78015000000011
 51
77.117553000000086
  0
LINE
  8
_0-0_LAYER001
  6
CONTINUOUS
 62
    4
 10
2049.875947
 20
973.18533449999995
 11
2051.5911920000003
 21
978.77595550000001
  0
LINE
  8
_0-0_LAYER001
  6
CONTINUOUS
 62
    4
 10
2056.79286
 20
1011.5986195
 11
2045.4262249999999
 21
974.5505435
  0
LINE
  8
_0-0_LAYER001
  6
CONTINUOUS
 62
    4
 10
2049.875947
 20
973.18533449999995
 11
2045.4262249999999
 21
974.5505435
  0
LINE
  8
_0-0_LAYER001
  6
CONTINUOUS
 62
    4
 10
2370.5669340000004
 20
878.10746450000011
 11
2376.1807769999996
 21
876.38509450000015
  0
LINE
  8
_0-0_LAYER001
  6
CONTINUOUS
 62
    4
 10
2370.9150879999997
 20
880.80492049999998
 11
2051.5911920000003
 21
978.77595550000001
  0
LINE
  8
_0-0_LAYER001
  6
CONTINUOUS
 62
    4
 10
2126.5813999999996
 20
1009.9716725000001
 11
2120.9629649999997
 21
1011.6954525000001
  0
ARC
  8
_0-0_LAYER001
  6
CONTINUOUS
 62
    4
 10
2104.1645659999999
 20
1013.2698605
 40
16.872017
 50
354.645667
 51
77.117552999999987
  0
LINE
  8
_0-0_LAYER001
  6
CONTINUOUS
 62
    4
 10
2102.52
 20
1013.0707425000001
 11
1795.5546920000002
 21
1107.2500665
  0
LINE
  8
_0-0_LAYER001
  6
CONTINUOUS
 62
    4
 10
1801.4740260000003
 20
1126.5433675000002
 11
1824.9194110000003
 21
1119.3501424999999
  0
LINE
  8
_0-0_LAYER001
  6
CONTINUOUS
 62
    4
 10
2107.9262079999999
 20
1029.7172015000001
 11
1827.3582450000001
 21
1115.7976175000001
  0
ARC
  8
_0-0_LAYER001
  6
CONTINUOUS
 62
    4
 10
1821.7399320000002
 20
1114.2710485
 40
5.8220139999999994
 50
15.201020000000003
 51
66.772764000000009
  0
LINE
  8
_0-0_LAYER001
  6
CONTINUOUS
 62
    4
 10
2126.5905470000002
 20
1010.0014874999999
 11
2120.8619429999999
 21
991.32984250000004
  0
ARC
  8
_0-0_LAYER001
  6
CONTINUOUS
 62
    4
 10
2098.7583590000004
 20
996.6234015
 40
16.872017
 50
347.78015000000011
 51
77.117553000000086
  0
LINE
  8
_0-0_LAYER001
  6
CONTINUOUS
 62
    4
 10
1794.5571130000003
 20
1088.1300825000001
 11
1796.2723579999999
 21
1093.7207045
  0
LINE
  8
_0-0_LAYER001
  6
CONTINUOUS
 62
    4
 10
1801.4740260000003
 20
1126.5433675000002
 11
1790.1073909999996
 21
1089.4952915000001
  0
LINE
  8
_0-0_LAYER001
  6
CONTINUOUS
 62
    4
 10
1794.5571130000003
 20
1088.1300825000001
 11
1790.1073909999996
 21
1089.4952915000001
  0
LINE
  8
_0-0_LAYER001
  6
CONTINUOUS
 62
    4
 10
2115.2480999999998
 20
993.0522125
 11
2120.8619429999999
 21
991.32984250000004
  0
LINE
  8
_0-0_LAYER001
  6
CONTINUOUS
 62
    4
 10
2115.5962539999996
 20
995.74966949999998
 11
1796.2723579999999
 21
1093.7207045
  0
LINE
  8
_0-0_LAYER001
  6
CONTINUOUS
 62
    4
 10
1871.2625660000001
 20
1124.9164205
 11
1865.6441309999996
 21
1126.6402005
  0
ARC
  8
_0-0_LAYER001
  6
CONTINUOUS
 62
    4
 10
1848.845732
 20
1128.2146095000001
 40
16.872017
 50
354.645667
 51
77.117552999999987
  0
LINE
  8
_0-0_LAYER001
  6
CONTINUOUS
 62
    4
 10
1847.2011660000001
 20
1128.0154904999999
 11
1540.235858
 21
1222.1948155
  0
LINE
  8
_0-0_LAYER001
  6
CONTINUOUS
 62
    4
 10
1546.1551919999999
 20
1241.4881155
 11
1569.6005769999999
 21
1234.2948914999999
  0
LINE
  8
_0-0_LAYER001
  6
CONTINUOUS
 62
    4
 10
1852.6073730000003
 20
1144.6619495
 11
1572.0394110000002
 21
1230.7423655
  0
ARC
  8
_0-0_LAYER001
  6
CONTINUOUS
 62
    4
 10
1566.4210980000003
 20
1229.2157965000001
 40
5.8220139999999994
 50
15.201020000000003
 51
66.772764000000009
  0
LINE
  8
_0-0_LAYER001
  6
CONTINUOUS
 62
    4
 10
1871.2717129999999
 20
1124.9462355000001
 11
1865.543109
 21
1106.2745915
  0
ARC
  8
_0-0_LAYER001
  6
CONTINUOUS
 62
    4
 10
1843.439525
 20
1111.5681505
 40
16.872017
 50
347.78015000000011
 51
77.117553000000086
  0
LINE
  8
_0-0_LAYER001
  6
CONTINUOUS
 62
    4
 10
1539.238278
 20
1203.0748315000001
 11
1540.953524
 21
1208.6654525000001
  0
LINE
  8
_0-0_LAYER001
  6
CONTINUOUS
 62
    4
 10
1546.1551919999999
 20
1241.4881155
 11
1534.7885569999999
 21
1204.4400395
  0
LINE
  8
_0-0_LAYER001
  6
CONTINUOUS
 62
    4
 10
1539.238278
 20
1203.0748315000001
 11
1534.7885569999999
 21
1204.4400395
  0
LINE
  8
_0-0_LAYER001
  6
CONTINUOUS
 62
    4
 10
1859.9292659999996
 20
1107.9969615
 11
1865.543109
 21
1106.2745915
  0
LINE
  8
_0-0_LAYER001
  6
CONTINUOUS
 62
    4
 10
1860.2774189999996
 20
1110.6944175000001
 11
1540.953524
 21
1208.6654525000001
  0
LINE
  8
_0-0_LAYER001
  6
CONTINUOUS
 62
    1
 10
1433.161464
 20
1222.0877665
 11
1433.295822
 21
1222.2221245000001
  0
LINE
  8
_0-0_LAYER001
  6
CONTINUOUS
 62
    1
 10
1428.061099
 20
1220.5229355000001
 11
1432.3152250000001
 21
1224.7770614999999
  0
LINE
  8
_0-0_LAYER001
  6
CONTINUOUS
 62
    1
 10
1424.494555
 20
1220.4919255
 11
1431.3346280000001
 21
1227.3319985000001
  0
LINE
  8
_0-0_LAYER001
  6
CONTINUOUS
 62
    1
 10
1423.4606039999999
 20
1222.9935085
 11
1430.35403
 21
1229.8869345000001
  0
LINE
  8
_0-0_LAYER001
  6
CONTINUOUS
 62
    1
 10
1422.156526
 20
1225.2249644999999
 11
1429.3734330000002
 21
1232.4418715000002
  0
LINE
  8
_0-0_LAYER001
  6
CONTINUOUS
 62
    1
 10
1420.7498289999999
 20
1227.3538005
 11
1421.1965709999999
 21
1227.8005435
  0
LINE
  8
_0-0_LAYER001
  6
CONTINUOUS
 62
    1
 10
1422.602973
 20
1229.2069445
 11
1428.392836
 21
1234.9968075000002
  0
LINE
  8
_0-0_LAYER001
  6
CONTINUOUS
 62
    1
 10
1422.9419479999999
 20
1233.0814545000001
 11
1427.4122379999999
 21
1237.5517445
  0
LINE
  8
_0-0_LAYER001
  6
CONTINUOUS
 62
    1
 10
1427.105352
 20
1238.3513345000001
 11
1433.3278029999999
 21
1222.1388005000001
  0
LINE
  8
_0-0_LAYER001
  6
CONTINUOUS
 62
    1
 10
1432.7767429999999
 20
1243.1101965
 11
1434.430126
 21
1222.4770025
  0
LINE
  8
_0-0_LAYER001
  6
CONTINUOUS
 62
    1
 10
1438.9101699999997
 20
1223.8515145000001
 11
1427.105352
 21
1238.3513345000001
  0
LINE
  8
_0-0_LAYER001
  6
CONTINUOUS
 62
    1
 10
1600.2479539999999
 20
1222.0877665
 11
1600.1135959999999
 21
1222.2221245000001
  0
LINE
  8
_0-0_LAYER001
  6
CONTINUOUS
 62
    1
 10
1605.3483189999999
 20
1220.5229355000001
 11
1601.0941929999999
 21
1224.7770614999999
  0
LINE
  8
_0-0_LAYER001
  6
CONTINUOUS
 62
    1
 10
1608.9148639999999
 20
1220.4919255
 11
1602.0747899999997
 21
1227.3319985000001
  0
LINE
  8
_0-0_LAYER001
  6
CONTINUOUS
 62
    1
 10
1609.9488139999999
 20
1222.9935085
 11
1603.055388
 21
1229.8869345000001
  0
LINE
  8
_0-0_LAYER001
  6
CONTINUOUS
 62
    1
 10
1611.252892
 20
1225.2249644999999
 11
1604.035985
 21
1232.4418715000002
  0
LINE
  8
_0-0_LAYER001
  6
CONTINUOUS
 62
    1
 10
1612.6595889999999
 20
1227.3538005
 11
1612.2128470000002
 21
1227.8005435
  0
LINE
  8
_0-0_LAYER001
  6
CONTINUOUS
 62
    1
 10
1610.8064460000001
 20
1229.2069445
 11
1605.0165820000002
 21
1234.9968075000002
  0
LINE
  8
_0-0_LAYER001
  6
CONTINUOUS
 62
    1
 10
1610.46747
 20
1233.0814545000001
 11
1605.9971799999998
 21
1237.5517445
  0
LINE
  8
_0-0_LAYER001
  6
CONTINUOUS
 62
    1
 10
1606.3040659999999
 20
1238.3513345000001
 11
1600.0816159999999
 21
1222.1388005000001
  0
LINE
  8
_0-0_LAYER001
  6
CONTINUOUS
 62
    1
 10
1600.6326749999998
 20
1243.1101965
 11
1598.979292
 21
1222.4770025
  0
LINE
  8
_0-0_LAYER001
  6
CONTINUOUS
 62
    1
 10
1594.499249
 20
1223.8515145000001
 11
1606.3040659999999
 21
1238.3513345000001
  0
LINE
  8
_0-0_LAYER001
  6
CONTINUOUS
 62
    7
 10
1516.7047729999999
 20
1199.0319665
 11
2377.526206
 21
811.66203850000011
  0
LINE
  8
_0-0_LAYER001
  6
CONTINUOUS
 62
    7
 10
1516.7047090000001
 20
1199.0319665
 11
659.37638000000004
 21
813.23393650000003
  0
LINE
  8
_0-0_LAYER001
  6
CONTINUOUS
 62
    7
 10
1609.3392859999999
 20
1237.7451725000001
 11
1604.035985
 21
1232.4418715000002
  0
LINE
  8
_0-0_LAYER001
  6
CONTINUOUS
 62
    7
 10
1604.035985
 20
1232.4418715000002
 11
1605.977128
 21
1239.6863145
  0
LINE
  8
_0-0_LAYER001
  6
CONTINUOUS
 62
    7
 10
1604.035985
 20
1232.4418715000002
 11
1646.617896
 21
1306.1959055
  0
LINE
  8
_0-0_LAYER001
  6
CONTINUOUS
 62
    7
 10
1646.617896
 20
1306.1959055
 11
1744.117896
 21
1306.1959055
  0
LINE
  8
_0-0_LAYER001
  6
CONTINUOUS
 62
    7
 10
1550.8623299999999
 20
1310.1352245
 11
1545.559029
 21
1304.8319244999998
  0
LINE
  8
_0-0_LAYER001
  6
CONTINUOUS
 62
    7
 10
1545.559029
 20
1304.8319244999998
 11
1547.500172
 21
1312.0763675000001
  0
LINE
  8
_0-0_LAYER001
  6
CONTINUOUS
 62
    7
 10
1545.559029
 20
1304.8319244999998
 11
1594.446647
 21
1389.5077615
  0
LINE
  8
_0-0_LAYER001
  6
CONTINUOUS
 62
    7
 10
1594.446647
 20
1389.5077615
 11
1634.9466469999998
 21
1389.5077615
  0
LINE
  8
_0-0_LAYER001
  6
CONTINUOUS
 62
    7
 10
1922.2742760000001
 20
1068.9278675
 11
1916.9709749999997
 21
1063.6245665000001
  0
LINE
  8
_0-0_LAYER001
  6
CONTINUOUS
 62
    7
 10
1916.9709749999997
 20
1063.6245665000001
 11
1918.9121180000002
 21
1070.8690105000001
  0
LINE
  8
_0-0_LAYER001
  6
CONTINUOUS
 62
    7
 10
1916.9709749999997
 20
1063.6245665000001
 11
1978.5449760000001
 21
1170.2738644999999
  0
LINE
  8
_0-0_LAYER001
  6
CONTINUOUS
 62
    7
 10
1978.5449760000001
 20
1170.2738644999999
 11
2019.0449759999999
 21
1170.2738644999999
  0
LINE
  8
_0-0_LAYER001
  6
CONTINUOUS
 62
    7
 10
1496.186592
 20
1189.7988075000001
 11
1516.7047729999999
 21
1144.2027395
  0
LINE
  8
_0-0_LAYER001
  6
CONTINUOUS
 62
    7
 10
1537.222955
 20
1189.7988075000001
 11
1516.7047729999999
 21
1144.2027395
  0
LINE
  8
_0-1_LAYER002
  6
CONTINUOUS
 62
    7
 10
1461.8314350000001
 20
1029.0412665000001
 11
1463.9285459999999
 21
1029.9849215000002
  0
LINE
  8
_0-1_LAYER002
  6
CONTINUOUS
 62
    7
 10
1437.2076970000001
 20
1083.7558945000001
 11
1439.3055609999999
 21
1084.6995015
  0
LINE
  8
_0-1_LAYER002
  6
CONTINUOUS
 62
    7
 10
1431.052297
 20
1097.4354645000001
 11
1437.2076970000001
 21
1083.7558945000001
  0
LINE
  8
_0-1_LAYER002
  6
CONTINUOUS
 62
    7
 10
1391.0057939999999
 20
1082.3752915
 11
1427.4815519999997
 21
1098.7893135000002
  0
LINE
  8
_0-1_LAYER002
  6
CONTINUOUS
 62
    7
 10
1426.5389709999999
 20
1100.8863305
 11
1390.0613169999999
 21
1084.4712465
  0
LINE
  8
_0-1_LAYER002
  6
CONTINUOUS
 62
    7
 10
1433.149942
 20
1098.3790325
 11
1439.3055609999999
 21
1084.6995015
  0
LINE
  8
_0-1_LAYER002
  6
CONTINUOUS
 62
    7
 10
1424.487136
 20
995.78625750000015
 11
1387.5538979999999
 21
1077.8600405
  0
LINE
  8
_0-1_LAYER002
  6
CONTINUOUS
 62
    7
 10
1467.5768539999999
 20
1009.6942385
 11
1431.0981029999998
 21
993.27882850000015
  0
LINE
  8
_0-1_LAYER002
  6
CONTINUOUS
 62
    7
 10
1470.084171
 20
1016.3052605
 11
1463.9285459999999
 21
1029.9849215000002
  0
LINE
  8
_0-1_LAYER002
  6
CONTINUOUS
 62
    7
 10
1467.9873640000001
 20
1015.3617285
 11
1461.8314350000001
 21
1029.0412665000001
  0
LINE
  8
_0-1_LAYER002
  6
CONTINUOUS
 62
    7
 10
1430.1556890000002
 20
995.37592250000012
 11
1466.633237
 21
1011.7911515000001
  0
LINE
  8
_0-1_LAYER002
  6
CONTINUOUS
 62
    7
 10
1426.5850869999999
 20
996.72994749999998
 11
1389.6519759999999
 21
1078.8047575000001
  0
LINE
  8
_0-0_LAYER001
  6
CONTINUOUS
 62
    7
 10
1430.643317
 20
982.10929250000004
 11
1393.709402
 21
1064.1820565
  0
LINE
  8
_0-0_LAYER001
  6
CONTINUOUS
 62
    7
 10
1389.3780709999999
 20
1056.7499205000001
 11
1417.2836179999999
 21
994.73982449999994
  0
LINE
  8
_0-0_LAYER001
  6
CONTINUOUS
 62
    7
 10
1391.8854510000001
 20
1063.3620455
 11
1393.709402
 21
1064.1820565
  0
LINE
  8
_0-0_LAYER001
  6
CONTINUOUS
 62
    7
 10
1350.256864
 20
953.61115749999999
 11
1412.2679790000002
 21
981.51673750000009
  0
LINE
  8
_0-0_LAYER001
  6
CONTINUOUS
 62
    7
 10
1408.1176249999999
 20
1037.7684255000001
 11
1410.8540089999999
 21
1038.9993215
  0
LINE
  8
_0-0_LAYER001
  6
CONTINUOUS
 62
    7
 10
1401.5518079999997
 20
1052.3585875000001
 11
1404.2880399999999
 21
1053.5895265000001
  0
LINE
  8
_0-0_LAYER001
  6
CONTINUOUS
 62
    7
 10
1417.4194579999998
 20
1024.4103044999999
 11
1404.2880399999999
 21
1053.5895265000001
  0
LINE
  8
_0-0_LAYER001
  6
CONTINUOUS
 62
    7
 10
1414.683119
 20
1023.1783395
 11
1417.4194579999998
 21
1024.4103044999999
  0
LINE
  8
_0-0_LAYER001
  6
CONTINUOUS
 62
    7
 10
1416.6906649999999
 20
1050.3978695000001
 11
1427.3597540000001
 21
1055.1998005
  0
LINE
  8
_0-0_LAYER001
  6
CONTINUOUS
 62
    7
 10
1423.2560100000001
 20
1035.8086885
 11
1433.9253659999999
 21
1040.6095295
  0
LINE
  8
_0-0_LAYER001
  6
CONTINUOUS
 62
    7
 10
1421.838051
 20
1036.3472125000001
 11
1413.696727
 21
1032.6841035
  0
LINE
  8
_0-0_LAYER001
  6
CONTINUOUS
 62
    7
 10
1416.1520829999999
 20
1048.9817195000001
 11
1408.011782
 21
1045.3178625
  0
LINE
  8
_0-0_LAYER001
  6
CONTINUOUS
 62
    7
 10
1413.310023
 20
1055.3000875
 11
1405.1676809999999
 21
1051.6359645
  0
LINE
  8
_0-0_LAYER001
  6
CONTINUOUS
 62
    7
 10
1415.0473689999999
 20
1054.0484145
 11
1413.310023
 21
1055.3000875
  0
LINE
  8
_0-0_LAYER001
  6
CONTINUOUS
 62
    7
 10
1424.896982
 20
1032.1619575
 11
1415.0473689999999
 21
1054.0484145
  0
LINE
  8
_0-0_LAYER001
  6
CONTINUOUS
 62
    7
 10
1424.6811780000003
 20
1030.0287095000001
 11
1416.539925
 21
1026.3648625000001
  0
LINE
  8
_0-0_LAYER001
  6
CONTINUOUS
 62
    7
 10
1424.896982
 20
1032.1619575
 11
1424.6811780000003
 21
1030.0287095000001
  0
LINE
  8
_0-0_LAYER001
  6
CONTINUOUS
 62
    7
 10
1434.9292800000001
 20
1043.2545705
 11
1433.9253659999999
 21
1040.6095295
  0
LINE
  8
_0-0_LAYER001
  6
CONTINUOUS
 62
    7
 10
1430.0045
 20
1054.1967135
 11
1434.9292800000001
 21
1043.2545705
  0
LINE
  8
_0-0_LAYER001
  6
CONTINUOUS
 62
    7
 10
1427.3597540000001
 20
1055.1998005
 11
1430.0045
 21
1054.1967135
  0
LINE
  8
_0-0_LAYER001
  6
CONTINUOUS
 62
    7
 10
1427.3597540000001
 20
1055.1998005
 11
1433.9253659999999
 21
1040.6095295
  0
LINE
  8
_0-0_LAYER001
  6
CONTINUOUS
 62
    7
 10
1427.3597540000001
 20
1055.1998005
 11
1431.3520639999999
 21
1039.4517035000001
  0
LINE
  8
_0-0_LAYER001
  6
CONTINUOUS
 62
    7
 10
1421.8036099999999
 20
1052.6992845
 11
1425.7970209999999
 21
1036.9512035
  0
LINE
  8
_0-0_LAYER001
  6
CONTINUOUS
 62
    7
 10
1388.6525069999998
 20
1036.6052445
 11
1396.793635
 21
1040.2682655000001
  0
LINE
  8
_0-0_LAYER001
  6
CONTINUOUS
 62
    7
 10
1394.3382309999997
 20
1023.9705675
 11
1402.4796739999999
 21
1027.6346635
  0
LINE
  8
_0-0_LAYER001
  6
CONTINUOUS
 62
    7
 10
1397.180593
 20
1017.6524025000001
 11
1405.322627
 21
1021.3162525
  0
LINE
  8
_0-0_LAYER001
  6
CONTINUOUS
 62
    7
 10
1395.442937
 20
1018.9038525000001
 11
1397.180593
 21
1017.6524025000001
  0
LINE
  8
_0-0_LAYER001
  6
CONTINUOUS
 62
    7
 10
1385.5935249999998
 20
1040.7905075000001
 11
1395.442937
 21
1018.9038525000001
  0
LINE
  8
_0-0_LAYER001
  6
CONTINUOUS
 62
    7
 10
1385.8091930000001
 20
1042.9234305
 11
1393.9504280000001
 21
1046.5874765000001
  0
LINE
  8
_0-0_LAYER001
  6
CONTINUOUS
 62
    7
 10
1385.5935249999998
 20
1040.7905075000001
 11
1385.8091930000001
 21
1042.9234305
  0
LINE
  8
_0-0_LAYER001
  6
CONTINUOUS
 62
    7
 10
1347.749603
 20
946.99999849999995
 11
1348.57042
 21
945.17614150000009
  0
LINE
  8
_0-0_LAYER001
  6
CONTINUOUS
 62
    7
 10
1348.57042
 20
945.17614150000009
 11
1430.643493
 21
982.10890949999998
  0
LINE
  8
_0-0_LAYER001
  6
CONTINUOUS
 62
    7
 10
1392.2280249999999
 20
1143.0180395
 11
1383.1076989999999
 21
1138.9140095
  0
LINE
  8
_0-0_LAYER001
  6
CONTINUOUS
 62
    7
 10
1393.4579739999999
 20
1140.2815545000001
 11
1384.339483
 21
1136.1788735
  0
LINE
  8
_0-0_LAYER001
  6
CONTINUOUS
 62
    7
 10
1383.1076989999999
 20
1138.9140095
 11
1384.339483
 21
1136.1788735
  0
LINE
  8
_0-0_LAYER001
  6
CONTINUOUS
 62
    7
 10
1392.2280249999999
 20
1143.0180395
 11
1393.4579739999999
 21
1140.2815545000001
  0
LINE
  8
_0-0_LAYER001
  6
CONTINUOUS
 62
    7
 10
1387.6679340000001
 20
1140.9660925000001
 11
1388.8987729999999
 21
1138.2296255000001
  0
LINE
  8
_0-0_LAYER001
  6
CONTINUOUS
 62
    7
 10
1414.3414809999999
 20
1081.6912935
 11
1410.219233
 21
1085.9774835000001
  0
LINE
  8
_0-0_LAYER001
  6
CONTINUOUS
 62
    7
 10
1414.3414809999999
 20
1081.6912935
 11
1413.867
 21
1087.6183095000001
  0
LINE
  8
_0-0_LAYER001
  6
CONTINUOUS
 62
    7
 10
1392.55396
 20
1122.2181705
 11
1398.1817899999999
 21
1125.9096485
  0
LINE
  8
_0-0_LAYER001
  6
CONTINUOUS
 62
    7
 10
1394.6059420000001
 20
1117.6589215000001
 11
1400.2348219999999
 21
1121.3494735000002
  0
LINE
  8
_0-0_LAYER001
  6
CONTINUOUS
 62
    7
 10
1396.658868
 20
1113.0986225000001
 11
1402.2864290000002
 21
1116.7902994999999
  0
LINE
  8
_0-0_LAYER001
  6
CONTINUOUS
 62
    7
 10
1398.7097389999999
 20
1108.5384055
 11
1404.3374209999999
 21
1112.2310085000001
  0
LINE
  8
_0-0_LAYER001
  6
CONTINUOUS
 62
    7
 10
1400.7616849999999
 20
1103.9802165000001
 11
1406.3893029999999
 21
1107.6717365
  0
LINE
  8
_0-0_LAYER001
  6
CONTINUOUS
 62
    7
 10
1402.8135010000001
 20
1099.4199105
 11
1408.442317
 21
1103.1117505
  0
LINE
  8
_0-0_LAYER001
  6
CONTINUOUS
 62
    7
 10
1404.866327
 20
1094.8608075
 11
1410.4932059999999
 21
1098.5513545000001
  0
LINE
  8
_0-0_LAYER001
  6
CONTINUOUS
 62
    7
 10
1406.9173510000001
 20
1090.3005275
 11
1412.5450799999999
 21
1093.9922615
  0
LINE
  8
_0-0_LAYER001
  6
CONTINUOUS
 62
    7
 10
1408.4532819999999
 20
1086.8885305000001
 11
1414.0806939999998
 21
1090.5801715
  0
LINE
  8
_0-0_LAYER001
  6
CONTINUOUS
 62
    7
 10
1391.9536590000002
 20
1136.3172965000001
 11
1413.867
 21
1087.6183095000001
  0
LINE
  8
_0-0_LAYER001
  6
CONTINUOUS
 62
    7
 10
1393.4579739999999
 20
1140.2815545000001
 11
1391.9536590000002
 21
1136.3172965000001
  0
LINE
  8
_0-0_LAYER001
  6
CONTINUOUS
 62
    7
 10
1388.3069229999999
 20
1134.6733815
 11
1410.219233
 21
1085.9774835000001
  0
LINE
  8
_0-0_LAYER001
  6
CONTINUOUS
 62
    7
 10
1384.339483
 20
1136.1788735
 11
1388.3069229999999
 21
1134.6733815
  0
ARC
  8
_0-1_LAYER002
  6
CONTINUOUS
 62
    7
 10
1428.5898629999999
 20
1096.3270355
 40
2.7000000000000002
 50
24.240375
 51
114.23247899999998
  0
ARC
  8
_0-1_LAYER002
  6
CONTINUOUS
 62
    7
 10
1392.1141539999999
 20
1079.9130455
 40
2.7000000000000002
 50
114.23247899999998
 51
204.21279899999996
  0
ARC
  8
_0-1_LAYER002
  6
CONTINUOUS
 62
    7
 10
1392.112095
 20
1079.9120375
 40
4.9989999999999997
 50
114.220089
 51
204.23073900000003
  0
ARC
  8
_0-1_LAYER002
  6
CONTINUOUS
 62
    7
 10
1428.5908609999999
 20
1096.3282895
 40
4.9989999999999997
 50
24.224354000000002
 51
114.241359
  0
ARC
  8
_0-1_LAYER002
  6
CONTINUOUS
 62
    7
 10
1429.046214
 20
997.83707950000007
 40
4.9989999999999997
 50
204.20945900000001
 51
294.23499900000002
  0
ARC
  8
_0-1_LAYER002
  6
CONTINUOUS
 62
    7
 10
1465.5258690000001
 20
1014.2533695
 40
4.9989999999999997
 50
294.21370899999999
 51
24.245639999999991
  0
ARC
  8
_0-1_LAYER002
  6
CONTINUOUS
 62
    7
 10
1465.5247170000002
 20
1014.2534005
 40
2.7000000000000002
 50
294.22066899999999
 51
24.240374999999986
  0
ARC
  8
_0-1_LAYER002
  6
CONTINUOUS
 62
    7
 10
1429.0470639999999
 20
997.83803650000004
 40
2.7000000000000002
 50
204.21279899999999
 51
294.22066899999999
  0
ARC
  8
_0-0_LAYER001
  6
CONTINUOUS
 62
    7
 10
1408.1622499999999
 20
990.63701149999997
 40
10.001999
 50
294.23665899999997
 51
24.223896000000018
  0
ARC
  8
_0-0_LAYER001
  6
CONTINUOUS
 62
    7
 10
1393.936211
 20
1058.8018545
 40
4.9989999999999997
 50
114.220089
 51
204.23073900000003
  0
ARC
  8
_0-0_LAYER001
  6
CONTINUOUS
 62
    7
 10
1352.3075899999999
 20
949.05175550000013
 40
4.9989999999999997
 50
114.220089
 51
204.23073900000003
  0
ARC
  8
_0-0_LAYER001
  6
CONTINUOUS
 62
    7
 10
1410.0986800000001
 20
1050.0651655000001
 40
6.1470009999999995
 50
349.86245900000011
 51
23.869739000000084
  0
ARC
  8
_0-0_LAYER001
  6
CONTINUOUS
 62
    7
 10
1418.62472
 20
1031.0923585
 40
6.1580000000000004
 50
24.600925000000007
 51
58.555576000000009
  0
ARC
  8
_0-0_LAYER001
  6
CONTINUOUS
 62
    7
 10
1399.0904759999999
 20
1033.7084895
 40
22.898997999999999
 50
6.6164899999999998
 51
41.832004000000005
  0
ARC
  8
_0-0_LAYER001
  6
CONTINUOUS
 62
    7
 10
1400.3926649999999
 20
1022.8899785000001
 40
6.1479999999999988
 50
169.87800900000002
 51
203.89274899999998
  0
ARC
  8
_0-0_LAYER001
  6
CONTINUOUS
 62
    7
 10
1391.859052
 20
1041.8515945000001
 40
6.1479999999999988
 50
204.55375900000004
 51
238.55601899999999
  0
ARC
  8
_0-0_LAYER001
  6
CONTINUOUS
 62
    7
 10
1411.4354000000001
 20
1039.2612985000001
 40
22.936000999999997
 50
186.64731900000004
 51
221.80408900000003
  0
LINE
  8
_0-1_LAYER002
  6
CONTINUOUS
 62
    7
 10
1571.5781119999999
 20
1029.0412665000001
 11
1569.4810000000002
 21
1029.9849215000002
  0
LINE
  8
_0-1_LAYER002
  6
CONTINUOUS
 62
    7
 10
1596.2018499999999
 20
1083.7558945000001
 11
1594.1039859999998
 21
1084.6995015
  0
LINE
  8
_0-1_LAYER002
  6
CONTINUOUS
 62
    7
 10
1602.35725
 20
1097.4354645000001
 11
1596.2018499999999
 21
1083.7558945000001
  0
LINE
  8
_0-1_LAYER002
  6
CONTINUOUS
 62
    7
 10
1642.4037529999998
 20
1082.3752915
 11
1605.927995
 21
1098.7893135000002
  0
LINE
  8
_0-1_LAYER002
  6
CONTINUOUS
 62
    7
 10
1606.8705749999999
 20
1100.8863305
 11
1643.3482299999996
 21
1084.4712465
  0
LINE
  8
_0-1_LAYER002
  6
CONTINUOUS
 62
    7
 10
1600.259605
 20
1098.3790325
 11
1594.1039859999998
 21
1084.6995015
  0
LINE
  8
_0-1_LAYER002
  6
CONTINUOUS
 62
    7
 10
1608.9224099999999
 20
995.78625750000015
 11
1645.8556479999997
 21
1077.8600405
  0
LINE
  8
_0-1_LAYER002
  6
CONTINUOUS
 62
    7
 10
1565.832692
 20
1009.6942385
 11
1602.3114439999999
 21
993.27882850000015
  0
LINE
  8
_0-1_LAYER002
  6
CONTINUOUS
 62
    7
 10
1563.325376
 20
1016.3052605
 11
1569.4810000000002
 21
1029.9849215000002
  0
LINE
  8
_0-1_LAYER002
  6
CONTINUOUS
 62
    7
 10
1565.422182
 20
1015.3617285
 11
1571.5781119999999
 21
1029.0412665000001
  0
LINE
  8
_0-1_LAYER002
  6
CONTINUOUS
 62
    7
 10
1603.2538569999999
 20
995.37592250000012
 11
1566.7763089999999
 21
1011.7911515000001
  0
LINE
  8
_0-1_LAYER002
  6
CONTINUOUS
 62
    7
 10
1606.82446
 20
996.72994749999998
 11
1643.7575709999999
 21
1078.8047575000001
  0
LINE
  8
_0-0_LAYER001
  6
CONTINUOUS
 62
    7
 10
1602.76623
 20
982.10929250000004
 11
1639.7001449999998
 21
1064.1820565
  0
LINE
  8
_0-0_LAYER001
  6
CONTINUOUS
 62
    7
 10
1644.0314759999999
 20
1056.7499205000001
 11
1616.1259279999999
 21
994.73982449999994
  0
LINE
  8
_0-0_LAYER001
  6
CONTINUOUS
 62
    7
 10
1641.5240960000001
 20
1063.3620455
 11
1639.7001449999998
 21
1064.1820565
  0
LINE
  8
_0-0_LAYER001
  6
CONTINUOUS
 62
    7
 10
1683.1526830000003
 20
953.61115749999999
 11
1621.141568
 21
981.51673750000009
  0
LINE
  8
_0-0_LAYER001
  6
CONTINUOUS
 62
    7
 10
1625.2919220000001
 20
1037.7684255000001
 11
1622.5555370000002
 21
1038.9993215
  0
LINE
  8
_0-0_LAYER001
  6
CONTINUOUS
 62
    7
 10
1631.8577389999998
 20
1052.3585875000001
 11
1629.1215070000001
 21
1053.5895265000001
  0
LINE
  8
_0-0_LAYER001
  6
CONTINUOUS
 62
    7
 10
1615.9900889999999
 20
1024.4103044999999
 11
1629.1215070000001
 21
1053.5895265000001
  0
LINE
  8
_0-0_LAYER001
  6
CONTINUOUS
 62
    7
 10
1618.7264279999999
 20
1023.1783395
 11
1615.9900889999999
 21
1024.4103044999999
  0
LINE
  8
_0-0_LAYER001
  6
CONTINUOUS
 62
    7
 10
1616.7188819999999
 20
1050.3978695000001
 11
1606.0497929999999
 21
1055.1998005
  0
LINE
  8
_0-0_LAYER001
  6
CONTINUOUS
 62
    7
 10
1610.1535369999999
 20
1035.8086885
 11
1599.484181
 21
1040.6095295
  0
LINE
  8
_0-0_LAYER001
  6
CONTINUOUS
 62
    7
 10
1611.571496
 20
1036.3472125000001
 11
1619.71282
 21
1032.6841035
  0
LINE
  8
_0-0_LAYER001
  6
CONTINUOUS
 62
    7
 10
1617.2574629999999
 20
1048.9817195000001
 11
1625.3977649999999
 21
1045.3178625
  0
LINE
  8
_0-0_LAYER001
  6
CONTINUOUS
 62
    7
 10
1620.099524
 20
1055.3000875
 11
1628.2418660000003
 21
1051.6359645
  0
LINE
  8
_0-0_LAYER001
  6
CONTINUOUS
 62
    7
 10
1618.3621779999999
 20
1054.0484145
 11
1620.099524
 21
1055.3000875
  0
LINE
  8
_0-0_LAYER001
  6
CONTINUOUS
 62
    7
 10
1608.512565
 20
1032.1619575
 11
1618.3621779999999
 21
1054.0484145
  0
LINE
  8
_0-0_LAYER001
  6
CONTINUOUS
 62
    7
 10
1608.7283689999999
 20
1030.0287095000001
 11
1616.8696219999997
 21
1026.3648625000001
  0
LINE
  8
_0-0_LAYER001
  6
CONTINUOUS
 62
    7
 10
1608.512565
 20
1032.1619575
 11
1608.7283689999999
 21
1030.0287095000001
  0
LINE
  8
_0-0_LAYER001
  6
CONTINUOUS
 62
    7
 10
1598.480266
 20
1043.2545705
 11
1599.484181
 21
1040.6095295
  0
LINE
  8
_0-0_LAYER001
  6
CONTINUOUS
 62
    7
 10
1603.405047
 20
1054.1967135
 11
1598.480266
 21
1043.2545705
  0
LINE
  8
_0-0_LAYER001
  6
CONTINUOUS
 62
    7
 10
1606.0497929999999
 20
1055.1998005
 11
1603.405047
 21
1054.1967135
  0
LINE
  8
_0-0_LAYER001
  6
CONTINUOUS
 62
    7
 10
1606.0497929999999
 20
1055.1998005
 11
1599.484181
 21
1040.6095295
  0
LINE
  8
_0-0_LAYER001
  6
CONTINUOUS
 62
    7
 10
1606.0497929999999
 20
1055.1998005
 11
1602.0574819999999
 21
1039.4517035000001
  0
LINE
  8
_0-0_LAYER001
  6
CONTINUOUS
 62
    7
 10
1611.6059369999998
 20
1052.6992845
 11
1607.6125259999999
 21
1036.9512035
  0
LINE
  8
_0-0_LAYER001
  6
CONTINUOUS
 62
    7
 10
1644.75704
 20
1036.6052445
 11
1636.615912
 21
1040.2682655000001
  0
LINE
  8
_0-0_LAYER001
  6
CONTINUOUS
 62
    7
 10
1639.0713149999999
 20
1023.9705675
 11
1630.9298729999998
 21
1027.6346635
  0
LINE
  8
_0-0_LAYER001
  6
CONTINUOUS
 62
    7
 10
1636.228953
 20
1017.6524025000001
 11
1628.0869200000002
 21
1021.3162525
  0
LINE
  8
_0-0_LAYER001
  6
CONTINUOUS
 62
    7
 10
1637.9666100000004
 20
1018.9038525000001
 11
1636.228953
 21
1017.6524025000001
  0
LINE
  8
_0-0_LAYER001
  6
CONTINUOUS
 62
    7
 10
1647.8160209999999
 20
1040.7905075000001
 11
1637.9666100000004
 21
1018.9038525000001
  0
LINE
  8
_0-0_LAYER001
  6
CONTINUOUS
 62
    7
 10
1647.600353
 20
1042.9234305
 11
1639.4591190000001
 21
1046.5874765000001
  0
LINE
  8
_0-0_LAYER001
  6
CONTINUOUS
 62
    7
 10
1647.8160209999999
 20
1040.7905075000001
 11
1647.600353
 21
1042.9234305
  0
LINE
  8
_0-0_LAYER001
  6
CONTINUOUS
 62
    7
 10
1685.6599430000001
 20
946.99999849999995
 11
1684.8391259999999
 21
945.17614150000009
  0
LINE
  8
_0-0_LAYER001
  6
CONTINUOUS
 62
    7
 10
1684.8391259999999
 20
945.17614150000009
 11
1602.7660530000001
 21
982.10890949999998
  0
LINE
  8
_0-0_LAYER001
  6
CONTINUOUS
 62
    7
 10
1641.1815219999999
 20
1143.0180395
 11
1650.3018479999996
 21
1138.9140095
  0
LINE
  8
_0-0_LAYER001
  6
CONTINUOUS
 62
    7
 10
1639.9515730000003
 20
1140.2815545000001
 11
1649.0700639999998
 21
1136.1788735
  0
LINE
  8
_0-0_LAYER001
  6
CONTINUOUS
 62
    7
 10
1650.3018479999996
 20
1138.9140095
 11
1649.0700639999998
 21
1136.1788735
  0
LINE
  8
_0-0_LAYER001
  6
CONTINUOUS
 62
    7
 10
1641.1815219999999
 20
1143.0180395
 11
1639.9515730000003
 21
1140.2815545000001
  0
LINE
  8
_0-0_LAYER001
  6
CONTINUOUS
 62
    7
 10
1645.7416129999999
 20
1140.9660925000001
 11
1644.5107729999997
 21
1138.2296255000001
  0
LINE
  8
_0-0_LAYER001
  6
CONTINUOUS
 62
    7
 10
1619.068066
 20
1081.6912935
 11
1623.1903140000004
 21
1085.9774835000001
  0
LINE
  8
_0-0_LAYER001
  6
CONTINUOUS
 62
    7
 10
1619.068066
 20
1081.6912935
 11
1619.5425459999999
 21
1087.6183095000001
  0
LINE
  8
_0-0_LAYER001
  6
CONTINUOUS
 62
    7
 10
1640.8555859999999
 20
1122.2181705
 11
1635.2277559999998
 21
1125.9096485
  0
LINE
  8
_0-0_LAYER001
  6
CONTINUOUS
 62
    7
 10
1638.8036050000001
 20
1117.6589215000001
 11
1633.1747250000001
 21
1121.3494735000002
  0
LINE
  8
_0-0_LAYER001
  6
CONTINUOUS
 62
    7
 10
1636.7506789999998
 20
1113.0986225000001
 11
1631.1231169999999
 21
1116.7902994999999
  0
LINE
  8
_0-0_LAYER001
  6
CONTINUOUS
 62
    7
 10
1634.6998080000001
 20
1108.5384055
 11
1629.0721249999999
 21
1112.2310085000001
  0
LINE
  8
_0-0_LAYER001
  6
CONTINUOUS
 62
    7
 10
1632.6478610000001
 20
1103.9802165000001
 11
1627.0202429999999
 21
1107.6717365
  0
LINE
  8
_0-0_LAYER001
  6
CONTINUOUS
 62
    7
 10
1630.596045
 20
1099.4199105
 11
1624.96723
 21
1103.1117505
  0
LINE
  8
_0-0_LAYER001
  6
CONTINUOUS
 62
    7
 10
1628.5432199999996
 20
1094.8608075
 11
1622.9163409999999
 21
1098.5513545000001
  0
LINE
  8
_0-0_LAYER001
  6
CONTINUOUS
 62
    7
 10
1626.4921959999997
 20
1090.3005275
 11
1620.8644670000001
 21
1093.9922615
  0
LINE
  8
_0-0_LAYER001
  6
CONTINUOUS
 62
    7
 10
1624.9562650000003
 20
1086.8885305000001
 11
1619.3288519999999
 21
1090.5801715
  0
LINE
  8
_0-0_LAYER001
  6
CONTINUOUS
 62
    7
 10
1641.4558880000002
 20
1136.3172965000001
 11
1619.5425459999999
 21
1087.6183095000001
  0
LINE
  8
_0-0_LAYER001
  6
CONTINUOUS
 62
    7
 10
1639.9515730000003
 20
1140.2815545000001
 11
1641.4558880000002
 21
1136.3172965000001
  0
LINE
  8
_0-0_LAYER001
  6
CONTINUOUS
 62
    7
 10
1645.1026239999999
 20
1134.6733815
 11
1623.1903140000004
 21
1085.9774835000001
  0
LINE
  8
_0-0_LAYER001
  6
CONTINUOUS
 62
    7
 10
1649.0700639999998
 20
1136.1788735
 11
1645.1026239999999
 21
1134.6733815
  0
ARC
  8
_0-1_LAYER002
  6
CONTINUOUS
 62
    7
 10
1604.8196830000002
 20
1096.3270355
 40
2.7000000000000002
 50
65.767521000000016
 51
155.759625
  0
ARC
  8
_0-1_LAYER002
  6
CONTINUOUS
 62
    7
 10
1641.2953919999998
 20
1079.9130455
 40
2.7000000000000002
 50
335.78720099999998
 51
65.767520999999988
  0
ARC
  8
_0-1_LAYER002
  6
CONTINUOUS
 62
    7
 10
1641.2974510000001
 20
1079.9120375
 40
4.9989999999999997
 50
335.76926099999997
 51
65.779911000000041
  0
ARC
  8
_0-1_LAYER002
  6
CONTINUOUS
 62
    7
 10
1604.818685
 20
1096.3282895
 40
4.9989999999999997
 50
65.758640999999997
 51
155.77564600000005
  0
ARC
  8
_0-1_LAYER002
  6
CONTINUOUS
 62
    7
 10
1604.363333
 20
997.83707950000007
 40
4.9989999999999997
 50
245.76500100000004
 51
335.79054100000008
  0
ARC
  8
_0-1_LAYER002
  6
CONTINUOUS
 62
    7
 10
1567.8836780000001
 20
1014.2533695
 40
4.9989999999999997
 50
155.75435999999999
 51
245.78629100000003
  0
ARC
  8
_0-1_LAYER002
  6
CONTINUOUS
 62
    7
 10
1567.88483
 20
1014.2534005
 40
2.7000000000000002
 50
155.759625
 51
245.77933100000001
  0
ARC
  8
_0-1_LAYER002
  6
CONTINUOUS
 62
    7
 10
1604.3624829999999
 20
997.83803650000004
 40
2.7000000000000002
 50
245.77933100000007
 51
335.78720100000004
  0
ARC
  8
_0-0_LAYER001
  6
CONTINUOUS
 62
    7
 10
1625.2472970000003
 20
990.63701149999997
 40
10.001999
 50
155.776104
 51
245.763341
  0
ARC
  8
_0-0_LAYER001
  6
CONTINUOUS
 62
    7
 10
1639.4733359999998
 20
1058.8018545
 40
4.9989999999999997
 50
335.76926099999997
 51
65.779911000000041
  0
ARC
  8
_0-0_LAYER001
  6
CONTINUOUS
 62
    7
 10
1681.1019570000003
 20
949.05175550000013
 40
4.9989999999999997
 50
335.76926099999997
 51
65.779911000000041
  0
ARC
  8
_0-0_LAYER001
  6
CONTINUOUS
 62
    7
 10
1623.3108669999999
 20
1050.0651655000001
 40
6.1470009999999995
 50
156.13026099999999
 51
190.137541
  0
ARC
  8
_0-0_LAYER001
  6
CONTINUOUS
 62
    7
 10
1614.784827
 20
1031.0923585
 40
6.1580000000000004
 50
121.44442400000001
 51
155.39907500000004
  0
ARC
  8
_0-0_LAYER001
  6
CONTINUOUS
 62
    7
 10
1634.3190710000001
 20
1033.7084895
 40
22.898997999999999
 50
138.16799599999999
 51
173.38351
  0
ARC
  8
_0-0_LAYER001
  6
CONTINUOUS
 62
    7
 10
1633.0168819999999
 20
1022.8899785000001
 40
6.1479999999999988
 50
336.10725100000002
 51
10.121990999999966
  0
ARC
  8
_0-0_LAYER001
  6
CONTINUOUS
 62
    7
 10
1641.5504950000002
 20
1041.8515945000001
 40
6.1479999999999988
 50
301.44398100000001
 51
335.44624099999999
  0
ARC
  8
_0-0_LAYER001
  6
CONTINUOUS
 62
    7
 10
1621.9741470000004
 20
1039.2612985000001
 40
22.936000999999997
 50
318.19591100000002
 51
353.35268100000002
  0
LINE
  8
_0-0_LAYER001
  6
CONTINUOUS
 62
    7
 10
703.99424999999997
 20
837.96233550000011
 11
731.56471399999987
 21
849.78898049999998
  0
LINE
  8
_0-0_LAYER001
  6
CONTINUOUS
 62
    7
 10
731.56471399999987
 20
849.78898049999998
 11
725.65139199999999
 21
863.57421250000016
  0
LINE
  8
_0-0_LAYER001
  6
CONTINUOUS
 62
    7
 10
725.65139199999999
 20
863.57421250000016
 11
698.08092799999986
 21
851.74756750000006
  0
LINE
  8
_0-0_LAYER001
  6
CONTINUOUS
 62
    7
 10
698.08092799999986
 20
851.74756750000006
 11
703.99424999999997
 21
837.96233550000011
  0
LINE
  8
_0-0_LAYER001
  6
CONTINUOUS
 62
    7
 10
725.65139199999999
 20
863.57421250000016
 11
703.99424999999997
 21
837.96233550000011
  0
LINE
  8
_0-0_LAYER001
  6
CONTINUOUS
 62
    7
 10
959.00191399999983
 20
952.52584950000005
 11
986.66941599999996
 21
964.12366550000002
  0
LINE
  8
_0-0_LAYER001
  6
CONTINUOUS
 62
    7
 10
986.66941599999996
 20
964.12366550000002
 11
980.87050799999986
 21
977.95741650000014
  0
LINE
  8
_0-0_LAYER001
  6
CONTINUOUS
 62
    7
 10
980.87050799999986
 20
977.95741650000014
 11
953.20300599999996
 21
966.35960049999994
  0
LINE
  8
_0-0_LAYER001
  6
CONTINUOUS
 62
    7
 10
953.20300599999996
 20
966.35960049999994
 11
959.00191399999983
 21
952.52584950000005
  0
LINE
  8
_0-0_LAYER001
  6
CONTINUOUS
 62
    7
 10
980.87050799999986
 20
977.95741650000014
 11
959.00191399999983
 21
952.52584950000005
  0
LINE
  8
_0-0_LAYER001
  6
CONTINUOUS
 62
    7
 10
1214.3207479999999
 20
1067.4705974999999
 11
1241.9882499999999
 21
1079.0684145
  0
LINE
  8
_0-0_LAYER001
  6
CONTINUOUS
 62
    7
 10
1241.9882499999999
 20
1079.0684145
 11
1236.1893419999999
 21
1092.9021645
  0
LINE
  8
_0-0_LAYER001
  6
CONTINUOUS
 62
    7
 10
1236.1893419999999
 20
1092.9021645
 11
1208.5218399999999
 21
1081.3043485000001
  0
LINE
  8
_0-0_LAYER001
  6
CONTINUOUS
 62
    7
 10
1208.5218399999999
 20
1081.3043485000001
 11
1214.3207479999999
 21
1067.4705974999999
  0
LINE
  8
_0-0_LAYER001
  6
CONTINUOUS
 62
    7
 10
1236.1893419999999
 20
1092.9021645
 11
1214.3207479999999
 21
1067.4705974999999
  0
LINE
  8
_0-0_LAYER001
  6
CONTINUOUS
 62
    7
 10
1469.639582
 20
1182.4153455000001
 11
1497.307084
 21
1194.0131625000001
  0
LINE
  8
_0-0_LAYER001
  6
CONTINUOUS
 62
    7
 10
1497.307084
 20
1194.0131625000001
 11
1491.508176
 21
1207.8469135
  0
LINE
  8
_0-0_LAYER001
  6
CONTINUOUS
 62
    7
 10
1491.508176
 20
1207.8469135
 11
1463.840674
 21
1196.2490965
  0
LINE
  8
_0-0_LAYER001
  6
CONTINUOUS
 62
    7
 10
1463.840674
 20
1196.2490965
 11
1469.639582
 21
1182.4153455000001
  0
LINE
  8
_0-0_LAYER001
  6
CONTINUOUS
 62
    7
 10
1491.508176
 20
1207.8469135
 11
1469.639582
 21
1182.4153455000001
  0
LINE
  8
_0-0_LAYER001
  6
CONTINUOUS
 62
    7
 10
571.68543099999988
 20
1008.1025685
 11
593.53201000000001
 21
1017.9335055000001
  0
CIRCLE
  8
_0-0_LAYER001
  6
CONTINUOUS
 62
    7
 10
593.53201000000001
 20
1017.9335055000001
 40
1.6999999999999997
  0
LINE
  8
_0-0_LAYER001
  6
CONTINUOUS
 62
    7
 10
592.50610100000006
 20
1020.2133105
 11
614.05020300000001
 21
972.33741150000014
  0
LINE
  8
_0-0_LAYER001
  6
CONTINUOUS
 62
    7
 10
584.29882400000008
 20
1038.4517475
 11
605.84292600000015
 21
990.5758495
  0
CIRCLE
  8
_0-0_LAYER001
  6
CONTINUOUS
 62
    7
 10
585.32473299999992
 20
1036.1719435
 40
1.6999999999999997
  0
LINE
  8
_0-0_LAYER001
  6
CONTINUOUS
 62
    7
 10
585.32473299999992
 20
1036.1719435
 11
840.66285900000014
 21
1151.0738215000001
  0
CIRCLE
  8
_0-0_LAYER001
  6
CONTINUOUS
 62
    7
 10
840.66285900000014
 20
1151.0738215000001
 40
1.6999999999999997
  0
LINE
  8
_0-0_LAYER001
  6
CONTINUOUS
 62
    7
 10
839.63694899999996
 20
1153.3536255000001
 11
861.18105100000002
 21
1105.4777275000001
  0
LINE
  8
_0-0_LAYER001
  6
CONTINUOUS
 62
    7
 10
831.42967199999998
 20
1171.5920635
 11
852.97377400000016
 21
1123.7161645000001
  0
CIRCLE
  8
_0-0_LAYER001
  6
CONTINUOUS
 62
    7
 10
832.45558200000005
 20
1169.3122585000001
 40
1.6999999999999997
  0
LINE
  8
_0-0_LAYER001
  6
CONTINUOUS
 62
    7
 10
832.45558200000005
 20
1169.3122585000001
 11
1087.7937079999999
 21
1284.2141365
  0
CIRCLE
  8
_0-0_LAYER001
  6
CONTINUOUS
 62
    7
 10
1087.7937079999999
 20
1284.2141365
 40
1.6999999999999997
  0
LINE
  8
_0-0_LAYER001
  6
CONTINUOUS
 62
    7
 10
1086.7677979999999
 20
1286.4939415000001
 11
1108.3118999999999
 21
1238.6180425
  0
LINE
  8
_0-0_LAYER001
  6
CONTINUOUS
 62
    7
 10
1078.5605209999999
 20
1304.7323795
 11
1100.1046229999999
 21
1256.8564805000001
  0
CIRCLE
  8
_0-0_LAYER001
  6
CONTINUOUS
 62
    7
 10
1079.5864300000001
 20
1302.4525745000001
 40
1.6999999999999997
  0
LINE
  8
_0-0_LAYER001
  6
CONTINUOUS
 62
    7
 10
1079.5864300000001
 20
1302.4525745000001
 11
1334.9245559999999
 21
1417.3544525
  0
CIRCLE
  8
_0-0_LAYER001
  6
CONTINUOUS
 62
    7
 10
1334.9245559999999
 20
1417.3544525
 40
1.6999999999999997
  0
LINE
  8
_0-0_LAYER001
  6
CONTINUOUS
 62
    7
 10
1333.898647
 20
1419.6342574999999
 11
1355.442749
 21
1371.7583585
  0
LINE
  8
_0-0_LAYER001
  6
CONTINUOUS
 62
    7
 10
2329.415168
 20
837.96233550000011
 11
2301.8447039999996
 21
849.78898049999998
  0
LINE
  8
_0-0_LAYER001
  6
CONTINUOUS
 62
    7
 10
2301.8447039999996
 20
849.78898049999998
 11
2307.7580259999995
 21
863.57421250000016
  0
LINE
  8
_0-0_LAYER001
  6
CONTINUOUS
 62
    7
 10
2307.7580259999995
 20
863.57421250000016
 11
2335.3284899999999
 21
851.74756750000006
  0
LINE
  8
_0-0_LAYER001
  6
CONTINUOUS
 62
    7
 10
2335.3284899999999
 20
851.74756750000006
 11
2329.415168
 21
837.96233550000011
  0
LINE
  8
_0-0_LAYER001
  6
CONTINUOUS
 62
    7
 10
2307.7580259999995
 20
863.57421250000016
 11
2329.415168
 21
837.96233550000011
  0
LINE
  8
_0-0_LAYER001
  6
CONTINUOUS
 62
    7
 10
2074.4075040000002
 20
952.52584950000005
 11
2046.7400019999995
 21
964.12366550000002
  0
LINE
  8
_0-0_LAYER001
  6
CONTINUOUS
 62
    7
 10
2046.7400019999995
 20
964.12366550000002
 11
2052.5389100000002
 21
977.95741650000014
  0
LINE
  8
_0-0_LAYER001
  6
CONTINUOUS
 62
    7
 10
2052.5389100000002
 20
977.95741650000014
 11
2080.2064119999995
 21
966.35960049999994
  0
LINE
  8
_0-0_LAYER001
  6
CONTINUOUS
 62
    7
 10
2080.2064119999995
 20
966.35960049999994
 11
2074.4075040000002
 21
952.52584950000005
  0
LINE
  8
_0-0_LAYER001
  6
CONTINUOUS
 62
    7
 10
2052.5389100000002
 20
977.95741650000014
 11
2074.4075040000002
 21
952.52584950000005
  0
LINE
  8
_0-0_LAYER001
  6
CONTINUOUS
 62
    7
 10
1819.0886699999999
 20
1067.4705974999999
 11
1791.4211679999999
 21
1079.0684145
  0
LINE
  8
_0-0_LAYER001
  6
CONTINUOUS
 62
    7
 10
1791.4211679999999
 20
1079.0684145
 11
1797.2200759999998
 21
1092.9021645
  0
LINE
  8
_0-0_LAYER001
  6
CONTINUOUS
 62
    7
 10
1797.2200759999998
 20
1092.9021645
 11
1824.8875780000001
 21
1081.3043485000001
  0
LINE
  8
_0-0_LAYER001
  6
CONTINUOUS
 62
    7
 10
1824.8875780000001
 20
1081.3043485000001
 11
1819.0886699999999
 21
1067.4705974999999
  0
LINE
  8
_0-0_LAYER001
  6
CONTINUOUS
 62
    7
 10
1797.2200759999998
 20
1092.9021645
 11
1819.0886699999999
 21
1067.4705974999999
  0
LINE
  8
_0-0_LAYER001
  6
CONTINUOUS
 62
    7
 10
1563.7698359999999
 20
1182.4153455000001
 11
1536.1023339999999
 21
1194.0131625000001
  0
LINE
  8
_0-0_LAYER001
  6
CONTINUOUS
 62
    7
 10
1536.1023339999999
 20
1194.0131625000001
 11
1541.9012419999999
 21
1207.8469135
  0
LINE
  8
_0-0_LAYER001
  6
CONTINUOUS
 62
    7
 10
1541.9012419999999
 20
1207.8469135
 11
1569.5687440000002
 21
1196.2490965
  0
LINE
  8
_0-0_LAYER001
  6
CONTINUOUS
 62
    7
 10
1569.5687440000002
 20
1196.2490965
 11
1563.7698359999999
 21
1182.4153455000001
  0
LINE
  8
_0-0_LAYER001
  6
CONTINUOUS
 62
    7
 10
1541.9012419999999
 20
1207.8469135
 11
1563.7698359999999
 21
1182.4153455000001
  0
LINE
  8
_0-0_LAYER001
  6
DASHED
 62
    7
 10
658.76083199999994
 20
814.60181850000004
 11
1516.7047090000001
 21
1200.6768455000001
  0
LINE
  8
_0-0_LAYER001
  6
DASHED
 62
    7
 10
2378.0643929999997
 20
813.0642785
 11
1516.7047090000001
 21
1200.6768455000001
  0
LINE
  8
_0-0_LAYER001
  6
CONTINUOUS
 62
    7
 10
1432.7767429999999
 20
1243.1101965
 11
1440.0357759999999
 21
1224.1968585
  0
ARC
  8
_0-0_LAYER001
  6
CONTINUOUS
 62
    7
 10
1402.0869229999998
 20
1212.6227335000001
 40
23.813002999999998
 50
16.897987000000001
 51
39.238689000000001
  0
LINE
  8
_0-0_LAYER001
  6
CONTINUOUS
 62
    7
 10
1600.6326749999998
 20
1243.1101965
 11
1593.373642
 21
1224.1968585
  0
ARC
  8
_0-0_LAYER001
  6
CONTINUOUS
 62
    7
 10
1631.3224949999999
 20
1212.6227335000001
 40
23.813002999999998
 50
140.76131100000001
 51
163.102013
  0
LINE
  8
_0-0_LAYER001
  6
CONTINUOUS
 62
    7
 10
1514.338968
 20
1328.8902535
 11
1511.0869479999999
 21
1330.9505334999999
  0
LINE
  8
_0-0_LAYER001
  6
CONTINUOUS
 62
    7
 10
1514.3566080000001
 20
1267.8614235
 11
1516.8007680000001
 21
1256.2108535
  0
LINE
  8
_0-0_LAYER001
  6
CONTINUOUS
 62
    7
 10
1516.8007680000001
 20
1256.2108535
 11
1519.0176280000001
 21
1266.4918435
  0
LINE
  8
_0-0_LAYER001
  6
CONTINUOUS
 62
    7
 10
1514.3398079999999
 20
1326.5052035000003
 11
1514.3566080000001
 21
1267.8614235
  0
LINE
  8
_0-0_LAYER001
  6
CONTINUOUS
 62
    7
 10
1519.018108
 20
1326.4833135000001
 11
1519.0176280000001
 21
1266.4918435
  0
LINE
  8
_0-0_LAYER001
  6
CONTINUOUS
 62
    7
 10
1512.1012579999999
 20
1328.8908335000001
 11
1512.1012579999999
 21
1326.4728135
  0
LINE
  8
_0-0_LAYER001
  6
CONTINUOUS
 62
    7
 10
1512.1012579999999
 20
1326.4728135
 11
1520.9994380000001
 21
1326.4728135
  0
LINE
  8
_0-0_LAYER001
  6
CONTINUOUS
 62
    7
 10
1520.9994380000001
 20
1326.4728135
 11
1520.9994380000001
 21
1328.8908335000001
  0
LINE
  8
_0-0_LAYER001
  6
CONTINUOUS
 62
    7
 10
1520.9994380000001
 20
1328.8908335000001
 11
1512.1012579999999
 21
1328.8908335000001
  0
LINE
  8
_0-0_LAYER001
  6
CONTINUOUS
 62
    7
 10
1519.018108
 20
1328.8217035
 11
1522.6033479999999
 21
1330.9505334999999
  0
LINE
  8
_0-0_LAYER001
  6
CONTINUOUS
 62
    7
 10
1511.0869479999999
 20
1330.9505334999999
 11
1522.6033479999999
 21
1330.9505334999999
  0
LINE
  8
_0-0_LAYER001
  6
CONTINUOUS
 62
    7
 10
1506.704448
 20
1214.3959675000001
 11
1526.7044379999998
 21
1214.3959675000001
  0
LINE
  8
_0-0_LAYER001
  6
CONTINUOUS
 62
    7
 10
1506.704448
 20
1198.2148635000001
 11
1419.1091079999999
 21
1159.0278375
  0
LINE
  8
_0-0_LAYER001
  6
CONTINUOUS
 62
    7
 10
1506.704448
 20
1198.2148635000001
 11
1506.704448
 21
1214.3959675000001
  0
LINE
  8
_0-0_LAYER001
  6
CONTINUOUS
 62
    7
 10
1516.7047090000001
 20
1201.5929325
 11
1419.517398
 21
1158.1149875000001
  0
LINE
  8
_0-0_LAYER001
  6
CONTINUOUS
 62
    7
 10
1507.7044780000001
 20
1197.5665685000001
 11
1507.7044780000001
 21
1213.3958775000001
  0
LINE
  8
_0-0_LAYER001
  6
CONTINUOUS
 62
    7
 10
1507.7044780000001
 20
1213.3958775000001
 11
1525.7045579999999
 21
1213.3958775000001
  0
LINE
  8
_0-0_LAYER001
  6
CONTINUOUS
 62
    7
 10
1419.1091079999999
 20
1159.0278375
 11
1419.517398
 21
1158.1149875000001
  0
LINE
  8
_0-0_LAYER001
  6
CONTINUOUS
 62
    7
 10
1614.2999279999999
 20
1159.0278375
 11
1613.8916879999999
 21
1158.1149875000001
  0
LINE
  8
_0-0_LAYER001
  6
CONTINUOUS
 62
    7
 10
1526.7044379999998
 20
1198.2149225000001
 11
1614.2999279999999
 21
1159.0278375
  0
LINE
  8
_0-0_LAYER001
  6
CONTINUOUS
 62
    7
 10
1526.7044379999998
 20
1214.3959675000001
 11
1526.7044379999998
 21
1198.2149225000001
  0
LINE
  8
_0-0_LAYER001
  6
CONTINUOUS
 62
    7
 10
1516.7047090000001
 20
1201.5929325
 11
1613.8916879999999
 21
1158.1149875000001
  0
LINE
  8
_0-0_LAYER001
  6
CONTINUOUS
 62
    7
 10
1525.7045579999999
 20
1213.3958775000001
 11
1525.7045579999999
 21
1197.5667255000001
  0
ARC
  8
_0-0_LAYER001
  6
CONTINUOUS
 62
    7
 10
1516.8450679999999
 20
1323.8633535000004
 40
9.1314759999999993
 50
50.907179999999997
 51
129.09278
  0
LINE
  8
_0-0_LAYER001
  6
CONTINUOUS
 62
    7
 10
1531.0078590000001
 20
1218.6991785
 11
1525.7045579999999
 21
1213.3958775000001
  0
LINE
  8
_0-0_LAYER001
  6
CONTINUOUS
 62
    7
 10
1525.7045579999999
 20
1213.3958775000001
 11
1527.6457009999999
 21
1220.6403215
  0
LINE
  8
_0-0_LAYER001
  6
CONTINUOUS
 62
    7
 10
1525.7045579999999
 20
1213.3958775000001
 11
1599.713743
 21
1341.5835465
  0
LINE
  8
_0-0_LAYER001
  6
CONTINUOUS
 62
    7
 10
1599.713743
 20
1341.5835465
 11
1689.5642799999998
 21
1341.5835465
  0
LINE
  8
_0-0_LAYER001
  6
CONTINUOUS
 62
    7
 10
1500.539493
 20
1283.6788485
 11
1502.480636
 21
1276.4344045
  0
LINE
  8
_0-0_LAYER001
  6
CONTINUOUS
 62
    7
 10
1502.480636
 20
1276.4344045
 11
1497.1773349999999
 21
1281.7377054999999
  0
LINE
  8
_0-0_LAYER001
  6
CONTINUOUS
 62
    7
 10
1502.480636
 20
1276.4344045
 11
1407.802351
 21
1440.4220055000001
  0
LINE
  8
_0-0_LAYER001
  6
CONTINUOUS
 62
    7
 10
1407.802351
 20
1440.4220055000001
 11
1237.7127809999999
 21
1440.4220055000001
  0
LINE
  8
_0-0_LAYER001
  6
CONTINUOUS
 62
    7
 10
1519.6431089999999
 20
1322.3046485
 11
1514.3398079999999
 21
1317.0013475000001
  0
LINE
  8
_0-0_LAYER001
  6
CONTINUOUS
 62
    7
 10
1514.3398079999999
 20
1317.0013475000001
 11
1516.280951
 21
1324.2457915
  0
LINE
  8
_0-0_LAYER001
  6
CONTINUOUS
 62
    7
 10
1514.3398079999999
 20
1317.0013475000001
 11
1578.6348889999999
 21
1428.3636945000001
  0
LINE
  8
_0-0_LAYER001
  6
CONTINUOUS
 62
    7
 10
1578.6348889999999
 20
1428.3636945000001
 11
1781.1104539999999
 21
1428.3636945000001
  0
LINE
  8
_0-0_LAYER001
  6
CONTINUOUS
 62
    7
 10
1137.8281299999999
 20
671.14413850000005
 11
1405.1372139999999
 21
671.14413850000005
  0
LINE
  8
_0-0_LAYER001
  6
CONTINUOUS
 62
    7
 10
971.61263099999985
 20
955.15554150000003
 11
969.67148900000007
 21
962.39998549999996
  0
LINE
  8
_0-0_LAYER001
  6
CONTINUOUS
 62
    7
 10
969.67148900000007
 20
962.39998549999996
 11
974.97478899999987
 21
957.09668450000004
  0
LINE
  8
_0-0_LAYER001
  6
CONTINUOUS
 62
    7
 10
969.67148900000007
 20
962.39998549999996
 11
1154.6094759999999
 21
642.07799450000016
  0
LINE
  8
_0-0_LAYER001
  6
CONTINUOUS
 62
    7
 10
1154.6094759999999
 20
642.07799450000016
 11
1473.2518620000001
 21
642.07799450000016
  0
LINE
  8
_0-0_LAYER001
  6
CONTINUOUS
 62
    7
 10
1120.1764410000001
 20
702.03988950000007
 11
1356.3015769999997
 21
702.03988950000007
  0
LINE
  8
_0-0_LAYER001
  6
CONTINUOUS
 62
    7
 10
1102.4998000000001
 20
732.02083749999997
 11
1294.892488
 21
732.02083749999997
  0
LINE
  8
_0-5_LAYER009
  6
CONTINUOUS
 62
   18
 10
1320.369858
 20
1055.8522465000001
 11
1345.4479119999999
 21
1121.9665635000001
  0
LINE
  8
_0-5_LAYER009
  6
CONTINUOUS
 62
   18
 10
1316.5010869999996
 20
1054.1111555
 11
1341.5789
 21
1120.2254815000001
  0
LINE
  8
_0-5_LAYER009
  6
CONTINUOUS
 62
   18
 10
1516.704774
 20
1144.2027395
 11
679.89423199999987
 21
767.63874350000015
  0
LINE
  8
_0-2_LAYER003
  6
CONTINUOUS
 62
   18
 10
1515.9412539999998
 20
1020.4933125
 11
726.06026999999995
 21
665.0476215000001
  0
LINE
  8
_0-5_LAYER009
  6
CONTINUOUS
 62
   18
 10
1516.7047729999999
 20
1199.0319665
 11
1131.574595
 21
1025.7238035
  0
LINE
  8
_0-2_LAYER003
  6
CONTINUOUS
 62
   18
 10
1516.8187619999999
 20
1141.5125735000001
 11
1385.501933
 21
1082.4201005
  0
LINE
  8
_0-2_LAYER003
  6
CONTINUOUS
 62
   18
 10
1385.501933
 20
1082.4201005
 11
1384.4760099999999
 21
1084.6999035000001
  0
LINE
  8
_0-5_LAYER009
  6
CONTINUOUS
 62
   18
 10
1713.039689
 20
1055.8522465000001
 11
1687.9616349999997
 21
1121.9665635000001
  0
LINE
  8
_0-5_LAYER009
  6
CONTINUOUS
 62
   18
 10
1716.908459
 20
1054.1111555
 11
1691.8306460000003
 21
1120.2254815000001
  0
LINE
  8
_0-5_LAYER009
  6
CONTINUOUS
 62
   18
 10
1516.7047729999999
 20
1144.2027395
 11
2359.5820499999995
 21
764.90871749999997
  0
LINE
  8
_0-2_LAYER003
  6
CONTINUOUS
 62
   18
 10
1517.4682929999999
 20
1020.4933125
 11
2319.2069110000002
 21
659.71169650000002
  0
LINE
  8
_0-5_LAYER009
  6
CONTINUOUS
 62
   18
 10
1516.7047729999999
 20
1199.0319665
 11
1901.8349519999997
 21
1025.7238035
  0
LINE
  8
_0-2_LAYER003
  6
CONTINUOUS
 62
   18
 10
1516.5907849999999
 20
1141.5125735000001
 11
1647.9076140000002
 21
1082.4201005
  0
LINE
  8
_0-2_LAYER003
  6
CONTINUOUS
 62
   18
 10
1647.9076140000002
 20
1082.4201005
 11
1648.9335370000001
 21
1084.6999035000001
  0
LINE
  8
_0-5_LAYER009
  6
CONTINUOUS
 62
   18
 10
1114.006646
 20
962.98898550000013
 11
1139.084699
 21
1029.1033025000002
  0
LINE
  8
_0-5_LAYER009
  6
CONTINUOUS
 62
   18
 10
1110.1378749999999
 20
961.24789350000015
 11
1135.2156880000002
 21
1027.3622205000001
  0
LINE
  8
_0-5_LAYER009
  6
CONTINUOUS
 62
   18
 10
907.64343300000007
 20
870.12572450000016
 11
932.72148700000002
 21
936.24004149999996
  0
LINE
  8
_0-5_LAYER009
  6
CONTINUOUS
 62
   18
 10
903.77466200000015
 20
868.38463249999995
 11
928.85247499999991
 21
934.49895949999996
  0
LINE
  8
_0-5_LAYER009
  6
CONTINUOUS
 62
   18
 10
701.28022099999998
 20
777.26246349999997
 11
726.35827399999994
 21
843.3767805
  0
LINE
  8
_0-5_LAYER009
  6
CONTINUOUS
 62
   18
 10
697.41145000000006
 20
775.52137149999999
 11
722.48926299999994
 21
841.63569849999999
  0
LINE
  8
_0-5_LAYER009
  6
CONTINUOUS
 62
   18
 10
1889.3082589999999
 20
976.53154749999999
 11
1864.2302050000001
 21
1042.6458645
  0
LINE
  8
_0-5_LAYER009
  6
CONTINUOUS
 62
   18
 10
1893.1770299999998
 20
974.79045550000001
 11
1868.0992170000002
 21
1040.9047825
  0
LINE
  8
_0-5_LAYER009
  6
CONTINUOUS
 62
   18
 10
2065.5768289999996
 20
897.21084850000011
 11
2040.4987749999998
 21
963.32516550000014
  0
LINE
  8
_0-5_LAYER009
  6
CONTINUOUS
 62
   18
 10
2069.4455999999996
 20
895.46975650000013
 11
2044.3677869999999
 21
961.58408350000013
  0
LINE
  8
_0-5_LAYER009
  6
CONTINUOUS
 62
   18
 10
2241.8453989999998
 20
817.89014950000001
 11
2216.7673459999996
 21
884.00446650000004
  0
LINE
  8
_0-5_LAYER009
  6
CONTINUOUS
 62
   18
 10
2245.7141700000002
 20
816.14905750000003
 11
2220.6363570000003
 21
882.26338450000003
  0
LINE
  8
_0-3_LAYER004
  6
CONTINUOUS
 62
   18
 10
1495.096438
 20
1242.6062775
 11
1495.096438
 21
1285.6062075
  0
LINE
  8
_0-3_LAYER004
  6
CONTINUOUS
 62
   18
 10
1538.0966979999998
 20
1285.6062075
 11
1538.0966979999998
 21
1242.6062775
  0
LINE
  8
_0-3_LAYER004
  6
CONTINUOUS
 62
   18
 10
1538.0966979999998
 20
1242.6062775
 11
1495.096438
 21
1242.6062775
  0
LINE
  8
_0-2_LAYER003
  6
CONTINUOUS
 62
   18
 10
1540.0966080000001
 20
1240.6061975
 11
1493.0961580000003
 21
1240.6061975
  0
LINE
  8
_0-2_LAYER003
  6
CONTINUOUS
 62
   18
 10
1493.0961580000003
 20
1268.0954675
 11
1495.096438
 21
1268.0954675
  0
LINE
  8
_0-2_LAYER003
  6
CONTINUOUS
 62
   18
 10
1493.0961580000003
 20
1240.6061975
 11
1493.0961580000003
 21
1268.0954675
  0
LINE
  8
_0-2_LAYER003
  6
CONTINUOUS
 62
   18
 10
1538.0966979999998
 20
1268.0954675
 11
1540.0966080000001
 21
1268.0954675
  0
LINE
  8
_0-2_LAYER003
  6
CONTINUOUS
 62
   18
 10
1540.0966080000001
 20
1268.0954675
 11
1540.0966080000001
 21
1240.6061975
  0
LINE
  8
_0-2_LAYER003
  6
CONTINUOUS
 62
   18
 10
1516.7229179999999
 20
1147.8120875
 11
1512.704608
 21
1181.9326375000001
  0
LINE
  8
_0-2_LAYER003
  6
CONTINUOUS
 62
   18
 10
1516.7229179999999
 20
1147.8120875
 11
1520.704428
 21
1181.6200175000001
  0
LINE
  8
_0-2_LAYER003
  6
CONTINUOUS
 62
   18
 10
1512.704608
 20
1240.6061975
 11
1512.704608
 21
1181.9326375000001
  0
LINE
  8
_0-2_LAYER003
  6
CONTINUOUS
 62
   18
 10
1520.704428
 20
1240.6061975
 11
1520.704428
 21
1181.6200175000001
  0
LINE
  8
_0-4_LAYER006
  6
CONTINUOUS
 62
   18
 10
1538.0966979999998
 20
1285.6062075
 11
1495.096438
 21
1242.6062775
  0
LINE
  8
_0-4_LAYER006
  6
CONTINUOUS
 62
   18
 10
1495.096438
 20
1285.6062075
 11
1538.0966979999998
 21
1242.6062775
  0
LINE
  8
_0-3_LAYER004
  6
CONTINUOUS
 62
   18
 10
1495.096438
 20
1285.6062075
 11
1538.0966979999998
 21
1285.6062075
  0
LINE
  8
_0-4_LAYER006
  6
CONTINUOUS
 62
   18
 10
1513.3566679999999
 20
1267.5935035
 11
1520.0176179999999
 21
1269.3783035000001
  0
LINE
  8
_0-4_LAYER006
  6
CONTINUOUS
 62
   18
 10
1513.3566679999999
 20
1271.5934935
 11
1520.0176179999999
 21
1273.3782935000002
  0
LINE
  8
_0-4_LAYER006
  6
CONTINUOUS
 62
   18
 10
1513.3566679999999
 20
1275.5934735000001
 11
1520.0176179999999
 21
1277.3782835
  0
LINE
  8
_0-4_LAYER006
  6
CONTINUOUS
 62
   18
 10
1513.3566679999999
 20
1279.5935234999999
 11
1520.0176179999999
 21
1281.3783235000001
  0
LINE
  8
_0-4_LAYER006
  6
CONTINUOUS
 62
   18
 10
1513.3566679999999
 20
1283.5935035
 11
1520.0176179999999
 21
1285.3783035000001
  0
LINE
  8
_0-4_LAYER006
  6
CONTINUOUS
 62
   18
 10
1513.3566679999999
 20
1287.5934935
 11
1520.0176179999999
 21
1289.3782935000002
  0
LINE
  8
_0-4_LAYER006
  6
CONTINUOUS
 62
   18
 10
1513.3566679999999
 20
1291.5934835000003
 11
1520.0176179999999
 21
1293.3782835
  0
LINE
  8
_0-4_LAYER006
  6
CONTINUOUS
 62
   18
 10
1513.3566679999999
 20
1295.5935234999997
 11
1520.0176179999999
 21
1297.3783235000001
  0
LINE
  8
_0-4_LAYER006
  6
CONTINUOUS
 62
   18
 10
1513.3566679999999
 20
1299.5935135
 11
1520.0176179999999
 21
1301.3783134999999
  0
LINE
  8
_0-4_LAYER006
  6
CONTINUOUS
 62
   18
 10
1513.3566679999999
 20
1303.5935035
 11
1520.0176179999999
 21
1305.3783035000001
  0
LINE
  8
_0-4_LAYER006
  6
CONTINUOUS
 62
   18
 10
1513.3566679999999
 20
1307.5934835
 11
1520.0176179999999
 21
1309.3782835
  0
TEXT
  8
_0-2_LAYER003
 62
    7
 10
1201.1562458419382
 20
1364.5783012633799
 40
20
 41
1
 50
24.227661999999977
  1
280
  0
TEXT
  8
_0-2_LAYER003
 62
    7
 10
956.34254377775062
 20
1234.118367926543
 40
20
 41
1
 50
24.227662000000002
  1
280
  0
TEXT
  8
_0-2_LAYER003
 62
    7
 10
706.69699233071719
 20
1105.2690510506548
 40
20
 41
1
 50
24.227661999999981
  1
280
  0
TEXT
  8
_0-2_LAYER003
 62
    7
 10
1605.4209775400375
 20
1346.8615201929451
 40
20
 41
1
 50
0
  1
棟補強金物
  0
TEXT
  8
_0-2_LAYER003
 62
    7
 10
1594.1466623133974
 20
1396.7906304823521
 40
20
 41
1
 50
0
  1
棟　瓦
  0
TEXT
  8
_0-2_LAYER003
 62
    7
 10
1574.8192647820142
 20
1435.4454255451185
 40
20
 41
1
 50
0
  1
　パッキンステンレスネジ
  0
TEXT
  8
_0-2_LAYER003
 62
    7
 10
1104.4480475742648
 20
737.69035047085947
 40
20
 41
1
 50
0
  1
瓦桟：15x30以上
  0
TEXT
  8
_0-2_LAYER003
 62
    7
 10
1120.8097326105853
 20
704.38263450406407
 40
20
 41
1
 50
0
  1
下葺材：ルーフィング
  0
TEXT
  8
_0-2_LAYER003
 62
    7
 10
1155.8704862598438
 20
645.94804508863365
 40
20
 41
1
 50
0
  1
鋼製：C100x50x20x2.3@606　
  0
TEXT
  8
_0-2_LAYER003
 62
    7
 10
1140.0931471176775
 20
676.33403158465751
 40
20
 41
1
 50
0
  1
　下地：ＡＬＣパネル　ｔ＝５０
  0
LINE
  8
_0-2_LAYER003
  6
CONTINUOUS
 62
    7
 10
1237.7127809999999
 20
1440.4220055000001
 11
1199.1120824272623
 21
1440.4220055000001
  0
LINE
  8
_0-2_LAYER003
  6
CONTINUOUS
 62
    7
 10
1781.1104539999999
 20
1428.3636945000001
 11
1830.2056481139111
 21
1428.3636945000001
  0
LINE
  8
_0-2_LAYER003
  6
CONTINUOUS
 62
    7
 10
1634.9466469999998
 20
1389.5077615
 11
1661.9140305974715
 21
1389.5077615
  0
LINE
  8
_0-2_LAYER003
  6
CONTINUOUS
 62
    7
 10
1689.5642799999998
 20
1341.5835465
 11
1718.0112364362847
 21
1341.5835465
  0
LINE
  8
_0-2_LAYER003
  6
CONTINUOUS
 62
    7
 10
1744.117896
 20
1306.1959055
 11
1776.4458258517152
 21
1306.1959055
  0
LINE
  8
_0-2_LAYER003
  6
CONTINUOUS
 62
    7
 10
2019.0449759999999
 20
1170.2738644999999
 11
2045.2449371626954
 21
1170.2738644999999
  0
TEXT
  8
_0-2_LAYER003
 62
    7
 10
1643.2149619845336
 20
1311.5180185303866
 40
20
 41
1
 50
0
  1
弾性シール材
  0
TEXT
  8
_0-2_LAYER003
 62
    7
 10
1984.4729641706476
 20
1175.9497710865878
 40
20
 41
1
 50
0
  1
桟　瓦
  0
TEXT
  8
_0-2_LAYER003
 62
    7
 10
1194.4373152740279
 20
1451.7610331274195
 40
20
 41
1
 50
0
  1
芯木：４０ｘ３０以上
  0
ENDSEC
  0
EOF
