  0
SECTION
  2
HEADER
  9
$ACADVER
  1
AC1009
  9
$INSBASE
 10
0
 20
0
 30
0
  9
$EXTMIN
 10
0
 20
0
  9
$EXTMAX
 10
2970
 20
2100
  9
$LIMMIN
 10
0
 20
0
  9
$LIMMAX
 10
2970
 20
2100
  9
$LTSCALE
 40
10
  0
ENDSEC
  0
SECTION
  2
TABLES
  0
TABLE
  2
LTYPE
 70
     9
  0
LTYPE
  2
CONTINUOUS
 70
    64
  3
実線
 72
    65
 73
     0
 40
0.0
  0
LTYPE
  2
DASHED1
 70
    64
  3
--  --  --  --  --  --  --  --  
 72
    65
 73
     2
 40
2.5
 49
1.25
 49
-1.25
  0
LTYPE
  2
DASHED2
 70
    64
  3
----    ----    ----    ----    
 72
    65
 73
     2
 40
5.0
 49
2.5
 49
-2.5
  0
LTYPE
  2
DASHED3
 70
    64
  3
------  ------  ------  ------  
 72
    65
 73
     2
 40
5.0
 49
3.75
 49
-1.25
  0
LTYPE
  2
CENTER1
 70
    64
  3
----- - ----- - ----- - ----- - 
 72
    65
 73
     4
 40
10.0
 49
6.25
 49
-1.25
 49
1.25
 49
-1.25
  0
LTYPE
  2
CENTER2
 70
    64
  3
----------  --  ----------  --  
 72
    65
 73
     4
 40
20.0
 49
12.5
 49
-2.5
 49
2.5
 49
-2.5
  0
LTYPE
  2
PHANTOM1
 70
    64
  3
--- - - --- - - --- - - --- - - 
 72
    65
 73
     6
 40
10.0
 49
3.25
 49
-1.25
 49
1.25
 49
-1.25
 49
1.25
 49
-1.25
  0
LTYPE
  2
PHANTOM2
 70
    64
  3
--------  -  -  --------  -  -  
 72
    65
 73
     6
 40
20.0
 49
10.0
 49
-2.5
 49
1.25
 49
-2.5
 49
1.25
 49
-2.5
  0
LTYPE
  2
DOT
 70
    64
  3
-   -   -   -   -   -   -   -   
 72
    65
 73
     2
 40
2.5
 49
0.625
 49
-1.875
  0
LTYPE
  2
DUMMY
 70
    64
  3
ダミー
 72
    65
 73
     0
 40
0.0
  0
LTYPE
  2
RAND1
 70
    64
  3
ランダム線1
 72
    65
 73
     4
 40
10.0
 49
1.0
 49
-2.0
 49
3.0
 49
-4.0
  0
LTYPE
  2
RAND2
 70
    64
  3
ランダム線2
 72
    65
 73
     4
 40
14.0
 49
2.0
 49
-3.0
 49
4.0
 49
-5.0
  0
LTYPE
  2
RAND3
 70
    64
  3
ランダム線3
 72
    65
 73
     4
 40
18.0
 49
3.0
 49
-4.0
 49
5.0
 49
-6.0
  0
LTYPE
  2
RAND4
 70
    64
  3
ランダム線4
 72
    65
 73
     4
 40
22.0
 49
4.0
 49
-5.0
 49
6.0
 49
-7.0
  0
LTYPE
  2
RAND5
 70
    64
  3
ランダム線5
 72
    65
 73
     4
 40
26.0
 49
5.0
 49
-6.0
 49
7.0
 49
-8.0
  0
LTYPE
  2
LONG1
 70
    64
  3
----------  --  ----------  --  
 72
    65
 73
     4
 40
40.0
 49
32.5
 49
-2.5
 49
2.5
 49
-2.5
  0
LTYPE
  2
LONG2
 70
    64
  3
--------  -  -  --------  -  -  
 72
    65
 73
     6
 40
40.0
 49
30.0
 49
-2.5
 49
1.25
 49
-2.5
 49
1.25
 49
-2.5
  0
LTYPE
  2
LONG3
 70
    64
  3
+++++++++++++++..+++++++++++++++
 72
    65
 73
     2
 40
40.0
 49
37.5
 49
-2.5
  0
LTYPE
  2
LONG4
 70
    64
  3
+++++++++++++++..+++++++++++++++
 72
    65
 73
     2
 40
80.0
 49
75.0
 49
-5.0
  0
LTYPE
  2
LONG5
 70
    64
  3
----------  --  ----------  --  
 72
    65
 73
     4
 40
60.0
 49
37.5
 49
-7.5
 49
7.5
 49
-7.5
  0
LTYPE
  2
dashed
 70
   64
  3
-------   -------------   ------
 72
   65
 73
    2
 40
7.5
 49
6
 49
-1.5
  0
LTYPE
  2
dashed_spaced
 70
   64
  3
----        --------        ----
 72
   65
 73
    2
 40
12
 49
6
 49
-6
  0
LTYPE
  2
long_dashed_dotted
 70
   64
  3
------------- --- --------------
 72
   65
 73
    4
 40
15.25
 49
12
 49
-1.5
 49
0.25
 49
-1.5
  0
LTYPE
  2
long_dashed_double-dotted
 70
   64
  3
----------- --- --- ------------
 72
   65
 73
    6
 40
17
 49
12
 49
-1.5
 49
0.25
 49
-1.5
 49
0.25
 49
-1.5
  0
LTYPE
  2
long_dashed_triplicate-dotted
 70
   64
  3
--------- --- --- --- ----------
 72
   65
 73
    8
 40
18.75
 49
12
 49
-1.5
 49
0.25
 49
-1.5
 49
0.25
 49
-1.5
 49
0.25
 49
-1.5
  0
LTYPE
  2
dotted
 70
   64
  3
   -       -       -       -    
 72
   65
 73
    2
 40
1.75
 49
0.25
 49
-1.5
  0
LTYPE
  2
chain
 70
   64
  3
-------------- -- --------------
 72
   65
 73
    4
 40
18.5
 49
12
 49
-1.5
 49
3.5
 49
-1.5
  0
LTYPE
  2
chain_double_dash
 70
   64
  3
------------ -- -- -------------
 72
   65
 73
    6
 40
23.5
 49
12
 49
-1.5
 49
3.5
 49
-1.5
 49
3.5
 49
-1.5
  0
LTYPE
  2
dashed_dotted
 70
   64
  3
-----------     -     ----------
 72
   65
 73
    4
 40
9.25
 49
6
 49
-1.5
 49
0.25
 49
-1.5
  0
LTYPE
  2
double-dashed_dotted
 70
   64
  3
------   -----------   -   -----
 72
   65
 73
    6
 40
16.75
 49
6
 49
-1.5
 49
6
 49
-1.5
 49
0.25
 49
-1.5
  0
LTYPE
  2
dashed_double-dotted
 70
   64
  3
---------    -    -    ---------
 72
   65
 73
    6
 40
11
 49
6
 49
-1.5
 49
0.25
 49
-1.5
 49
0.25
 49
-1.5
  0
LTYPE
  2
double-dashed_double-dotted
 70
   64
  3
-----   ---------   -   -   ----
 72
   65
 73
    8
 40
18.5
 49
6
 49
-1.5
 49
6
 49
-1.5
 49
0.25
 49
-1.5
 49
0.25
 49
-1.5
  0
LTYPE
  2
dashed_triplicate-dotted
 70
   64
  3
-------    -    -    -    ------
 72
   65
 73
    8
 40
12.75
 49
6
 49
-1.5
 49
0.25
 49
-1.5
 49
0.25
 49
-1.5
 49
0.25
 49
-1.5
  0
LTYPE
  2
double-dashed_triplicate-dotted
 70
   64
  3
-----  ---------  -  -  -  -----
 72
   65
 73
   10
 40
20.25
 49
6
 49
-1.5
 49
6
 49
-1.5
 49
0.25
 49
-1.5
 49
0.25
 49
-1.5
 49
0.25
 49
-1.5
  0
LTYPE
  2
undefined
 70
   64
  3
--------------------------------
 72
   65
 73
    0
 40
0
  0
LTYPE
  2
HIDDEN
 70
   64
  3
----        --------        ----
 72
   65
 73
    2
 40
2
 49
1
 49
-1
  0
LTYPE
  2
DASHED
 70
   64
  3
-------   -------------   ------
 72
   65
 73
    2
 40
10
 49
8
 49
-2
  0
LTYPE
  2
CENTER
 70
   64
  3
------------   ---   -----------
 72
   65
 73
    4
 40
20
 49
14
 49
-2
 49
2
 49
-2
  0
LTYPE
  2
PHANTOM
 70
   64
  3
---------   ---   ---   --------
 72
   65
 73
    6
 40
20
 49
10
 49
-2
 49
2
 49
-2
 49
2
 49
-2
  0
ENDTAB
  0
TABLE
  2
STYLE
  5
3
100
AcDbSymbolTable
 70
     1
  0
STYLE
  5
10
100
AcDbSymbolTableRecord
100
AcDbTextStyleTableRecord
  2
STANDARD
 70
     0
 40
0.0
 41
1.0
 50
0.0
 71
     0
 42
0.2
  3
txt
  4
bigfont.shx
  0
STYLE
  5
26
100
AcDbSymbolTableRecord
100
AcDbTextStyleTableRecord
  2
TATEGAKI
 70
    68
 40
0.0
 41
1.0
 50
0.0
 71
     0
 42
1.0
  3
txt
  4
bigfont.shx
  0
ENDTAB
  0
TABLE
  2
LAYER
 70
    7
  0
LAYER
  2
_0-0_1
 70
   64
 62
    7
  6
CONTINUOUS
  0
LAYER
  2
_0-1_2
 70
   64
 62
    7
  6
CONTINUOUS
  0
LAYER
  2
_0-2_3
 70
   64
 62
    7
  6
CONTINUOUS
  0
LAYER
  2
_0-3_4
 70
   64
 62
    7
  6
CONTINUOUS
  0
LAYER
  2
_0-4_5
 70
   64
 62
    7
  6
CONTINUOUS
  0
LAYER
  2
_0-5_6
 70
   64
 62
    7
  6
CONTINUOUS
  0
LAYER
  2
ADD_LINE
 70
   64
 62
    7
  6
CONTINUOUS
  0
ENDTAB
  0
ENDSEC
  0
SECTION
  2
BLOCKS
  0
ENDSEC
  0
SECTION
  2
ENTITIES
  0
TEXT
  8
_0-2_3
 62
    7
 10
991.29909585064854
 20
830.70124328960696
 40
20
 41
1
 50
0
  1
下葺材：ルーフィング
  0
LINE
  8
_0-0_1
  6
CONTINUOUS
 62
    4
 10
1760.4246800000001
 20
1150.1612554999992
 11
1902.67364
 21
1150.1612554999992
  0
ARC
  8
_0-0_1
  6
CONTINUOUS
 62
    4
 10
1760.4246800000001
 20
1145.3228554999987
 40
4.8384
 50
90
 51
180
  0
LINE
  8
_0-0_1
  6
CONTINUOUS
 62
    4
 10
1755.58628
 20
1124.0338955000007
 11
1755.58628
 21
1145.3228554999987
  0
LINE
  8
_0-0_1
  6
CONTINUOUS
 62
    4
 10
1755.58628
 20
1124.0338955000007
 11
1763.3277199999998
 21
1124.0338955000007
  0
LINE
  8
_0-0_1
  6
CONTINUOUS
 62
    4
 10
1763.3277199999998
 20
1125.9692555000001
 11
1763.3277199999998
 21
1124.0338955000007
  0
LINE
  8
_0-0_1
  6
CONTINUOUS
 62
    4
 10
1886.2230799999998
 20
1125.9692555000001
 11
1763.3277199999998
 21
1125.9692555000001
  0
LINE
  8
_0-0_1
  6
CONTINUOUS
 62
    4
 10
1902.67364
 20
1063.108082499999
 11
1902.67364
 21
1150.1612554999992
  0
ARC
  8
_0-0_1
  6
CONTINUOUS
 62
    4
 10
1897.8352399999999
 20
1063.108082499999
 40
4.8384
 50
270
 51
0
  0
LINE
  8
_0-0_1
  6
CONTINUOUS
 62
    4
 10
1886.2230799999998
 20
1058.2696824999985
 11
1897.8352399999999
 21
1058.2696824999985
  0
LINE
  8
_0-0_1
  6
CONTINUOUS
 62
    4
 10
1886.2230799999998
 20
1125.9692555000001
 11
1886.2230799999998
 21
1058.2696824999985
  0
LINE
  8
_0-0_1
  6
CONTINUOUS
 62
    4
 10
1836.2249729999999
 20
1123.9724554999993
 11
1836.2249729999999
 21
1102.0076554999978
  0
LINE
  8
_0-0_1
  6
HIDDEN
 62
    1
 10
1876.791166
 20
1101.6512555000008
 11
1872.534897
 21
1102.7917185000006
  0
LINE
  8
_0-0_1
  6
HIDDEN
 62
    1
 10
1879.2342589999998
 20
1149.3212554999991
 11
1879.2342589999998
 21
1150.1612554999992
  0
LINE
  8
_0-0_1
  6
HIDDEN
 62
    1
 10
1879.2342589999998
 20
1150.1612554999992
 11
1870.8717670000001
 21
1150.1612554999992
  0
LINE
  8
_0-0_1
  6
HIDDEN
 62
    1
 10
1870.8717670000001
 20
1149.3212554999991
 11
1870.8717670000001
 21
1150.1612554999992
  0
LINE
  8
_0-0_1
  6
HIDDEN
 62
    1
 10
1879.2342589999998
 20
1149.3212554999991
 11
1870.8717670000001
 21
1149.3212554999991
  0
LINE
  8
_0-0_1
  6
HIDDEN
 62
    1
 10
1873.7948969999998
 20
1149.3212554999991
 11
1873.7948969999998
 21
1102.2812554999982
  0
LINE
  8
_0-0_1
  6
HIDDEN
 62
    1
 10
1875.054897
 20
1094.7212555000006
 11
1873.7948969999998
 21
1102.2812554999982
  0
LINE
  8
_0-0_1
  6
HIDDEN
 62
    1
 10
1876.3148969999997
 20
1102.2812554999982
 11
1876.3148969999997
 21
1149.3212554999991
  0
LINE
  8
_0-0_1
  6
HIDDEN
 62
    1
 10
1875.054897
 20
1094.7212555000006
 11
1876.3148969999997
 21
1102.2812554999982
  0
LINE
  8
_0-0_1
  6
HIDDEN
 62
    1
 10
1877.1548969999999
 20
1130.1137935000006
 11
1872.9548970000001
 21
1131.2391805000007
  0
LINE
  8
_0-0_1
  6
HIDDEN
 62
    1
 10
1877.1548969999999
 20
1128.4337935000003
 11
1872.9548970000001
 21
1129.5591805000004
  0
LINE
  8
_0-0_1
  6
HIDDEN
 62
    1
 10
1877.1548969999999
 20
1126.7537935
 11
1872.9548970000001
 21
1127.8791805000001
  0
LINE
  8
_0-0_1
  6
HIDDEN
 62
    1
 10
1877.1548969999999
 20
1125.0737934999997
 11
1872.9548970000001
 21
1126.1991804999998
  0
LINE
  8
_0-0_1
  6
HIDDEN
 62
    1
 10
1877.1548969999999
 20
1123.3937934999994
 11
1872.9548970000001
 21
1124.5191804999995
  0
LINE
  8
_0-0_1
  6
HIDDEN
 62
    1
 10
1877.1548969999999
 20
1121.7137934999992
 11
1872.9548970000001
 21
1122.8391804999992
  0
LINE
  8
_0-0_1
  6
HIDDEN
 62
    1
 10
1877.1548969999999
 20
1120.0337934999989
 11
1872.9548970000001
 21
1121.1591804999989
  0
LINE
  8
_0-0_1
  6
HIDDEN
 62
    1
 10
1877.1548969999999
 20
1118.3537934999986
 11
1872.9548970000001
 21
1119.4791804999986
  0
LINE
  8
_0-0_1
  6
HIDDEN
 62
    1
 10
1877.1548969999999
 20
1116.6737934999983
 11
1872.9548970000001
 21
1117.7991804999983
  0
LINE
  8
_0-0_1
  6
HIDDEN
 62
    1
 10
1877.1548969999999
 20
1114.993793499998
 11
1872.9548970000001
 21
1116.119180499998
  0
LINE
  8
_0-0_1
  6
HIDDEN
 62
    1
 10
1877.1548969999999
 20
1113.3137934999977
 11
1872.9548970000001
 21
1114.4391804999977
  0
LINE
  8
_0-0_1
  6
HIDDEN
 62
    1
 10
1877.1548969999999
 20
1111.6337934999974
 11
1872.9548970000001
 21
1112.7591804999975
  0
LINE
  8
_0-0_1
  6
HIDDEN
 62
    1
 10
1877.1548969999999
 20
1109.9537935000008
 11
1872.9548970000001
 21
1111.0791805000008
  0
LINE
  8
_0-0_1
  6
HIDDEN
 62
    1
 10
1877.1548969999999
 20
1108.2737935000005
 11
1872.9548970000001
 21
1109.3991805000005
  0
LINE
  8
_0-0_1
  6
HIDDEN
 62
    1
 10
1877.1548969999999
 20
1106.5937935000002
 11
1872.9548970000001
 21
1107.7191805000002
  0
LINE
  8
_0-0_1
  6
HIDDEN
 62
    1
 10
1877.1548969999999
 20
1104.9137934999999
 11
1872.9548970000001
 21
1106.0391804999999
  0
LINE
  8
_0-0_1
  6
HIDDEN
 62
    1
 10
1877.1548969999999
 20
1103.2337934999996
 11
1872.9548970000001
 21
1104.3591804999996
  0
LINE
  8
_0-0_1
  6
HIDDEN
 62
    1
 10
1854.1636399999998
 20
1082.4870924999996
 11
1855.3041039999998
 21
1086.7433624999976
  0
LINE
  8
_0-0_1
  6
HIDDEN
 62
    1
 10
1901.8336399999998
 20
1080.0440004999982
 11
1902.67364
 21
1080.0440004999982
  0
LINE
  8
_0-0_1
  6
HIDDEN
 62
    1
 10
1902.67364
 20
1080.0440004999982
 11
1902.67364
 21
1088.4064924999984
  0
LINE
  8
_0-0_1
  6
HIDDEN
 62
    1
 10
1901.8336399999998
 20
1088.4064924999984
 11
1902.67364
 21
1088.4064924999984
  0
LINE
  8
_0-0_1
  6
HIDDEN
 62
    1
 10
1901.8336399999998
 20
1080.0440004999982
 11
1901.8336399999998
 21
1088.4064924999984
  0
LINE
  8
_0-0_1
  6
HIDDEN
 62
    1
 10
1901.8336399999998
 20
1085.4833624999992
 11
1854.7936399999999
 21
1085.4833624999992
  0
LINE
  8
_0-0_1
  6
HIDDEN
 62
    1
 10
1847.2336399999999
 20
1084.2233625000008
 11
1854.7936399999999
 21
1085.4833624999992
  0
LINE
  8
_0-0_1
  6
HIDDEN
 62
    1
 10
1854.7936399999999
 20
1082.9633624999988
 11
1901.8336399999998
 21
1082.9633624999988
  0
LINE
  8
_0-0_1
  6
HIDDEN
 62
    1
 10
1847.2336399999999
 20
1084.2233625000008
 11
1854.7936399999999
 21
1082.9633624999988
  0
LINE
  8
_0-0_1
  6
HIDDEN
 62
    1
 10
1882.6261789999999
 20
1082.1233624999986
 11
1883.751565
 21
1086.3233624999993
  0
LINE
  8
_0-0_1
  6
HIDDEN
 62
    1
 10
1880.946179
 20
1082.1233624999986
 11
1882.0715649999997
 21
1086.3233624999993
  0
LINE
  8
_0-0_1
  6
HIDDEN
 62
    1
 10
1879.2661789999997
 20
1082.1233624999986
 11
1880.3915649999999
 21
1086.3233624999993
  0
LINE
  8
_0-0_1
  6
HIDDEN
 62
    1
 10
1877.5861789999999
 20
1082.1233624999986
 11
1878.7115650000001
 21
1086.3233624999993
  0
LINE
  8
_0-0_1
  6
HIDDEN
 62
    1
 10
1875.9061790000001
 20
1082.1233624999986
 11
1877.0315649999998
 21
1086.3233624999993
  0
LINE
  8
_0-0_1
  6
HIDDEN
 62
    1
 10
1874.2261789999998
 20
1082.1233624999986
 11
1875.3515649999999
 21
1086.3233624999993
  0
LINE
  8
_0-0_1
  6
HIDDEN
 62
    1
 10
1872.5461789999999
 20
1082.1233624999986
 11
1873.6715650000001
 21
1086.3233624999993
  0
LINE
  8
_0-0_1
  6
HIDDEN
 62
    1
 10
1870.8661790000001
 20
1082.1233624999986
 11
1871.9915649999998
 21
1086.3233624999993
  0
LINE
  8
_0-0_1
  6
HIDDEN
 62
    1
 10
1869.1861789999998
 20
1082.1233624999986
 11
1870.311565
 21
1086.3233624999993
  0
LINE
  8
_0-0_1
  6
HIDDEN
 62
    1
 10
1867.506179
 20
1082.1233624999986
 11
1868.6315649999997
 21
1086.3233624999993
  0
LINE
  8
_0-0_1
  6
HIDDEN
 62
    1
 10
1865.8261789999997
 20
1082.1233624999986
 11
1866.9515649999998
 21
1086.3233624999993
  0
LINE
  8
_0-0_1
  6
HIDDEN
 62
    1
 10
1864.1461789999998
 20
1082.1233624999986
 11
1865.271565
 21
1086.3233624999993
  0
LINE
  8
_0-0_1
  6
HIDDEN
 62
    1
 10
1862.466179
 20
1082.1233624999986
 11
1863.5915649999997
 21
1086.3233624999993
  0
LINE
  8
_0-0_1
  6
HIDDEN
 62
    1
 10
1860.7861789999997
 20
1082.1233624999986
 11
1861.9115649999999
 21
1086.3233624999993
  0
LINE
  8
_0-0_1
  6
HIDDEN
 62
    1
 10
1859.1061789999999
 20
1082.1233624999986
 11
1860.231565
 21
1086.3233624999993
  0
LINE
  8
_0-0_1
  6
HIDDEN
 62
    1
 10
1857.426179
 20
1082.1233624999986
 11
1858.5515649999998
 21
1086.3233624999993
  0
LINE
  8
_0-0_1
  6
HIDDEN
 62
    1
 10
1855.7461789999998
 20
1082.1233624999986
 11
1856.8715649999999
 21
1086.3233624999993
  0
LINE
  8
_0-0_1
  6
CONTINUOUS
 62
    4
 10
1616.1830569999997
 20
1102.0076554999978
 11
1610.4947379999999
 21
1086.4067974999998
  0
LINE
  8
_0-0_1
  6
CONTINUOUS
 62
    4
 10
1592.463385
 20
1104.0044554999986
 11
1555.2598800000001
 21
1104.0044554999986
  0
LINE
  8
_0-0_1
  6
CONTINUOUS
 62
    4
 10
1592.463385
 20
1104.0044554999986
 11
1599.18948
 21
1085.7487054999983
  0
LINE
  8
_0-0_1
  6
CONTINUOUS
 62
    4
 10
1836.2249729999999
 20
1102.0076554999978
 11
1797.8503029999997
 21
1102.0076554999978
  0
LINE
  8
_0-0_1
  6
CONTINUOUS
 62
    4
 10
1789.8631029999997
 20
1102.0076554999978
 11
1742.9383029999999
 21
1102.0076554999978
  0
LINE
  8
_0-0_1
  6
CONTINUOUS
 62
    4
 10
1734.9511029999999
 20
1102.0076554999978
 11
1682.035903
 21
1102.0076554999978
  0
LINE
  8
_0-0_1
  6
CONTINUOUS
 62
    4
 10
1674.0487029999999
 20
1102.0076554999978
 11
1616.1830569999997
 21
1102.0076554999978
  0
LINE
  8
_0-0_1
  6
CONTINUOUS
 62
    4
 10
1820.83428
 20
1123.9724554999993
 11
1820.83428
 21
1120.9772554999981
  0
LINE
  8
_0-0_1
  6
CONTINUOUS
 62
    4
 10
1666.364787
 20
1120.9772554999981
 11
1820.83428
 21
1120.9772554999981
  0
LINE
  8
_0-0_1
  6
CONTINUOUS
 62
    4
 10
1595.1958799999998
 20
1120.9772554999981
 11
1666.0822800000001
 21
1120.9772554999981
  0
LINE
  8
_0-0_1
  6
CONTINUOUS
 62
    4
 10
1595.1958799999998
 20
1123.9724554999993
 11
1595.1958799999998
 21
1120.9772554999981
  0
LINE
  8
_0-0_1
  6
CONTINUOUS
 62
    4
 10
1595.1958799999998
 20
1123.9724554999993
 11
1555.2598800000001
 21
1123.9724554999993
  0
LINE
  8
_0-0_1
  6
CONTINUOUS
 62
    4
 10
1674.0487029999999
 20
1102.0076554999978
 11
1674.0487029999999
 21
1091.0252555000006
  0
LINE
  8
_0-0_1
  6
CONTINUOUS
 62
    4
 10
1682.035903
 20
1091.0252555000006
 11
1674.0487029999999
 21
1091.0252555000006
  0
LINE
  8
_0-0_1
  6
CONTINUOUS
 62
    4
 10
1682.035903
 20
1102.0076554999978
 11
1682.035903
 21
1091.0252555000006
  0
LINE
  8
_0-0_1
  6
CONTINUOUS
 62
    4
 10
1734.9511029999999
 20
1102.0076554999978
 11
1734.9511029999999
 21
1091.0252555000006
  0
LINE
  8
_0-0_1
  6
CONTINUOUS
 62
    4
 10
1742.9383029999999
 20
1091.0252555000006
 11
1734.9511029999999
 21
1091.0252555000006
  0
LINE
  8
_0-0_1
  6
CONTINUOUS
 62
    4
 10
1742.9383029999999
 20
1102.0076554999978
 11
1742.9383029999999
 21
1091.0252555000006
  0
LINE
  8
_0-0_1
  6
CONTINUOUS
 62
    4
 10
1789.8631029999997
 20
1102.0076554999978
 11
1789.8631029999997
 21
1091.0252555000006
  0
LINE
  8
_0-0_1
  6
CONTINUOUS
 62
    4
 10
1797.8503029999997
 20
1091.0252555000006
 11
1789.8631029999997
 21
1091.0252555000006
  0
LINE
  8
_0-0_1
  6
CONTINUOUS
 62
    4
 10
1797.8503029999997
 20
1091.0252555000006
 11
1797.8503029999997
 21
1102.0076554999978
  0
LINE
  8
_0-0_1
  6
CONTINUOUS
 62
    4
 10
1555.2598800000001
 20
1123.9724554999993
 11
1555.2598800000001
 21
1104.0044554999986
  0
ARC
  8
_0-0_1
  6
CONTINUOUS
 62
    4
 10
1604.6541400000001
 20
1088.0300554999994
 40
5.9904000000000002
 50
199.47122100000004
 51
344.27761299999997
  0
LINE
  8
_0-0_1
  6
CONTINUOUS
 62
    4
 10
1836.2249729999999
 20
1123.9724554999993
 11
1820.83428
 21
1123.9724554999993
  0
ARC
  8
_0-0_1
  6
CONTINUOUS
 62
    4
 10
1541.3156859999999
 20
1088.0300554999994
 40
5.9904000000000002
 50
199.47122100000004
 51
344.27761299999997
  0
LINE
  8
_0-0_1
  6
CONTINUOUS
 62
    4
 10
1529.7863029999999
 20
1102.0076554999978
 11
1535.776703
 21
1085.7487054999983
  0
LINE
  8
_0-0_1
  6
CONTINUOUS
 62
    4
 10
1308.1830569999997
 20
1102.0076554999978
 11
1302.4947379999999
 21
1086.4067974999998
  0
LINE
  8
_0-0_1
  6
CONTINUOUS
 62
    4
 10
1548.401891
 20
1090.0268555000002
 11
1547.0819609999999
 21
1086.4067974999998
  0
LINE
  8
_0-0_1
  6
CONTINUOUS
 62
    4
 10
1284.463385
 20
1104.0044554999986
 11
1247.2598800000001
 21
1104.0044554999986
  0
LINE
  8
_0-0_1
  6
CONTINUOUS
 62
    4
 10
1284.463385
 20
1104.0044554999986
 11
1291.18948
 21
1085.7487054999983
  0
LINE
  8
_0-0_1
  6
CONTINUOUS
 62
    4
 10
1529.7863029999999
 20
1102.0076554999978
 11
1489.8503029999997
 21
1102.0076554999978
  0
LINE
  8
_0-0_1
  6
CONTINUOUS
 62
    4
 10
1481.8631029999997
 20
1102.0076554999978
 11
1434.9383029999999
 21
1102.0076554999978
  0
LINE
  8
_0-0_1
  6
CONTINUOUS
 62
    4
 10
1426.9511029999999
 20
1102.0076554999978
 11
1374.035903
 21
1102.0076554999978
  0
LINE
  8
_0-0_1
  6
CONTINUOUS
 62
    4
 10
1366.0487029999999
 20
1102.0076554999978
 11
1308.1830569999997
 21
1102.0076554999978
  0
LINE
  8
_0-0_1
  6
CONTINUOUS
 62
    4
 10
1512.83428
 20
1123.9724554999993
 11
1512.83428
 21
1120.9772554999981
  0
LINE
  8
_0-0_1
  6
CONTINUOUS
 62
    4
 10
1358.0822800000001
 20
1120.9772554999981
 11
1512.83428
 21
1120.9772554999981
  0
LINE
  8
_0-0_1
  6
CONTINUOUS
 62
    4
 10
1287.1958799999998
 20
1120.9772554999981
 11
1358.0822800000001
 21
1120.9772554999981
  0
LINE
  8
_0-0_1
  6
CONTINUOUS
 62
    4
 10
1287.1958799999998
 20
1123.9724554999993
 11
1287.1958799999998
 21
1120.9772554999981
  0
LINE
  8
_0-0_1
  6
CONTINUOUS
 62
    4
 10
1287.1958799999998
 20
1123.9724554999993
 11
1247.2598800000001
 21
1123.9724554999993
  0
LINE
  8
_0-0_1
  6
CONTINUOUS
 62
    4
 10
1366.0487029999999
 20
1102.0076554999978
 11
1366.0487029999999
 21
1091.0252555000006
  0
LINE
  8
_0-0_1
  6
CONTINUOUS
 62
    4
 10
1374.035903
 20
1091.0252555000006
 11
1366.0487029999999
 21
1091.0252555000006
  0
LINE
  8
_0-0_1
  6
CONTINUOUS
 62
    4
 10
1374.035903
 20
1102.0076554999978
 11
1374.035903
 21
1091.0252555000006
  0
LINE
  8
_0-0_1
  6
CONTINUOUS
 62
    4
 10
1426.9511029999999
 20
1102.0076554999978
 11
1426.9511029999999
 21
1091.0252555000006
  0
LINE
  8
_0-0_1
  6
CONTINUOUS
 62
    4
 10
1434.9383029999999
 20
1091.0252555000006
 11
1426.9511029999999
 21
1091.0252555000006
  0
LINE
  8
_0-0_1
  6
CONTINUOUS
 62
    4
 10
1434.9383029999999
 20
1102.0076554999978
 11
1434.9383029999999
 21
1091.0252555000006
  0
LINE
  8
_0-0_1
  6
CONTINUOUS
 62
    4
 10
1481.8631029999997
 20
1102.0076554999978
 11
1481.8631029999997
 21
1091.0252555000006
  0
LINE
  8
_0-0_1
  6
CONTINUOUS
 62
    4
 10
1489.8503029999997
 20
1091.0252555000006
 11
1481.8631029999997
 21
1091.0252555000006
  0
LINE
  8
_0-0_1
  6
CONTINUOUS
 62
    4
 10
1489.8503029999997
 20
1091.0252555000006
 11
1489.8503029999997
 21
1102.0076554999978
  0
LINE
  8
_0-0_1
  6
CONTINUOUS
 62
    4
 10
1247.2598800000001
 20
1123.9724554999993
 11
1247.2598800000001
 21
1104.0044554999986
  0
ARC
  8
_0-0_1
  6
CONTINUOUS
 62
    4
 10
1296.6541400000001
 20
1088.0300554999994
 40
5.9904000000000002
 50
199.47122100000004
 51
344.27761299999997
  0
LINE
  8
_0-0_1
  6
CONTINUOUS
 62
    4
 10
1553.2598800000001
 20
1123.9724554999993
 11
1512.83428
 21
1123.9724554999993
  0
LINE
  8
_0-0_1
  6
CONTINUOUS
 62
    4
 10
1553.2598800000001
 20
1123.9724554999993
 11
1553.2598800000001
 21
1102.0076554999978
  0
LINE
  8
_0-0_1
  6
CONTINUOUS
 62
    4
 10
1553.2598800000001
 20
1123.9724554999993
 11
1553.2598800000001
 21
1104.0044554999986
  0
LINE
  8
_0-0_1
  6
CONTINUOUS
 62
    4
 10
1592.2598800000001
 20
1090.0268555000002
 11
1548.401891
 21
1090.0268555000002
  0
LINE
  8
_0-0_1
  6
CONTINUOUS
 62
    4
 10
1592.2598800000001
 20
1090.0268555000002
 11
1592.2598800000001
 21
1102.0076554999978
  0
LINE
  8
_0-0_1
  6
CONTINUOUS
 62
    4
 10
1592.2598800000001
 20
1102.0076554999978
 11
1553.2598800000001
 21
1102.0076554999978
  0
ARC
  8
_0-0_1
  6
CONTINUOUS
 62
    4
 10
1233.3156859999999
 20
1088.0300554999994
 40
5.9904000000000002
 50
199.47122100000004
 51
344.27761299999997
  0
LINE
  8
_0-0_1
  6
CONTINUOUS
 62
    4
 10
1221.7863029999999
 20
1102.0076554999978
 11
1227.776703
 21
1085.7487054999983
  0
LINE
  8
_0-0_1
  6
CONTINUOUS
 62
    4
 10
1000.1830569999997
 20
1102.0076554999978
 11
994.49473799999987
 21
1086.4067974999998
  0
LINE
  8
_0-0_1
  6
CONTINUOUS
 62
    4
 10
1240.401891
 20
1090.0268555000002
 11
1239.0819609999999
 21
1086.4067974999998
  0
LINE
  8
_0-0_1
  6
CONTINUOUS
 62
    4
 10
976.46338500000002
 20
1104.0044554999986
 11
939.25988000000007
 21
1104.0044554999986
  0
LINE
  8
_0-0_1
  6
CONTINUOUS
 62
    4
 10
976.46338500000002
 20
1104.0044554999986
 11
983.18948
 21
1085.7487054999983
  0
LINE
  8
_0-0_1
  6
CONTINUOUS
 62
    4
 10
1221.7863029999999
 20
1102.0076554999978
 11
1181.8503029999997
 21
1102.0076554999978
  0
LINE
  8
_0-0_1
  6
CONTINUOUS
 62
    4
 10
1173.8631029999997
 20
1102.0076554999978
 11
1126.9383029999999
 21
1102.0076554999978
  0
LINE
  8
_0-0_1
  6
CONTINUOUS
 62
    4
 10
1118.9511029999999
 20
1102.0076554999978
 11
1066.035903
 21
1102.0076554999978
  0
LINE
  8
_0-0_1
  6
CONTINUOUS
 62
    4
 10
1058.0487029999999
 20
1102.0076554999978
 11
1000.1830569999997
 21
1102.0076554999978
  0
LINE
  8
_0-0_1
  6
CONTINUOUS
 62
    4
 10
1204.83428
 20
1123.9724554999993
 11
1204.83428
 21
1120.9772554999981
  0
LINE
  8
_0-0_1
  6
CONTINUOUS
 62
    4
 10
1046.7432199999998
 20
1120.9772554999981
 11
1204.83428
 21
1120.9772554999981
  0
LINE
  8
_0-0_1
  6
CONTINUOUS
 62
    4
 10
979.19587999999976
 20
1120.9772554999981
 11
1050.0822800000001
 21
1120.9772554999981
  0
LINE
  8
_0-0_1
  6
CONTINUOUS
 62
    4
 10
979.19587999999976
 20
1123.9724554999993
 11
979.19587999999976
 21
1120.9772554999981
  0
LINE
  8
_0-0_1
  6
CONTINUOUS
 62
    4
 10
979.19587999999976
 20
1123.9724554999993
 11
939.25988000000007
 21
1123.9724554999993
  0
LINE
  8
_0-0_1
  6
CONTINUOUS
 62
    4
 10
1058.0487029999999
 20
1102.0076554999978
 11
1058.0487029999999
 21
1091.0252555000006
  0
LINE
  8
_0-0_1
  6
CONTINUOUS
 62
    4
 10
1066.035903
 20
1091.0252555000006
 11
1058.0487029999999
 21
1091.0252555000006
  0
LINE
  8
_0-0_1
  6
CONTINUOUS
 62
    4
 10
1066.035903
 20
1102.0076554999978
 11
1066.035903
 21
1091.0252555000006
  0
LINE
  8
_0-0_1
  6
CONTINUOUS
 62
    4
 10
1118.9511029999999
 20
1102.0076554999978
 11
1118.9511029999999
 21
1091.0252555000006
  0
LINE
  8
_0-0_1
  6
CONTINUOUS
 62
    4
 10
1126.9383029999999
 20
1091.0252555000006
 11
1118.9511029999999
 21
1091.0252555000006
  0
LINE
  8
_0-0_1
  6
CONTINUOUS
 62
    4
 10
1126.9383029999999
 20
1102.0076554999978
 11
1126.9383029999999
 21
1091.0252555000006
  0
LINE
  8
_0-0_1
  6
CONTINUOUS
 62
    4
 10
1173.8631029999997
 20
1102.0076554999978
 11
1173.8631029999997
 21
1091.0252555000006
  0
LINE
  8
_0-0_1
  6
CONTINUOUS
 62
    4
 10
1181.8503029999997
 20
1091.0252555000006
 11
1173.8631029999997
 21
1091.0252555000006
  0
LINE
  8
_0-0_1
  6
CONTINUOUS
 62
    4
 10
1181.8503029999997
 20
1091.0252555000006
 11
1181.8503029999997
 21
1102.0076554999978
  0
LINE
  8
_0-0_1
  6
CONTINUOUS
 62
    4
 10
939.25988000000007
 20
1123.9724554999993
 11
939.25988000000007
 21
1104.0044554999986
  0
ARC
  8
_0-0_1
  6
CONTINUOUS
 62
    4
 10
988.6541400000001
 20
1088.0300554999994
 40
5.9904000000000002
 50
199.47122100000004
 51
344.27761299999997
  0
LINE
  8
_0-0_1
  6
CONTINUOUS
 62
    4
 10
1245.2598800000001
 20
1123.9724554999993
 11
1204.83428
 21
1123.9724554999993
  0
LINE
  8
_0-0_1
  6
CONTINUOUS
 62
    4
 10
1245.2598800000001
 20
1123.9724554999993
 11
1245.2598800000001
 21
1102.0076554999978
  0
LINE
  8
_0-0_1
  6
CONTINUOUS
 62
    4
 10
1245.2598800000001
 20
1123.9724554999993
 11
1245.2598800000001
 21
1104.0044554999986
  0
LINE
  8
_0-0_1
  6
CONTINUOUS
 62
    4
 10
1284.2598800000001
 20
1090.0268555000002
 11
1240.401891
 21
1090.0268555000002
  0
LINE
  8
_0-0_1
  6
CONTINUOUS
 62
    4
 10
1284.2598800000001
 20
1090.0268555000002
 11
1284.2598800000001
 21
1102.0076554999978
  0
LINE
  8
_0-0_1
  6
CONTINUOUS
 62
    4
 10
1284.2598800000001
 20
1102.0076554999978
 11
1245.2598800000001
 21
1102.0076554999978
  0
ARC
  8
_0-0_1
  6
CONTINUOUS
 62
    4
 10
925.31568599999991
 20
1088.0300554999994
 40
5.9904000000000002
 50
199.47122100000004
 51
344.27761299999997
  0
LINE
  8
_0-0_1
  6
CONTINUOUS
 62
    4
 10
913.78630299999986
 20
1102.0076554999978
 11
919.776703
 21
1085.7487054999983
  0
LINE
  8
_0-0_1
  6
CONTINUOUS
 62
    4
 10
932.40189099999998
 20
1090.0268555000002
 11
931.08196099999986
 21
1086.4067974999998
  0
LINE
  8
_0-0_1
  6
CONTINUOUS
 62
    4
 10
913.78630299999986
 20
1102.0076554999978
 11
873.85030299999971
 21
1102.0076554999978
  0
LINE
  8
_0-0_1
  6
CONTINUOUS
 62
    4
 10
865.86310299999968
 20
1102.0076554999978
 11
818.93830299999991
 21
1102.0076554999978
  0
LINE
  8
_0-0_1
  6
CONTINUOUS
 62
    4
 10
810.95110299999988
 20
1102.0076554999978
 11
772.63463899999988
 21
1102.0076554999978
  0
LINE
  8
_0-0_1
  6
CONTINUOUS
 62
    4
 10
896.83428000000004
 20
1123.9724554999993
 11
896.83428000000004
 21
1120.9772554999981
  0
LINE
  8
_0-0_1
  6
CONTINUOUS
 62
    4
 10
772.63463899999988
 20
1120.9772554999981
 11
896.83428000000004
 21
1120.9772554999981
  0
LINE
  8
_0-0_1
  6
CONTINUOUS
 62
    4
 10
810.95110299999988
 20
1102.0076554999978
 11
810.95110299999988
 21
1091.0252555000006
  0
LINE
  8
_0-0_1
  6
CONTINUOUS
 62
    4
 10
818.93830299999991
 20
1091.0252555000006
 11
810.95110299999988
 21
1091.0252555000006
  0
LINE
  8
_0-0_1
  6
CONTINUOUS
 62
    4
 10
818.93830299999991
 20
1102.0076554999978
 11
818.93830299999991
 21
1091.0252555000006
  0
LINE
  8
_0-0_1
  6
CONTINUOUS
 62
    4
 10
865.86310299999968
 20
1102.0076554999978
 11
865.86310299999968
 21
1091.0252555000006
  0
LINE
  8
_0-0_1
  6
CONTINUOUS
 62
    4
 10
873.85030299999971
 20
1091.0252555000006
 11
865.86310299999968
 21
1091.0252555000006
  0
LINE
  8
_0-0_1
  6
CONTINUOUS
 62
    4
 10
873.85030299999971
 20
1091.0252555000006
 11
873.85030299999971
 21
1102.0076554999978
  0
LINE
  8
_0-0_1
  6
CONTINUOUS
 62
    4
 10
937.25988000000007
 20
1123.9724554999993
 11
896.83428000000004
 21
1123.9724554999993
  0
LINE
  8
_0-0_1
  6
CONTINUOUS
 62
    4
 10
937.25988000000007
 20
1123.9724554999993
 11
937.25988000000007
 21
1102.0076554999978
  0
LINE
  8
_0-0_1
  6
CONTINUOUS
 62
    4
 10
937.25988000000007
 20
1123.9724554999993
 11
937.25988000000007
 21
1104.0044554999986
  0
LINE
  8
_0-0_1
  6
CONTINUOUS
 62
    4
 10
976.25988000000007
 20
1090.0268555000002
 11
932.40189099999998
 21
1090.0268555000002
  0
LINE
  8
_0-0_1
  6
CONTINUOUS
 62
    4
 10
976.25988000000007
 20
1090.0268555000002
 11
976.25988000000007
 21
1102.0076554999978
  0
LINE
  8
_0-0_1
  6
CONTINUOUS
 62
    4
 10
976.25988000000007
 20
1102.0076554999978
 11
937.25988000000007
 21
1102.0076554999978
  0
LINE
  8
_0-0_1
  6
CONTINUOUS
 62
   18
 10
2019.124229
 20
1150.1612554999992
 11
1966.624229
 21
1150.1612554999992
  0
CIRCLE
  8
_0-0_1
  6
CONTINUOUS
 62
   18
 10
2016.624229
 20
1150.1612554999992
 40
1.6999999999999997
  0
LINE
  8
_0-0_1
  6
CONTINUOUS
 62
   18
 10
2016.624229
 20
1150.1612554999992
 11
2016.624229
 21
1058.2696824999985
  0
CIRCLE
  8
_0-0_1
  6
CONTINUOUS
 62
   18
 10
2016.624229
 20
1058.2696824999985
 40
1.6999999999999997
  0
LINE
  8
_0-0_1
  6
CONTINUOUS
 62
   18
 10
2019.124229
 20
1058.2696824999985
 11
1966.624229
 21
1058.2696824999985
  0
LINE
  8
_0-0_1
  6
CONTINUOUS
 62
   18
 10
1882.5027070000001
 20
1144.8748075000003
 11
1877.1994059999997
 21
1139.5715075000007
  0
LINE
  8
_0-0_1
  6
CONTINUOUS
 62
   18
 10
1877.1994059999997
 20
1139.5715075000007
 11
1879.1405489999997
 21
1146.8159505000003
  0
LINE
  8
_0-0_1
  6
CONTINUOUS
 62
   18
 10
1877.1994059999997
 20
1139.5715075000007
 11
1926.324991
 21
1224.6595154999995
  0
LINE
  8
_0-0_1
  6
CONTINUOUS
 62
   18
 10
1347.0525829999997
 20
1126.2805554999977
 11
1341.7492819999998
 21
1120.9772554999981
  0
LINE
  8
_0-0_1
  6
CONTINUOUS
 62
   18
 10
1341.7492819999998
 20
1120.9772554999981
 11
1343.6904239999999
 21
1128.2216984999977
  0
LINE
  8
_0-0_1
  6
CONTINUOUS
 62
   18
 10
1341.7492819999998
 20
1120.9772554999981
 11
1386.65263
 21
1198.7521364999993
  0
LINE
  8
_0-0_1
  6
CONTINUOUS
 62
   18
 10
1755.58628
 20
1268.8701484999983
 11
1755.58628
 21
1216.3701484999983
  0
CIRCLE
  8
_0-0_1
  6
CONTINUOUS
 62
   18
 10
1755.58628
 20
1266.3701484999983
 40
1.6999999999999997
  0
LINE
  8
_0-0_1
  6
CONTINUOUS
 62
   18
 10
1755.58628
 20
1266.3701484999983
 11
1902.67364
 21
1266.3701484999983
  0
CIRCLE
  8
_0-0_1
  6
CONTINUOUS
 62
   18
 10
1902.67364
 20
1266.3701484999983
 40
1.6999999999999997
  0
LINE
  8
_0-0_1
  6
CONTINUOUS
 62
   18
 10
1902.67364
 20
1268.8701484999983
 11
1902.67364
 21
1216.3701484999983
  0
LINE
  8
_0-0_1
  6
CONTINUOUS
 62
   18
 10
1782.0668619999997
 20
1133.2136984999997
 11
1784.0080049999997
 21
1125.9692555000001
  0
LINE
  8
_0-0_1
  6
CONTINUOUS
 62
   18
 10
1784.0080049999997
 20
1125.9692555000001
 11
1778.7047039999998
 21
1131.2725554999997
  0
LINE
  8
_0-0_1
  6
CONTINUOUS
 62
   18
 10
1784.0080049999997
 20
1125.9692555000001
 11
1733.6827760000001
 21
1213.1351084999988
  0
LINE
  8
_0-0_1
  6
CONTINUOUS
 62
   18
 10
1797.5932939999998
 20
1125.9713544999977
 11
1797.5932939999998
 21
1120.9793544999993
  0
LINE
  8
_0-0_1
  6
CONTINUOUS
 62
   18
 10
1774.3137509999997
 20
1125.9713544999977
 11
1774.3137509999997
 21
1120.9793544999993
  0
LINE
  8
_0-0_1
  6
CONTINUOUS
 62
   18
 10
1774.3137509999997
 20
1120.9814535000005
 11
1797.5932939999998
 21
1120.9814535000005
  0
LINE
  8
_0-0_1
  6
CONTINUOUS
 62
   18
 10
1774.3137509999997
 20
1122.2284044999979
 11
1797.5932939999998
 21
1122.2284044999979
  0
LINE
  8
_0-0_1
  6
CONTINUOUS
 62
   18
 10
1774.3137509999997
 20
1123.4753544999985
 11
1797.5932939999998
 21
1123.4753544999985
  0
LINE
  8
_0-0_1
  6
CONTINUOUS
 62
   18
 10
1774.3137509999997
 20
1124.7223044999992
 11
1797.5932939999998
 21
1124.7223044999992
  0
LINE
  8
_0-0_1
  6
CONTINUOUS
 62
   18
 10
1774.3137509999997
 20
1125.9692555000001
 11
1797.5932939999998
 21
1125.9692555000001
  0
LINE
  8
_0-0_1
  6
CONTINUOUS
 62
   18
 10
939.25988000000007
 20
1328.0650815000008
 11
939.25988000000007
 21
1275.5650815000008
  0
CIRCLE
  8
_0-0_1
  6
CONTINUOUS
 62
   18
 10
939.25988000000007
 20
1325.5650815000008
 40
1.6999999999999997
  0
LINE
  8
_0-0_1
  6
CONTINUOUS
 62
   18
 10
939.25988000000007
 20
1325.5650815000008
 11
1247.2598800000001
 21
1325.5650815000008
  0
CIRCLE
  8
_0-0_1
  6
CONTINUOUS
 62
   18
 10
1247.2598800000001
 20
1325.5650815000008
 40
1.6999999999999997
  0
LINE
  8
_0-0_1
  6
CONTINUOUS
 62
   18
 10
1247.2598800000001
 20
1328.0650815000008
 11
1247.2598800000001
 21
1275.5650815000008
  0
CIRCLE
  8
_0-0_1
  6
CONTINUOUS
 62
   18
 10
1247.2598800000001
 20
1325.5650815000008
 40
1.6999999999999997
  0
LINE
  8
_0-0_1
  6
CONTINUOUS
 62
   18
 10
1247.2598800000001
 20
1325.5650815000008
 11
1555.2598800000001
 21
1325.5650815000008
  0
CIRCLE
  8
_0-0_1
  6
CONTINUOUS
 62
   18
 10
1555.2598800000001
 20
1325.5650815000008
 40
1.6999999999999997
  0
LINE
  8
_0-0_1
  6
CONTINUOUS
 62
   18
 10
1555.2598800000001
 20
1328.0650815000008
 11
1555.2598800000001
 21
1275.5650815000008
  0
CIRCLE
  8
_0-0_1
  6
CONTINUOUS
 62
   18
 10
1555.2598800000001
 20
1325.5650815000008
 40
1.6999999999999997
  0
LINE
  8
_0-0_1
  6
CONTINUOUS
 62
   18
 10
1555.2598800000001
 20
1325.5650815000008
 11
1863.2598800000001
 21
1325.5650815000008
  0
CIRCLE
  8
_0-0_1
  6
CONTINUOUS
 62
   18
 10
1863.2598800000001
 20
1325.5650815000008
 40
1.6999999999999997
  0
LINE
  8
_0-0_1
  6
CONTINUOUS
 62
   18
 10
1863.2598800000001
 20
1328.0650815000008
 11
1863.2598800000001
 21
1275.5650815000008
  0
CIRCLE
  8
_0-0_1
  6
CONTINUOUS
 62
   18
 10
1863.2598800000001
 20
1325.5650815000008
 40
1.6999999999999997
  0
LINE
  8
_0-0_1
  6
CONTINUOUS
 62
   18
 10
1863.2598800000001
 20
1325.5650815000008
 11
1902.67364
 21
1325.5650815000008
  0
CIRCLE
  8
_0-0_1
  6
CONTINUOUS
 62
   18
 10
1902.67364
 20
1325.5650815000008
 40
1.6999999999999997
  0
LINE
  8
_0-0_1
  6
CONTINUOUS
 62
   18
 10
1902.67364
 20
1328.0650815000008
 11
1902.67364
 21
1275.5650815000008
  0
LINE
  8
_0-0_1
  6
CONTINUOUS
 62
   18
 10
1773.2231199999997
 20
1089.0284554999998
 11
772.63463899999988
 21
1089.0284554999998
  0
LINE
  8
_0-0_1
  6
CONTINUOUS
 62
   18
 10
1773.2231199999997
 20
1074.0284554999998
 11
772.63463899999988
 21
1074.0284554999998
  0
LINE
  8
_0-5_6
  6
CONTINUOUS
 62
   18
 10
1052.22316
 20
1020.5284554999998
 11
1102.2231899999997
 21
1070.5284854999991
  0
LINE
  8
_0-5_6
  6
CONTINUOUS
 62
   18
 10
1047.9804999999997
 20
1020.5284554999998
 11
1097.9805299999998
 21
1070.5284854999991
  0
LINE
  8
_0-5_6
  6
CONTINUOUS
 62
   18
 10
840.09114999999974
 20
1020.5284554999998
 11
890.09115999999995
 21
1070.5284854999991
  0
LINE
  8
_0-5_6
  6
CONTINUOUS
 62
   18
 10
835.84848999999986
 20
1020.5284554999998
 11
885.84850000000006
 21
1070.5284854999991
  0
LINE
  8
_0-0_1
  6
CONTINUOUS
 62
   18
 10
1839.3709699999999
 20
876.92013749999751
 11
1843.9034899999997
 21
863.90741649999836
  0
LINE
  8
_0-0_1
  6
CONTINUOUS
 62
   18
 10
1837.107246
 20
871.26082749999841
 11
1839.3709699999999
 21
876.92013749999751
  0
LINE
  8
_0-0_1
  6
CONTINUOUS
 62
   18
 10
1843.9034899999997
 20
863.90741649999836
 11
1845.42967
 21
871.26082749999841
  0
LINE
  8
_0-0_1
  6
CONTINUOUS
 62
   18
 10
1804.7653679999999
 20
871.26082749999841
 11
1837.107246
 21
871.26082749999841
  0
LINE
  8
_0-0_1
  6
CONTINUOUS
 62
   18
 10
1845.42967
 20
871.26082749999841
 11
1874.516654
 21
871.26082749999841
  0
LINE
  8
_0-0_1
  6
CONTINUOUS
 62
   18
 10
1874.0257269999997
 20
1087.3608934999975
 11
1872.0845839999997
 21
1094.6053365000007
  0
LINE
  8
_0-0_1
  6
CONTINUOUS
 62
   18
 10
1872.0845839999997
 20
1094.6053365000007
 11
1877.3878850000001
 21
1089.3020355000008
  0
LINE
  8
_0-0_1
  6
CONTINUOUS
 62
   18
 10
1872.0845839999997
 20
1094.6053365000007
 11
1951.3653609999997
 21
957.28700349999781
  0
LINE
  8
_0-0_1
  6
CONTINUOUS
 62
   18
 10
1807.606342
 20
1069.2773705
 11
1812.909643
 21
1074.5806714999999
  0
LINE
  8
_0-0_1
  6
CONTINUOUS
 62
   18
 10
1812.909643
 20
1074.5806714999999
 11
1810.9684999999999
 21
1067.3362274999999
  0
LINE
  8
_0-0_1
  6
CONTINUOUS
 62
   18
 10
1812.909643
 20
1074.5806714999999
 11
1678.9488719999999
 21
842.55381049999778
  0
LINE
  8
_0-2_3
  6
DASHED
 62
   18
 10
1881.2231099999999
 20
1072.5284554999998
 11
772.63463899999988
 21
1072.5284554999998
  0
LINE
  8
_0-5_6
  6
CONTINUOUS
 62
   18
 10
1688.6193399999997
 20
1020.5284554999998
 11
1738.6192699999997
 21
1070.5284854999991
  0
LINE
  8
_0-5_6
  6
CONTINUOUS
 62
   18
 10
1684.3766299999997
 20
1020.5284554999998
 11
1734.3766099999998
 21
1070.5284854999991
  0
LINE
  8
_0-5_6
  6
CONTINUOUS
 62
   18
 10
1476.4872299999997
 20
1020.5284554999998
 11
1526.4872599999999
 21
1070.5284854999991
  0
LINE
  8
_0-5_6
  6
CONTINUOUS
 62
   18
 10
1472.2445699999998
 20
1020.5284554999998
 11
1522.2446
 21
1070.5284854999991
  0
LINE
  8
_0-5_6
  6
CONTINUOUS
 62
   18
 10
1264.3552199999999
 20
1020.5284554999998
 11
1314.3552299999997
 21
1070.5284854999991
  0
LINE
  8
_0-5_6
  6
CONTINUOUS
 62
   18
 10
1260.11256
 20
1020.5284554999998
 11
1310.1125699999998
 21
1070.5284854999991
  0
LINE
  8
_0-3_4
  6
CONTINUOUS
 62
   18
 10
1842.2231099999999
 20
1115.5282855000005
 11
1881.2231099999999
 21
1115.5282855000005
  0
LINE
  8
_0-2_3
  6
CONTINUOUS
 62
   18
 10
1838.22307
 20
1117.5283055
 11
1883.22318
 21
1117.5283055
  0
LINE
  8
_0-2_3
  6
CONTINUOUS
 62
   18
 10
1883.22318
 20
1102.5282855000005
 11
1883.22318
 21
1117.5283055
  0
LINE
  8
_0-2_3
  6
CONTINUOUS
 62
   18
 10
1838.22307
 20
1074.5284754999993
 11
1778.22309
 21
1074.5284754999993
  0
LINE
  8
_0-2_3
  6
CONTINUOUS
 62
   18
 10
1778.22309
 20
1074.5284754999993
 11
1788.8297499999999
 21
1085.1350754999985
  0
LINE
  8
_0-1_2
  6
CONTINUOUS
 62
   18
 10
1773.2231199999997
 20
1074.0284554999998
 11
1773.2231199999997
 21
1089.0284554999998
  0
LINE
  8
_0-4_5
  6
CONTINUOUS
 62
   18
 10
1842.2231099999999
 20
1078.0024354999987
 11
1845.6970699999997
 21
1074.5284754999993
  0
LINE
  8
_0-4_5
  6
CONTINUOUS
 62
   18
 10
1842.2231099999999
 20
1088.6090955
 11
1856.3037199999999
 21
1074.5284754999993
  0
LINE
  8
_0-4_5
  6
CONTINUOUS
 62
   18
 10
1842.2231099999999
 20
1099.2156954999991
 11
1866.9103799999998
 21
1074.5284754999993
  0
LINE
  8
_0-4_5
  6
CONTINUOUS
 62
   18
 10
1842.2231099999999
 20
1109.8223455000007
 11
1877.51703
 21
1074.5284754999993
  0
LINE
  8
_0-1_2
  6
CONTINUOUS
 62
   18
 10
1768.52225
 20
940.52833549999923
 11
1766.22271
 21
940.52825549999761
  0
LINE
  8
_0-1_2
  6
CONTINUOUS
 62
   18
 10
1768.5230899999997
 20
1000.5284654999996
 11
1766.22255
 21
1000.528095499998
  0
LINE
  8
_0-1_2
  6
CONTINUOUS
 62
   18
 10
1768.5223599999999
 20
1015.5291154999977
 11
1768.5230899999997
 21
1000.5284654999996
  0
LINE
  8
_0-1_2
  6
CONTINUOUS
 62
   18
 10
1811.2217700000001
 20
1018.2300654999999
 11
1771.2227899999998
 21
1018.2291554999974
  0
LINE
  8
_0-1_2
  6
CONTINUOUS
 62
   18
 10
1771.2218399999997
 20
1020.5282955000002
 11
1811.2227199999998
 21
1020.528985500001
  0
LINE
  8
_0-1_2
  6
CONTINUOUS
 62
   18
 10
1766.2222400000001
 20
1015.528775499999
 11
1766.22255
 21
1000.528095499998
  0
LINE
  8
_0-1_2
  6
CONTINUOUS
 62
   18
 10
1816.2244799999999
 20
925.52823549999812
 11
1816.2223799999997
 21
1015.5291154999977
  0
LINE
  8
_0-1_2
  6
CONTINUOUS
 62
   18
 10
1771.2227899999998
 20
920.52770550000059
 11
1811.2248199999999
 21
920.52860549999968
  0
LINE
  8
_0-1_2
  6
CONTINUOUS
 62
   18
 10
1766.2231299999999
 20
925.52741550000064
 11
1766.22271
 21
940.52825549999761
  0
LINE
  8
_0-1_2
  6
CONTINUOUS
 62
   18
 10
1768.52241
 20
925.52749549999862
 11
1768.52225
 21
940.52833549999923
  0
LINE
  8
_0-1_2
  6
CONTINUOUS
 62
   18
 10
1811.2235599999999
 20
922.82772549999936
 11
1771.2226799999999
 21
922.82714549999946
  0
LINE
  8
_0-1_2
  6
CONTINUOUS
 62
   18
 10
1813.9239899999998
 20
925.52781549999781
 11
1813.92157
 21
1015.5296454999989
  0
LINE
  8
_0-0_1
  6
CONTINUOUS
 62
   18
 10
1741.22138
 20
961.52875549999953
 11
1749.0157999999997
 21
966.02854549999756
  0
LINE
  8
_0-0_1
  6
CONTINUOUS
 62
   18
 10
1749.0157999999997
 20
966.02854549999756
 11
1749.01611
 21
975.02845549999984
  0
LINE
  8
_0-0_1
  6
CONTINUOUS
 62
   18
 10
1749.01611
 20
975.02845549999984
 11
1741.2222699999998
 21
979.52867549999792
  0
LINE
  8
_0-0_1
  6
CONTINUOUS
 62
   18
 10
1741.2222699999998
 20
979.52867549999792
 11
1733.4278599999998
 21
975.02890549999938
  0
LINE
  8
_0-0_1
  6
CONTINUOUS
 62
   18
 10
1733.4278599999998
 20
975.02890549999938
 11
1733.4274399999999
 21
966.02902549999999
  0
LINE
  8
_0-0_1
  6
CONTINUOUS
 62
   18
 10
1733.4274399999999
 20
966.02902549999999
 11
1741.22138
 21
961.52875549999953
  0
LINE
  8
_0-0_1
  6
CONTINUOUS
 62
   18
 10
1736.2222999999999
 20
960.52858550000019
 11
1736.2217299999998
 21
964.41534549999778
  0
LINE
  8
_0-0_1
  6
CONTINUOUS
 62
   18
 10
1746.2216699999999
 20
960.52837549999822
 11
1746.2219299999997
 21
964.41550549999738
  0
LINE
  8
_0-0_1
  6
CONTINUOUS
 62
   18
 10
1746.2213499999998
 20
980.52889549999963
 11
1746.22183
 21
976.64207549999992
  0
LINE
  8
_0-0_1
  6
CONTINUOUS
 62
   18
 10
1736.22199
 20
980.52907549999873
 11
1736.2216699999999
 21
976.64192550000007
  0
LINE
  8
_0-0_1
  6
CONTINUOUS
 62
   18
 10
772.63463899999988
 20
920.52847549999933
 11
1761.2222699999998
 21
920.52847549999933
  0
LINE
  8
_0-0_1
  6
CONTINUOUS
 62
   18
 10
1766.2222400000001
 20
1010.5287255000003
 11
1766.2222400000001
 21
930.5287055000008
  0
LINE
  8
_0-0_1
  6
CONTINUOUS
 62
   18
 10
1761.2222699999998
 20
922.82743549999941
 11
772.63463899999988
 21
922.82743549999941
  0
LINE
  8
_0-0_1
  6
CONTINUOUS
 62
   18
 10
1761.2222699999998
 20
1018.2289154999999
 11
772.63463899999988
 21
1018.2289154999999
  0
LINE
  8
_0-0_1
  6
CONTINUOUS
 62
   18
 10
1716.22226
 20
1010.5287255000003
 11
1716.22226
 21
1000.528095499998
  0
LINE
  8
_0-0_1
  6
CONTINUOUS
 62
   18
 10
1763.0222899999999
 20
1010.5287255000003
 11
1763.0222899999999
 21
930.5287055000008
  0
LINE
  8
_0-0_1
  6
CONTINUOUS
 62
   18
 10
1766.2222400000001
 20
1010.5287255000003
 11
1761.2222699999998
 21
1010.5287255000003
  0
LINE
  8
_0-0_1
  6
CONTINUOUS
 62
   18
 10
1761.2222699999998
 20
1010.5287255000003
 11
1716.22226
 21
1010.5287255000003
  0
LINE
  8
_0-0_1
  6
CONTINUOUS
 62
   18
 10
1716.22226
 20
1000.528095499998
 11
1716.22226
 21
940.52825549999761
  0
LINE
  8
_0-0_1
  6
CONTINUOUS
 62
   18
 10
1716.22226
 20
940.52825549999761
 11
1716.22226
 21
930.5287055000008
  0
LINE
  8
_0-0_1
  6
CONTINUOUS
 62
   18
 10
1766.2222400000001
 20
930.5287055000008
 11
1761.2222699999998
 21
930.5287055000008
  0
LINE
  8
_0-0_1
  6
CONTINUOUS
 62
   18
 10
1761.2222699999998
 20
930.5287055000008
 11
1716.22226
 21
930.5287055000008
  0
LINE
  8
_0-0_1
  6
CONTINUOUS
 62
   18
 10
1761.2222699999998
 20
1020.5284554999998
 11
1761.2222699999998
 21
1000.528095499998
  0
LINE
  8
_0-0_1
  6
CONTINUOUS
 62
   18
 10
1761.2222699999998
 20
1000.528095499998
 11
1761.2222699999998
 21
930.5287055000008
  0
LINE
  8
_0-0_1
  6
CONTINUOUS
 62
   18
 10
1761.2222699999998
 20
930.5287055000008
 11
1761.2222699999998
 21
920.52847549999933
  0
LINE
  8
_0-0_1
  6
CONTINUOUS
 62
   18
 10
1761.2222699999998
 20
1000.528095499998
 11
772.63463899999988
 21
1000.528095499998
  0
LINE
  8
_0-0_1
  6
CONTINUOUS
 62
   18
 10
1761.2222699999998
 20
940.52825549999761
 11
772.63463899999988
 21
940.52825549999761
  0
LINE
  8
_0-5_6
  6
CONTINUOUS
 62
   18
 10
1816.2231099999999
 20
1020.5284554999998
 11
1816.2231099999999
 21
871.26082749999841
  0
LINE
  8
_0-5_6
  6
CONTINUOUS
 62
   18
 10
1866.2230399999999
 20
1020.5284554999998
 11
1866.2230399999999
 21
871.26082749999841
  0
LINE
  8
_0-5_6
  6
CONTINUOUS
 62
   18
 10
1816.2241599999998
 20
938.38899549999769
 11
1866.2230399999999
 21
988.38797549999799
  0
LINE
  8
_0-5_6
  6
CONTINUOUS
 62
   18
 10
1816.2243199999998
 20
934.14638550000018
 11
1866.2230399999999
 21
984.14526549999937
  0
LINE
  8
_0-1_2
  6
CONTINUOUS
 62
   18
 10
1866.2234599999997
 20
975.52931549999994
 11
1866.2227199999998
 21
965.528265500001
  0
LINE
  8
_0-1_2
  6
CONTINUOUS
 62
   18
 10
1863.2232999999997
 20
975.52839549999771
 11
1863.2228799999998
 21
965.52947549999953
  0
LINE
  8
_0-1_2
  6
CONTINUOUS
 62
   18
 10
1866.2227199999998
 20
965.528265500001
 11
1863.2228799999998
 21
965.52947549999953
  0
LINE
  8
_0-1_2
  6
CONTINUOUS
 62
   18
 10
1866.2234599999997
 20
975.52931549999994
 11
1863.2232999999997
 21
975.52839549999771
  0
LINE
  8
_0-1_2
  6
CONTINUOUS
 62
   18
 10
1866.2230399999999
 20
970.52871550000054
 11
1863.2226699999997
 21
970.52871550000054
  0
LINE
  8
_0-1_2
  6
CONTINUOUS
 62
   18
 10
1801.2231999999999
 20
970.53495549999934
 11
1806.8233700000001
 21
968.5342055000001
  0
LINE
  8
_0-1_2
  6
CONTINUOUS
 62
   18
 10
1801.2231999999999
 20
970.53495549999934
 11
1806.8231599999999
 21
972.53424549999909
  0
LINE
  8
_0-1_2
  6
CONTINUOUS
 62
   18
 10
1847.1209899999999
 20
967.2928854999991
 11
1848.1787099999997
 21
973.9397355000001
  0
LINE
  8
_0-1_2
  6
CONTINUOUS
 62
   18
 10
1837.12041
 20
967.29480549999789
 11
1838.17814
 21
973.94167549999838
  0
LINE
  8
_0-1_2
  6
CONTINUOUS
 62
   18
 10
1827.1214099999997
 20
967.29537549999804
 11
1828.1791399999997
 21
973.94212549999793
  0
LINE
  8
_0-1_2
  6
CONTINUOUS
 62
   18
 10
1817.12084
 20
967.29721549999886
 11
1818.1778799999997
 21
973.9427754999997
  0
LINE
  8
_0-1_2
  6
CONTINUOUS
 62
   18
 10
1808.3788299999997
 20
967.29737549999845
 11
1809.4364499999997
 21
973.94430549999743
  0
LINE
  8
_0-1_2
  6
CONTINUOUS
 62
   18
 10
1860.2252399999998
 20
972.5298655000006
 11
1806.8231599999999
 21
972.53424549999909
  0
LINE
  8
_0-1_2
  6
CONTINUOUS
 62
   18
 10
1863.2232999999997
 20
975.52839549999771
 11
1860.2252399999998
 21
972.5298655000006
  0
LINE
  8
_0-1_2
  6
CONTINUOUS
 62
   18
 10
1860.2223999999997
 20
968.52976549999948
 11
1806.8233700000001
 21
968.5342055000001
  0
LINE
  8
_0-1_2
  6
CONTINUOUS
 62
   18
 10
1863.2228799999998
 20
965.52947549999953
 11
1860.2223999999997
 21
968.52976549999948
  0
LINE
  8
_0-1_2
  6
CONTINUOUS
 62
   18
 10
1786.2278999999999
 20
1070.5288054999983
 11
1796.2289499999997
 21
1070.5281255000009
  0
LINE
  8
_0-1_2
  6
CONTINUOUS
 62
   18
 10
1786.2287899999997
 20
1067.5287454999998
 11
1796.2277399999998
 21
1067.5282755000007
  0
LINE
  8
_0-1_2
  6
CONTINUOUS
 62
   18
 10
1796.2289499999997
 20
1070.5281255000009
 11
1796.2277399999998
 21
1067.5282755000007
  0
LINE
  8
_0-1_2
  6
CONTINUOUS
 62
   18
 10
1786.2278999999999
 20
1070.5288054999983
 11
1786.2287899999997
 21
1067.5287454999998
  0
LINE
  8
_0-1_2
  6
CONTINUOUS
 62
   18
 10
1791.2284999999997
 20
1070.5284854999991
 11
1791.2284999999997
 21
1067.5281154999975
  0
LINE
  8
_0-1_2
  6
CONTINUOUS
 62
   18
 10
1791.22226
 20
1005.5286454999987
 11
1793.2230099999997
 21
1011.1288155000002
  0
LINE
  8
_0-1_2
  6
CONTINUOUS
 62
   18
 10
1791.22226
 20
1005.5286454999987
 11
1789.2229199999997
 21
1011.1285854999987
  0
LINE
  8
_0-1_2
  6
CONTINUOUS
 62
   18
 10
1794.4643000000001
 20
1051.4264354999978
 11
1787.8174799999997
 21
1052.484055500001
  0
LINE
  8
_0-1_2
  6
CONTINUOUS
 62
   18
 10
1794.4624100000001
 20
1041.4257555000004
 11
1787.81549
 21
1042.4834855000008
  0
LINE
  8
_0-1_2
  6
CONTINUOUS
 62
   18
 10
1794.4618399999999
 20
1031.4268154999991
 11
1787.8150700000001
 21
1032.4845354999998
  0
LINE
  8
_0-1_2
  6
CONTINUOUS
 62
   18
 10
1794.46
 20
1021.4262354999992
 11
1787.8144400000001
 21
1022.483335500001
  0
LINE
  8
_0-1_2
  6
CONTINUOUS
 62
   18
 10
1794.45984
 20
1012.6842555000003
 11
1787.8129100000001
 21
1013.7419054999991
  0
LINE
  8
_0-1_2
  6
CONTINUOUS
 62
   18
 10
1789.2273299999997
 20
1064.5306354999993
 11
1789.2229199999997
 21
1011.1285854999987
  0
LINE
  8
_0-1_2
  6
CONTINUOUS
 62
   18
 10
1786.2287899999997
 20
1067.5287454999998
 11
1789.2273299999997
 21
1064.5306354999993
  0
LINE
  8
_0-1_2
  6
CONTINUOUS
 62
   18
 10
1793.2274199999997
 20
1064.5278555000004
 11
1793.2230099999997
 21
1011.1288155000002
  0
LINE
  8
_0-1_2
  6
CONTINUOUS
 62
   18
 10
1796.2277399999998
 20
1067.5282755000007
 11
1793.2274199999997
 21
1064.5278555000004
  0
LINE
  8
_0-5_6
  6
CONTINUOUS
 62
   18
 10
772.63463899999988
 20
1070.5284854999991
 11
1881.2231099999999
 21
1070.5284854999991
  0
LINE
  8
_0-5_6
  6
CONTINUOUS
 62
   18
 10
1881.2231099999999
 20
1070.5284854999991
 11
1881.2231099999999
 21
1020.5284554999998
  0
LINE
  8
_0-5_6
  6
CONTINUOUS
 62
   18
 10
772.63463899999988
 20
1020.5284554999998
 11
1881.2231099999999
 21
1020.5284554999998
  0
LINE
  8
_0-3_4
  6
CONTINUOUS
 62
   18
 10
1842.2231099999999
 20
1074.5284754999993
 11
1842.2231099999999
 21
1115.5282855000005
  0
LINE
  8
_0-4_5
  6
CONTINUOUS
 62
   18
 10
1847.1238199999998
 20
1115.5282855000005
 11
1881.2231099999999
 21
1081.4289954999986
  0
LINE
  8
_0-4_5
  6
CONTINUOUS
 62
   18
 10
1857.73047
 20
1115.5282855000005
 11
1881.2231099999999
 21
1092.0356455000001
  0
LINE
  8
_0-4_5
  6
CONTINUOUS
 62
   18
 10
1868.3371299999999
 20
1115.5282855000005
 11
1881.2231099999999
 21
1102.6422454999993
  0
LINE
  8
_0-4_5
  6
CONTINUOUS
 62
   18
 10
1875.5392710000001
 20
1115.5282855000005
 11
1877.8186009999999
 21
1113.2489554999993
  0
LINE
  8
_0-3_4
  6
CONTINUOUS
 62
   18
 10
1881.2231099999999
 20
1074.5284754999993
 11
1881.2231099999999
 21
1115.5282855000005
  0
LINE
  8
_0-2_3
  6
CONTINUOUS
 62
   18
 10
1838.22307
 20
1074.5284754999993
 11
1838.22307
 21
1117.5283055
  0
ARC
  8
_0-1_2
  6
CONTINUOUS
 62
   18
 10
1771.2226799999999
 20
1015.5289354999986
 40
2.7000000000000002
 50
89.996902000000006
 51
179.98901000000001
  0
ARC
  8
_0-1_2
  6
CONTINUOUS
 62
   18
 10
1811.2214599999998
 20
1015.5298755000003
 40
2.7000000000000002
 50
0.016586
 51
89.996902000000006
  0
ARC
  8
_0-1_2
  6
CONTINUOUS
 62
   18
 10
1811.22361
 20
1015.5297754999992
 40
4.9989999999999997
 50
359.99803000000003
 51
90.008681999999993
  0
ARC
  8
_0-1_2
  6
CONTINUOUS
 62
   18
 10
1771.22127
 20
1015.5296454999989
 40
4.9989999999999997
 50
89.987410999999994
 51
180.00442000000001
  0
ARC
  8
_0-1_2
  6
CONTINUOUS
 62
   18
 10
1811.2252399999998
 20
925.52741550000064
 40
4.9989999999999997
 50
269.99376999999998
 51
0.0193180000000246
  0
ARC
  8
_0-1_2
  6
CONTINUOUS
 62
   18
 10
1771.2220499999999
 20
925.52694549999796
 40
4.9989999999999997
 50
179.98312999999999
 51
270.01506000000001
  0
ARC
  8
_0-1_2
  6
CONTINUOUS
 62
   18
 10
1771.223
 20
925.52741550000064
 40
2.7000000000000002
 50
179.98901000000004
 51
270.00871000000006
  0
ARC
  8
_0-1_2
  6
CONTINUOUS
 62
   18
 10
1811.22408
 20
925.52794549999817
 40
2.7000000000000002
 50
270.00871000000006
 51
0.0165860000000489
  0
ARC
  8
_0-0_1
  6
CONTINUOUS
 62
   18
 10
1741.2219599999999
 20
960.52845549999984
 40
5
 50
179.98813999999999
 51
0.0030209999999897
  0
ARC
  8
_0-0_1
  6
CONTINUOUS
 62
   18
 10
1741.2217000000001
 20
980.52897549999761
 40
5
 50
0.0030209999999999
 51
179.98814000000002
  0
LINE
  8
_0-0_1
  6
CONTINUOUS
 62
   18
 10
1851.4193849999997
 20
887.593177499999
 11
1851.4193849999997
 21
895.093177499999
  0
LINE
  8
_0-0_1
  6
CONTINUOUS
 62
   18
 10
1851.4193849999997
 20
895.093177499999
 11
1855.1693849999997
 21
888.59798650000084
  0
LINE
  8
_0-0_1
  6
CONTINUOUS
 62
   18
 10
1851.4193849999997
 20
895.093177499999
 11
1887.9028800000001
 21
758.93491849999918
  0
LINE
  8
_0-0_1
  6
CONTINUOUS
 62
   18
 10
1365.964939
 20
1079.1721814999983
 11
1371.2682399999999
 21
1084.4754824999982
  0
LINE
  8
_0-0_1
  6
CONTINUOUS
 62
   18
 10
1371.2682399999999
 20
1084.4754824999982
 11
1369.3270969999999
 21
1077.2310384999982
  0
LINE
  8
_0-0_1
  6
CONTINUOUS
 62
   18
 10
1371.2682399999999
 20
1084.4754824999982
 11
1186.3302530000001
 21
764.15349149999747
  0
LINE
  8
_0-0_1
  6
CONTINUOUS
 62
   18
 10
1220.7632880000001
 20
824.11538649999784
 11
984.63815199999999
 21
824.11538649999784
  0
LINE
  8
_0-0_1
  6
CONTINUOUS
 62
   18
 10
1238.4399289999997
 20
854.09633449999819
 11
1046.0472409999998
 21
854.09633449999819
  0
LINE
  8
_0-0_1
  6
CONTINUOUS
 62
   18
 10
978.57778800000006
 20
1137.0044554999986
 11
978.57778800000006
 21
1126.7859255000003
  0
LINE
  8
_0-0_1
  6
CONTINUOUS
 62
   18
 10
978.57778800000006
 20
1137.0044554999986
 11
939.25988000000007
 21
1137.0044554999986
  0
LINE
  8
_0-0_1
  6
CONTINUOUS
 62
   18
 10
976.25988000000007
 20
1126.7859255000003
 11
976.25988000000007
 21
1135.0076554999978
  0
LINE
  8
_0-0_1
  6
CONTINUOUS
 62
   18
 10
976.25988000000007
 20
1135.0076554999978
 11
937.25988000000007
 21
1135.0076554999978
  0
LINE
  8
_0-0_1
  6
CONTINUOUS
 62
   18
 10
1286.5777880000001
 20
1137.0044554999986
 11
1286.5777880000001
 21
1126.7859255000003
  0
LINE
  8
_0-0_1
  6
CONTINUOUS
 62
   18
 10
1286.5777880000001
 20
1137.0044554999986
 11
1247.2598800000001
 21
1137.0044554999986
  0
LINE
  8
_0-0_1
  6
CONTINUOUS
 62
   18
 10
1284.2598800000001
 20
1126.7859255000003
 11
1284.2598800000001
 21
1135.0076554999978
  0
LINE
  8
_0-0_1
  6
CONTINUOUS
 62
   18
 10
1284.2598800000001
 20
1135.0076554999978
 11
1245.2598800000001
 21
1135.0076554999978
  0
LINE
  8
_0-0_1
  6
CONTINUOUS
 62
   18
 10
1594.5777880000001
 20
1137.0044554999986
 11
1555.2598800000001
 21
1137.0044554999986
  0
LINE
  8
_0-0_1
  6
CONTINUOUS
 62
   18
 10
1594.5777880000001
 20
1137.0044554999986
 11
1594.5777880000001
 21
1126.7859255000003
  0
LINE
  8
_0-0_1
  6
CONTINUOUS
 62
   18
 10
1592.2598800000001
 20
1126.7859255000003
 11
1592.2598800000001
 21
1135.0076554999978
  0
LINE
  8
_0-0_1
  6
CONTINUOUS
 62
   18
 10
1592.2598800000001
 20
1135.0076554999978
 11
1553.2598800000001
 21
1135.0076554999978
  0
LINE
  8
_0-0_1
  6
CONTINUOUS
 62
   18
 10
1247.2598800000001
 20
1156.9724554999993
 11
1247.2598800000001
 21
1137.0044554999986
  0
LINE
  8
_0-0_1
  6
CONTINUOUS
 62
   18
 10
1553.2598800000001
 20
1156.9724554999993
 11
1553.2598800000001
 21
1135.0076554999978
  0
LINE
  8
_0-0_1
  6
CONTINUOUS
 62
   18
 10
937.25988000000007
 20
1156.9724554999993
 11
937.25988000000007
 21
1135.0076554999978
  0
LINE
  8
_0-0_1
  6
CONTINUOUS
 62
   18
 10
939.25988000000007
 20
1156.9724554999993
 11
939.25988000000007
 21
1137.0044554999986
  0
LINE
  8
_0-0_1
  6
CONTINUOUS
 62
   18
 10
1245.2598800000001
 20
1156.9724554999993
 11
1245.2598800000001
 21
1135.0076554999978
  0
LINE
  8
_0-0_1
  6
CONTINUOUS
 62
   18
 10
1245.2598800000001
 20
1156.9724554999993
 11
1245.2598800000001
 21
1137.0044554999986
  0
LINE
  8
_0-0_1
  6
CONTINUOUS
 62
   18
 10
1752.22199
 20
1126.7859255000003
 11
1594.5777880000001
 21
1126.7859255000003
  0
LINE
  8
_0-0_1
  6
CONTINUOUS
 62
   18
 10
1592.2598800000001
 20
1126.7859255000003
 11
1286.5777880000001
 21
1126.7859255000003
  0
LINE
  8
_0-0_1
  6
CONTINUOUS
 62
   18
 10
1284.2598800000001
 20
1126.7859255000003
 11
978.57778800000006
 21
1126.7859255000003
  0
LINE
  8
_0-0_1
  6
CONTINUOUS
 62
   18
 10
976.25988000000007
 20
1126.7859255000003
 11
772.63463899999988
 21
1126.7859255000003
  0
LINE
  8
_0-0_1
  6
CONTINUOUS
 62
   18
 10
1555.2598800000001
 20
1156.9724554999993
 11
1555.2598800000001
 21
1137.0044554999986
  0
LINE
  8
_0-0_1
  6
CONTINUOUS
 62
   18
 10
1752.22199
 20
1156.9724554999993
 11
1555.2598800000001
 21
1156.9724554999993
  0
LINE
  8
_0-0_1
  6
CONTINUOUS
 62
   18
 10
1553.2598800000001
 20
1156.9724554999993
 11
1247.2598800000001
 21
1156.9724554999993
  0
LINE
  8
_0-0_1
  6
CONTINUOUS
 62
   18
 10
1245.2598800000001
 20
1156.9724554999993
 11
939.25988000000007
 21
1156.9724554999993
  0
LINE
  8
_0-0_1
  6
CONTINUOUS
 62
   18
 10
937.25988000000007
 20
1156.9724554999993
 11
772.63463899999988
 21
1156.9724554999993
  0
LINE
  8
_0-0_1
  6
CONTINUOUS
 62
   18
 10
1762.2651059999998
 20
1176.5770924999997
 11
1904.5140659999997
 21
1176.5770924999997
  0
ARC
  8
_0-0_1
  6
CONTINUOUS
 62
   18
 10
1762.2651059999998
 20
1171.7386924999992
 40
4.8384
 50
90
 51
180
  0
LINE
  8
_0-0_1
  6
CONTINUOUS
 62
   18
 10
1757.4267059999997
 20
1150.4497324999975
 11
1757.4267059999997
 21
1171.7386924999992
  0
LINE
  8
_0-0_1
  6
CONTINUOUS
 62
   18
 10
1757.4267059999997
 20
1150.4497324999975
 11
1765.168146
 21
1150.4497324999975
  0
LINE
  8
_0-0_1
  6
CONTINUOUS
 62
   18
 10
1765.168146
 20
1152.3850925000006
 11
1765.168146
 21
1150.4497324999975
  0
LINE
  8
_0-0_1
  6
CONTINUOUS
 62
   18
 10
1888.063506
 20
1152.3850925000006
 11
1765.168146
 21
1152.3850925000006
  0
LINE
  8
_0-0_1
  6
CONTINUOUS
 62
   18
 10
1904.5140659999997
 20
1089.5239194999995
 11
1904.5140659999997
 21
1176.5770924999997
  0
ARC
  8
_0-0_1
  6
CONTINUOUS
 62
   18
 10
1899.6756660000001
 20
1089.5239194999995
 40
4.8384
 50
308.28845799999999
 51
0.0000000000000318
  0
LINE
  8
_0-0_1
  6
CONTINUOUS
 62
   18
 10
1888.063506
 20
1152.3850925000006
 11
1888.063506
 21
1150.1612554999992
  0
TEXT
  8
_0-2_3
 62
    7
 10
1046.2578111727266
 20
1332.7117861437907
 40
20
 41
1
 50
0
  1
308
  0
TEXT
  8
_0-2_3
 62
    7
 10
1397.410788987462
 20
1341.5043489685729
 40
20
 41
1
 50
0
  1
308
  0
TEXT
  8
_0-2_3
 62
    7
 10
1705.1504878548353
 20
1333.8108564968884
 40
20
 41
1
 50
0
  1
308
  0
TEXT
  8
_0-2_3
 62
    7
 10
1393.0145075750706
 20
1203.0214844782547
 40
20
 41
1
 50
0
  1
桟　瓦
  0
TEXT
  8
_0-2_3
 62
    7
 10
1865.6147594071085
 20
1338.2071379092795
 40
20
 41
1
 50
0
  1
41
  0
TEXT
  8
_0-2_3
 62
    7
 10
1797.4723975150473
 20
1274.4610574296094
 40
20
 41
1
 50
0
  1
147
  0
TEXT
  8
_0-2_3
 62
    7
 10
1997.5032017788403
 20
1096.4116602277718
 40
20
 41
1
 50
90
  1
92
  0
TEXT
  8
_0-2_3
 62
    7
 10
1962.3329504797118
 20
971.11763997462674
 40
20
 41
1
 50
0
  1
登り淀：40x60（防腐処理）
  0
TEXT
  8
_0-2_3
 62
    7
 10
1599.6397339574503
 20
1217.3093990685256
 40
20
 41
1
 50
0
  1
弾性シール材
  0
TEXT
  8
_0-2_3
 62
    7
 10
1929.3608398867789
 20
1226.1019618933076
 40
20
 41
1
 50
0
  1
右袖瓦
  0
TEXT
  8
_0-2_3
 62
    7
 10
1899.6623145931846
 20
764.36010933650039
 40
20
 41
1
 50
0
  1
破風板：薄型ＡＬＣパネル　
  0
TEXT
  8
_0-2_3
 62
    7
 10
1062.7433939539942
 20
861.32022819104077
 40
20
 41
1
 50
0
  1
瓦桟：15x30以上
  0
TEXT
  8
_0-2_3
 62
    7
 10
928.36007133103465
 20
764.36010933650039
 40
20
 41
1
 50
0
  1
　鋼製：C100x50x20x2.3　
  0
TEXT
  8
_0-0_1
 62
    7
 10
941.96850906500515
 20
796.68014895468059
 40
20
 41
1
 50
0
  1
　下地：ALCパネル　t＝50
  0
TEXT
  8
_0-0_1
 62
    7
 10
1367.2321882515857
 20
849.41284517381655
 40
20
 41
1
 50
0
  1
捨水切カラー鋼板0.35ｍｍ以上
  0
LINE
  8
_0-0_1
  6
CONTINUOUS
 62
   18
 10
1186.3302530000001
 20
764.15349149999747
 11
945.37061849849783
 21
764.15349149999747
  0
LINE
  8
_0-0_1
  6
CONTINUOUS
 62
   18
 10
1203.1115989999998
 20
793.21963549999782
 11
970.88643924969256
 21
793.21963549999782
  0
LINE
  8
_0-0_1
  6
CONTINUOUS
 62
   18
 10
1678.9488719999999
 20
842.55381049999778
 11
1363.8300788180932
 21
842.55381049999778
  0
LINE
  8
_0-0_1
  6
CONTINUOUS
 62
   18
 10
1887.9028800000001
 20
758.93491849999918
 11
2170.1300145558498
 21
758.93491849999918
  0
LINE
  8
_0-0_1
  6
CONTINUOUS
 62
   18
 10
1951.3653609999997
 20
957.28700349999781
 11
2224.5637654917323
 21
957.28700349999781
  0
LINE
  8
_0-0_1
  6
CONTINUOUS
 62
   18
 10
1733.6827760000001
 20
1213.1351084999988
 11
1608.7819580295636
 21
1213.1351084999988
  0
LINE
  8
_0-0_1
  6
CONTINUOUS
 62
   18
 10
1386.65263
 20
1198.7521364999993
 11
1455.6870335223946
 21
1198.7521364999993
  0
LINE
  8
_0-0_1
  6
CONTINUOUS
 62
   18
 10
1926.324991
 20
1224.6595154999995
 11
1996.6224334477249
 21
1224.6595154999995
  0
ENDSEC
  0
EOF
