  0
SECTION
  2
HEADER
  9
$ACADVER
  1
AC1009
  9
$INSBASE
 10
0
 20
0
 30
0
  9
$EXTMIN
 10
0
 20
0
  9
$EXTMAX
 10
2970
 20
2100
  9
$LIMMIN
 10
0
 20
0
  9
$LIMMAX
 10
2970
 20
2100
  9
$LTSCALE
 40
10
  0
ENDSEC
  0
SECTION
  2
TABLES
  0
TABLE
  2
LTYPE
 70
     9
  0
LTYPE
  2
CONTINUOUS
 70
    64
  3
実線
 72
    65
 73
     0
 40
0.0
  0
LTYPE
  2
DASHED1
 70
    64
  3
--  --  --  --  --  --  --  --  
 72
    65
 73
     2
 40
2.5
 49
1.25
 49
-1.25
  0
LTYPE
  2
DASHED2
 70
    64
  3
----    ----    ----    ----    
 72
    65
 73
     2
 40
5.0
 49
2.5
 49
-2.5
  0
LTYPE
  2
DASHED3
 70
    64
  3
------  ------  ------  ------  
 72
    65
 73
     2
 40
5.0
 49
3.75
 49
-1.25
  0
LTYPE
  2
CENTER1
 70
    64
  3
----- - ----- - ----- - ----- - 
 72
    65
 73
     4
 40
10.0
 49
6.25
 49
-1.25
 49
1.25
 49
-1.25
  0
LTYPE
  2
CENTER2
 70
    64
  3
----------  --  ----------  --  
 72
    65
 73
     4
 40
20.0
 49
12.5
 49
-2.5
 49
2.5
 49
-2.5
  0
LTYPE
  2
PHANTOM1
 70
    64
  3
--- - - --- - - --- - - --- - - 
 72
    65
 73
     6
 40
10.0
 49
3.25
 49
-1.25
 49
1.25
 49
-1.25
 49
1.25
 49
-1.25
  0
LTYPE
  2
PHANTOM2
 70
    64
  3
--------  -  -  --------  -  -  
 72
    65
 73
     6
 40
20.0
 49
10.0
 49
-2.5
 49
1.25
 49
-2.5
 49
1.25
 49
-2.5
  0
LTYPE
  2
DOT
 70
    64
  3
-   -   -   -   -   -   -   -   
 72
    65
 73
     2
 40
2.5
 49
0.625
 49
-1.875
  0
LTYPE
  2
DUMMY
 70
    64
  3
ダミー
 72
    65
 73
     0
 40
0.0
  0
LTYPE
  2
RAND1
 70
    64
  3
ランダム線1
 72
    65
 73
     4
 40
10.0
 49
1.0
 49
-2.0
 49
3.0
 49
-4.0
  0
LTYPE
  2
RAND2
 70
    64
  3
ランダム線2
 72
    65
 73
     4
 40
14.0
 49
2.0
 49
-3.0
 49
4.0
 49
-5.0
  0
LTYPE
  2
RAND3
 70
    64
  3
ランダム線3
 72
    65
 73
     4
 40
18.0
 49
3.0
 49
-4.0
 49
5.0
 49
-6.0
  0
LTYPE
  2
RAND4
 70
    64
  3
ランダム線4
 72
    65
 73
     4
 40
22.0
 49
4.0
 49
-5.0
 49
6.0
 49
-7.0
  0
LTYPE
  2
RAND5
 70
    64
  3
ランダム線5
 72
    65
 73
     4
 40
26.0
 49
5.0
 49
-6.0
 49
7.0
 49
-8.0
  0
LTYPE
  2
LONG1
 70
    64
  3
----------  --  ----------  --  
 72
    65
 73
     4
 40
40.0
 49
32.5
 49
-2.5
 49
2.5
 49
-2.5
  0
LTYPE
  2
LONG2
 70
    64
  3
--------  -  -  --------  -  -  
 72
    65
 73
     6
 40
40.0
 49
30.0
 49
-2.5
 49
1.25
 49
-2.5
 49
1.25
 49
-2.5
  0
LTYPE
  2
LONG3
 70
    64
  3
+++++++++++++++..+++++++++++++++
 72
    65
 73
     2
 40
40.0
 49
37.5
 49
-2.5
  0
LTYPE
  2
LONG4
 70
    64
  3
+++++++++++++++..+++++++++++++++
 72
    65
 73
     2
 40
80.0
 49
75.0
 49
-5.0
  0
LTYPE
  2
LONG5
 70
    64
  3
----------  --  ----------  --  
 72
    65
 73
     4
 40
60.0
 49
37.5
 49
-7.5
 49
7.5
 49
-7.5
  0
LTYPE
  2
dashed
 70
   64
  3
-------   -------------   ------
 72
   65
 73
    2
 40
7.5
 49
6
 49
-1.5
  0
LTYPE
  2
dashed_spaced
 70
   64
  3
----        --------        ----
 72
   65
 73
    2
 40
12
 49
6
 49
-6
  0
LTYPE
  2
long_dashed_dotted
 70
   64
  3
------------- --- --------------
 72
   65
 73
    4
 40
15.25
 49
12
 49
-1.5
 49
0.25
 49
-1.5
  0
LTYPE
  2
long_dashed_double-dotted
 70
   64
  3
----------- --- --- ------------
 72
   65
 73
    6
 40
17
 49
12
 49
-1.5
 49
0.25
 49
-1.5
 49
0.25
 49
-1.5
  0
LTYPE
  2
long_dashed_triplicate-dotted
 70
   64
  3
--------- --- --- --- ----------
 72
   65
 73
    8
 40
18.75
 49
12
 49
-1.5
 49
0.25
 49
-1.5
 49
0.25
 49
-1.5
 49
0.25
 49
-1.5
  0
LTYPE
  2
dotted
 70
   64
  3
   -       -       -       -    
 72
   65
 73
    2
 40
1.75
 49
0.25
 49
-1.5
  0
LTYPE
  2
chain
 70
   64
  3
-------------- -- --------------
 72
   65
 73
    4
 40
18.5
 49
12
 49
-1.5
 49
3.5
 49
-1.5
  0
LTYPE
  2
chain_double_dash
 70
   64
  3
------------ -- -- -------------
 72
   65
 73
    6
 40
23.5
 49
12
 49
-1.5
 49
3.5
 49
-1.5
 49
3.5
 49
-1.5
  0
LTYPE
  2
dashed_dotted
 70
   64
  3
-----------     -     ----------
 72
   65
 73
    4
 40
9.25
 49
6
 49
-1.5
 49
0.25
 49
-1.5
  0
LTYPE
  2
double-dashed_dotted
 70
   64
  3
------   -----------   -   -----
 72
   65
 73
    6
 40
16.75
 49
6
 49
-1.5
 49
6
 49
-1.5
 49
0.25
 49
-1.5
  0
LTYPE
  2
dashed_double-dotted
 70
   64
  3
---------    -    -    ---------
 72
   65
 73
    6
 40
11
 49
6
 49
-1.5
 49
0.25
 49
-1.5
 49
0.25
 49
-1.5
  0
LTYPE
  2
double-dashed_double-dotted
 70
   64
  3
-----   ---------   -   -   ----
 72
   65
 73
    8
 40
18.5
 49
6
 49
-1.5
 49
6
 49
-1.5
 49
0.25
 49
-1.5
 49
0.25
 49
-1.5
  0
LTYPE
  2
dashed_triplicate-dotted
 70
   64
  3
-------    -    -    -    ------
 72
   65
 73
    8
 40
12.75
 49
6
 49
-1.5
 49
0.25
 49
-1.5
 49
0.25
 49
-1.5
 49
0.25
 49
-1.5
  0
LTYPE
  2
double-dashed_triplicate-dotted
 70
   64
  3
-----  ---------  -  -  -  -----
 72
   65
 73
   10
 40
20.25
 49
6
 49
-1.5
 49
6
 49
-1.5
 49
0.25
 49
-1.5
 49
0.25
 49
-1.5
 49
0.25
 49
-1.5
  0
LTYPE
  2
undefined
 70
   64
  3
--------------------------------
 72
   65
 73
    0
 40
0
  0
LTYPE
  2
HIDDEN
 70
   64
  3
----        --------        ----
 72
   65
 73
    2
 40
10
 49
5
 49
-5
  0
LTYPE
  2
DASHED
 70
   64
  3
-------   -------------   ------
 72
   65
 73
    2
 40
50
 49
40
 49
-10
  0
LTYPE
  2
CENTER
 70
   64
  3
------------   ---   -----------
 72
   65
 73
    4
 40
100
 49
70
 49
-10
 49
10
 49
-10
  0
LTYPE
  2
PHANTOM
 70
   64
  3
---------   ---   ---   --------
 72
   65
 73
    6
 40
100
 49
50
 49
-10
 49
10
 49
-10
 49
10
 49
-10
  0
ENDTAB
  0
TABLE
  2
STYLE
  5
3
100
AcDbSymbolTable
 70
     1
  0
STYLE
  5
10
100
AcDbSymbolTableRecord
100
AcDbTextStyleTableRecord
  2
STANDARD
 70
     0
 40
0.0
 41
1.0
 50
0.0
 71
     0
 42
0.2
  3
txt
  4
bigfont.shx
  0
STYLE
  5
26
100
AcDbSymbolTableRecord
100
AcDbTextStyleTableRecord
  2
TATEGAKI
 70
    68
 40
0.0
 41
1.0
 50
0.0
 71
     0
 42
1.0
  3
txt
  4
bigfont.shx
  0
ENDTAB
  0
TABLE
  2
LAYER
 70
    5
  0
LAYER
  2
_0-0_LAYER001
 70
   64
 62
    7
  6
CONTINUOUS
  0
LAYER
  2
_0-1_LAYER003
 70
   64
 62
    7
  6
CONTINUOUS
  0
LAYER
  2
_0-2_LAYER007
 70
   64
 62
    7
  6
CONTINUOUS
  0
LAYER
  2
_0-3_LAYER009
 70
   64
 62
    7
  6
CONTINUOUS
  0
LAYER
  2
ADD_LINE
 70
   64
 62
    7
  6
CONTINUOUS
  0
ENDTAB
  0
ENDSEC
  0
SECTION
  2
BLOCKS
  0
ENDSEC
  0
SECTION
  2
ENTITIES
  0
LINE
  8
_0-0_LAYER001
  6
CONTINUOUS
 62
    1
 10
1977.0558355000003
 20
986.80721949999997
 11
804.81046250000009
 21
986.80721949999997
  0
LINE
  8
_0-0_LAYER001
  6
CONTINUOUS
 62
    1
 10
1977.0558355000003
 20
989.30721949999997
 11
804.81046250000009
 21
989.30721949999997
  0
LINE
  8
_0-0_LAYER001
  6
CONTINUOUS
 62
    1
 10
1977.0558355000003
 20
991.80721949999997
 11
804.81046250000009
 21
991.80721949999997
  0
LINE
  8
_0-0_LAYER001
  6
CONTINUOUS
 62
    1
 10
1977.0558355000003
 20
994.30721949999997
 11
804.81046250000009
 21
994.30721949999997
  0
LINE
  8
_0-0_LAYER001
  6
CONTINUOUS
 62
    1
 10
1977.0558355000003
 20
996.80721949999997
 11
804.81046250000009
 21
996.80721949999997
  0
LINE
  8
_0-0_LAYER001
  6
CONTINUOUS
 62
    1
 10
1977.0558355000003
 20
999.30721949999997
 11
804.81046250000009
 21
999.30721949999997
  0
LINE
  8
_0-0_LAYER001
  6
CONTINUOUS
 62
    1
 10
1977.0558355000003
 20
1001.8072195
 11
804.81046250000009
 21
1001.8072195
  0
LINE
  8
_0-0_LAYER001
  6
CONTINUOUS
 62
    1
 10
1977.0558355000003
 20
1004.3072195
 11
804.81046250000009
 21
1004.3072195
  0
LINE
  8
_0-0_LAYER001
  6
CONTINUOUS
 62
    1
 10
1977.0558355000003
 20
1006.8072195
 11
804.81046250000009
 21
1006.8072195
  0
ARC
  8
_0-0_LAYER001
  6
CONTINUOUS
 62
    4
 10
1919.0847114999997
 20
1025.3104195000001
 40
5.9904000000000002
 50
199.47122100000004
 51
344.27761299999997
  0
LINE
  8
_0-0_LAYER001
  6
CONTINUOUS
 62
    4
 10
1907.5553284999996
 20
1039.2880195000002
 11
1913.5457285000002
 21
1023.0290695000003
  0
LINE
  8
_0-0_LAYER001
  6
CONTINUOUS
 62
    4
 10
1685.9520825
 20
1039.2880195000002
 11
1680.2637635000001
 21
1023.6871615
  0
LINE
  8
_0-0_LAYER001
  6
CONTINUOUS
 62
    4
 10
1926.1709165000002
 20
1027.3072195
 11
1924.8509864999996
 21
1023.6871615
  0
LINE
  8
_0-0_LAYER001
  6
CONTINUOUS
 62
    4
 10
1662.2324104999998
 20
1041.2848195000001
 11
1625.0289055000003
 21
1041.2848195000001
  0
LINE
  8
_0-0_LAYER001
  6
CONTINUOUS
 62
    4
 10
1662.2324104999998
 20
1041.2848195000001
 11
1668.9585054999998
 21
1023.0290695000003
  0
LINE
  8
_0-0_LAYER001
  6
CONTINUOUS
 62
    4
 10
1907.5553284999996
 20
1039.2880195000002
 11
1867.6193284999999
 21
1039.2880195000002
  0
LINE
  8
_0-0_LAYER001
  6
CONTINUOUS
 62
    4
 10
1859.6321285000004
 20
1039.2880195000002
 11
1812.7073284999997
 21
1039.2880195000002
  0
LINE
  8
_0-0_LAYER001
  6
CONTINUOUS
 62
    4
 10
1804.7201285000001
 20
1039.2880195000002
 11
1751.8049284999997
 21
1039.2880195000002
  0
LINE
  8
_0-0_LAYER001
  6
CONTINUOUS
 62
    4
 10
1743.8177285000002
 20
1039.2880195000002
 11
1685.9520825
 21
1039.2880195000002
  0
LINE
  8
_0-0_LAYER001
  6
CONTINUOUS
 62
    4
 10
1890.6033054999998
 20
1061.2528195
 11
1890.6033054999998
 21
1058.2576195000001
  0
LINE
  8
_0-0_LAYER001
  6
CONTINUOUS
 62
    4
 10
1736.8058055000001
 20
1058.2576195000001
 11
1890.6033054999998
 21
1058.2576195000001
  0
LINE
  8
_0-0_LAYER001
  6
CONTINUOUS
 62
    4
 10
1664.9649055
 20
1058.2576195000001
 11
1735.8513055000003
 21
1058.2576195000001
  0
LINE
  8
_0-0_LAYER001
  6
CONTINUOUS
 62
    4
 10
1664.9649055
 20
1061.2528195
 11
1664.9649055
 21
1058.2576195000001
  0
LINE
  8
_0-0_LAYER001
  6
CONTINUOUS
 62
    4
 10
1664.9649055
 20
1061.2528195
 11
1625.0289055000003
 21
1061.2528195
  0
LINE
  8
_0-0_LAYER001
  6
CONTINUOUS
 62
    4
 10
1743.8177285000002
 20
1039.2880195000002
 11
1743.8177285000002
 21
1028.3056194999999
  0
LINE
  8
_0-0_LAYER001
  6
CONTINUOUS
 62
    4
 10
1751.8049284999997
 20
1028.3056194999999
 11
1743.8177285000002
 21
1028.3056194999999
  0
LINE
  8
_0-0_LAYER001
  6
CONTINUOUS
 62
    4
 10
1751.8049284999997
 20
1039.2880195000002
 11
1751.8049284999997
 21
1028.3056194999999
  0
LINE
  8
_0-0_LAYER001
  6
CONTINUOUS
 62
    4
 10
1804.7201285000001
 20
1039.2880195000002
 11
1804.7201285000001
 21
1028.3056194999999
  0
LINE
  8
_0-0_LAYER001
  6
CONTINUOUS
 62
    4
 10
1812.7073284999997
 20
1028.3056194999999
 11
1804.7201285000001
 21
1028.3056194999999
  0
LINE
  8
_0-0_LAYER001
  6
CONTINUOUS
 62
    4
 10
1812.7073284999997
 20
1039.2880195000002
 11
1812.7073284999997
 21
1028.3056194999999
  0
LINE
  8
_0-0_LAYER001
  6
CONTINUOUS
 62
    4
 10
1859.6321285000004
 20
1039.2880195000002
 11
1859.6321285000004
 21
1028.3056194999999
  0
LINE
  8
_0-0_LAYER001
  6
CONTINUOUS
 62
    4
 10
1867.6193284999999
 20
1028.3056194999999
 11
1859.6321285000004
 21
1028.3056194999999
  0
LINE
  8
_0-0_LAYER001
  6
CONTINUOUS
 62
    4
 10
1867.6193284999999
 20
1028.3056194999999
 11
1867.6193284999999
 21
1039.2880195000002
  0
LINE
  8
_0-0_LAYER001
  6
CONTINUOUS
 62
    4
 10
1625.0289055000003
 20
1061.2528195
 11
1625.0289055000003
 21
1041.2848195000001
  0
ARC
  8
_0-0_LAYER001
  6
CONTINUOUS
 62
    4
 10
1674.4231655000003
 20
1025.3104195000001
 40
5.9904000000000002
 50
199.47122100000004
 51
344.27761299999997
  0
LINE
  8
_0-0_LAYER001
  6
CONTINUOUS
 62
    4
 10
1931.0289055000003
 20
1061.2528195
 11
1890.6033054999998
 21
1061.2528195
  0
LINE
  8
_0-0_LAYER001
  6
CONTINUOUS
 62
    4
 10
1931.0289055000003
 20
1061.2528195
 11
1931.0289055000003
 21
1039.2880195000002
  0
LINE
  8
_0-0_LAYER001
  6
CONTINUOUS
 62
    4
 10
1931.0289055000003
 20
1061.2528195
 11
1931.0289055000003
 21
1041.2848195000001
  0
LINE
  8
_0-0_LAYER001
  6
CONTINUOUS
 62
    4
 10
1970.0289055000003
 20
1027.3072195
 11
1926.1709165000002
 21
1027.3072195
  0
LINE
  8
_0-0_LAYER001
  6
CONTINUOUS
 62
    4
 10
1970.0289055000003
 20
1027.3072195
 11
1970.0289055000003
 21
1039.2880195000002
  0
LINE
  8
_0-0_LAYER001
  6
CONTINUOUS
 62
    4
 10
1970.0289055000003
 20
1039.2880195000002
 11
1931.0289055000003
 21
1039.2880195000002
  0
ARC
  8
_0-0_LAYER001
  6
CONTINUOUS
 62
    4
 10
1611.0847114999997
 20
1025.3104195000001
 40
5.9904000000000002
 50
199.47122100000004
 51
344.27761299999997
  0
LINE
  8
_0-0_LAYER001
  6
CONTINUOUS
 62
    4
 10
1599.5553284999996
 20
1039.2880195000002
 11
1605.5457285000002
 21
1023.0290695000003
  0
LINE
  8
_0-0_LAYER001
  6
CONTINUOUS
 62
    4
 10
1377.9520825
 20
1039.2880195000002
 11
1372.2637635000001
 21
1023.6871615
  0
LINE
  8
_0-0_LAYER001
  6
CONTINUOUS
 62
    4
 10
1618.1709165000002
 20
1027.3072195
 11
1616.8509864999996
 21
1023.6871615
  0
LINE
  8
_0-0_LAYER001
  6
CONTINUOUS
 62
    4
 10
1354.2324104999998
 20
1041.2848195000001
 11
1317.0289054999998
 21
1041.2848195000001
  0
LINE
  8
_0-0_LAYER001
  6
CONTINUOUS
 62
    4
 10
1354.2324104999998
 20
1041.2848195000001
 11
1360.9585055000002
 21
1023.0290695000003
  0
LINE
  8
_0-0_LAYER001
  6
CONTINUOUS
 62
    4
 10
1599.5553284999996
 20
1039.2880195000002
 11
1559.6193284999999
 21
1039.2880195000002
  0
LINE
  8
_0-0_LAYER001
  6
CONTINUOUS
 62
    4
 10
1551.6321285000004
 20
1039.2880195000002
 11
1504.7073285000001
 21
1039.2880195000002
  0
LINE
  8
_0-0_LAYER001
  6
CONTINUOUS
 62
    4
 10
1496.7201285000001
 20
1039.2880195000002
 11
1443.8049285000002
 21
1039.2880195000002
  0
LINE
  8
_0-0_LAYER001
  6
CONTINUOUS
 62
    4
 10
1435.8177285000002
 20
1039.2880195000002
 11
1377.9520825
 21
1039.2880195000002
  0
LINE
  8
_0-0_LAYER001
  6
CONTINUOUS
 62
    4
 10
1582.6033054999998
 20
1061.2528195
 11
1582.6033054999998
 21
1058.2576195000001
  0
LINE
  8
_0-0_LAYER001
  6
CONTINUOUS
 62
    4
 10
1423.9377625000002
 20
1058.2576195000001
 11
1582.6033054999998
 21
1058.2576195000001
  0
LINE
  8
_0-0_LAYER001
  6
CONTINUOUS
 62
    4
 10
1356.9649055
 20
1058.2576195000001
 11
1427.8513054999999
 21
1058.2576195000001
  0
LINE
  8
_0-0_LAYER001
  6
CONTINUOUS
 62
    4
 10
1356.9649055
 20
1061.2528195
 11
1356.9649055
 21
1058.2576195000001
  0
LINE
  8
_0-0_LAYER001
  6
CONTINUOUS
 62
    4
 10
1356.9649055
 20
1061.2528195
 11
1317.0289054999998
 21
1061.2528195
  0
LINE
  8
_0-0_LAYER001
  6
CONTINUOUS
 62
    4
 10
1435.8177285000002
 20
1039.2880195000002
 11
1435.8177285000002
 21
1028.3056194999999
  0
LINE
  8
_0-0_LAYER001
  6
CONTINUOUS
 62
    4
 10
1443.8049285000002
 20
1028.3056194999999
 11
1435.8177285000002
 21
1028.3056194999999
  0
LINE
  8
_0-0_LAYER001
  6
CONTINUOUS
 62
    4
 10
1443.8049285000002
 20
1039.2880195000002
 11
1443.8049285000002
 21
1028.3056194999999
  0
LINE
  8
_0-0_LAYER001
  6
CONTINUOUS
 62
    4
 10
1496.7201285000001
 20
1039.2880195000002
 11
1496.7201285000001
 21
1028.3056194999999
  0
LINE
  8
_0-0_LAYER001
  6
CONTINUOUS
 62
    4
 10
1504.7073285000001
 20
1028.3056194999999
 11
1496.7201285000001
 21
1028.3056194999999
  0
LINE
  8
_0-0_LAYER001
  6
CONTINUOUS
 62
    4
 10
1504.7073285000001
 20
1039.2880195000002
 11
1504.7073285000001
 21
1028.3056194999999
  0
LINE
  8
_0-0_LAYER001
  6
CONTINUOUS
 62
    4
 10
1551.6321285000004
 20
1039.2880195000002
 11
1551.6321285000004
 21
1028.3056194999999
  0
LINE
  8
_0-0_LAYER001
  6
CONTINUOUS
 62
    4
 10
1559.6193284999999
 20
1028.3056194999999
 11
1551.6321285000004
 21
1028.3056194999999
  0
LINE
  8
_0-0_LAYER001
  6
CONTINUOUS
 62
    4
 10
1559.6193284999999
 20
1028.3056194999999
 11
1559.6193284999999
 21
1039.2880195000002
  0
LINE
  8
_0-0_LAYER001
  6
CONTINUOUS
 62
    4
 10
1317.0289054999998
 20
1061.2528195
 11
1317.0289054999998
 21
1041.2848195000001
  0
ARC
  8
_0-0_LAYER001
  6
CONTINUOUS
 62
    4
 10
1366.4231654999999
 20
1025.3104195000001
 40
5.9904000000000002
 50
199.47122100000004
 51
344.27761299999997
  0
LINE
  8
_0-0_LAYER001
  6
CONTINUOUS
 62
    4
 10
1623.0289055000003
 20
1061.2528195
 11
1582.6033054999998
 21
1061.2528195
  0
LINE
  8
_0-0_LAYER001
  6
CONTINUOUS
 62
    4
 10
1623.0289055000003
 20
1061.2528195
 11
1623.0289055000003
 21
1039.2880195000002
  0
LINE
  8
_0-0_LAYER001
  6
CONTINUOUS
 62
    4
 10
1623.0289055000003
 20
1061.2528195
 11
1623.0289055000003
 21
1041.2848195000001
  0
LINE
  8
_0-0_LAYER001
  6
CONTINUOUS
 62
    4
 10
1662.0289055000003
 20
1027.3072195
 11
1618.1709165000002
 21
1027.3072195
  0
LINE
  8
_0-0_LAYER001
  6
CONTINUOUS
 62
    4
 10
1662.0289055000003
 20
1027.3072195
 11
1662.0289055000003
 21
1039.2880195000002
  0
LINE
  8
_0-0_LAYER001
  6
CONTINUOUS
 62
    4
 10
1662.0289055000003
 20
1039.2880195000002
 11
1623.0289055000003
 21
1039.2880195000002
  0
ARC
  8
_0-0_LAYER001
  6
CONTINUOUS
 62
    4
 10
1303.0847115000001
 20
1025.3104195000001
 40
5.9904000000000002
 50
199.47122100000004
 51
344.27761299999997
  0
LINE
  8
_0-0_LAYER001
  6
CONTINUOUS
 62
    4
 10
1291.5553285000001
 20
1039.2880195000002
 11
1297.5457285000002
 21
1023.0290695000003
  0
LINE
  8
_0-0_LAYER001
  6
CONTINUOUS
 62
    4
 10
1069.9520825
 20
1039.2880195000002
 11
1064.2637635000001
 21
1023.6871615
  0
LINE
  8
_0-0_LAYER001
  6
CONTINUOUS
 62
    4
 10
1310.1709165000002
 20
1027.3072195
 11
1308.8509865000001
 21
1023.6871615
  0
LINE
  8
_0-0_LAYER001
  6
CONTINUOUS
 62
    4
 10
1046.2324104999998
 20
1041.2848195000001
 11
1009.0289054999998
 21
1041.2848195000001
  0
LINE
  8
_0-0_LAYER001
  6
CONTINUOUS
 62
    4
 10
1046.2324104999998
 20
1041.2848195000001
 11
1052.9585055000002
 21
1023.0290695000003
  0
LINE
  8
_0-0_LAYER001
  6
CONTINUOUS
 62
    4
 10
1291.5553285000001
 20
1039.2880195000002
 11
1251.6193284999999
 21
1039.2880195000002
  0
LINE
  8
_0-0_LAYER001
  6
CONTINUOUS
 62
    4
 10
1243.6321284999999
 20
1039.2880195000002
 11
1196.7073285000001
 21
1039.2880195000002
  0
LINE
  8
_0-0_LAYER001
  6
CONTINUOUS
 62
    4
 10
1188.7201285000001
 20
1039.2880195000002
 11
1135.8049285000002
 21
1039.2880195000002
  0
LINE
  8
_0-0_LAYER001
  6
CONTINUOUS
 62
    4
 10
1127.8177285000002
 20
1039.2880195000002
 11
1069.9520825
 21
1039.2880195000002
  0
LINE
  8
_0-0_LAYER001
  6
CONTINUOUS
 62
    4
 10
1274.6033054999998
 20
1061.2528195
 11
1274.6033054999998
 21
1058.2576195000001
  0
LINE
  8
_0-0_LAYER001
  6
CONTINUOUS
 62
    4
 10
1119.8513054999999
 20
1058.2576195000001
 11
1274.6033054999998
 21
1058.2576195000001
  0
LINE
  8
_0-0_LAYER001
  6
CONTINUOUS
 62
    4
 10
1048.9649055
 20
1058.2576195000001
 11
1119.8513054999999
 21
1058.2576195000001
  0
LINE
  8
_0-0_LAYER001
  6
CONTINUOUS
 62
    4
 10
1048.9649055
 20
1061.2528195
 11
1048.9649055
 21
1058.2576195000001
  0
LINE
  8
_0-0_LAYER001
  6
CONTINUOUS
 62
    4
 10
1048.9649055
 20
1061.2528195
 11
1009.0289054999998
 21
1061.2528195
  0
LINE
  8
_0-0_LAYER001
  6
CONTINUOUS
 62
    4
 10
1127.8177285000002
 20
1039.2880195000002
 11
1127.8177285000002
 21
1028.3056194999999
  0
LINE
  8
_0-0_LAYER001
  6
CONTINUOUS
 62
    4
 10
1135.8049285000002
 20
1028.3056194999999
 11
1127.8177285000002
 21
1028.3056194999999
  0
LINE
  8
_0-0_LAYER001
  6
CONTINUOUS
 62
    4
 10
1135.8049285000002
 20
1039.2880195000002
 11
1135.8049285000002
 21
1028.3056194999999
  0
LINE
  8
_0-0_LAYER001
  6
CONTINUOUS
 62
    4
 10
1188.7201285000001
 20
1039.2880195000002
 11
1188.7201285000001
 21
1028.3056194999999
  0
LINE
  8
_0-0_LAYER001
  6
CONTINUOUS
 62
    4
 10
1196.7073285000001
 20
1028.3056194999999
 11
1188.7201285000001
 21
1028.3056194999999
  0
LINE
  8
_0-0_LAYER001
  6
CONTINUOUS
 62
    4
 10
1196.7073285000001
 20
1039.2880195000002
 11
1196.7073285000001
 21
1028.3056194999999
  0
LINE
  8
_0-0_LAYER001
  6
CONTINUOUS
 62
    4
 10
1243.6321284999999
 20
1039.2880195000002
 11
1243.6321284999999
 21
1028.3056194999999
  0
LINE
  8
_0-0_LAYER001
  6
CONTINUOUS
 62
    4
 10
1251.6193284999999
 20
1028.3056194999999
 11
1243.6321284999999
 21
1028.3056194999999
  0
LINE
  8
_0-0_LAYER001
  6
CONTINUOUS
 62
    4
 10
1251.6193284999999
 20
1028.3056194999999
 11
1251.6193284999999
 21
1039.2880195000002
  0
LINE
  8
_0-0_LAYER001
  6
CONTINUOUS
 62
    4
 10
1009.0289054999998
 20
1061.2528195
 11
1009.0289054999998
 21
1041.2848195000001
  0
ARC
  8
_0-0_LAYER001
  6
CONTINUOUS
 62
    4
 10
1058.4231654999999
 20
1025.3104195000001
 40
5.9904000000000002
 50
199.47122100000004
 51
344.27761299999997
  0
LINE
  8
_0-0_LAYER001
  6
CONTINUOUS
 62
    4
 10
1315.0289054999998
 20
1061.2528195
 11
1274.6033054999998
 21
1061.2528195
  0
LINE
  8
_0-0_LAYER001
  6
CONTINUOUS
 62
    4
 10
1315.0289054999998
 20
1061.2528195
 11
1315.0289054999998
 21
1039.2880195000002
  0
LINE
  8
_0-0_LAYER001
  6
CONTINUOUS
 62
    4
 10
1315.0289054999998
 20
1061.2528195
 11
1315.0289054999998
 21
1041.2848195000001
  0
LINE
  8
_0-0_LAYER001
  6
CONTINUOUS
 62
    4
 10
1354.0289054999998
 20
1027.3072195
 11
1310.1709165000002
 21
1027.3072195
  0
LINE
  8
_0-0_LAYER001
  6
CONTINUOUS
 62
    4
 10
1354.0289054999998
 20
1027.3072195
 11
1354.0289054999998
 21
1039.2880195000002
  0
LINE
  8
_0-0_LAYER001
  6
CONTINUOUS
 62
    4
 10
1354.0289054999998
 20
1039.2880195000002
 11
1315.0289054999998
 21
1039.2880195000002
  0
ARC
  8
_0-0_LAYER001
  6
CONTINUOUS
 62
    4
 10
995.08471150000014
 20
1025.3104195000001
 40
5.9904000000000002
 50
199.47122100000004
 51
344.27761299999997
  0
LINE
  8
_0-0_LAYER001
  6
CONTINUOUS
 62
    4
 10
983.55532850000009
 20
1039.2880195000002
 11
989.54572850000022
 21
1023.0290695000003
  0
LINE
  8
_0-0_LAYER001
  6
CONTINUOUS
 62
    4
 10
1002.1709165000002
 20
1027.3072195
 11
1000.8509865000001
 21
1023.6871615
  0
LINE
  8
_0-0_LAYER001
  6
CONTINUOUS
 62
    4
 10
983.55532850000009
 20
1039.2880195000002
 11
943.61932849999994
 21
1039.2880195000002
  0
LINE
  8
_0-0_LAYER001
  6
CONTINUOUS
 62
    4
 10
935.63212849999991
 20
1039.2880195000002
 11
888.70732850000013
 21
1039.2880195000002
  0
LINE
  8
_0-0_LAYER001
  6
CONTINUOUS
 62
    4
 10
880.7201285000001
 20
1039.2880195000002
 11
827.80492850000019
 21
1039.2880195000002
  0
LINE
  8
_0-0_LAYER001
  6
CONTINUOUS
 62
    4
 10
819.81772850000016
 20
1039.2880195000002
 11
804.81046250000009
 21
1039.2880195000002
  0
LINE
  8
_0-0_LAYER001
  6
CONTINUOUS
 62
    4
 10
966.60330549999981
 20
1061.2528195
 11
966.60330549999981
 21
1058.2576195000001
  0
LINE
  8
_0-0_LAYER001
  6
CONTINUOUS
 62
    4
 10
804.81046250000009
 20
1058.2576195000001
 11
966.60330549999981
 21
1058.2576195000001
  0
LINE
  8
_0-0_LAYER001
  6
CONTINUOUS
 62
    4
 10
819.81772850000016
 20
1039.2880195000002
 11
819.81772850000016
 21
1028.3056194999999
  0
LINE
  8
_0-0_LAYER001
  6
CONTINUOUS
 62
    4
 10
827.80492850000019
 20
1028.3056194999999
 11
819.81772850000016
 21
1028.3056194999999
  0
LINE
  8
_0-0_LAYER001
  6
CONTINUOUS
 62
    4
 10
827.80492850000019
 20
1039.2880195000002
 11
827.80492850000019
 21
1028.3056194999999
  0
LINE
  8
_0-0_LAYER001
  6
CONTINUOUS
 62
    4
 10
880.7201285000001
 20
1039.2880195000002
 11
880.7201285000001
 21
1028.3056194999999
  0
LINE
  8
_0-0_LAYER001
  6
CONTINUOUS
 62
    4
 10
888.70732850000013
 20
1028.3056194999999
 11
880.7201285000001
 21
1028.3056194999999
  0
LINE
  8
_0-0_LAYER001
  6
CONTINUOUS
 62
    4
 10
888.70732850000013
 20
1039.2880195000002
 11
888.70732850000013
 21
1028.3056194999999
  0
LINE
  8
_0-0_LAYER001
  6
CONTINUOUS
 62
    4
 10
935.63212849999991
 20
1039.2880195000002
 11
935.63212849999991
 21
1028.3056194999999
  0
LINE
  8
_0-0_LAYER001
  6
CONTINUOUS
 62
    4
 10
943.61932849999994
 20
1028.3056194999999
 11
935.63212849999991
 21
1028.3056194999999
  0
LINE
  8
_0-0_LAYER001
  6
CONTINUOUS
 62
    4
 10
943.61932849999994
 20
1028.3056194999999
 11
943.61932849999994
 21
1039.2880195000002
  0
LINE
  8
_0-0_LAYER001
  6
CONTINUOUS
 62
    4
 10
1007.0289054999998
 20
1061.2528195
 11
966.60330549999981
 21
1061.2528195
  0
LINE
  8
_0-0_LAYER001
  6
CONTINUOUS
 62
    4
 10
1007.0289054999998
 20
1061.2528195
 11
1007.0289054999998
 21
1039.2880195000002
  0
LINE
  8
_0-0_LAYER001
  6
CONTINUOUS
 62
    4
 10
1007.0289054999998
 20
1061.2528195
 11
1007.0289054999998
 21
1041.2848195000001
  0
LINE
  8
_0-0_LAYER001
  6
CONTINUOUS
 62
    4
 10
1046.0289054999998
 20
1027.3072195
 11
1002.1709165000002
 21
1027.3072195
  0
LINE
  8
_0-0_LAYER001
  6
CONTINUOUS
 62
    4
 10
1046.0289054999998
 20
1027.3072195
 11
1046.0289054999998
 21
1039.2880195000002
  0
LINE
  8
_0-0_LAYER001
  6
CONTINUOUS
 62
    4
 10
1046.0289054999998
 20
1039.2880195000002
 11
1007.0289054999998
 21
1039.2880195000002
  0
LINE
  8
_0-0_LAYER001
  6
CONTINUOUS
 62
    1
 10
1891.3985005000004
 20
1094.2000195000001
 11
1890.2893734999998
 21
1095.3091465000002
  0
LINE
  8
_0-0_LAYER001
  6
CONTINUOUS
 62
    1
 10
1894.9340345000001
 20
1094.2000195000001
 11
1890.2893734999998
 21
1098.8446805000003
  0
LINE
  8
_0-0_LAYER001
  6
CONTINUOUS
 62
    1
 10
1898.4695675000003
 20
1094.2000195000001
 11
1890.2893734999998
 21
1102.3802145
  0
LINE
  8
_0-0_LAYER001
  6
CONTINUOUS
 62
    1
 10
1902.0051014999999
 20
1094.2000195000001
 11
1890.2893734999998
 21
1105.9157475000002
  0
LINE
  8
_0-0_LAYER001
  6
CONTINUOUS
 62
    1
 10
1905.5406354999996
 20
1094.2000195000001
 11
1890.2893734999998
 21
1109.4512815000003
  0
LINE
  8
_0-0_LAYER001
  6
CONTINUOUS
 62
    1
 10
1909.0761695000001
 20
1094.2000195000001
 11
1890.2893734999998
 21
1112.9868154999999
  0
LINE
  8
_0-0_LAYER001
  6
CONTINUOUS
 62
    1
 10
1910.2893734999998
 20
1096.5223495
 11
1892.6117034999997
 21
1114.2000195000001
  0
LINE
  8
_0-0_LAYER001
  6
CONTINUOUS
 62
    1
 10
1910.2893734999998
 20
1100.0578835000001
 11
1896.1472375000003
 21
1114.2000195000001
  0
LINE
  8
_0-0_LAYER001
  6
CONTINUOUS
 62
    1
 10
1910.2893734999998
 20
1103.5934175000002
 11
1899.6827714999999
 21
1114.2000195000001
  0
LINE
  8
_0-0_LAYER001
  6
CONTINUOUS
 62
    1
 10
1910.2893734999998
 20
1107.1289515000003
 11
1903.2183054999996
 21
1114.2000195000001
  0
LINE
  8
_0-0_LAYER001
  6
CONTINUOUS
 62
    1
 10
1910.2893734999998
 20
1110.6644855
 11
1906.7538395000001
 21
1114.2000195000001
  0
LINE
  8
_0-0_LAYER001
  6
CONTINUOUS
 62
    1
 10
1910.2893734999998
 20
1096.5223495
 11
1907.9670425000004
 21
1094.2000195000001
  0
LINE
  8
_0-0_LAYER001
  6
CONTINUOUS
 62
    1
 10
1910.2893734999998
 20
1100.0578835000001
 11
1904.4315084999998
 21
1094.2000195000001
  0
LINE
  8
_0-0_LAYER001
  6
CONTINUOUS
 62
    1
 10
1910.2893734999998
 20
1103.5934175000002
 11
1900.8959745000002
 21
1094.2000195000001
  0
LINE
  8
_0-0_LAYER001
  6
CONTINUOUS
 62
    1
 10
1910.2893734999998
 20
1107.1289515000003
 11
1897.3604404999996
 21
1094.2000195000001
  0
LINE
  8
_0-0_LAYER001
  6
CONTINUOUS
 62
    1
 10
1910.2893734999998
 20
1110.6644855
 11
1893.8249075000003
 21
1094.2000195000001
  0
LINE
  8
_0-0_LAYER001
  6
CONTINUOUS
 62
    1
 10
1910.2893734999998
 20
1114.2000195000001
 11
1890.2893734999998
 21
1094.2000195000001
  0
LINE
  8
_0-0_LAYER001
  6
CONTINUOUS
 62
    1
 10
1906.7538395000001
 20
1114.2000195000001
 11
1890.2893734999998
 21
1097.7355535000002
  0
LINE
  8
_0-0_LAYER001
  6
CONTINUOUS
 62
    1
 10
1903.2183054999996
 20
1114.2000195000001
 11
1890.2893734999998
 21
1101.2710875000002
  0
LINE
  8
_0-0_LAYER001
  6
CONTINUOUS
 62
    1
 10
1899.6827714999999
 20
1114.2000195000001
 11
1890.2893734999998
 21
1104.8066205
  0
LINE
  8
_0-0_LAYER001
  6
CONTINUOUS
 62
    1
 10
1896.1472375000003
 20
1114.2000195000001
 11
1890.2893734999998
 21
1108.3421545000001
  0
LINE
  8
_0-0_LAYER001
  6
CONTINUOUS
 62
    1
 10
1892.6117034999997
 20
1114.2000195000001
 11
1890.2893734999998
 21
1111.8776885000002
  0
LINE
  8
_0-2_LAYER007
  6
CONTINUOUS
 62
    2
 10
1857.0558254999996
 20
1012.7458955000002
 11
1973.0558455
 21
1012.7458955000002
  0
LINE
  8
_0-3_LAYER009
  6
CONTINUOUS
 62
    2
 10
1977.0558355000003
 20
1034.3072295000002
 11
1977.0558355000003
 21
984.30721949999997
  0
LINE
  8
_0-3_LAYER009
  6
CONTINUOUS
 62
    2
 10
1977.0558355000003
 20
984.30721949999997
 11
804.81046250000009
 21
984.30721949999997
  0
LINE
  8
_0-2_LAYER007
  6
CONTINUOUS
 62
    2
 10
1973.0558455
 20
1108.3815924999999
 11
1973.0558455
 21
1012.7458955000002
  0
LINE
  8
_0-2_LAYER007
  6
CONTINUOUS
 62
    2
 10
1973.0558455
 20
1108.3815924999999
 11
1970.9427255000001
 21
1102.7660125000002
  0
LINE
  8
_0-2_LAYER007
  6
CONTINUOUS
 62
    2
 10
1973.0558455
 20
1114.2000195000001
 11
1973.0558455
 21
1264.2000195000001
  0
LINE
  8
_0-3_LAYER009
  6
CONTINUOUS
 62
    2
 10
1977.0558355000003
 20
1378.1793575000002
 11
1977.0558355000003
 21
1034.3072295000002
  0
LINE
  8
_0-2_LAYER007
  6
CONTINUOUS
 62
    2
 10
1857.0558254999996
 20
1025.7460854999999
 11
1857.0558254999996
 21
1012.7458955000002
  0
LINE
  8
_0-0_LAYER001
  6
CONTINUOUS
 62
   18
 10
1977.0558355000003
 20
919.92246350000005
 11
1977.0558355000003
 21
947.42246350000005
  0
CIRCLE
  8
_0-0_LAYER001
  6
CONTINUOUS
 62
   18
 10
1977.0558355000003
 20
922.42246350000005
 40
1.6999999999999997
  0
LINE
  8
_0-0_LAYER001
  6
CONTINUOUS
 62
   18
 10
1977.0558355000003
 20
922.42246350000005
 11
1857.0558254999996
 21
922.42246350000005
  0
CIRCLE
  8
_0-0_LAYER001
  6
CONTINUOUS
 62
   18
 10
1857.0558254999996
 20
922.42246350000005
 40
1.6999999999999997
  0
LINE
  8
_0-0_LAYER001
  6
CONTINUOUS
 62
   18
 10
1857.0558254999996
 20
919.92246350000005
 11
1857.0558254999996
 21
947.42246350000005
  0
LINE
  8
_0-0_LAYER001
  6
CONTINUOUS
 62
   18
 10
1977.0558355000003
 20
1009.3072195
 11
804.81046250000009
 21
1009.3072195
  0
LINE
  8
_0-0_LAYER001
  6
CONTINUOUS
 62
   18
 10
1852.0558254999996
 20
1027.3072195
 11
804.81046250000009
 21
1027.3072195
  0
LINE
  8
_0-0_LAYER001
  6
CONTINUOUS
 62
   18
 10
1852.0558254999996
 20
1012.3072195
 11
804.81046250000009
 21
1012.3072195
  0
LINE
  8
_0-0_LAYER001
  6
CONTINUOUS
 62
   18
 10
1852.0558254999996
 20
1027.3072195
 11
1852.0558254999996
 21
1012.3072195
  0
LINE
  8
_0-0_LAYER001
  6
DASHED
 62
   18
 10
1975.0558355000003
 20
1010.8072195
 11
804.81046250000009
 21
1010.8072195
  0
LINE
  8
_0-0_LAYER001
  6
CONTINUOUS
 62
   18
 10
2144.0715314999998
 20
1259.3072195
 11
2091.5715314999998
 21
1259.3072195
  0
CIRCLE
  8
_0-0_LAYER001
  6
CONTINUOUS
 62
   18
 10
2141.5715314999998
 20
1259.3072195
 40
1.6999999999999997
  0
LINE
  8
_0-0_LAYER001
  6
CONTINUOUS
 62
   18
 10
2141.5715314999998
 20
1259.3072195
 11
2141.5715314999998
 21
1009.3072195
  0
CIRCLE
  8
_0-0_LAYER001
  6
CONTINUOUS
 62
   18
 10
2141.5715314999998
 20
1009.3072195
 40
1.6999999999999997
  0
LINE
  8
_0-0_LAYER001
  6
CONTINUOUS
 62
   18
 10
2144.0715314999998
 20
1009.3072195
 11
2091.5715314999998
 21
1009.3072195
  0
LINE
  8
_0-0_LAYER001
  6
CONTINUOUS
 62
   18
 10
1378.4118825
 20
1060.1861235000001
 11
1380.3530245000002
 21
1052.9416805000001
  0
LINE
  8
_0-0_LAYER001
  6
CONTINUOUS
 62
   18
 10
1380.3530245000002
 20
1052.9416805000001
 11
1375.0497245000001
 21
1058.2449815
  0
LINE
  8
_0-0_LAYER001
  6
CONTINUOUS
 62
   18
 10
1380.3530245000002
 20
1052.9416805000001
 11
1321.9046874999999
 21
1154.1771695000002
  0
LINE
  8
_0-0_LAYER001
  6
CONTINUOUS
 62
   18
 10
1321.9046874999999
 20
1154.1771695000002
 11
1281.4046874999999
 21
1154.1771695000002
  0
LINE
  8
_0-0_LAYER001
  6
CONTINUOUS
 62
   18
 10
1924.1192115000003
 20
1008.3452525000002
 11
1929.4225125000003
 21
1013.6485535000002
  0
LINE
  8
_0-0_LAYER001
  6
CONTINUOUS
 62
   18
 10
1929.4225125000003
 20
1013.6485535000002
 11
1927.4813695000003
 21
1006.4041095000002
  0
LINE
  8
_0-0_LAYER001
  6
CONTINUOUS
 62
   18
 10
1929.4225125000003
 20
1013.6485535000002
 11
1787.7332564999997
 21
768.23556250000001
  0
LINE
  8
_0-0_LAYER001
  6
CONTINUOUS
 62
   18
 10
1787.7332564999997
 20
768.23556250000001
 11
1586.7332564999997
 21
768.23556250000001
  0
LINE
  8
_0-0_LAYER001
  6
CONTINUOUS
 62
   18
 10
1369.2281545000001
 20
725.31971550000026
 11
1036.2538205000001
 21
725.31971550000026
  0
LINE
  8
_0-0_LAYER001
  6
CONTINUOUS
 62
   18
 10
1532.0814954999996
 20
1011.2722604999999
 11
1537.3847965000004
 21
1016.5755615000003
  0
LINE
  8
_0-0_LAYER001
  6
CONTINUOUS
 62
   18
 10
1537.3847965000004
 20
1016.5755615000003
 11
1535.4436535000004
 21
1009.3311185000002
  0
LINE
  8
_0-0_LAYER001
  6
CONTINUOUS
 62
   18
 10
1537.3847965000004
 20
1016.5755615000003
 11
1352.4468084999999
 21
696.25357050000002
  0
LINE
  8
_0-0_LAYER001
  6
CONTINUOUS
 62
   18
 10
1352.4468084999999
 20
696.25357050000002
 11
968.00452249999989
 21
696.25357050000002
  0
LINE
  8
_0-0_LAYER001
  6
CONTINUOUS
 62
   18
 10
1386.8798445000002
 20
756.21546650000028
 11
1150.7547075000002
 21
756.21546650000028
  0
LINE
  8
_0-0_LAYER001
  6
CONTINUOUS
 62
   18
 10
1404.5564844999999
 20
786.19641450000017
 11
1212.1637965
 21
786.19641450000017
  0
LINE
  8
_0-0_LAYER001
  6
CONTINUOUS
 62
   18
 10
1952.0558355000003
 20
1155.2400355
 11
1970.0558355000003
 21
1155.2400355
  0
LINE
  8
_0-0_LAYER001
  6
CONTINUOUS
 62
   18
 10
1970.0558355000003
 20
1155.2400355
 11
1970.0558355000003
 21
1191.2400355
  0
LINE
  8
_0-0_LAYER001
  6
CONTINUOUS
 62
   18
 10
1970.0558355000003
 20
1191.2400355
 11
1952.0558355000003
 21
1191.2400355
  0
LINE
  8
_0-0_LAYER001
  6
CONTINUOUS
 62
   18
 10
1952.0558355000003
 20
1191.2400355
 11
1952.0558355000003
 21
1155.2400355
  0
LINE
  8
_0-0_LAYER001
  6
CONTINUOUS
 62
   18
 10
1970.0558355000003
 20
1191.2400355
 11
1952.0558355000003
 21
1155.2400355
  0
LINE
  8
_0-0_LAYER001
  6
CONTINUOUS
 62
   18
 10
1873.0558455
 20
1114.2000195000001
 11
1973.0558455
 21
1114.2000195000001
  0
LINE
  8
_0-0_LAYER001
  6
CONTINUOUS
 62
   18
 10
1873.0558455
 20
1114.2000195000001
 11
1873.0558455
 21
1102.3363395000001
  0
LINE
  8
_0-0_LAYER001
  6
CONTINUOUS
 62
   18
 10
1873.0558455
 20
1102.3363395000001
 11
1877.1365914999997
 21
1108.7584985000003
  0
LINE
  8
_0-0_LAYER001
  6
CONTINUOUS
 62
   18
 10
1940.0558355000003
 20
1122.0126125000002
 11
1952.0558355000003
 21
1122.0126125000002
  0
LINE
  8
_0-0_LAYER001
  6
CONTINUOUS
 62
   18
 10
1873.0558455
 20
1186.3897885000001
 11
1873.0558455
 21
1158.8897885000001
  0
CIRCLE
  8
_0-0_LAYER001
  6
CONTINUOUS
 62
   18
 10
1873.0558455
 20
1183.8897885000001
 40
1.6999999999999997
  0
LINE
  8
_0-0_LAYER001
  6
CONTINUOUS
 62
   18
 10
1873.0558455
 20
1183.8897885000001
 11
1940.0558355000003
 21
1183.8897885000001
  0
CIRCLE
  8
_0-0_LAYER001
  6
CONTINUOUS
 62
   18
 10
1940.0558355000003
 20
1183.8897885000001
 40
1.6999999999999997
  0
LINE
  8
_0-0_LAYER001
  6
CONTINUOUS
 62
   18
 10
1940.0558355000003
 20
1186.3897885000001
 11
1940.0558355000003
 21
1158.8897885000001
  0
LINE
  8
_0-0_LAYER001
  6
CONTINUOUS
 62
   18
 10
1890.2893734999998
 20
1094.2000195000001
 11
1910.2893734999998
 21
1094.2000195000001
  0
LINE
  8
_0-0_LAYER001
  6
CONTINUOUS
 62
   18
 10
1910.2893734999998
 20
1094.2000195000001
 11
1910.2893734999998
 21
1114.2000195000001
  0
LINE
  8
_0-0_LAYER001
  6
CONTINUOUS
 62
   18
 10
1910.2893734999998
 20
1114.2000195000001
 11
1890.2893734999998
 21
1114.2000195000001
  0
LINE
  8
_0-0_LAYER001
  6
CONTINUOUS
 62
   18
 10
1890.2893734999998
 20
1114.2000195000001
 11
1890.2893734999998
 21
1094.2000195000001
  0
LINE
  8
_0-0_LAYER001
  6
CONTINUOUS
 62
   18
 10
1940.0558355000003
 20
1377.7201775000003
 11
1940.0558355000003
 21
1122.0126125000002
  0
LINE
  8
_0-0_LAYER001
  6
CONTINUOUS
 62
   18
 10
1952.0558355000003
 20
1377.7201775000003
 11
1952.0558355000003
 21
1122.0126125000002
  0
LINE
  8
_0-0_LAYER001
  6
CONTINUOUS
 62
   18
 10
2054.6088584999998
 20
1114.2000195000001
 11
2027.1088584999998
 21
1114.2000195000001
  0
CIRCLE
  8
_0-0_LAYER001
  6
CONTINUOUS
 62
   18
 10
2052.1088584999998
 20
1114.2000195000001
 40
1.6999999999999997
  0
LINE
  8
_0-0_LAYER001
  6
CONTINUOUS
 62
   18
 10
2052.1088584999998
 20
1114.2000195000001
 11
2052.1088584999998
 21
1264.2000195000001
  0
CIRCLE
  8
_0-0_LAYER001
  6
CONTINUOUS
 62
   18
 10
2052.1088584999998
 20
1264.2000195000001
 40
1.6999999999999997
  0
LINE
  8
_0-0_LAYER001
  6
CONTINUOUS
 62
   18
 10
2054.6088584999998
 20
1264.2000195000001
 11
2027.1088584999998
 21
1264.2000195000001
  0
LINE
  8
_0-0_LAYER001
  6
CONTINUOUS
 62
   18
 10
1967.0558355000003
 20
984.30721949999997
 11
1967.0558355000003
 21
884.30720950000023
  0
LINE
  8
_0-1_LAYER003
  6
CONTINUOUS
 62
   18
 10
2087.0558154999999
 20
874.30721949999997
 11
804.81046250000009
 21
874.30721949999997
  0
LINE
  8
_0-0_LAYER001
  6
CONTINUOUS
 62
   18
 10
1967.0558355000003
 20
884.30720950000023
 11
804.81046250000009
 21
884.30720950000023
  0
LINE
  8
_0-0_LAYER001
  6
CONTINUOUS
 62
   18
 10
1967.0558355000003
 20
887.50722949999999
 11
804.81046250000009
 21
887.50722949999999
  0
LINE
  8
_0-0_LAYER001
  6
HIDDEN
 62
   18
 10
1967.0558355000003
 20
904.30722950000018
 11
804.81046250000009
 21
904.30722950000018
  0
LINE
  8
_0-0_LAYER001
  6
HIDDEN
 62
   18
 10
1967.0558355000003
 20
964.30722950000018
 11
804.81046250000009
 21
964.30722950000018
  0
LINE
  8
_0-0_LAYER001
  6
CONTINUOUS
 62
   18
 10
1967.0558355000003
 20
981.10721950000016
 11
804.81046250000009
 21
981.10721950000016
  0
LINE
  8
_0-1_LAYER003
  6
DASHED
 62
   18
 10
1975.0558355000003
 20
1259.3072195
 11
1975.0558355000003
 21
1010.8072195
  0
LINE
  8
_0-0_LAYER001
  6
CONTINUOUS
 62
   18
 10
2055.1236344999998
 20
1010.8072195
 11
2027.1088584999998
 21
1010.8072195
  0
CIRCLE
  8
_0-0_LAYER001
  6
CONTINUOUS
 62
   18
 10
2052.6236344999998
 20
1010.8072195
 40
1.6999999999999997
  0
LINE
  8
_0-0_LAYER001
  6
CONTINUOUS
 62
   18
 10
2052.6236344999998
 20
1010.8072195
 11
2052.6236344999998
 21
1108.3815924999999
  0
CIRCLE
  8
_0-0_LAYER001
  6
CONTINUOUS
 62
   18
 10
2052.6236344999998
 20
1108.3815924999999
 40
1.6999999999999997
  0
LINE
  8
_0-0_LAYER001
  6
CONTINUOUS
 62
   18
 10
2055.1236344999998
 20
1108.3815924999999
 11
2027.1088584999998
 21
1108.3815924999999
  0
LINE
  8
_0-0_LAYER001
  6
CONTINUOUS
 62
   18
 10
1918.9360214999997
 20
1119.7056465000001
 11
1920.8771644999997
 21
1112.4612035
  0
LINE
  8
_0-0_LAYER001
  6
CONTINUOUS
 62
   18
 10
1920.8771644999997
 20
1112.4612035
 11
1915.5738634999998
 21
1117.7645044999999
  0
LINE
  8
_0-0_LAYER001
  6
CONTINUOUS
 62
   18
 10
1920.8771644999997
 20
1112.4612035
 11
1837.6211105000002
 21
1256.6649185000001
  0
LINE
  8
_0-0_LAYER001
  6
CONTINUOUS
 62
   18
 10
1837.6211105000002
 20
1256.6649185000001
 11
1620.1211105000002
 21
1256.6649185000001
  0
LINE
  8
_0-0_LAYER001
  6
CONTINUOUS
 62
   18
 10
1897.6578385000003
 20
1107.4602715000001
 11
1899.5989815000003
 21
1100.2158285
  0
LINE
  8
_0-0_LAYER001
  6
CONTINUOUS
 62
   18
 10
1899.5989815000003
 20
1100.2158285
 11
1894.2956805000003
 21
1105.5191295
  0
LINE
  8
_0-0_LAYER001
  6
CONTINUOUS
 62
   18
 10
1899.5989815000003
 20
1100.2158285
 11
1847.9411904999997
 21
1189.6897465000002
  0
LINE
  8
_0-0_LAYER001
  6
CONTINUOUS
 62
   18
 10
1847.9411904999997
 20
1189.6897465000002
 11
1750.4411904999997
 21
1189.6897465000002
  0
LINE
  8
_0-0_LAYER001
  6
CONTINUOUS
 62
   18
 10
1931.0289055000003
 20
1342.3764965
 11
1931.0289055000003
 21
1289.8764965
  0
CIRCLE
  8
_0-0_LAYER001
  6
CONTINUOUS
 62
   18
 10
1931.0289055000003
 20
1339.8764965
 40
1.6999999999999997
  0
LINE
  8
_0-0_LAYER001
  6
CONTINUOUS
 62
   18
 10
1931.0289055000003
 20
1339.8764965
 11
1623.0289055000003
 21
1339.8764965
  0
CIRCLE
  8
_0-0_LAYER001
  6
CONTINUOUS
 62
   18
 10
1623.0289055000003
 20
1339.8764965
 40
1.6999999999999997
  0
LINE
  8
_0-0_LAYER001
  6
CONTINUOUS
 62
   18
 10
1623.0289055000003
 20
1342.3764965
 11
1623.0289055000003
 21
1289.8764965
  0
CIRCLE
  8
_0-0_LAYER001
  6
CONTINUOUS
 62
   18
 10
1623.0289055000003
 20
1339.8764965
 40
1.6999999999999997
  0
LINE
  8
_0-0_LAYER001
  6
CONTINUOUS
 62
   18
 10
1623.0289055000003
 20
1339.8764965
 11
1315.0289054999998
 21
1339.8764965
  0
CIRCLE
  8
_0-0_LAYER001
  6
CONTINUOUS
 62
   18
 10
1315.0289054999998
 20
1339.8764965
 40
1.6999999999999997
  0
LINE
  8
_0-0_LAYER001
  6
CONTINUOUS
 62
   18
 10
1315.0289054999998
 20
1342.3764965
 11
1315.0289054999998
 21
1289.8764965
  0
CIRCLE
  8
_0-0_LAYER001
  6
CONTINUOUS
 62
   18
 10
1315.0289054999998
 20
1339.8764965
 40
1.6999999999999997
  0
LINE
  8
_0-0_LAYER001
  6
CONTINUOUS
 62
   18
 10
1315.0289054999998
 20
1339.8764965
 11
1007.0289054999998
 21
1339.8764965
  0
CIRCLE
  8
_0-0_LAYER001
  6
CONTINUOUS
 62
   18
 10
1007.0289054999998
 20
1339.8764965
 40
1.6999999999999997
  0
LINE
  8
_0-0_LAYER001
  6
CONTINUOUS
 62
   18
 10
1007.0289054999998
 20
1342.3764965
 11
1007.0289054999998
 21
1289.8764965
  0
LINE
  8
_0-0_LAYER001
  6
CONTINUOUS
 62
   18
 10
1945.0793354999996
 20
1281.5741395
 11
1947.0204784999996
 21
1274.3296965
  0
LINE
  8
_0-0_LAYER001
  6
CONTINUOUS
 62
   18
 10
1947.0204784999996
 20
1274.3296965
 11
1941.7171774999997
 21
1279.6329975000003
  0
LINE
  8
_0-0_LAYER001
  6
CONTINUOUS
 62
   18
 10
1947.0204784999996
 20
1274.3296965
 11
1881.8279725000002
 21
1387.2464295
  0
LINE
  8
_0-0_LAYER001
  6
CONTINUOUS
 62
   18
 10
1881.8279725000002
 20
1387.2464295
 11
1755.8279725000002
 21
1387.2464295
  0
LINE
  8
_0-0_LAYER001
  6
CONTINUOUS
 62
   18
 10
1857.0558254999996
 20
1025.7460854999999
 11
1871.7671215
 21
1025.7460854999999
  0
LINE
  8
_0-0_LAYER001
  6
CONTINUOUS
 62
   18
 10
1048.3468134999998
 20
1074.2320195000002
 11
1048.3468134999998
 21
1064.0134895000001
  0
LINE
  8
_0-0_LAYER001
  6
CONTINUOUS
 62
   18
 10
1048.3468134999998
 20
1074.2320195000002
 11
1009.0289054999998
 21
1074.2320195000002
  0
LINE
  8
_0-0_LAYER001
  6
CONTINUOUS
 62
   18
 10
1046.0289054999998
 20
1064.0134895000001
 11
1046.0289054999998
 21
1072.2352195000003
  0
LINE
  8
_0-0_LAYER001
  6
CONTINUOUS
 62
   18
 10
1046.0289054999998
 20
1072.2352195000003
 11
1007.0289054999998
 21
1072.2352195000003
  0
LINE
  8
_0-0_LAYER001
  6
CONTINUOUS
 62
   18
 10
1356.3468134999998
 20
1074.2320195000002
 11
1356.3468134999998
 21
1064.0134895000001
  0
LINE
  8
_0-0_LAYER001
  6
CONTINUOUS
 62
   18
 10
1356.3468134999998
 20
1074.2320195000002
 11
1317.0289054999998
 21
1074.2320195000002
  0
LINE
  8
_0-0_LAYER001
  6
CONTINUOUS
 62
   18
 10
1354.0289054999998
 20
1064.0134895000001
 11
1354.0289054999998
 21
1072.2352195000003
  0
LINE
  8
_0-0_LAYER001
  6
CONTINUOUS
 62
   18
 10
1354.0289054999998
 20
1072.2352195000003
 11
1315.0289054999998
 21
1072.2352195000003
  0
LINE
  8
_0-0_LAYER001
  6
CONTINUOUS
 62
   18
 10
1664.3468135000003
 20
1074.2320195000002
 11
1625.0289055000003
 21
1074.2320195000002
  0
LINE
  8
_0-0_LAYER001
  6
CONTINUOUS
 62
   18
 10
1664.3468135000003
 20
1074.2320195000002
 11
1664.3468135000003
 21
1064.0134895000001
  0
LINE
  8
_0-0_LAYER001
  6
CONTINUOUS
 62
   18
 10
1662.0289055000003
 20
1064.0134895000001
 11
1662.0289055000003
 21
1072.2352195000003
  0
LINE
  8
_0-0_LAYER001
  6
CONTINUOUS
 62
   18
 10
1662.0289055000003
 20
1072.2352195000003
 11
1623.0289055000003
 21
1072.2352195000003
  0
LINE
  8
_0-0_LAYER001
  6
CONTINUOUS
 62
   18
 10
1931.0289055000003
 20
1076.9746255
 11
1970.0289055000003
 21
1076.9746255
  0
LINE
  8
_0-0_LAYER001
  6
CONTINUOUS
 62
   18
 10
1317.0289054999998
 20
1094.2000195000001
 11
1317.0289054999998
 21
1074.2320195000002
  0
LINE
  8
_0-0_LAYER001
  6
CONTINUOUS
 62
   18
 10
1623.0289055000003
 20
1094.2000195000001
 11
1623.0289055000003
 21
1072.2352195000003
  0
LINE
  8
_0-0_LAYER001
  6
CONTINUOUS
 62
   18
 10
1007.0289054999998
 20
1094.2000195000001
 11
1007.0289054999998
 21
1072.2352195000003
  0
LINE
  8
_0-0_LAYER001
  6
CONTINUOUS
 62
   18
 10
1009.0289054999998
 20
1094.2000195000001
 11
1009.0289054999998
 21
1074.2320195000002
  0
LINE
  8
_0-0_LAYER001
  6
CONTINUOUS
 62
   18
 10
1315.0289054999998
 20
1094.2000195000001
 11
1315.0289054999998
 21
1072.2352195000003
  0
LINE
  8
_0-0_LAYER001
  6
CONTINUOUS
 62
   18
 10
1315.0289054999998
 20
1094.2000195000001
 11
1315.0289054999998
 21
1074.2320195000002
  0
LINE
  8
_0-0_LAYER001
  6
CONTINUOUS
 62
   18
 10
1970.0289055000003
 20
1064.0134895000001
 11
1664.3468135000003
 21
1064.0134895000001
  0
LINE
  8
_0-0_LAYER001
  6
CONTINUOUS
 62
   18
 10
1662.0289055000003
 20
1064.0134895000001
 11
1356.3468134999998
 21
1064.0134895000001
  0
LINE
  8
_0-0_LAYER001
  6
CONTINUOUS
 62
   18
 10
1354.0289054999998
 20
1064.0134895000001
 11
1048.3468134999998
 21
1064.0134895000001
  0
LINE
  8
_0-0_LAYER001
  6
CONTINUOUS
 62
   18
 10
1046.0289054999998
 20
1064.0134895000001
 11
804.81046250000009
 21
1064.0134895000001
  0
LINE
  8
_0-0_LAYER001
  6
CONTINUOUS
 62
   18
 10
1625.0289055000003
 20
1094.2000195000001
 11
1625.0289055000003
 21
1074.2320195000002
  0
LINE
  8
_0-0_LAYER001
  6
CONTINUOUS
 62
   18
 10
1931.0289055000003
 20
1094.2000195000001
 11
1625.0289055000003
 21
1094.2000195000001
  0
LINE
  8
_0-0_LAYER001
  6
CONTINUOUS
 62
   18
 10
1623.0289055000003
 20
1094.2000195000001
 11
1317.0289054999998
 21
1094.2000195000001
  0
LINE
  8
_0-0_LAYER001
  6
CONTINUOUS
 62
   18
 10
1315.0289054999998
 20
1094.2000195000001
 11
1009.0289054999998
 21
1094.2000195000001
  0
LINE
  8
_0-0_LAYER001
  6
CONTINUOUS
 62
   18
 10
1007.0289054999998
 20
1094.2000195000001
 11
804.81046250000009
 21
1094.2000195000001
  0
LINE
  8
_0-0_LAYER001
  6
CONTINUOUS
 62
   18
 10
1931.0289055000003
 20
1094.2000195000001
 11
1931.0289055000003
 21
1076.9746255
  0
LINE
  8
_0-0_LAYER001
  6
CONTINUOUS
 62
   18
 10
1970.0289055000003
 20
1064.0134895000001
 11
1970.0289055000003
 21
1076.9746255
  0
LINE
  8
_0-0_LAYER001
  6
CONTINUOUS
 62
    7
 10
1755.8279725000002
 20
1387.2464295
 11
1711.4792184354365
 21
1387.2464295
  0
TEXT
  8
_0-2_LAYER007
 62
    7
 10
1637.7545138177793
 20
1393.5713963575981
 40
20
 41
1
 50
0
  1
外壁　防火サイディング
  0
TEXT
  8
_0-2_LAYER007
 62
    7
 10
1714.6849949445668
 20
1193.3685393488759
 40
20
 41
1
 50
0
  1
弾性シール材
  0
TEXT
  8
_0-2_LAYER007
 62
    7
 10
2082.1301557312654
 20
1028.4609220078576
 40
20
 41
1
 50
90
  1
水切り鉄板立上がり寸法
  0
TEXT
  8
_0-2_LAYER007
 62
    7
 10
2172.8846833954499
 20
1026.2473969428775
 40
20
 41
1
 50
90
  1
下葺き材立上がり寸法
  0
TEXT
  8
_0-2_LAYER007
 62
    7
 10
2135.2547572907883
 20
1118.1086871395521
 40
20
 41
1
 50
90
  1
250
  0
TEXT
  8
_0-2_LAYER007
 62
    7
 10
2046.7137546915837
 20
1175.660338829035
 40
20
 41
1
 50
90
  1
150
  0
TEXT
  8
_0-2_LAYER007
 62
    7
 10
2046.7137546915837
 20
1047.2758850601886
 40
20
 41
1
 50
90
  1
100
  0
TEXT
  8
_0-2_LAYER007
 62
    7
 10
1908.3684381303269
 20
928.85229408375244
 40
20
 41
1
 50
0
  1
120
  0
TEXT
  8
_0-2_LAYER007
 62
    7
 10
1527.6421269537477
 20
1258.667528765789
 40
20
 41
1
 50
0
  1
登水切カラー鋼板0.35ｍｍ以上
  0
TEXT
  8
_0-2_LAYER007
 62
    7
 10
1898.4075753379166
 20
1188.9414892189156
 40
20
 41
1
 50
0
  1
65
  0
TEXT
  8
_0-2_LAYER007
 62
    7
 10
1132.5279028547977
 20
1348.3152938974836
 40
20
 41
1
 50
0
  1
308
  0
TEXT
  8
_0-2_LAYER007
 62
    7
 10
1260.8850113855201
 20
1158.1795355525405
 40
20
 41
1
 50
0
  1
桟　瓦
  0
TEXT
  8
_0-2_LAYER007
 62
    7
 10
1233.2605639881026
 20
792.48447000577414
 40
20
 41
1
 50
0
  1
瓦桟：15x30以上
  0
TEXT
  8
_0-2_LAYER007
 62
    7
 10
1160.9108208043899
 20
760.91367298015416
 40
20
 41
1
 50
0
  1
下葺材：ルーフィング
  0
TEXT
  8
_0-2_LAYER007
 62
    7
 10
937.28434187291418
 20
729.34287595453395
 40
20
 41
1
 50
0
  1
　野地板：硬質木片セメントパネルｔ＝25
  0
TEXT
  8
_0-2_LAYER007
 62
    7
 10
1031.9967329497742
 20
699.08752880498139
 40
20
 41
1
 50
0
  1
　鋼製：C100x50x20x2.3@606　
  0
TEXT
  8
_0-2_LAYER007
 62
    7
 10
1492.404189573401
 20
771.43727198869419
 40
20
 41
1
 50
0
  1
捨谷カラー鋼板0.35ｍｍ以上
  0
TEXT
  8
_0-2_LAYER007
 62
    7
 10
1450.6954929440035
 20
1345.9371009243837
 40
20
 41
1
 50
0
  1
308
  0
TEXT
  8
_0-2_LAYER007
 62
    7
 10
1755.7486585290474
 20
1347.5771717070988
 40
20
 41
1
 50
0
  1
308
  0
ENDSEC
  0
EOF
