  0
SECTION
  2
HEADER
  9
$ACADVER
  1
AC1009
  9
$INSBASE
 10
0
 20
0
 30
0
  9
$EXTMIN
 10
0
 20
0
  9
$EXTMAX
 10
2970
 20
2100
  9
$LIMMIN
 10
0
 20
0
  9
$LIMMAX
 10
2970
 20
2100
  9
$LTSCALE
 40
10
  0
ENDSEC
  0
SECTION
  2
TABLES
  0
TABLE
  2
LTYPE
 70
     9
  0
LTYPE
  2
CONTINUOUS
 70
    64
  3
実線
 72
    65
 73
     0
 40
0.0
  0
LTYPE
  2
DASHED1
 70
    64
  3
--  --  --  --  --  --  --  --  
 72
    65
 73
     2
 40
2.5
 49
1.25
 49
-1.25
  0
LTYPE
  2
DASHED2
 70
    64
  3
----    ----    ----    ----    
 72
    65
 73
     2
 40
5.0
 49
2.5
 49
-2.5
  0
LTYPE
  2
DASHED3
 70
    64
  3
------  ------  ------  ------  
 72
    65
 73
     2
 40
5.0
 49
3.75
 49
-1.25
  0
LTYPE
  2
CENTER1
 70
    64
  3
----- - ----- - ----- - ----- - 
 72
    65
 73
     4
 40
10.0
 49
6.25
 49
-1.25
 49
1.25
 49
-1.25
  0
LTYPE
  2
CENTER2
 70
    64
  3
----------  --  ----------  --  
 72
    65
 73
     4
 40
20.0
 49
12.5
 49
-2.5
 49
2.5
 49
-2.5
  0
LTYPE
  2
PHANTOM1
 70
    64
  3
--- - - --- - - --- - - --- - - 
 72
    65
 73
     6
 40
10.0
 49
3.25
 49
-1.25
 49
1.25
 49
-1.25
 49
1.25
 49
-1.25
  0
LTYPE
  2
PHANTOM2
 70
    64
  3
--------  -  -  --------  -  -  
 72
    65
 73
     6
 40
20.0
 49
10.0
 49
-2.5
 49
1.25
 49
-2.5
 49
1.25
 49
-2.5
  0
LTYPE
  2
DOT
 70
    64
  3
-   -   -   -   -   -   -   -   
 72
    65
 73
     2
 40
2.5
 49
0.625
 49
-1.875
  0
LTYPE
  2
DUMMY
 70
    64
  3
ダミー
 72
    65
 73
     0
 40
0.0
  0
LTYPE
  2
RAND1
 70
    64
  3
ランダム線1
 72
    65
 73
     4
 40
10.0
 49
1.0
 49
-2.0
 49
3.0
 49
-4.0
  0
LTYPE
  2
RAND2
 70
    64
  3
ランダム線2
 72
    65
 73
     4
 40
14.0
 49
2.0
 49
-3.0
 49
4.0
 49
-5.0
  0
LTYPE
  2
RAND3
 70
    64
  3
ランダム線3
 72
    65
 73
     4
 40
18.0
 49
3.0
 49
-4.0
 49
5.0
 49
-6.0
  0
LTYPE
  2
RAND4
 70
    64
  3
ランダム線4
 72
    65
 73
     4
 40
22.0
 49
4.0
 49
-5.0
 49
6.0
 49
-7.0
  0
LTYPE
  2
RAND5
 70
    64
  3
ランダム線5
 72
    65
 73
     4
 40
26.0
 49
5.0
 49
-6.0
 49
7.0
 49
-8.0
  0
LTYPE
  2
LONG1
 70
    64
  3
----------  --  ----------  --  
 72
    65
 73
     4
 40
40.0
 49
32.5
 49
-2.5
 49
2.5
 49
-2.5
  0
LTYPE
  2
LONG2
 70
    64
  3
--------  -  -  --------  -  -  
 72
    65
 73
     6
 40
40.0
 49
30.0
 49
-2.5
 49
1.25
 49
-2.5
 49
1.25
 49
-2.5
  0
LTYPE
  2
LONG3
 70
    64
  3
+++++++++++++++..+++++++++++++++
 72
    65
 73
     2
 40
40.0
 49
37.5
 49
-2.5
  0
LTYPE
  2
LONG4
 70
    64
  3
+++++++++++++++..+++++++++++++++
 72
    65
 73
     2
 40
80.0
 49
75.0
 49
-5.0
  0
LTYPE
  2
LONG5
 70
    64
  3
----------  --  ----------  --  
 72
    65
 73
     4
 40
60.0
 49
37.5
 49
-7.5
 49
7.5
 49
-7.5
  0
LTYPE
  2
dashed
 70
   64
  3
-------   -------------   ------
 72
   65
 73
    2
 40
7.5
 49
6
 49
-1.5
  0
LTYPE
  2
dashed_spaced
 70
   64
  3
----        --------        ----
 72
   65
 73
    2
 40
12
 49
6
 49
-6
  0
LTYPE
  2
long_dashed_dotted
 70
   64
  3
------------- --- --------------
 72
   65
 73
    4
 40
15.25
 49
12
 49
-1.5
 49
0.25
 49
-1.5
  0
LTYPE
  2
long_dashed_double-dotted
 70
   64
  3
----------- --- --- ------------
 72
   65
 73
    6
 40
17
 49
12
 49
-1.5
 49
0.25
 49
-1.5
 49
0.25
 49
-1.5
  0
LTYPE
  2
long_dashed_triplicate-dotted
 70
   64
  3
--------- --- --- --- ----------
 72
   65
 73
    8
 40
18.75
 49
12
 49
-1.5
 49
0.25
 49
-1.5
 49
0.25
 49
-1.5
 49
0.25
 49
-1.5
  0
LTYPE
  2
dotted
 70
   64
  3
   -       -       -       -    
 72
   65
 73
    2
 40
1.75
 49
0.25
 49
-1.5
  0
LTYPE
  2
chain
 70
   64
  3
-------------- -- --------------
 72
   65
 73
    4
 40
18.5
 49
12
 49
-1.5
 49
3.5
 49
-1.5
  0
LTYPE
  2
chain_double_dash
 70
   64
  3
------------ -- -- -------------
 72
   65
 73
    6
 40
23.5
 49
12
 49
-1.5
 49
3.5
 49
-1.5
 49
3.5
 49
-1.5
  0
LTYPE
  2
dashed_dotted
 70
   64
  3
-----------     -     ----------
 72
   65
 73
    4
 40
9.25
 49
6
 49
-1.5
 49
0.25
 49
-1.5
  0
LTYPE
  2
double-dashed_dotted
 70
   64
  3
------   -----------   -   -----
 72
   65
 73
    6
 40
16.75
 49
6
 49
-1.5
 49
6
 49
-1.5
 49
0.25
 49
-1.5
  0
LTYPE
  2
dashed_double-dotted
 70
   64
  3
---------    -    -    ---------
 72
   65
 73
    6
 40
11
 49
6
 49
-1.5
 49
0.25
 49
-1.5
 49
0.25
 49
-1.5
  0
LTYPE
  2
double-dashed_double-dotted
 70
   64
  3
-----   ---------   -   -   ----
 72
   65
 73
    8
 40
18.5
 49
6
 49
-1.5
 49
6
 49
-1.5
 49
0.25
 49
-1.5
 49
0.25
 49
-1.5
  0
LTYPE
  2
dashed_triplicate-dotted
 70
   64
  3
-------    -    -    -    ------
 72
   65
 73
    8
 40
12.75
 49
6
 49
-1.5
 49
0.25
 49
-1.5
 49
0.25
 49
-1.5
 49
0.25
 49
-1.5
  0
LTYPE
  2
double-dashed_triplicate-dotted
 70
   64
  3
-----  ---------  -  -  -  -----
 72
   65
 73
   10
 40
20.25
 49
6
 49
-1.5
 49
6
 49
-1.5
 49
0.25
 49
-1.5
 49
0.25
 49
-1.5
 49
0.25
 49
-1.5
  0
LTYPE
  2
undefined
 70
   64
  3
--------------------------------
 72
   65
 73
    0
 40
0
  0
LTYPE
  2
HIDDEN
 70
   64
  3
----        --------        ----
 72
   65
 73
    2
 40
10
 49
5
 49
-5
  0
LTYPE
  2
DASHED
 70
   64
  3
-------   -------------   ------
 72
   65
 73
    2
 40
50
 49
40
 49
-10
  0
LTYPE
  2
CENTER
 70
   64
  3
------------   ---   -----------
 72
   65
 73
    4
 40
100
 49
70
 49
-10
 49
10
 49
-10
  0
LTYPE
  2
PHANTOM
 70
   64
  3
---------   ---   ---   --------
 72
   65
 73
    6
 40
100
 49
50
 49
-10
 49
10
 49
-10
 49
10
 49
-10
  0
ENDTAB
  0
TABLE
  2
STYLE
  5
3
100
AcDbSymbolTable
 70
     1
  0
STYLE
  5
10
100
AcDbSymbolTableRecord
100
AcDbTextStyleTableRecord
  2
STANDARD
 70
     0
 40
0.0
 41
1.0
 50
0.0
 71
     0
 42
0.2
  3
txt
  4
bigfont.shx
  0
STYLE
  5
26
100
AcDbSymbolTableRecord
100
AcDbTextStyleTableRecord
  2
TATEGAKI
 70
    68
 40
0.0
 41
1.0
 50
0.0
 71
     0
 42
1.0
  3
txt
  4
bigfont.shx
  0
ENDTAB
  0
TABLE
  2
LAYER
 70
    7
  0
LAYER
  2
_0-0_LAYER001
 70
   64
 62
    7
  6
CONTINUOUS
  0
LAYER
  2
_0-1_LAYER002
 70
   64
 62
    7
  6
CONTINUOUS
  0
LAYER
  2
_0-2_LAYER003
 70
   64
 62
    7
  6
CONTINUOUS
  0
LAYER
  2
_0-3_LAYER006
 70
   64
 62
    7
  6
CONTINUOUS
  0
LAYER
  2
_0-4_LAYER007
 70
   64
 62
    7
  6
CONTINUOUS
  0
LAYER
  2
_0-5_LAYER009
 70
   64
 62
    7
  6
CONTINUOUS
  0
LAYER
  2
ADD_LINE
 70
   64
 62
    7
  6
CONTINUOUS
  0
ENDTAB
  0
ENDSEC
  0
SECTION
  2
BLOCKS
  0
ENDSEC
  0
SECTION
  2
ENTITIES
  0
LINE
  8
_0-0_LAYER001
  6
CONTINUOUS
 62
    4
 10
2218.3782375000001
 20
1041.022508
 11
2171.4534375000003
 21
1041.022508
  0
LINE
  8
_0-0_LAYER001
  6
CONTINUOUS
 62
    4
 10
2163.4662375000003
 20
1041.022508
 11
2110.5510374999999
 21
1041.022508
  0
LINE
  8
_0-0_LAYER001
  6
CONTINUOUS
 62
    4
 10
2174.4694145000003
 20
1059.9921079999999
 11
2223.0147474999999
 21
1059.9921079999999
  0
LINE
  8
_0-0_LAYER001
  6
CONTINUOUS
 62
    4
 10
2023.7110145000001
 20
1059.9921079999999
 11
2174.4694145000003
 21
1059.9921079999999
  0
LINE
  8
_0-0_LAYER001
  6
CONTINUOUS
 62
    4
 10
2163.4662375000003
 20
1041.022508
 11
2163.4662375000003
 21
1030.0401079999997
  0
LINE
  8
_0-0_LAYER001
  6
CONTINUOUS
 62
    4
 10
2171.4534375000003
 20
1030.0401079999997
 11
2163.4662375000003
 21
1030.0401079999997
  0
LINE
  8
_0-0_LAYER001
  6
CONTINUOUS
 62
    4
 10
2171.4534375000003
 20
1041.022508
 11
2171.4534375000003
 21
1030.0401079999997
  0
LINE
  8
_0-0_LAYER001
  6
CONTINUOUS
 62
    4
 10
2218.3782375000001
 20
1041.022508
 11
2218.3782375000001
 21
1030.0401079999997
  0
LINE
  8
_0-0_LAYER001
  6
CONTINUOUS
 62
    4
 10
2223.0147474999999
 20
1030.0401079999997
 11
2218.3782375000001
 21
1030.0401079999997
  0
LINE
  8
_0-5_LAYER009
  6
CONTINUOUS
 62
   18
 10
1050.7693755
 20
960.54170799999974
 11
2223.0147474999999
 21
960.54170799999974
  0
LINE
  8
_0-5_LAYER009
  6
CONTINUOUS
 62
   18
 10
1050.7693755
 20
1010.5417179999999
 11
2223.0147474999999
 21
1010.5417179999999
  0
LINE
  8
_0-0_LAYER001
  6
CONTINUOUS
 62
   18
 10
2223.0147474999999
 20
1029.0417079999997
 11
1172.7694355000001
 21
1029.0417079999997
  0
LINE
  8
_0-0_LAYER001
  6
CONTINUOUS
 62
   18
 10
2223.0147474999999
 20
1014.0417079999997
 11
1172.7694355000001
 21
1014.0417079999997
  0
LINE
  8
_0-2_LAYER003
  6
CONTINUOUS
 62
   18
 10
940.7693955000002
 20
850.54170799999974
 11
2223.0147474999999
 21
850.54170799999974
  0
LINE
  8
_0-0_LAYER001
  6
CONTINUOUS
 62
   18
 10
1060.7693755
 20
860.541698
 11
2223.0147474999999
 21
860.541698
  0
LINE
  8
_0-0_LAYER001
  6
CONTINUOUS
 62
   18
 10
1060.7693755
 20
863.74171799999976
 11
2223.0147474999999
 21
863.74171799999976
  0
LINE
  8
_0-0_LAYER001
  6
HIDDEN
 62
   18
 10
1060.7693755
 20
880.54171799999995
 11
2223.0147474999999
 21
880.54171799999995
  0
LINE
  8
_0-0_LAYER001
  6
HIDDEN
 62
   18
 10
1060.7693755
 20
940.54171799999995
 11
2223.0147474999999
 21
940.54171799999995
  0
LINE
  8
_0-0_LAYER001
  6
CONTINUOUS
 62
   18
 10
1060.7693755
 20
957.34170799999993
 11
2223.0147474999999
 21
957.34170799999993
  0
LINE
  8
_0-2_LAYER003
  6
DASHED
 62
   18
 10
2223.0147474999999
 20
1012.5417079999997
 11
1052.7693755
 21
1012.5417079999997
  0
LINE
  8
_0-0_LAYER001
  6
CONTINUOUS
 62
   18
 10
2223.0147474999999
 20
1065.525318
 11
2020.9785194999999
 21
1065.525318
  0
LINE
  8
_0-0_LAYER001
  6
CONTINUOUS
 62
   18
 10
2023.7110145000001
 20
1091.9921079999999
 11
2223.0147474999999
 21
1091.9921079999999
  0
LINE
  8
_0-0_LAYER001
  6
CONTINUOUS
 62
    1
 10
1136.4267105000001
 20
1093.5657999999999
 11
1137.5358375000001
 21
1094.674927
  0
LINE
  8
_0-0_LAYER001
  6
CONTINUOUS
 62
    1
 10
1132.8911765
 20
1093.5657999999999
 11
1137.5358375000001
 21
1098.2104609999997
  0
LINE
  8
_0-0_LAYER001
  6
CONTINUOUS
 62
    1
 10
1129.3556425000002
 20
1093.5657999999999
 11
1137.5358375000001
 21
1101.7459949999998
  0
LINE
  8
_0-0_LAYER001
  6
CONTINUOUS
 62
    1
 10
1125.8201085000001
 20
1093.5657999999999
 11
1137.5358375000001
 21
1105.2815289999999
  0
LINE
  8
_0-0_LAYER001
  6
CONTINUOUS
 62
    1
 10
1122.2845745000002
 20
1093.5657999999999
 11
1137.5358375000001
 21
1108.817063
  0
LINE
  8
_0-0_LAYER001
  6
CONTINUOUS
 62
    1
 10
1118.7490405000001
 20
1093.5657999999999
 11
1137.5358375000001
 21
1112.3525970000001
  0
LINE
  8
_0-0_LAYER001
  6
CONTINUOUS
 62
    1
 10
1117.5358375000001
 20
1095.8881299999998
 11
1135.2135075000001
 21
1113.5657999999999
  0
LINE
  8
_0-0_LAYER001
  6
CONTINUOUS
 62
    1
 10
1117.5358375000001
 20
1099.4236639999999
 11
1131.6779735
 21
1113.5657999999999
  0
LINE
  8
_0-0_LAYER001
  6
CONTINUOUS
 62
    1
 10
1117.5358375000001
 20
1102.959198
 11
1128.1424395000001
 21
1113.5657999999999
  0
LINE
  8
_0-0_LAYER001
  6
CONTINUOUS
 62
    1
 10
1117.5358375000001
 20
1106.4947320000001
 11
1124.6069055
 21
1113.5657999999999
  0
LINE
  8
_0-0_LAYER001
  6
CONTINUOUS
 62
    1
 10
1117.5358375000001
 20
1110.0302659999998
 11
1121.0713715000002
 21
1113.5657999999999
  0
LINE
  8
_0-0_LAYER001
  6
CONTINUOUS
 62
    1
 10
1117.5358375000001
 20
1095.8881299999998
 11
1119.8581675
 21
1093.5657999999999
  0
LINE
  8
_0-0_LAYER001
  6
CONTINUOUS
 62
    1
 10
1117.5358375000001
 20
1099.4236639999999
 11
1123.3937015000001
 21
1093.5657999999999
  0
LINE
  8
_0-0_LAYER001
  6
CONTINUOUS
 62
    1
 10
1117.5358375000001
 20
1102.959198
 11
1126.9292355
 21
1093.5657999999999
  0
LINE
  8
_0-0_LAYER001
  6
CONTINUOUS
 62
    1
 10
1117.5358375000001
 20
1106.4947320000001
 11
1130.4647695000001
 21
1093.5657999999999
  0
LINE
  8
_0-0_LAYER001
  6
CONTINUOUS
 62
    1
 10
1117.5358375000001
 20
1110.0302659999998
 11
1134.0003035000002
 21
1093.5657999999999
  0
LINE
  8
_0-0_LAYER001
  6
CONTINUOUS
 62
    1
 10
1117.5358375000001
 20
1113.5657999999999
 11
1137.5358375000001
 21
1093.5657999999999
  0
LINE
  8
_0-0_LAYER001
  6
CONTINUOUS
 62
    1
 10
1121.0713715000002
 20
1113.5657999999999
 11
1137.5358375000001
 21
1097.101334
  0
LINE
  8
_0-0_LAYER001
  6
CONTINUOUS
 62
    1
 10
1124.6069055
 20
1113.5657999999999
 11
1137.5358375000001
 21
1100.636868
  0
LINE
  8
_0-0_LAYER001
  6
CONTINUOUS
 62
    1
 10
1128.1424395000001
 20
1113.5657999999999
 11
1137.5358375000001
 21
1104.1724019999997
  0
LINE
  8
_0-0_LAYER001
  6
CONTINUOUS
 62
    1
 10
1131.6779735
 20
1113.5657999999999
 11
1137.5358375000001
 21
1107.7079359999998
  0
LINE
  8
_0-0_LAYER001
  6
CONTINUOUS
 62
    1
 10
1135.2135075000001
 20
1113.5657999999999
 11
1137.5358375000001
 21
1111.243469
  0
LINE
  8
_0-0_LAYER001
  6
CONTINUOUS
 62
    1
 10
1043.6485775000001
 20
1212.5584610000001
 11
1041.1087125000001
 21
1212.5584610000001
  0
LINE
  8
_0-0_LAYER001
  6
CONTINUOUS
 62
    1
 10
1041.1087125000001
 20
1212.5584610000001
 11
1041.1087125000001
 21
1198.8114969999997
  0
LINE
  8
_0-0_LAYER001
  6
CONTINUOUS
 62
    1
 10
1041.1087125000001
 20
1198.8114969999997
 11
1043.6485775000001
 21
1198.8114969999997
  0
LINE
  8
_0-0_LAYER001
  6
CONTINUOUS
 62
    1
 10
1043.6485775000001
 20
1198.8114969999997
 11
1043.6485775000001
 21
1212.5584610000001
  0
LINE
  8
_0-0_LAYER001
  6
CONTINUOUS
 62
    1
 10
1043.6485775000001
 20
1212.5584610000001
 11
1041.1087125000001
 21
1198.8114969999997
  0
LINE
  8
_0-0_LAYER001
  6
CONTINUOUS
 62
    1
 10
1050.7196455000001
 20
1198.4163249999997
 11
1050.7693755
 21
1198.4660549999999
  0
LINE
  8
_0-0_LAYER001
  6
CONTINUOUS
 62
    1
 10
1047.1841115000002
 20
1198.4163249999997
 11
1049.3135535000001
 21
1200.5457670000001
  0
LINE
  8
_0-0_LAYER001
  6
CONTINUOUS
 62
    1
 10
1043.6485775000001
 20
1198.4163249999997
 11
1048.8139785000001
 21
1203.5817259999999
  0
LINE
  8
_0-0_LAYER001
  6
CONTINUOUS
 62
    1
 10
1043.6485775000001
 20
1201.9518589999998
 11
1048.9446895000001
 21
1207.2479709999998
  0
LINE
  8
_0-0_LAYER001
  6
CONTINUOUS
 62
    1
 10
1043.6485775000001
 20
1205.4873929999999
 11
1050.5517575000001
 21
1212.3905729999997
  0
LINE
  8
_0-0_LAYER001
  6
CONTINUOUS
 62
    1
 10
1043.6485775000001
 20
1209.022927
 11
1047.4383605
 21
1212.8127099999997
  0
LINE
  8
_0-0_LAYER001
  6
CONTINUOUS
 62
    1
 10
1043.6485775000001
 20
1212.5584610000001
 11
1043.9028265000002
 21
1212.8127099999997
  0
ARC
  8
_0-0_LAYER001
  6
CONTINUOUS
 62
    4
 10
1353.8308205000001
 20
1027.0449079999999
 40
5.9904000000000002
 50
199.47122100000004
 51
344.27761299999997
  0
LINE
  8
_0-0_LAYER001
  6
CONTINUOUS
 62
    4
 10
1342.3014375
 20
1041.022508
 11
1348.2918375000004
 21
1024.7635580000001
  0
LINE
  8
_0-0_LAYER001
  6
CONTINUOUS
 62
    4
 10
1120.6981915000001
 20
1041.022508
 11
1115.0098725
 21
1025.4216499999998
  0
LINE
  8
_0-0_LAYER001
  6
CONTINUOUS
 62
    4
 10
1360.9170255000001
 20
1029.0417079999997
 11
1359.5970955000003
 21
1025.4216499999998
  0
LINE
  8
_0-0_LAYER001
  6
CONTINUOUS
 62
    4
 10
1096.9785195000002
 20
1043.0193079999999
 11
1059.7750145
 21
1043.0193079999999
  0
LINE
  8
_0-0_LAYER001
  6
CONTINUOUS
 62
    4
 10
1096.9785195000002
 20
1043.0193079999999
 11
1103.7046145000002
 21
1024.7635580000001
  0
LINE
  8
_0-0_LAYER001
  6
CONTINUOUS
 62
    4
 10
1342.3014375
 20
1041.022508
 11
1302.3654375000001
 21
1041.022508
  0
LINE
  8
_0-0_LAYER001
  6
CONTINUOUS
 62
    4
 10
1294.3782375000001
 20
1041.022508
 11
1247.4534375000001
 21
1041.022508
  0
LINE
  8
_0-0_LAYER001
  6
CONTINUOUS
 62
    4
 10
1239.4662375
 20
1041.022508
 11
1186.5510375000001
 21
1041.022508
  0
LINE
  8
_0-0_LAYER001
  6
CONTINUOUS
 62
    4
 10
1178.5638375000001
 20
1041.022508
 11
1120.6981915000001
 21
1041.022508
  0
LINE
  8
_0-0_LAYER001
  6
CONTINUOUS
 62
    4
 10
1325.3494145000002
 20
1062.9873079999998
 11
1325.3494145000002
 21
1059.9921079999999
  0
LINE
  8
_0-0_LAYER001
  6
CONTINUOUS
 62
    4
 10
1250.4694145000001
 20
1059.9921079999999
 11
1325.3494145000002
 21
1059.9921079999999
  0
LINE
  8
_0-0_LAYER001
  6
CONTINUOUS
 62
    4
 10
1099.7110145000001
 20
1059.9921079999999
 11
1250.4694145000001
 21
1059.9921079999999
  0
LINE
  8
_0-0_LAYER001
  6
CONTINUOUS
 62
    4
 10
1099.7110145000001
 20
1062.9873079999998
 11
1099.7110145000001
 21
1059.9921079999999
  0
LINE
  8
_0-0_LAYER001
  6
CONTINUOUS
 62
    4
 10
1099.7110145000001
 20
1062.9873079999998
 11
1059.7750145
 21
1062.9873079999998
  0
LINE
  8
_0-0_LAYER001
  6
CONTINUOUS
 62
    4
 10
1178.5638375000001
 20
1041.022508
 11
1178.5638375000001
 21
1030.0401079999997
  0
LINE
  8
_0-0_LAYER001
  6
CONTINUOUS
 62
    4
 10
1186.5510375000001
 20
1030.0401079999997
 11
1178.5638375000001
 21
1030.0401079999997
  0
LINE
  8
_0-0_LAYER001
  6
CONTINUOUS
 62
    4
 10
1186.5510375000001
 20
1041.022508
 11
1186.5510375000001
 21
1030.0401079999997
  0
LINE
  8
_0-0_LAYER001
  6
CONTINUOUS
 62
    4
 10
1239.4662375
 20
1041.022508
 11
1239.4662375
 21
1030.0401079999997
  0
LINE
  8
_0-0_LAYER001
  6
CONTINUOUS
 62
    4
 10
1247.4534375000001
 20
1030.0401079999997
 11
1239.4662375
 21
1030.0401079999997
  0
LINE
  8
_0-0_LAYER001
  6
CONTINUOUS
 62
    4
 10
1247.4534375000001
 20
1041.022508
 11
1247.4534375000001
 21
1030.0401079999997
  0
LINE
  8
_0-0_LAYER001
  6
CONTINUOUS
 62
    4
 10
1294.3782375000001
 20
1041.022508
 11
1294.3782375000001
 21
1030.0401079999997
  0
LINE
  8
_0-0_LAYER001
  6
CONTINUOUS
 62
    4
 10
1302.3654375000001
 20
1030.0401079999997
 11
1294.3782375000001
 21
1030.0401079999997
  0
LINE
  8
_0-0_LAYER001
  6
CONTINUOUS
 62
    4
 10
1302.3654375000001
 20
1030.0401079999997
 11
1302.3654375000001
 21
1041.022508
  0
LINE
  8
_0-0_LAYER001
  6
CONTINUOUS
 62
    4
 10
1059.7750145
 20
1062.9873079999998
 11
1059.7750145
 21
1043.0193079999999
  0
ARC
  8
_0-0_LAYER001
  6
CONTINUOUS
 62
    4
 10
1109.1692745
 20
1027.0449079999999
 40
5.9904000000000002
 50
199.47122100000004
 51
344.27761299999997
  0
LINE
  8
_0-0_LAYER001
  6
CONTINUOUS
 62
    4
 10
1365.7750145
 20
1062.9873079999998
 11
1325.3494145000002
 21
1062.9873079999998
  0
LINE
  8
_0-0_LAYER001
  6
CONTINUOUS
 62
    4
 10
1365.7750145
 20
1062.9873079999998
 11
1365.7750145
 21
1041.022508
  0
LINE
  8
_0-0_LAYER001
  6
CONTINUOUS
 62
    4
 10
1365.7750145
 20
1062.9873079999998
 11
1365.7750145
 21
1043.0193079999999
  0
LINE
  8
_0-0_LAYER001
  6
CONTINUOUS
 62
    4
 10
1404.7750145
 20
1029.0417079999997
 11
1360.9170255000001
 21
1029.0417079999997
  0
LINE
  8
_0-0_LAYER001
  6
CONTINUOUS
 62
    4
 10
1404.7750145
 20
1029.0417079999997
 11
1404.7750145
 21
1041.022508
  0
LINE
  8
_0-0_LAYER001
  6
CONTINUOUS
 62
    4
 10
1404.7750145
 20
1041.022508
 11
1365.7750145
 21
1041.022508
  0
ARC
  8
_0-0_LAYER001
  6
CONTINUOUS
 62
    4
 10
1661.8308205000003
 20
1027.0449079999999
 40
5.9904000000000002
 50
199.47122100000004
 51
344.27761299999997
  0
LINE
  8
_0-0_LAYER001
  6
CONTINUOUS
 62
    4
 10
1650.3014375000002
 20
1041.022508
 11
1656.2918374999999
 21
1024.7635580000001
  0
LINE
  8
_0-0_LAYER001
  6
CONTINUOUS
 62
    4
 10
1428.6981915000001
 20
1041.022508
 11
1423.0098724999998
 21
1025.4216499999998
  0
LINE
  8
_0-0_LAYER001
  6
CONTINUOUS
 62
    4
 10
1668.9170254999999
 20
1029.0417079999997
 11
1667.5970955000003
 21
1025.4216499999998
  0
LINE
  8
_0-0_LAYER001
  6
CONTINUOUS
 62
    4
 10
1404.9785195000002
 20
1043.0193079999999
 11
1367.7750145
 21
1043.0193079999999
  0
LINE
  8
_0-0_LAYER001
  6
CONTINUOUS
 62
    4
 10
1404.9785195000002
 20
1043.0193079999999
 11
1411.7046144999999
 21
1024.7635580000001
  0
LINE
  8
_0-0_LAYER001
  6
CONTINUOUS
 62
    4
 10
1650.3014375000002
 20
1041.022508
 11
1610.3654375000001
 21
1041.022508
  0
LINE
  8
_0-0_LAYER001
  6
CONTINUOUS
 62
    4
 10
1602.3782375000001
 20
1041.022508
 11
1555.4534375000003
 21
1041.022508
  0
LINE
  8
_0-0_LAYER001
  6
CONTINUOUS
 62
    4
 10
1547.4662375000003
 20
1041.022508
 11
1494.5510374999999
 21
1041.022508
  0
LINE
  8
_0-0_LAYER001
  6
CONTINUOUS
 62
    4
 10
1486.5638375000003
 20
1041.022508
 11
1428.6981915000001
 21
1041.022508
  0
LINE
  8
_0-0_LAYER001
  6
CONTINUOUS
 62
    4
 10
1633.3494145
 20
1062.9873079999998
 11
1633.3494145
 21
1059.9921079999999
  0
LINE
  8
_0-0_LAYER001
  6
CONTINUOUS
 62
    4
 10
1558.4694145000003
 20
1059.9921079999999
 11
1633.3494145
 21
1059.9921079999999
  0
LINE
  8
_0-0_LAYER001
  6
CONTINUOUS
 62
    4
 10
1407.7110145000001
 20
1059.9921079999999
 11
1558.4694145000003
 21
1059.9921079999999
  0
LINE
  8
_0-0_LAYER001
  6
CONTINUOUS
 62
    4
 10
1407.7110145000001
 20
1062.9873079999998
 11
1407.7110145000001
 21
1059.9921079999999
  0
LINE
  8
_0-0_LAYER001
  6
CONTINUOUS
 62
    4
 10
1407.7110145000001
 20
1062.9873079999998
 11
1367.7750145
 21
1062.9873079999998
  0
LINE
  8
_0-0_LAYER001
  6
CONTINUOUS
 62
    4
 10
1486.5638375000003
 20
1041.022508
 11
1486.5638375000003
 21
1030.0401079999997
  0
LINE
  8
_0-0_LAYER001
  6
CONTINUOUS
 62
    4
 10
1494.5510374999999
 20
1030.0401079999997
 11
1486.5638375000003
 21
1030.0401079999997
  0
LINE
  8
_0-0_LAYER001
  6
CONTINUOUS
 62
    4
 10
1494.5510374999999
 20
1041.022508
 11
1494.5510374999999
 21
1030.0401079999997
  0
LINE
  8
_0-0_LAYER001
  6
CONTINUOUS
 62
    4
 10
1547.4662375000003
 20
1041.022508
 11
1547.4662375000003
 21
1030.0401079999997
  0
LINE
  8
_0-0_LAYER001
  6
CONTINUOUS
 62
    4
 10
1555.4534375000003
 20
1030.0401079999997
 11
1547.4662375000003
 21
1030.0401079999997
  0
LINE
  8
_0-0_LAYER001
  6
CONTINUOUS
 62
    4
 10
1555.4534375000003
 20
1041.022508
 11
1555.4534375000003
 21
1030.0401079999997
  0
LINE
  8
_0-0_LAYER001
  6
CONTINUOUS
 62
    4
 10
1602.3782375000001
 20
1041.022508
 11
1602.3782375000001
 21
1030.0401079999997
  0
LINE
  8
_0-0_LAYER001
  6
CONTINUOUS
 62
    4
 10
1610.3654375000001
 20
1030.0401079999997
 11
1602.3782375000001
 21
1030.0401079999997
  0
LINE
  8
_0-0_LAYER001
  6
CONTINUOUS
 62
    4
 10
1610.3654375000001
 20
1030.0401079999997
 11
1610.3654375000001
 21
1041.022508
  0
LINE
  8
_0-0_LAYER001
  6
CONTINUOUS
 62
    4
 10
1367.7750145
 20
1062.9873079999998
 11
1367.7750145
 21
1043.0193079999999
  0
ARC
  8
_0-0_LAYER001
  6
CONTINUOUS
 62
    4
 10
1417.1692745
 20
1027.0449079999999
 40
5.9904000000000002
 50
199.47122100000004
 51
344.27761299999997
  0
LINE
  8
_0-0_LAYER001
  6
CONTINUOUS
 62
    4
 10
1673.7750145
 20
1062.9873079999998
 11
1633.3494145
 21
1062.9873079999998
  0
LINE
  8
_0-0_LAYER001
  6
CONTINUOUS
 62
    4
 10
1673.7750145
 20
1062.9873079999998
 11
1673.7750145
 21
1041.022508
  0
LINE
  8
_0-0_LAYER001
  6
CONTINUOUS
 62
    4
 10
1673.7750145
 20
1062.9873079999998
 11
1673.7750145
 21
1043.0193079999999
  0
LINE
  8
_0-0_LAYER001
  6
CONTINUOUS
 62
    4
 10
1712.7750145
 20
1029.0417079999997
 11
1668.9170254999999
 21
1029.0417079999997
  0
LINE
  8
_0-0_LAYER001
  6
CONTINUOUS
 62
    4
 10
1712.7750145
 20
1029.0417079999997
 11
1712.7750145
 21
1041.022508
  0
LINE
  8
_0-0_LAYER001
  6
CONTINUOUS
 62
    4
 10
1712.7750145
 20
1041.022508
 11
1673.7750145
 21
1041.022508
  0
ARC
  8
_0-0_LAYER001
  6
CONTINUOUS
 62
    4
 10
1969.8308205000003
 20
1027.0449079999999
 40
5.9904000000000002
 50
199.47122100000004
 51
344.27761299999997
  0
LINE
  8
_0-0_LAYER001
  6
CONTINUOUS
 62
    4
 10
1958.3014375000002
 20
1041.022508
 11
1964.2918374999999
 21
1024.7635580000001
  0
LINE
  8
_0-0_LAYER001
  6
CONTINUOUS
 62
    4
 10
1736.6981915000001
 20
1041.022508
 11
1731.0098725000003
 21
1025.4216499999998
  0
LINE
  8
_0-0_LAYER001
  6
CONTINUOUS
 62
    4
 10
1976.9170254999999
 20
1029.0417079999997
 11
1975.5970955000003
 21
1025.4216499999998
  0
LINE
  8
_0-0_LAYER001
  6
CONTINUOUS
 62
    4
 10
1712.9785194999999
 20
1043.0193079999999
 11
1675.7750145
 21
1043.0193079999999
  0
LINE
  8
_0-0_LAYER001
  6
CONTINUOUS
 62
    4
 10
1712.9785194999999
 20
1043.0193079999999
 11
1719.7046144999999
 21
1024.7635580000001
  0
LINE
  8
_0-0_LAYER001
  6
CONTINUOUS
 62
    4
 10
1958.3014375000002
 20
1041.022508
 11
1918.3654375000001
 21
1041.022508
  0
LINE
  8
_0-0_LAYER001
  6
CONTINUOUS
 62
    4
 10
1910.3782375000001
 20
1041.022508
 11
1863.4534375000003
 21
1041.022508
  0
LINE
  8
_0-0_LAYER001
  6
CONTINUOUS
 62
    4
 10
1855.4662375000003
 20
1041.022508
 11
1802.5510374999999
 21
1041.022508
  0
LINE
  8
_0-0_LAYER001
  6
CONTINUOUS
 62
    4
 10
1794.5638375000003
 20
1041.022508
 11
1736.6981915000001
 21
1041.022508
  0
LINE
  8
_0-0_LAYER001
  6
CONTINUOUS
 62
    4
 10
1941.3494145
 20
1062.9873079999998
 11
1941.3494145
 21
1059.9921079999999
  0
LINE
  8
_0-0_LAYER001
  6
CONTINUOUS
 62
    4
 10
1866.4694145000003
 20
1059.9921079999999
 11
1941.3494145
 21
1059.9921079999999
  0
LINE
  8
_0-0_LAYER001
  6
CONTINUOUS
 62
    4
 10
1715.7110145000001
 20
1059.9921079999999
 11
1866.4694145000003
 21
1059.9921079999999
  0
LINE
  8
_0-0_LAYER001
  6
CONTINUOUS
 62
    4
 10
1715.7110145000001
 20
1062.9873079999998
 11
1715.7110145000001
 21
1059.9921079999999
  0
LINE
  8
_0-0_LAYER001
  6
CONTINUOUS
 62
    4
 10
1715.7110145000001
 20
1062.9873079999998
 11
1675.7750145
 21
1062.9873079999998
  0
LINE
  8
_0-0_LAYER001
  6
CONTINUOUS
 62
    4
 10
1794.5638375000003
 20
1041.022508
 11
1794.5638375000003
 21
1030.0401079999997
  0
LINE
  8
_0-0_LAYER001
  6
CONTINUOUS
 62
    4
 10
1802.5510374999999
 20
1030.0401079999997
 11
1794.5638375000003
 21
1030.0401079999997
  0
LINE
  8
_0-0_LAYER001
  6
CONTINUOUS
 62
    4
 10
1802.5510374999999
 20
1041.022508
 11
1802.5510374999999
 21
1030.0401079999997
  0
LINE
  8
_0-0_LAYER001
  6
CONTINUOUS
 62
    4
 10
1855.4662375000003
 20
1041.022508
 11
1855.4662375000003
 21
1030.0401079999997
  0
LINE
  8
_0-0_LAYER001
  6
CONTINUOUS
 62
    4
 10
1863.4534375000003
 20
1030.0401079999997
 11
1855.4662375000003
 21
1030.0401079999997
  0
LINE
  8
_0-0_LAYER001
  6
CONTINUOUS
 62
    4
 10
1863.4534375000003
 20
1041.022508
 11
1863.4534375000003
 21
1030.0401079999997
  0
LINE
  8
_0-0_LAYER001
  6
CONTINUOUS
 62
    4
 10
1910.3782375000001
 20
1041.022508
 11
1910.3782375000001
 21
1030.0401079999997
  0
LINE
  8
_0-0_LAYER001
  6
CONTINUOUS
 62
    4
 10
1918.3654375000001
 20
1030.0401079999997
 11
1910.3782375000001
 21
1030.0401079999997
  0
LINE
  8
_0-0_LAYER001
  6
CONTINUOUS
 62
    4
 10
1918.3654375000001
 20
1030.0401079999997
 11
1918.3654375000001
 21
1041.022508
  0
LINE
  8
_0-0_LAYER001
  6
CONTINUOUS
 62
    4
 10
1675.7750145
 20
1062.9873079999998
 11
1675.7750145
 21
1043.0193079999999
  0
ARC
  8
_0-0_LAYER001
  6
CONTINUOUS
 62
    4
 10
1725.1692745
 20
1027.0449079999999
 40
5.9904000000000002
 50
199.47122100000004
 51
344.27761299999997
  0
LINE
  8
_0-0_LAYER001
  6
CONTINUOUS
 62
    4
 10
1981.7750145
 20
1062.9873079999998
 11
1941.3494145
 21
1062.9873079999998
  0
LINE
  8
_0-0_LAYER001
  6
CONTINUOUS
 62
    4
 10
1981.7750145
 20
1062.9873079999998
 11
1981.7750145
 21
1041.022508
  0
LINE
  8
_0-0_LAYER001
  6
CONTINUOUS
 62
    4
 10
1981.7750145
 20
1062.9873079999998
 11
1981.7750145
 21
1043.0193079999999
  0
LINE
  8
_0-0_LAYER001
  6
CONTINUOUS
 62
    4
 10
2020.7750145
 20
1029.0417079999997
 11
1976.9170254999999
 21
1029.0417079999997
  0
LINE
  8
_0-0_LAYER001
  6
CONTINUOUS
 62
    4
 10
2020.7750145
 20
1029.0417079999997
 11
2020.7750145
 21
1041.022508
  0
LINE
  8
_0-0_LAYER001
  6
CONTINUOUS
 62
    4
 10
2020.7750145
 20
1041.022508
 11
1981.7750145
 21
1041.022508
  0
LINE
  8
_0-0_LAYER001
  6
CONTINUOUS
 62
    4
 10
2044.6981915000001
 20
1041.022508
 11
2039.0098725000003
 21
1025.4216499999998
  0
LINE
  8
_0-0_LAYER001
  6
CONTINUOUS
 62
    4
 10
2020.9785194999999
 20
1043.0193079999999
 11
1983.7750145
 21
1043.0193079999999
  0
LINE
  8
_0-0_LAYER001
  6
CONTINUOUS
 62
    4
 10
2020.9785194999999
 20
1043.0193079999999
 11
2027.7046144999999
 21
1024.7635580000001
  0
LINE
  8
_0-0_LAYER001
  6
CONTINUOUS
 62
    4
 10
2102.5638375000003
 20
1041.022508
 11
2044.6981915000001
 21
1041.022508
  0
LINE
  8
_0-0_LAYER001
  6
CONTINUOUS
 62
    4
 10
2023.7110145000001
 20
1062.9873079999998
 11
2023.7110145000001
 21
1059.9921079999999
  0
LINE
  8
_0-0_LAYER001
  6
CONTINUOUS
 62
    4
 10
2023.7110145000001
 20
1062.9873079999998
 11
1983.7750145
 21
1062.9873079999998
  0
LINE
  8
_0-0_LAYER001
  6
CONTINUOUS
 62
    4
 10
2102.5638375000003
 20
1041.022508
 11
2102.5638375000003
 21
1030.0401079999997
  0
LINE
  8
_0-0_LAYER001
  6
CONTINUOUS
 62
    4
 10
2110.5510374999999
 20
1030.0401079999997
 11
2102.5638375000003
 21
1030.0401079999997
  0
LINE
  8
_0-0_LAYER001
  6
CONTINUOUS
 62
    4
 10
2110.5510374999999
 20
1041.022508
 11
2110.5510374999999
 21
1030.0401079999997
  0
LINE
  8
_0-0_LAYER001
  6
CONTINUOUS
 62
    4
 10
1983.7750145
 20
1062.9873079999998
 11
1983.7750145
 21
1043.0193079999999
  0
ARC
  8
_0-0_LAYER001
  6
CONTINUOUS
 62
    4
 10
2033.1692745
 20
1027.0449079999999
 40
5.9904000000000002
 50
199.47122100000004
 51
344.27761299999997
  0
LINE
  8
_0-5_LAYER009
  6
CONTINUOUS
 62
   18
 10
1638.9702755000003
 20
960.54170799999974
 11
1688.9700955000003
 21
1010.5417179999999
  0
LINE
  8
_0-5_LAYER009
  6
CONTINUOUS
 62
   18
 10
1634.7276155
 20
960.54170799999974
 11
1684.7274355
 21
1010.5417179999999
  0
LINE
  8
_0-5_LAYER009
  6
CONTINUOUS
 62
   18
 10
1851.1023855000003
 20
960.54170799999974
 11
1901.1022055000003
 21
1010.5417179999999
  0
LINE
  8
_0-5_LAYER009
  6
CONTINUOUS
 62
   18
 10
1846.8597255
 20
960.54170799999974
 11
1896.8595455
 21
1010.5417179999999
  0
LINE
  8
_0-5_LAYER009
  6
CONTINUOUS
 62
   18
 10
2063.2344955000003
 20
960.54170799999974
 11
2113.2343155000003
 21
1010.5417179999999
  0
LINE
  8
_0-5_LAYER009
  6
CONTINUOUS
 62
   18
 10
2058.9918355
 20
960.54170799999974
 11
2108.9916555
 21
1010.5417179999999
  0
LINE
  8
_0-5_LAYER009
  6
CONTINUOUS
 62
   18
 10
1426.8381655000003
 20
960.54170799999974
 11
1476.8379855000001
 21
1010.5417179999999
  0
LINE
  8
_0-5_LAYER009
  6
CONTINUOUS
 62
   18
 10
1422.5955055000004
 20
960.54170799999974
 11
1472.5953255000002
 21
1010.5417179999999
  0
LINE
  8
_0-5_LAYER009
  6
CONTINUOUS
 62
   18
 10
1214.7060555
 20
960.54170799999974
 11
1264.7060855000002
 21
1010.5417179999999
  0
LINE
  8
_0-5_LAYER009
  6
CONTINUOUS
 62
   18
 10
1210.4633855000002
 20
960.54170799999974
 11
1260.4634755000002
 21
1010.5417179999999
  0
LINE
  8
_0-5_LAYER009
  6
CONTINUOUS
 62
   18
 10
1050.7693755
 20
1010.5417179999999
 11
1050.7693755
 21
960.54170799999974
  0
LINE
  8
_0-5_LAYER009
  6
CONTINUOUS
 62
   18
 10
1050.7693755
 20
960.54170799999974
 11
950.7693955000002
 21
960.54170799999974
  0
LINE
  8
_0-5_LAYER009
  6
CONTINUOUS
 62
   18
 10
950.7693955000002
 20
1014.905158
 11
1050.7693755
 21
1114.9049879999998
  0
LINE
  8
_0-5_LAYER009
  6
CONTINUOUS
 62
   18
 10
950.7693955000002
 20
1010.6624779999997
 11
1050.7693755
 21
1110.6624879999999
  0
LINE
  8
_0-5_LAYER009
  6
CONTINUOUS
 62
   18
 10
950.7693955000002
 20
1226.905178
 11
1050.7693755
 21
1326.9049279999999
  0
LINE
  8
_0-5_LAYER009
  6
CONTINUOUS
 62
   18
 10
950.7693955000002
 20
1222.6625180000001
 11
1050.7693755
 21
1322.6624779999997
  0
LINE
  8
_0-5_LAYER009
  6
CONTINUOUS
 62
   18
 10
950.7693955000002
 20
1081.6971279999998
 11
950.7693955000002
 21
960.54170799999974
  0
LINE
  8
_0-5_LAYER009
  6
CONTINUOUS
 62
   18
 10
950.7693955000002
 20
1372.7322180000001
 11
950.7693955000002
 21
1081.6971279999998
  0
LINE
  8
_0-5_LAYER009
  6
CONTINUOUS
 62
   18
 10
1038.7693655
 20
1196.8126499999998
 11
1038.7693655
 21
1212.8127099999997
  0
LINE
  8
_0-5_LAYER009
  6
CONTINUOUS
 62
   18
 10
1038.7693655
 20
1196.8126499999998
 11
1050.7693755
 21
1196.8126499999998
  0
LINE
  8
_0-5_LAYER009
  6
CONTINUOUS
 62
   18
 10
1050.7693755
 20
1196.8126499999998
 11
1050.7693755
 21
1010.5417179999999
  0
LINE
  8
_0-5_LAYER009
  6
CONTINUOUS
 62
   18
 10
1038.7693655
 20
1212.8127099999997
 11
1050.7693755
 21
1212.8127099999997
  0
LINE
  8
_0-5_LAYER009
  6
CONTINUOUS
 62
   18
 10
1050.7693755
 20
1212.8127099999997
 11
1050.7693755
 21
1372.7322180000001
  0
LINE
  8
_0-0_LAYER001
  6
CONTINUOUS
 62
   18
 10
777.72420750000015
 20
1010.5417179999999
 11
830.22420750000015
 21
1010.5417179999999
  0
CIRCLE
  8
_0-0_LAYER001
  6
CONTINUOUS
 62
   18
 10
780.22420750000015
 20
1010.5417179999999
 40
1.6999999999999997
  0
LINE
  8
_0-0_LAYER001
  6
CONTINUOUS
 62
   18
 10
780.22420750000015
 20
1010.5417179999999
 11
780.22420750000015
 21
1160.5417179999999
  0
CIRCLE
  8
_0-0_LAYER001
  6
CONTINUOUS
 62
   18
 10
780.22420750000015
 20
1160.5417179999999
 40
1.6999999999999997
  0
LINE
  8
_0-0_LAYER001
  6
CONTINUOUS
 62
   18
 10
777.72420750000015
 20
1160.5417179999999
 11
830.22420750000015
 21
1160.5417179999999
  0
LINE
  8
_0-0_LAYER001
  6
CONTINUOUS
 62
   18
 10
864.77361850000011
 20
1113.5657999999999
 11
892.27361850000011
 21
1113.5657999999999
  0
CIRCLE
  8
_0-0_LAYER001
  6
CONTINUOUS
 62
   18
 10
867.27361850000011
 20
1113.5657999999999
 40
1.6999999999999997
  0
LINE
  8
_0-0_LAYER001
  6
CONTINUOUS
 62
   18
 10
867.27361850000011
 20
1113.5657999999999
 11
867.27361850000011
 21
1198.4126799999999
  0
CIRCLE
  8
_0-0_LAYER001
  6
CONTINUOUS
 62
   18
 10
867.27361850000011
 20
1198.4126799999999
 40
1.6999999999999997
  0
LINE
  8
_0-0_LAYER001
  6
CONTINUOUS
 62
   18
 10
864.77361850000011
 20
1198.4126799999999
 11
892.27361850000011
 21
1198.4126799999999
  0
LINE
  8
_0-0_LAYER001
  6
CONTINUOUS
 62
   18
 10
899.7772765000002
 20
1109.7811229999998
 11
927.2772765000002
 21
1109.7811229999998
  0
CIRCLE
  8
_0-0_LAYER001
  6
CONTINUOUS
 62
   18
 10
902.2772765000002
 20
1109.7811229999998
 40
1.6999999999999997
  0
LINE
  8
_0-0_LAYER001
  6
CONTINUOUS
 62
   18
 10
902.2772765000002
 20
1109.7811229999998
 11
902.2772765000002
 21
1010.5417179999999
  0
CIRCLE
  8
_0-0_LAYER001
  6
CONTINUOUS
 62
   18
 10
902.2772765000002
 20
1010.5417179999999
 40
1.6999999999999997
  0
LINE
  8
_0-0_LAYER001
  6
CONTINUOUS
 62
   18
 10
899.7772765000002
 20
1010.5417179999999
 11
927.2772765000002
 21
1010.5417179999999
  0
LINE
  8
_0-0_LAYER001
  6
CONTINUOUS
 62
    7
 10
1059.7750145
 20
1320.7531629999999
 11
1059.7750145
 21
1268.2531629999999
  0
CIRCLE
  8
_0-0_LAYER001
  6
CONTINUOUS
 62
    7
 10
1059.7750145
 20
1318.2531629999999
 40
1.6999999999999997
  0
LINE
  8
_0-0_LAYER001
  6
CONTINUOUS
 62
    7
 10
1059.7750145
 20
1318.2531629999999
 11
1367.7750145
 21
1318.2531629999999
  0
CIRCLE
  8
_0-0_LAYER001
  6
CONTINUOUS
 62
    7
 10
1367.7750145
 20
1318.2531629999999
 40
1.6999999999999997
  0
LINE
  8
_0-0_LAYER001
  6
CONTINUOUS
 62
    7
 10
1367.7750145
 20
1320.7531629999999
 11
1367.7750145
 21
1268.2531629999999
  0
CIRCLE
  8
_0-0_LAYER001
  6
CONTINUOUS
 62
    7
 10
1367.7750145
 20
1318.2531629999999
 40
1.6999999999999997
  0
LINE
  8
_0-0_LAYER001
  6
CONTINUOUS
 62
    7
 10
1367.7750145
 20
1318.2531629999999
 11
1675.7750145
 21
1318.2531629999999
  0
CIRCLE
  8
_0-0_LAYER001
  6
CONTINUOUS
 62
    7
 10
1675.7750145
 20
1318.2531629999999
 40
1.6999999999999997
  0
LINE
  8
_0-0_LAYER001
  6
CONTINUOUS
 62
    7
 10
1675.7750145
 20
1320.7531629999999
 11
1675.7750145
 21
1268.2531629999999
  0
CIRCLE
  8
_0-0_LAYER001
  6
CONTINUOUS
 62
    7
 10
1675.7750145
 20
1318.2531629999999
 40
1.6999999999999997
  0
LINE
  8
_0-0_LAYER001
  6
CONTINUOUS
 62
    7
 10
1675.7750145
 20
1318.2531629999999
 11
1983.7750145
 21
1318.2531629999999
  0
CIRCLE
  8
_0-0_LAYER001
  6
CONTINUOUS
 62
    7
 10
1983.7750145
 20
1318.2531629999999
 40
1.6999999999999997
  0
LINE
  8
_0-0_LAYER001
  6
CONTINUOUS
 62
    7
 10
1983.7750145
 20
1320.7531629999999
 11
1983.7750145
 21
1268.2531629999999
  0
LINE
  8
_0-0_LAYER001
  6
CONTINUOUS
 62
    7
 10
1023.7684105000001
 20
1241.4969219999998
 11
1018.4651095000002
 21
1236.1936209999999
  0
LINE
  8
_0-0_LAYER001
  6
CONTINUOUS
 62
    7
 10
1018.4651095000002
 20
1236.1936209999999
 11
1020.4062525000002
 21
1243.4380649999998
  0
LINE
  8
_0-0_LAYER001
  6
CONTINUOUS
 62
    7
 10
1018.4651095000002
 20
1236.1936209999999
 11
1102.7015085
 21
1382.095343
  0
LINE
  8
_0-0_LAYER001
  6
CONTINUOUS
 62
    7
 10
1102.7015085
 20
1382.095343
 11
1332.4091555
 21
1382.095343
  0
LINE
  8
_0-0_LAYER001
  6
CONTINUOUS
 62
    7
 10
1095.0690875
 20
1283.7361649999998
 11
1176.0690875
 21
1283.7361649999998
  0
LINE
  8
_0-0_LAYER001
  6
CONTINUOUS
 62
    7
 10
1179.0947605000001
 20
1244.6519199999998
 11
1396.5947605000001
 21
1244.6519199999998
  0
LINE
  8
_0-0_LAYER001
  6
CONTINUOUS
 62
   18
 10
1137.5358375000001
 20
1093.5657999999999
 11
1117.5358375000001
 21
1093.5657999999999
  0
LINE
  8
_0-0_LAYER001
  6
CONTINUOUS
 62
   18
 10
1117.5358375000001
 20
1093.5657999999999
 11
1117.5358375000001
 21
1113.5657999999999
  0
LINE
  8
_0-0_LAYER001
  6
CONTINUOUS
 62
   18
 10
1117.5358375000001
 20
1113.5657999999999
 11
1137.5358375000001
 21
1113.5657999999999
  0
LINE
  8
_0-0_LAYER001
  6
CONTINUOUS
 62
   18
 10
1137.5358375000001
 20
1113.5657999999999
 11
1137.5358375000001
 21
1093.5657999999999
  0
LINE
  8
_0-0_LAYER001
  6
CONTINUOUS
 62
   18
 10
1154.7693655
 20
1113.5657999999999
 11
1054.7693655
 21
1113.5657999999999
  0
LINE
  8
_0-0_LAYER001
  6
CONTINUOUS
 62
   18
 10
1154.7693655
 20
1113.5657999999999
 11
1154.7693655
 21
1101.7021199999999
  0
LINE
  8
_0-0_LAYER001
  6
CONTINUOUS
 62
   18
 10
1154.7693655
 20
1101.7021199999999
 11
1150.6886185000001
 21
1108.1242790000001
  0
LINE
  8
_0-0_LAYER001
  6
CONTINUOUS
 62
   18
 10
1154.7693655
 20
1159.3527959999997
 11
1154.7693655
 21
1141.8527959999997
  0
CIRCLE
  8
_0-0_LAYER001
  6
CONTINUOUS
 62
   18
 10
1154.7693655
 20
1156.8527959999997
 40
1.6999999999999997
  0
LINE
  8
_0-0_LAYER001
  6
CONTINUOUS
 62
   18
 10
1154.7693655
 20
1156.8527959999997
 11
1054.7693655
 21
1156.8527959999997
  0
CIRCLE
  8
_0-0_LAYER001
  6
CONTINUOUS
 62
   18
 10
1054.7693655
 20
1156.8527959999997
 40
1.6999999999999997
  0
LINE
  8
_0-0_LAYER001
  6
CONTINUOUS
 62
   18
 10
1054.7693655
 20
1159.3527959999997
 11
1054.7693655
 21
1141.8527959999997
  0
LINE
  8
_0-0_LAYER001
  6
CONTINUOUS
 62
   18
 10
1054.1148435
 20
1208.9190479999997
 11
1048.8115425000001
 21
1203.6157469999998
  0
LINE
  8
_0-0_LAYER001
  6
CONTINUOUS
 62
   18
 10
1048.8115425000001
 20
1203.6157469999998
 11
1050.7526855000001
 21
1210.8601909999998
  0
LINE
  8
_0-0_LAYER001
  6
CONTINUOUS
 62
   18
 10
1048.8115425000001
 20
1203.6157469999998
 11
1095.0690875
 21
1283.7361649999998
  0
LINE
  8
_0-4_LAYER007
  6
CONTINUOUS
 62
   18
 10
1054.7693655
 20
1109.7811229999998
 11
1056.8824855
 21
1104.1655430000001
  0
LINE
  8
_0-0_LAYER001
  6
HIDDEN
 62
   18
 10
1000.3694355
 20
1204.81268
 11
1004.3694255
 21
1207.2126899999998
  0
LINE
  8
_0-0_LAYER001
  6
HIDDEN
 62
   18
 10
1004.3694255
 20
1202.4127699999999
 11
1000.3694355
 21
1204.81268
  0
LINE
  8
_0-0_LAYER001
  6
HIDDEN
 62
   18
 10
1004.3694255
 20
1207.2126899999998
 11
1012.3814455000002
 21
1207.2126899999998
  0
LINE
  8
_0-0_LAYER001
  6
HIDDEN
 62
   18
 10
1004.3694255
 20
1202.4127699999999
 11
1012.3749855000001
 21
1202.4127699999999
  0
LINE
  8
_0-0_LAYER001
  6
HIDDEN
 62
   18
 10
1006.0902055000001
 20
1210.19112
 11
1005.7702355000001
 21
1208.37824
  0
LINE
  8
_0-0_LAYER001
  6
HIDDEN
 62
   18
 10
1006.2285755
 20
1199.4607999999998
 11
1005.9102855000001
 21
1201.2727399999999
  0
LINE
  8
_0-0_LAYER001
  6
HIDDEN
 62
   18
 10
1008.8286815000001
 20
1210.9248109999999
 11
1024.2094455000001
 21
1208.21362
  0
LINE
  8
_0-0_LAYER001
  6
HIDDEN
 62
   18
 10
1007.4798955000001
 20
1211.1630799999998
 11
1008.6621555000002
 21
1210.95426
  0
LINE
  8
_0-0_LAYER001
  6
HIDDEN
 62
   18
 10
1007.6243055
 20
1198.4899
 11
1024.2094455000001
 21
1201.4126799999999
  0
LINE
  8
_0-0_LAYER001
  6
HIDDEN
 62
   18
 10
1025.9885955000002
 20
1204.8135199999997
 11
1005.7702355000001
 21
1208.37824
  0
LINE
  8
_0-0_LAYER001
  6
HIDDEN
 62
   18
 10
1025.9885955000002
 20
1204.8135199999997
 11
1005.9102855000001
 21
1201.2727399999999
  0
LINE
  8
_0-0_LAYER001
  6
HIDDEN
 62
   18
 10
1038.7693655
 20
1201.4126799999999
 11
1024.2094455000001
 21
1201.4126799999999
  0
LINE
  8
_0-0_LAYER001
  6
CONTINUOUS
 62
   18
 10
1038.7693655
 20
1201.4126799999999
 11
1038.7693655
 21
1208.2126800000001
  0
LINE
  8
_0-0_LAYER001
  6
HIDDEN
 62
   18
 10
1024.2094455000001
 20
1208.21362
 11
1038.7693655
 21
1208.21362
  0
LINE
  8
_0-0_LAYER001
  6
CONTINUOUS
 62
   18
 10
1040.3693655000002
 20
1207.2126899999998
 11
1038.7693655
 21
1207.2126899999998
  0
LINE
  8
_0-0_LAYER001
  6
CONTINUOUS
 62
   18
 10
1040.3693655000002
 20
1202.4126699999997
 11
1038.7693655
 21
1202.4126699999997
  0
LINE
  8
_0-4_LAYER007
  6
CONTINUOUS
 62
   18
 10
1054.7693655
 20
1113.5657999999999
 11
1054.7693655
 21
1196.8126499999998
  0
LINE
  8
_0-4_LAYER007
  6
CONTINUOUS
 62
   18
 10
1054.7693655
 20
1196.8126499999998
 11
1056.9074155000001
 21
1185.0047599999998
  0
LINE
  8
_0-2_LAYER003
  6
CONTINUOUS
 62
   18
 10
1057.1693855000001
 20
1166.4127199999998
 11
1057.1693855000001
 21
1198.4126799999999
  0
LINE
  8
_0-2_LAYER003
  6
CONTINUOUS
 62
   18
 10
1040.3693655000002
 20
1198.4126799999999
 11
1040.3693655000002
 21
1210.41275
  0
LINE
  8
_0-2_LAYER003
  6
CONTINUOUS
 62
   18
 10
1040.3693655000002
 20
1198.4126799999999
 11
1057.1693855000001
 21
1198.4126799999999
  0
LINE
  8
_0-3_LAYER006
  6
CONTINUOUS
 62
   18
 10
1040.3693655000002
 20
1210.41264
 11
1040.3693655000002
 21
1212.8127099999997
  0
ARC
  8
_0-2_LAYER003
  6
CONTINUOUS
 62
   18
 10
1032.7194655000001
 20
1204.81268
 40
9.2499219999999998
 50
325.79423000000003
 51
34.205763999999988
  0
ARC
  8
_0-0_LAYER001
  6
HIDDEN
 62
   18
 10
1007.2782155000002
 20
1209.9775799999998
 40
1.204
 50
80.362472000000011
 51
169.54873000000001
  0
ARC
  8
_0-0_LAYER001
  6
HIDDEN
 62
   18
 10
1007.4125955000002
 20
1199.67119
 40
1.1976
 50
189.85266999999999
 51
280.16100999999998
  0
ARC
  8
_0-2_LAYER003
  6
CONTINUOUS
 62
   18
 10
1065.7692655000001
 20
1204.81268
 40
16.999911999999998
 50
151.92736000000002
 51
202.11535000000006
  0
LINE
  8
_0-0_LAYER001
  6
CONTINUOUS
 62
   18
 10
1109.1156815000002
 20
1119.5623139999998
 11
1103.8123805
 21
1114.2590129999999
  0
LINE
  8
_0-0_LAYER001
  6
CONTINUOUS
 62
   18
 10
1103.8123805
 20
1114.2590129999999
 11
1105.7535235
 21
1121.5034569999998
  0
LINE
  8
_0-0_LAYER001
  6
CONTINUOUS
 62
   18
 10
1103.8123805
 20
1114.2590129999999
 11
1179.0947605000001
 21
1244.6519199999998
  0
LINE
  8
_0-0_LAYER001
  6
CONTINUOUS
 62
   18
 10
1131.6779735
 20
1106.4947320000001
 11
1126.3746725000001
 21
1101.1914309999997
  0
LINE
  8
_0-0_LAYER001
  6
CONTINUOUS
 62
   18
 10
1126.3746725000001
 20
1101.1914309999997
 11
1128.3158155000001
 21
1108.4358749999997
  0
LINE
  8
_0-0_LAYER001
  6
CONTINUOUS
 62
   18
 10
1126.3746725000001
 20
1101.1914309999997
 11
1178.0324635000002
 21
1190.6653499999998
  0
LINE
  8
_0-0_LAYER001
  6
CONTINUOUS
 62
   18
 10
1178.0324635000002
 20
1190.6653499999998
 11
1275.5324635000002
 21
1190.6653499999998
  0
LINE
  8
_0-0_LAYER001
  6
CONTINUOUS
 62
   18
 10
1059.7750145
 20
1065.525318
 11
1059.7750145
 21
1091.9921079999999
  0
LINE
  8
_0-0_LAYER001
  6
CONTINUOUS
 62
   18
 10
1403.7142145000003
 20
1073.022508
 11
1403.7142145000003
 21
1065.525318
  0
LINE
  8
_0-0_LAYER001
  6
CONTINUOUS
 62
   18
 10
1404.9785195000002
 20
1075.0193079999999
 11
1404.9785195000002
 21
1065.525318
  0
LINE
  8
_0-0_LAYER001
  6
CONTINUOUS
 62
   18
 10
1404.9785195000002
 20
1075.0193079999999
 11
1367.7750145
 21
1075.0193079999999
  0
LINE
  8
_0-0_LAYER001
  6
CONTINUOUS
 62
   18
 10
1403.7142145000003
 20
1073.022508
 11
1365.7750145
 21
1073.022508
  0
LINE
  8
_0-0_LAYER001
  6
CONTINUOUS
 62
   18
 10
1403.7142145000003
 20
1065.525318
 11
1059.7750145
 21
1065.525318
  0
LINE
  8
_0-0_LAYER001
  6
CONTINUOUS
 62
   18
 10
1325.3494145000002
 20
1094.9873079999998
 11
1325.3494145000002
 21
1091.9921079999999
  0
LINE
  8
_0-0_LAYER001
  6
CONTINUOUS
 62
   18
 10
1250.4694145000001
 20
1091.9921079999999
 11
1325.3494145000002
 21
1091.9921079999999
  0
LINE
  8
_0-0_LAYER001
  6
CONTINUOUS
 62
   18
 10
1059.7750145
 20
1091.9921079999999
 11
1250.4694145000001
 21
1091.9921079999999
  0
LINE
  8
_0-0_LAYER001
  6
CONTINUOUS
 62
   18
 10
1365.7750145
 20
1094.9873079999998
 11
1325.3494145000002
 21
1094.9873079999998
  0
LINE
  8
_0-0_LAYER001
  6
CONTINUOUS
 62
   18
 10
1365.7750145
 20
1094.9873079999998
 11
1365.7750145
 21
1073.022508
  0
LINE
  8
_0-0_LAYER001
  6
CONTINUOUS
 62
   18
 10
1407.7110145000001
 20
1094.9873079999998
 11
1407.7110145000001
 21
1091.9921079999999
  0
LINE
  8
_0-0_LAYER001
  6
CONTINUOUS
 62
   18
 10
1407.7110145000001
 20
1094.9873079999998
 11
1367.7750145
 21
1094.9873079999998
  0
LINE
  8
_0-0_LAYER001
  6
CONTINUOUS
 62
   18
 10
1367.7750145
 20
1094.9873079999998
 11
1367.7750145
 21
1075.0193079999999
  0
LINE
  8
_0-0_LAYER001
  6
CONTINUOUS
 62
   18
 10
1713.9811005000001
 20
1059.9313090000001
 11
1708.6777995000002
 21
1054.6280079999997
  0
LINE
  8
_0-0_LAYER001
  6
CONTINUOUS
 62
   18
 10
1708.6777995000002
 20
1054.6280079999997
 11
1710.6189425000002
 21
1061.8724520000001
  0
LINE
  8
_0-0_LAYER001
  6
CONTINUOUS
 62
   18
 10
1096.5658885
 20
1009.2644019999998
 11
1094.6247455
 21
1016.5088459999997
  0
LINE
  8
_0-0_LAYER001
  6
CONTINUOUS
 62
   18
 10
1094.6247455
 20
1016.5088459999997
 11
1099.9280465000002
 21
1011.2055449999998
  0
LINE
  8
_0-0_LAYER001
  6
CONTINUOUS
 62
   18
 10
1094.6247455
 20
1016.5088459999997
 11
1236.3140015000001
 21
771.09585500000003
  0
LINE
  8
_0-0_LAYER001
  6
CONTINUOUS
 62
   18
 10
1236.3140015000001
 20
771.09585500000003
 11
1437.3140015000001
 21
771.09585500000003
  0
LINE
  8
_0-0_LAYER001
  6
CONTINUOUS
 62
   18
 10
1050.7693755
 20
896.15695199999982
 11
1050.7693755
 21
923.65695199999982
  0
CIRCLE
  8
_0-0_LAYER001
  6
CONTINUOUS
 62
   18
 10
1050.7693755
 20
898.65695199999982
 40
1.6999999999999997
  0
LINE
  8
_0-0_LAYER001
  6
CONTINUOUS
 62
   18
 10
1050.7693755
 20
898.65695199999982
 11
1170.7693855
 21
898.65695199999982
  0
CIRCLE
  8
_0-0_LAYER001
  6
CONTINUOUS
 62
   18
 10
1170.7693855
 20
898.65695199999982
 40
1.6999999999999997
  0
LINE
  8
_0-0_LAYER001
  6
CONTINUOUS
 62
   18
 10
1170.7693855
 20
896.15695199999982
 11
1170.7693855
 21
923.65695199999982
  0
LINE
  8
_0-0_LAYER001
  6
CONTINUOUS
 62
   18
 10
1710.0164985000001
 20
729.47080099999994
 11
1977.3255825000001
 21
729.47080099999994
  0
LINE
  8
_0-0_LAYER001
  6
CONTINUOUS
 62
   18
 10
1543.8009995000002
 20
1013.4822039999999
 11
1541.8598565000002
 21
1020.726647
  0
LINE
  8
_0-0_LAYER001
  6
CONTINUOUS
 62
   18
 10
1541.8598565000002
 20
1020.726647
 11
1547.1631575000001
 21
1015.4233469999999
  0
LINE
  8
_0-0_LAYER001
  6
CONTINUOUS
 62
   18
 10
1541.8598565000002
 20
1020.726647
 11
1726.7978444999999
 21
700.40465700000004
  0
LINE
  8
_0-0_LAYER001
  6
CONTINUOUS
 62
   18
 10
1726.7978444999999
 20
700.40465700000004
 11
2045.4402305000003
 21
700.40465700000004
  0
LINE
  8
_0-0_LAYER001
  6
CONTINUOUS
 62
   18
 10
1692.3648085
 20
760.36655199999996
 11
1928.4899455
 21
760.36655199999996
  0
LINE
  8
_0-0_LAYER001
  6
CONTINUOUS
 62
   18
 10
1674.6881685000003
 20
790.34749999999985
 11
1867.0808565000002
 21
790.34749999999985
  0
LINE
  8
_0-1_LAYER002
  6
CONTINUOUS
 62
   18
 10
1172.7694355000001
 20
1029.0417079999997
 11
1172.7694355000001
 21
1014.0417079999997
  0
LINE
  8
_0-4_LAYER007
  6
CONTINUOUS
 62
   18
 10
1170.7693855
 20
1014.541698
 11
1054.7693655
 21
1014.541698
  0
LINE
  8
_0-0_LAYER001
  6
CONTINUOUS
 62
   18
 10
1060.7693755
 20
960.54170799999974
 11
1060.7693755
 21
860.541698
  0
LINE
  8
_0-4_LAYER007
  6
CONTINUOUS
 62
   18
 10
1054.7693655
 20
1109.7811229999998
 11
1054.7693655
 21
1014.541698
  0
LINE
  8
_0-4_LAYER007
  6
CONTINUOUS
 62
   18
 10
1170.7693855
 20
1027.5418879999997
 11
1170.7693855
 21
1014.541698
  0
LINE
  8
_0-0_LAYER001
  6
CONTINUOUS
 62
   18
 10
2019.7142145000003
 20
1073.022508
 11
2019.7142145000003
 21
1065.525318
  0
LINE
  8
_0-0_LAYER001
  6
CONTINUOUS
 62
   18
 10
2020.9785194999999
 20
1075.0193079999999
 11
2020.9785194999999
 21
1065.525318
  0
LINE
  8
_0-0_LAYER001
  6
CONTINUOUS
 62
   18
 10
2020.9785194999999
 20
1075.0193079999999
 11
1983.7750145
 21
1075.0193079999999
  0
LINE
  8
_0-0_LAYER001
  6
CONTINUOUS
 62
   18
 10
2019.7142145000003
 20
1073.022508
 11
1981.7750145
 21
1073.022508
  0
LINE
  8
_0-0_LAYER001
  6
CONTINUOUS
 62
   18
 10
1711.7142145000003
 20
1073.022508
 11
1711.7142145000003
 21
1065.525318
  0
LINE
  8
_0-0_LAYER001
  6
CONTINUOUS
 62
   18
 10
1712.9785194999999
 20
1075.0193079999999
 11
1712.9785194999999
 21
1065.525318
  0
LINE
  8
_0-0_LAYER001
  6
CONTINUOUS
 62
   18
 10
1712.9785194999999
 20
1075.0193079999999
 11
1675.7750145
 21
1075.0193079999999
  0
LINE
  8
_0-0_LAYER001
  6
CONTINUOUS
 62
   18
 10
1711.7142145000003
 20
1073.022508
 11
1673.7750145
 21
1073.022508
  0
LINE
  8
_0-0_LAYER001
  6
CONTINUOUS
 62
   18
 10
2019.7142145000003
 20
1065.525318
 11
1712.9785194999999
 21
1065.525318
  0
LINE
  8
_0-0_LAYER001
  6
CONTINUOUS
 62
   18
 10
1711.7142145000003
 20
1065.525318
 11
1404.9785195000002
 21
1065.525318
  0
LINE
  8
_0-0_LAYER001
  6
CONTINUOUS
 62
   18
 10
1633.3494145
 20
1094.9873079999998
 11
1633.3494145
 21
1091.9921079999999
  0
LINE
  8
_0-0_LAYER001
  6
CONTINUOUS
 62
   18
 10
1558.4694145000003
 20
1091.9921079999999
 11
1633.3494145
 21
1091.9921079999999
  0
LINE
  8
_0-0_LAYER001
  6
CONTINUOUS
 62
   18
 10
1407.7110145000001
 20
1091.9921079999999
 11
1558.4694145000003
 21
1091.9921079999999
  0
LINE
  8
_0-0_LAYER001
  6
CONTINUOUS
 62
   18
 10
1673.7750145
 20
1094.9873079999998
 11
1633.3494145
 21
1094.9873079999998
  0
LINE
  8
_0-0_LAYER001
  6
CONTINUOUS
 62
   18
 10
1673.7750145
 20
1094.9873079999998
 11
1673.7750145
 21
1073.022508
  0
LINE
  8
_0-0_LAYER001
  6
CONTINUOUS
 62
   18
 10
1673.7750145
 20
1094.9873079999998
 11
1673.7750145
 21
1075.0193079999999
  0
LINE
  8
_0-0_LAYER001
  6
CONTINUOUS
 62
   18
 10
1941.3494145
 20
1094.9873079999998
 11
1941.3494145
 21
1091.9921079999999
  0
LINE
  8
_0-0_LAYER001
  6
CONTINUOUS
 62
   18
 10
1866.4694145000003
 20
1091.9921079999999
 11
1941.3494145
 21
1091.9921079999999
  0
LINE
  8
_0-0_LAYER001
  6
CONTINUOUS
 62
   18
 10
1715.7110145000001
 20
1091.9921079999999
 11
1866.4694145000003
 21
1091.9921079999999
  0
LINE
  8
_0-0_LAYER001
  6
CONTINUOUS
 62
   18
 10
1715.7110145000001
 20
1094.9873079999998
 11
1715.7110145000001
 21
1091.9921079999999
  0
LINE
  8
_0-0_LAYER001
  6
CONTINUOUS
 62
   18
 10
1715.7110145000001
 20
1094.9873079999998
 11
1675.7750145
 21
1094.9873079999998
  0
LINE
  8
_0-0_LAYER001
  6
CONTINUOUS
 62
   18
 10
1675.7750145
 20
1094.9873079999998
 11
1675.7750145
 21
1075.0193079999999
  0
LINE
  8
_0-0_LAYER001
  6
CONTINUOUS
 62
   18
 10
1981.7750145
 20
1094.9873079999998
 11
1941.3494145
 21
1094.9873079999998
  0
LINE
  8
_0-0_LAYER001
  6
CONTINUOUS
 62
   18
 10
1981.7750145
 20
1094.9873079999998
 11
1981.7750145
 21
1073.022508
  0
LINE
  8
_0-0_LAYER001
  6
CONTINUOUS
 62
   18
 10
1981.7750145
 20
1094.9873079999998
 11
1981.7750145
 21
1075.0193079999999
  0
LINE
  8
_0-0_LAYER001
  6
CONTINUOUS
 62
   18
 10
2023.7110145000001
 20
1094.9873079999998
 11
2023.7110145000001
 21
1091.9921079999999
  0
LINE
  8
_0-0_LAYER001
  6
CONTINUOUS
 62
   18
 10
2023.7110145000001
 20
1094.9873079999998
 11
1983.7750145
 21
1094.9873079999998
  0
LINE
  8
_0-0_LAYER001
  6
CONTINUOUS
 62
   18
 10
1983.7750145
 20
1094.9873079999998
 11
1983.7750145
 21
1075.0193079999999
  0
LINE
  8
_0-2_LAYER003
  6
DASHED
 62
   18
 10
1052.7693755
 20
1163.2389579999999
 11
1052.7693755
 21
1012.5417079999997
  0
LINE
  8
_0-0_LAYER001
  6
CONTINUOUS
 62
   18
 10
1708.6777995000002
 20
1054.6280079999997
 11
1767.1261365
 21
1155.8634979999997
  0
LINE
  8
_0-0_LAYER001
  6
CONTINUOUS
 62
   18
 10
1767.1261365
 20
1155.8634979999997
 11
1807.6261365
 21
1155.8634979999997
  0
TEXT
  8
_0-0_LAYER001
 62
    7
 10
2055.210709856583
 20
773.35115735838826
 40
20
 41
1
 50
0
  1
：
  0
TEXT
  8
_0-0_LAYER001
 62
    7
 10
812.20849904563022
 20
1080.3188983607624
 40
20
 41
1
 50
90
  1
150
  0
TEXT
  8
_0-0_LAYER001
 62
    7
 10
925.53285197859896
 20
1044.7993250534139
 40
20
 41
1
 50
90
  1
100
  0
TEXT
  8
_0-0_LAYER001
 62
    7
 10
893.39609517671215
 20
1146.2838202172666
 40
20
 41
1
 50
90
  1
85
  0
TEXT
  8
_0-0_LAYER001
 62
    7
 10
857.87652186936396
 20
1024.5024260206435
 40
20
 41
1
 50
90
  1
水切り鉄板立上がり寸法
  0
TEXT
  8
_0-0_LAYER001
 62
    7
 10
763.15765971643486
 20
1022.8110177679126
 40
20
 41
1
 50
90
  1
下葺き材立上がり寸法
  0
TEXT
  8
_0-0_LAYER001
 62
    7
 10
1087.908044240763
 20
1161.5064944918445
 40
20
 41
1
 50
0
  1
100
  0
TEXT
  8
_0-0_LAYER001
 62
    7
 10
1098.0564937571482
 20
902.72103182402043
 40
20
 41
1
 50
0
  1
120
  0
TEXT
  8
_0-0_LAYER001
 62
    7
 10
1514.1429239289437
 20
1325.5730950067393
 40
20
 41
1
 50
0
  1
308
  0
TEXT
  8
_0-5_LAYER009
 62
    7
 10
1206.3066219319242
 20
1323.8816867540083
 40
20
 41
1
 50
0
  1
308
  0
TEXT
  8
_0-5_LAYER009
 62
    7
 10
1828.7448589368864
 20
1327.2645032594701
 40
20
 41
1
 50
0
  1
308
  0
TEXT
  8
_0-0_LAYER001
 62
    7
 10
1087.908044240763
 20
1286.6707051939293
 40
20
 41
1
 50
0
  1
シーリング
  0
TEXT
  8
_0-0_LAYER001
 62
    7
 10
1762.7799370803823
 20
1163.1979027445752
 40
20
 41
1
 50
0
  1
桟　瓦
  0
LINE
  8
_0-5_LAYER009
  6
CONTINUOUS
 62
    7
 10
1332.4091555
 20
1382.095343
 11
1364.7018031050661
 21
1382.095343
  0
LINE
  8
_0-5_LAYER009
  6
CONTINUOUS
 62
    7
 10
1396.5947605000001
 20
1244.6519199999998
 11
1501.4706004497557
 21
1244.6519199999998
  0
LINE
  8
_0-5_LAYER009
  6
CONTINUOUS
 62
    7
 10
1275.5324635000002
 20
1190.6653499999998
 11
1314.3132988201805
 21
1190.6653499999998
  0
LINE
  8
_0-5_LAYER009
  6
CONTINUOUS
 62
    7
 10
1807.6261365
 20
1155.8634979999997
 11
1834.9945097639988
 21
1155.8634979999997
  0
LINE
  8
_0-5_LAYER009
  6
CONTINUOUS
 62
    7
 10
1437.3140015000001
 20
771.09585500000003
 11
1544.6607469796577
 21
771.09585500000003
  0
TEXT
  8
_0-0_LAYER001
 62
    7
 10
1187.7067681783469
 20
1248.7733172918342
 40
20
 41
1
 50
0
  1
登水切カラー鋼板0.35ｍｍ以上
  0
TEXT
  8
_0-5_LAYER009
 62
    7
 10
1099.9298314859891
 20
1390.0393247810973
 40
20
 41
1
 50
0
  1
壁外：ALCパネル　ｔ＝50
  0
TEXT
  8
_0-0_LAYER001
 62
    7
 10
1186.3352535425288
 20
1199.3987904023829
 40
20
 41
1
 50
0
  1
弾性シール材
  0
TEXT
  8
_0-2_LAYER003
 62
    7
 10
1681.4520370728587
 20
794.80197283604684
 40
20
 41
1
 50
0
  1
瓦桟：15x30以上
  0
TEXT
  8
_0-2_LAYER003
 62
    7
 10
1693.7956687952214
 20
766.00016548386691
 40
20
 41
1
 50
0
  1
下葺材：ルーフィング
  0
TEXT
  8
_0-0_LAYER001
 62
    7
 10
1708.8823297892204
 20
733.08381422423281
 40
20
 41
1
 50
0
  1
野地板：ALCパネル　t＝50
  0
TEXT
  8
_0-0_LAYER001
 62
    7
 10
1725.3405054190375
 20
704.28200687205299
 40
20
 41
1
 50
0
  1
　鋼製：C100x50x20x2.3
  0
TEXT
  8
_0-0_LAYER001
 62
    7
 10
1243.9388682468884
 20
779.71531184204787
 40
20
 41
1
 50
0
  1
捨谷カラー鋼板0.35ｍｍ以上
  0
ENDSEC
  0
EOF
