  0
SECTION
  2
HEADER
  9
$ACADVER
  1
AC1009
  9
$INSBASE
 10
0
 20
0
 30
0
  9
$EXTMIN
 10
0
 20
0
  9
$EXTMAX
 10
2970
 20
2100
  9
$LIMMIN
 10
0
 20
0
  9
$LIMMAX
 10
2970
 20
2100
  9
$LTSCALE
 40
10
  0
ENDSEC
  0
SECTION
  2
TABLES
  0
TABLE
  2
LTYPE
 70
     9
  0
LTYPE
  2
CONTINUOUS
 70
    64
  3
実線
 72
    65
 73
     0
 40
0.0
  0
LTYPE
  2
DASHED1
 70
    64
  3
--  --  --  --  --  --  --  --  
 72
    65
 73
     2
 40
2.5
 49
1.25
 49
-1.25
  0
LTYPE
  2
DASHED2
 70
    64
  3
----    ----    ----    ----    
 72
    65
 73
     2
 40
5.0
 49
2.5
 49
-2.5
  0
LTYPE
  2
DASHED3
 70
    64
  3
------  ------  ------  ------  
 72
    65
 73
     2
 40
5.0
 49
3.75
 49
-1.25
  0
LTYPE
  2
CENTER1
 70
    64
  3
----- - ----- - ----- - ----- - 
 72
    65
 73
     4
 40
10.0
 49
6.25
 49
-1.25
 49
1.25
 49
-1.25
  0
LTYPE
  2
CENTER2
 70
    64
  3
----------  --  ----------  --  
 72
    65
 73
     4
 40
20.0
 49
12.5
 49
-2.5
 49
2.5
 49
-2.5
  0
LTYPE
  2
PHANTOM1
 70
    64
  3
--- - - --- - - --- - - --- - - 
 72
    65
 73
     6
 40
10.0
 49
3.25
 49
-1.25
 49
1.25
 49
-1.25
 49
1.25
 49
-1.25
  0
LTYPE
  2
PHANTOM2
 70
    64
  3
--------  -  -  --------  -  -  
 72
    65
 73
     6
 40
20.0
 49
10.0
 49
-2.5
 49
1.25
 49
-2.5
 49
1.25
 49
-2.5
  0
LTYPE
  2
DOT
 70
    64
  3
-   -   -   -   -   -   -   -   
 72
    65
 73
     2
 40
2.5
 49
0.625
 49
-1.875
  0
LTYPE
  2
DUMMY
 70
    64
  3
ダミー
 72
    65
 73
     0
 40
0.0
  0
LTYPE
  2
RAND1
 70
    64
  3
ランダム線1
 72
    65
 73
     4
 40
10.0
 49
1.0
 49
-2.0
 49
3.0
 49
-4.0
  0
LTYPE
  2
RAND2
 70
    64
  3
ランダム線2
 72
    65
 73
     4
 40
14.0
 49
2.0
 49
-3.0
 49
4.0
 49
-5.0
  0
LTYPE
  2
RAND3
 70
    64
  3
ランダム線3
 72
    65
 73
     4
 40
18.0
 49
3.0
 49
-4.0
 49
5.0
 49
-6.0
  0
LTYPE
  2
RAND4
 70
    64
  3
ランダム線4
 72
    65
 73
     4
 40
22.0
 49
4.0
 49
-5.0
 49
6.0
 49
-7.0
  0
LTYPE
  2
RAND5
 70
    64
  3
ランダム線5
 72
    65
 73
     4
 40
26.0
 49
5.0
 49
-6.0
 49
7.0
 49
-8.0
  0
LTYPE
  2
LONG1
 70
    64
  3
----------  --  ----------  --  
 72
    65
 73
     4
 40
40.0
 49
32.5
 49
-2.5
 49
2.5
 49
-2.5
  0
LTYPE
  2
LONG2
 70
    64
  3
--------  -  -  --------  -  -  
 72
    65
 73
     6
 40
40.0
 49
30.0
 49
-2.5
 49
1.25
 49
-2.5
 49
1.25
 49
-2.5
  0
LTYPE
  2
LONG3
 70
    64
  3
+++++++++++++++..+++++++++++++++
 72
    65
 73
     2
 40
40.0
 49
37.5
 49
-2.5
  0
LTYPE
  2
LONG4
 70
    64
  3
+++++++++++++++..+++++++++++++++
 72
    65
 73
     2
 40
80.0
 49
75.0
 49
-5.0
  0
LTYPE
  2
LONG5
 70
    64
  3
----------  --  ----------  --  
 72
    65
 73
     4
 40
60.0
 49
37.5
 49
-7.5
 49
7.5
 49
-7.5
  0
LTYPE
  2
dashed
 70
   64
  3
-------   -------------   ------
 72
   65
 73
    2
 40
7.5
 49
6
 49
-1.5
  0
LTYPE
  2
dashed_spaced
 70
   64
  3
----        --------        ----
 72
   65
 73
    2
 40
12
 49
6
 49
-6
  0
LTYPE
  2
long_dashed_dotted
 70
   64
  3
------------- --- --------------
 72
   65
 73
    4
 40
15.25
 49
12
 49
-1.5
 49
0.25
 49
-1.5
  0
LTYPE
  2
long_dashed_double-dotted
 70
   64
  3
----------- --- --- ------------
 72
   65
 73
    6
 40
17
 49
12
 49
-1.5
 49
0.25
 49
-1.5
 49
0.25
 49
-1.5
  0
LTYPE
  2
long_dashed_triplicate-dotted
 70
   64
  3
--------- --- --- --- ----------
 72
   65
 73
    8
 40
18.75
 49
12
 49
-1.5
 49
0.25
 49
-1.5
 49
0.25
 49
-1.5
 49
0.25
 49
-1.5
  0
LTYPE
  2
dotted
 70
   64
  3
   -       -       -       -    
 72
   65
 73
    2
 40
1.75
 49
0.25
 49
-1.5
  0
LTYPE
  2
chain
 70
   64
  3
-------------- -- --------------
 72
   65
 73
    4
 40
18.5
 49
12
 49
-1.5
 49
3.5
 49
-1.5
  0
LTYPE
  2
chain_double_dash
 70
   64
  3
------------ -- -- -------------
 72
   65
 73
    6
 40
23.5
 49
12
 49
-1.5
 49
3.5
 49
-1.5
 49
3.5
 49
-1.5
  0
LTYPE
  2
dashed_dotted
 70
   64
  3
-----------     -     ----------
 72
   65
 73
    4
 40
9.25
 49
6
 49
-1.5
 49
0.25
 49
-1.5
  0
LTYPE
  2
double-dashed_dotted
 70
   64
  3
------   -----------   -   -----
 72
   65
 73
    6
 40
16.75
 49
6
 49
-1.5
 49
6
 49
-1.5
 49
0.25
 49
-1.5
  0
LTYPE
  2
dashed_double-dotted
 70
   64
  3
---------    -    -    ---------
 72
   65
 73
    6
 40
11
 49
6
 49
-1.5
 49
0.25
 49
-1.5
 49
0.25
 49
-1.5
  0
LTYPE
  2
double-dashed_double-dotted
 70
   64
  3
-----   ---------   -   -   ----
 72
   65
 73
    8
 40
18.5
 49
6
 49
-1.5
 49
6
 49
-1.5
 49
0.25
 49
-1.5
 49
0.25
 49
-1.5
  0
LTYPE
  2
dashed_triplicate-dotted
 70
   64
  3
-------    -    -    -    ------
 72
   65
 73
    8
 40
12.75
 49
6
 49
-1.5
 49
0.25
 49
-1.5
 49
0.25
 49
-1.5
 49
0.25
 49
-1.5
  0
LTYPE
  2
double-dashed_triplicate-dotted
 70
   64
  3
-----  ---------  -  -  -  -----
 72
   65
 73
   10
 40
20.25
 49
6
 49
-1.5
 49
6
 49
-1.5
 49
0.25
 49
-1.5
 49
0.25
 49
-1.5
 49
0.25
 49
-1.5
  0
LTYPE
  2
undefined
 70
   64
  3
--------------------------------
 72
   65
 73
    0
 40
0
  0
ENDTAB
  0
TABLE
  2
STYLE
  5
3
100
AcDbSymbolTable
 70
     1
  0
STYLE
  5
10
100
AcDbSymbolTableRecord
100
AcDbTextStyleTableRecord
  2
STANDARD
 70
     0
 40
0.0
 41
1.0
 50
0.0
 71
     0
 42
0.2
  3
txt
  4
bigfont.shx
  0
STYLE
  5
26
100
AcDbSymbolTableRecord
100
AcDbTextStyleTableRecord
  2
TATEGAKI
 70
    68
 40
0.0
 41
1.0
 50
0.0
 71
     0
 42
1.0
  3
txt
  4
bigfont.shx
  0
ENDTAB
  0
TABLE
  2
LAYER
 70
    3
  0
LAYER
  2
_0-0_LAYER001
 70
   64
 62
    7
  6
CONTINUOUS
  0
LAYER
  2
_0-1_ADD_LINE
 70
   64
 62
    7
  6
CONTINUOUS
  0
LAYER
  2
ADD_LINE
 70
   64
 62
    7
  6
CONTINUOUS
  0
ENDTAB
  0
ENDSEC
  0
SECTION
  2
BLOCKS
  0
ENDSEC
  0
SECTION
  2
ENTITIES
  0
LINE
  8
_0-0_LAYER001
  6
CONTINUOUS
 62
    3
 10
1861.5146
 20
957.83140000000003
 11
1861.5146
 21
977.79940000000011
  0
LINE
  8
_0-0_LAYER001
  6
CONTINUOUS
 62
    3
 10
1861.5146
 20
977.79940000000011
 11
1871.4985999999999
 21
977.79940000000011
  0
LINE
  8
_0-0_LAYER001
  6
CONTINUOUS
 62
    3
 10
1871.4985999999999
 20
977.79940000000011
 11
1871.4985999999999
 21
987.78340000000003
  0
LINE
  8
_0-0_LAYER001
  6
CONTINUOUS
 62
    3
 10
1871.4985999999999
 20
987.78340000000003
 11
1861.5146
 21
987.78340000000003
  0
LINE
  8
_0-0_LAYER001
  6
CONTINUOUS
 62
    3
 10
1861.5146
 20
1007.7514000000001
 11
1871.4985999999999
 21
1007.7514000000001
  0
LINE
  8
_0-0_LAYER001
  6
CONTINUOUS
 62
    3
 10
1871.4985999999999
 20
1007.7514000000001
 11
1871.4985999999999
 21
1017.7354
  0
LINE
  8
_0-0_LAYER001
  6
CONTINUOUS
 62
    3
 10
1871.4985999999999
 20
1017.7354
 11
1861.5146
 21
1017.7354
  0
LINE
  8
_0-0_LAYER001
  6
CONTINUOUS
 62
    2
 10
1769.0128
 20
1038.5877
 11
1815.2637
 21
1038.5877
  0
LINE
  8
_0-0_LAYER001
  6
CONTINUOUS
 62
    2
 10
1815.2637
 20
1038.5877
 11
1815.2637
 21
917.3877
  0
LINE
  8
_0-0_LAYER001
  6
CONTINUOUS
 62
    2
 10
1815.2637
 20
917.3877
 11
1769.0128
 21
917.3877
  0
LINE
  8
_0-0_LAYER001
  6
CONTINUOUS
 62
    2
 10
1769.0128
 20
917.3877
 11
1769.0128
 21
1038.5877
  0
LINE
  8
_0-0_LAYER001
  6
CONTINUOUS
 62
    2
 10
1861.5146
 20
1038.5877
 11
770.88940000000002
 21
1038.5877
  0
LINE
  8
_0-0_LAYER001
  6
CONTINUOUS
 62
    2
 10
1815.2637
 20
1038.5877
 11
1769.0128
 21
917.3877
  0
LINE
  8
_0-0_LAYER001
  6
CONTINUOUS
 62
    2
 10
1861.5146
 20
1038.5877
 11
1815.2637
 21
917.3877
  0
LINE
  8
_0-0_LAYER001
  6
CONTINUOUS
 62
    3
 10
1861.5146
 20
949.2192
 11
1871.4985999999999
 21
949.2192
  0
LINE
  8
_0-0_LAYER001
  6
CONTINUOUS
 62
    3
 10
1871.4985999999999
 20
949.2192
 11
1871.4985999999999
 21
959.20319999999992
  0
LINE
  8
_0-0_LAYER001
  6
CONTINUOUS
 62
    3
 10
1871.4985999999999
 20
959.20319999999992
 11
1861.5146
 21
959.20319999999992
  0
LINE
  8
_0-0_LAYER001
  6
CONTINUOUS
 62
    3
 10
1861.5146
 20
959.20319999999992
 11
1861.5146
 21
974.17920000000004
  0
LINE
  8
_0-0_LAYER001
  6
CONTINUOUS
 62
    2
 10
1360.2637
 20
1038.5877
 11
1360.2637
 21
917.3877
  0
LINE
  8
_0-0_LAYER001
  6
CONTINUOUS
 62
    2
 10
1314.0128
 20
917.3877
 11
1314.0128
 21
1038.5877
  0
LINE
  8
_0-0_LAYER001
  6
CONTINUOUS
 62
    2
 10
1360.2637
 20
1038.5877
 11
1314.0128
 21
917.3877
  0
LINE
  8
_0-0_LAYER001
  6
CONTINUOUS
 62
    2
 10
1360.2637
 20
917.3877
 11
1360.2637
 21
1038.5877
  0
LINE
  8
_0-0_LAYER001
  6
CONTINUOUS
 62
    2
 10
905.26369999999997
 20
1038.5877
 11
905.26369999999997
 21
917.3877
  0
LINE
  8
_0-0_LAYER001
  6
CONTINUOUS
 62
    2
 10
859.01279999999997
 20
917.3877
 11
859.01279999999997
 21
1038.5877
  0
LINE
  8
_0-0_LAYER001
  6
CONTINUOUS
 62
    2
 10
905.26369999999997
 20
1038.5877
 11
859.01279999999997
 21
917.3877
  0
LINE
  8
_0-0_LAYER001
  6
CONTINUOUS
 62
    2
 10
905.26369999999997
 20
917.3877
 11
905.26369999999997
 21
1038.5877
  0
LINE
  8
_0-0_LAYER001
  6
CONTINUOUS
 62
    2
 10
1884.4220999999998
 20
957.8436999999999
 11
1882.4810000000002
 21
965.08809999999994
  0
LINE
  8
_0-0_LAYER001
  6
CONTINUOUS
 62
    2
 10
1882.4810000000002
 20
965.08809999999994
 11
1887.7842999999998
 21
959.7847999999999
  0
LINE
  8
_0-0_LAYER001
  6
CONTINUOUS
 62
    2
 10
1882.4810000000002
 20
965.08809999999994
 11
1944.2053999999998
 21
858.17830000000004
  0
LINE
  8
_0-0_LAYER001
  6
CONTINUOUS
 62
    2
 10
1944.2053999999998
 20
858.17830000000004
 11
1992.2053999999998
 21
858.17830000000004
  0
LINE
  8
_0-0_LAYER001
  6
CONTINUOUS
 62
    2
 10
1360.2637
 20
917.3877
 11
1314.0128
 21
917.3877
  0
LINE
  8
_0-0_LAYER001
  6
CONTINUOUS
 62
    2
 10
905.26369999999997
 20
917.3877
 11
859.01279999999997
 21
917.3877
  0
LINE
  8
_0-0_LAYER001
  6
CONTINUOUS
 62
    3
 10
1882.4810000000002
 20
873.47610000000009
 11
1876.9144000000001
 21
870.30289999999991
  0
LINE
  8
_0-0_LAYER001
  6
CONTINUOUS
 62
    3
 10
1876.9144000000001
 20
870.30289999999991
 11
1876.9144000000001
 21
845.88069999999993
  0
LINE
  8
_0-0_LAYER001
  6
CONTINUOUS
 62
    3
 10
1876.9144000000001
 20
845.88069999999993
 11
1861.5146
 21
845.88069999999993
  0
LINE
  8
_0-0_LAYER001
  6
CONTINUOUS
 62
    3
 10
1861.5146
 20
845.88069999999993
 11
1861.5146
 21
865.53070000000002
  0
LINE
  8
_0-0_LAYER001
  6
CONTINUOUS
 62
    3
 10
1861.5146
 20
865.53070000000002
 11
1866.5066000000002
 21
865.53070000000002
  0
LINE
  8
_0-0_LAYER001
  6
CONTINUOUS
 62
    3
 10
1866.5066000000002
 20
865.53070000000002
 11
1866.5066000000002
 21
875.51469999999995
  0
LINE
  8
_0-0_LAYER001
  6
CONTINUOUS
 62
    3
 10
1866.5066000000002
 20
875.51469999999995
 11
1861.5146
 21
875.51469999999995
  0
LINE
  8
_0-0_LAYER001
  6
CONTINUOUS
 62
    3
 10
1861.5146
 20
875.51469999999995
 11
1861.5146
 21
949.2192
  0
LINE
  8
_0-0_LAYER001
  6
CONTINUOUS
 62
    3
 10
1882.4810000000002
 20
1039.5381
 11
1882.4810000000002
 21
873.47610000000009
  0
LINE
  8
_0-0_LAYER001
  6
CONTINUOUS
 62
    3
 10
1861.5146
 20
1017.7354
 11
1861.5146
 21
1039.5381
  0
LINE
  8
_0-0_LAYER001
  6
CONTINUOUS
 62
    2
 10
1815.2637
 20
1038.5877
 11
1861.5146
 21
1038.5877
  0
LINE
  8
_0-0_LAYER001
  6
CONTINUOUS
 62
    2
 10
1861.5146
 20
1039.5381
 11
1861.5146
 21
911.3877
  0
LINE
  8
_0-0_LAYER001
  6
CONTINUOUS
 62
    2
 10
1861.5146
 20
917.3877
 11
1815.2637
 21
917.3877
  0
LINE
  8
_0-0_LAYER001
  6
CONTINUOUS
 62
    2
 10
1815.2637
 20
917.3877
 11
1815.2637
 21
1038.5877
  0
LINE
  8
_0-0_LAYER001
  6
CONTINUOUS
 62
    3
 10
1861.5146
 20
987.78340000000003
 11
1861.5146
 21
1039.5381
  0
LINE
  8
_0-0_LAYER001
  6
CONTINUOUS
 62
    2
 10
1849.8163
 20
1050.5877
 11
770.88940000000002
 21
1050.5877
  0
LINE
  8
_0-0_LAYER001
  6
CONTINUOUS
 62
    2
 10
1885.9317999999998
 20
1166.7791999999999
 11
1880.6284999999998
 21
1161.4758999999999
  0
LINE
  8
_0-0_LAYER001
  6
CONTINUOUS
 62
    2
 10
1880.6284999999998
 20
1161.4758999999999
 11
1882.5695999999998
 21
1168.7203999999999
  0
LINE
  8
_0-0_LAYER001
  6
CONTINUOUS
 62
    2
 10
1880.6284999999998
 20
1161.4758999999999
 11
1929.7541000000001
 21
1246.5640000000001
  0
LINE
  8
_0-0_LAYER001
  6
CONTINUOUS
 62
    2
 10
1929.7541000000001
 20
1246.5640000000001
 11
1977.7541000000001
 21
1246.5640000000001
  0
LINE
  8
_0-0_LAYER001
  6
CONTINUOUS
 62
    2
 10
1357.3915
 20
1159.6836000000001
 11
1352.0882000000001
 21
1154.3803
  0
LINE
  8
_0-0_LAYER001
  6
CONTINUOUS
 62
    2
 10
1352.0882000000001
 20
1154.3803
 11
1354.0292999999999
 21
1161.6247000000001
  0
LINE
  8
_0-0_LAYER001
  6
CONTINUOUS
 62
    2
 10
1352.0882000000001
 20
1154.3803
 11
1396.9915000000001
 21
1232.1550999999999
  0
LINE
  8
_0-0_LAYER001
  6
CONTINUOUS
 62
    2
 10
1396.9915000000001
 20
1232.1550999999999
 11
1437.4915000000001
 21
1232.1550999999999
  0
LINE
  8
_0-0_LAYER001
  6
DASHED1
 62
    1
 10
1918.1754000000001
 20
1059.4973
 11
1918.1754000000001
 21
1075.4973
  0
LINE
  8
_0-0_LAYER001
  6
DASHED1
 62
    1
 10
1918.1754000000001
 20
1075.4973
 11
1915.1754000000001
 21
1075.4973
  0
LINE
  8
_0-0_LAYER001
  6
DASHED1
 62
    1
 10
1918.1754000000001
 20
1059.4973
 11
1915.1754000000001
 21
1059.4973
  0
LINE
  8
_0-0_LAYER001
  6
DASHED1
 62
    1
 10
1915.1754000000001
 20
1059.4973
 11
1915.1754000000001
 21
1075.4973
  0
LINE
  8
_0-0_LAYER001
  6
DASHED1
 62
    1
 10
1860.2793000000001
 20
1070.4973
 11
1845.7703999999999
 21
1067.4471000000001
  0
LINE
  8
_0-0_LAYER001
  6
DASHED1
 62
    1
 10
1915.1754000000001
 20
1070.4973
 11
1860.2793000000001
 21
1070.4973
  0
LINE
  8
_0-0_LAYER001
  6
DASHED1
 62
    1
 10
1845.7703999999999
 20
1067.4471000000001
 11
1860.0279
 21
1064.4973
  0
LINE
  8
_0-0_LAYER001
  6
DASHED1
 62
    1
 10
1915.1754000000001
 20
1064.4973
 11
1860.0279
 21
1064.4973
  0
LINE
  8
_0-0_LAYER001
  6
DASHED1
 62
    1
 10
1728.1912000000002
 20
1098.4645
 11
1744.1912000000002
 21
1098.4645
  0
LINE
  8
_0-0_LAYER001
  6
DASHED1
 62
    1
 10
1744.1912000000002
 20
1098.4645
 11
1744.1912000000002
 21
1095.4645
  0
LINE
  8
_0-0_LAYER001
  6
DASHED1
 62
    1
 10
1728.1912000000002
 20
1098.4645
 11
1728.1912000000002
 21
1095.4645
  0
LINE
  8
_0-0_LAYER001
  6
DASHED1
 62
    1
 10
1728.1912000000002
 20
1095.4645
 11
1744.1912000000002
 21
1095.4645
  0
LINE
  8
_0-0_LAYER001
  6
DASHED1
 62
    1
 10
1739.1912000000002
 20
1040.5684000000001
 11
1736.1410999999998
 21
1026.0595000000001
  0
LINE
  8
_0-0_LAYER001
  6
DASHED1
 62
    1
 10
1739.1912000000002
 20
1095.4645
 11
1739.1912000000002
 21
1040.5684000000001
  0
LINE
  8
_0-0_LAYER001
  6
DASHED1
 62
    1
 10
1736.1410999999998
 20
1026.0595000000001
 11
1733.1912000000002
 21
1040.317
  0
LINE
  8
_0-0_LAYER001
  6
DASHED1
 62
    1
 10
1733.1912000000002
 20
1095.4645
 11
1733.1912000000002
 21
1040.317
  0
LINE
  8
_0-0_LAYER001
  6
DASHED1
 62
    1
 10
974.04639999999995
 20
1094.2284
 11
990.04639999999995
 21
1094.2284
  0
LINE
  8
_0-0_LAYER001
  6
DASHED1
 62
    1
 10
990.04639999999995
 20
1094.2284
 11
990.04639999999995
 21
1091.2284
  0
LINE
  8
_0-0_LAYER001
  6
DASHED1
 62
    1
 10
974.04639999999995
 20
1094.2284
 11
974.04639999999995
 21
1091.2284
  0
LINE
  8
_0-0_LAYER001
  6
DASHED1
 62
    1
 10
974.04639999999995
 20
1091.2284
 11
990.04639999999995
 21
1091.2284
  0
LINE
  8
_0-0_LAYER001
  6
DASHED1
 62
    1
 10
985.04639999999995
 20
1036.3324
 11
981.99620000000004
 21
1021.8234
  0
LINE
  8
_0-0_LAYER001
  6
DASHED1
 62
    1
 10
985.04639999999995
 20
1091.2284
 11
985.04639999999995
 21
1036.3324
  0
LINE
  8
_0-0_LAYER001
  6
DASHED1
 62
    1
 10
981.99620000000004
 20
1021.8234
 11
979.04639999999995
 21
1036.0809999999999
  0
LINE
  8
_0-0_LAYER001
  6
DASHED1
 62
    1
 10
979.04639999999995
 20
1091.2284
 11
979.04639999999995
 21
1036.0809999999999
  0
LINE
  8
_0-0_LAYER001
  6
DASHED1
 62
    1
 10
1230.0473
 20
1094.2284
 11
1246.0473
 21
1094.2284
  0
LINE
  8
_0-0_LAYER001
  6
DASHED1
 62
    1
 10
1246.0473
 20
1094.2284
 11
1246.0473
 21
1091.2284
  0
LINE
  8
_0-0_LAYER001
  6
DASHED1
 62
    1
 10
1230.0473
 20
1094.2284
 11
1230.0473
 21
1091.2284
  0
LINE
  8
_0-0_LAYER001
  6
DASHED1
 62
    1
 10
1230.0473
 20
1091.2284
 11
1246.0473
 21
1091.2284
  0
LINE
  8
_0-0_LAYER001
  6
DASHED1
 62
    1
 10
1241.0473
 20
1036.3324
 11
1237.9971
 21
1021.8234
  0
LINE
  8
_0-0_LAYER001
  6
DASHED1
 62
    1
 10
1241.0473
 20
1091.2284
 11
1241.0473
 21
1036.3324
  0
LINE
  8
_0-0_LAYER001
  6
DASHED1
 62
    1
 10
1237.9971
 20
1021.8234
 11
1235.0473
 21
1036.0809999999999
  0
LINE
  8
_0-0_LAYER001
  6
DASHED1
 62
    1
 10
1235.0473
 20
1091.2284
 11
1235.0473
 21
1036.0809999999999
  0
LINE
  8
_0-0_LAYER001
  6
DASHED1
 62
    1
 10
1496.4265999999998
 20
1094.2284
 11
1512.4265999999998
 21
1094.2284
  0
LINE
  8
_0-0_LAYER001
  6
DASHED1
 62
    1
 10
1512.4265999999998
 20
1094.2284
 11
1512.4265999999998
 21
1091.2284
  0
LINE
  8
_0-0_LAYER001
  6
DASHED1
 62
    1
 10
1496.4265999999998
 20
1094.2284
 11
1496.4265999999998
 21
1091.2284
  0
LINE
  8
_0-0_LAYER001
  6
DASHED1
 62
    1
 10
1496.4265999999998
 20
1091.2284
 11
1512.4265999999998
 21
1091.2284
  0
LINE
  8
_0-0_LAYER001
  6
DASHED1
 62
    1
 10
1507.4265999999998
 20
1036.3324
 11
1504.3764999999999
 21
1021.8234
  0
LINE
  8
_0-0_LAYER001
  6
DASHED1
 62
    1
 10
1507.4265999999998
 20
1091.2284
 11
1507.4265999999998
 21
1036.3324
  0
LINE
  8
_0-0_LAYER001
  6
DASHED1
 62
    1
 10
1504.3764999999999
 20
1021.8234
 11
1501.4265999999998
 21
1036.0809999999999
  0
LINE
  8
_0-0_LAYER001
  6
DASHED1
 62
    1
 10
1501.4265999999998
 20
1091.2284
 11
1501.4265999999998
 21
1036.0809999999999
  0
LINE
  8
_0-0_LAYER001
  6
CONTINUOUS
 62
    4
 10
1509.9731000000002
 20
1063.2713000000001
 11
1504.3099000000002
 21
1072.71
  0
LINE
  8
_0-0_LAYER001
  6
CONTINUOUS
 62
    4
 10
1248.8641
 20
1062.9599000000001
 11
1243.2009
 21
1072.3985
  0
LINE
  8
_0-0_LAYER001
  6
CONTINUOUS
 62
    4
 10
989.94920000000002
 20
1064.6303
 11
984.28600000000006
 21
1074.0689
  0
LINE
  8
_0-0_LAYER001
  6
CONTINUOUS
 62
    3
 10
1875.3541
 20
1114.5381
 11
1851.3896
 21
1039.5381
  0
LINE
  8
_0-0_LAYER001
  6
CONTINUOUS
 62
    3
 10
1851.3896
 20
1039.5381
 11
1892.4810000000002
 21
1039.5381
  0
LINE
  8
_0-0_LAYER001
  6
CONTINUOUS
 62
    3
 10
1875.4162000000001
 20
1114.595
 11
1892.4810000000002
 21
1114.595
  0
LINE
  8
_0-0_LAYER001
  6
CONTINUOUS
 62
    3
 10
1892.4810000000002
 20
1114.595
 11
1892.4810000000002
 21
1039.5381
  0
LINE
  8
_0-0_LAYER001
  6
CONTINUOUS
 62
    4
 10
1824.3676
 20
1130.7674999999999
 11
1824.3676
 21
1126.992
  0
ARC
  8
_0-0_LAYER001
  6
CONTINUOUS
 62
    4
 10
1732.8910999999998
 20
1248.6089999999999
 40
149.17964000000001
 50
307.82101999999998
 51
312.33985999999993
  0
ARC
  8
_0-0_LAYER001
  6
CONTINUOUS
 62
    4
 10
1732.8910999999998
 20
1248.6089999999999
 40
172.17964000000001
 50
309.26612
 51
313.25087999999994
  0
LINE
  8
_0-0_LAYER001
  6
CONTINUOUS
 62
    4
 10
1833.3676
 20
1138.3408999999999
 11
1833.3676
 21
1111.2967000000001
  0
LINE
  8
_0-0_LAYER001
  6
CONTINUOUS
 62
    4
 10
1841.8676
 20
1115.3050000000001
 11
1841.8676
 21
1113.0138999999999
  0
LINE
  8
_0-0_LAYER001
  6
CONTINUOUS
 62
    4
 10
1850.8676
 20
1123.2001
 11
1850.8676
 21
1097.373
  0
ARC
  8
_0-0_LAYER001
  6
CONTINUOUS
 62
    4
 10
1731.6759999999999
 20
1341.8820000000001
 40
234.01331999999999
 50
247.56478999999996
 51
293.24524000000002
  0
ARC
  8
_0-0_LAYER001
  6
CONTINUOUS
 62
    4
 10
1731.6759999999999
 20
1341.8820000000001
 40
254.01331999999999
 50
245.13487000000003
 51
295.70910000000003
  0
ARC
  8
_0-0_LAYER001
  6
CONTINUOUS
 62
    4
 10
1731.6759999999999
 20
1341.8820000000001
 40
252.01332000000002
 50
247.03975000000003
 51
293.79819000000003
  0
ARC
  8
_0-0_LAYER001
  6
CONTINUOUS
 62
    4
 10
1731.6759999999999
 20
1341.8820000000001
 40
272.01332000000002
 50
244.80213000000003
 51
295.98797999999999
  0
LINE
  8
_0-0_LAYER001
  6
CONTINUOUS
 62
    4
 10
1763.2995000000001
 20
1056.471
 11
1770.7809000000002
 21
1070.8101999999999
  0
LINE
  8
_0-0_LAYER001
  6
CONTINUOUS
 62
    4
 10
1756.1581000000001
 20
1056.5676000000001
 11
1750.7638999999999
 21
1067.6257000000001
  0
LINE
  8
_0-0_LAYER001
  6
CONTINUOUS
 62
    4
 10
1710.0632000000001
 20
1056.5895
 11
1716.1891999999998
 21
1067.1708000000001
  0
LINE
  8
_0-0_LAYER001
  6
CONTINUOUS
 62
    4
 10
1702.9627
 20
1056.9323999999999
 11
1696.6271999999999
 21
1070.8101999999999
  0
ARC
  8
_0-0_LAYER001
  6
CONTINUOUS
 62
    4
 10
1706.6015000000002
 20
1058.5935999999999
 40
4
 50
204.53772000000001
 51
329.93141000000003
  0
ARC
  8
_0-0_LAYER001
  6
CONTINUOUS
 62
    4
 10
1759.7532000000001
 20
1058.3213000000001
 40
4
 50
206.00334000000004
 51
332.44718
  0
LINE
  8
_0-0_LAYER001
  6
CONTINUOUS
 62
    4
 10
1615.8676
 20
1122.3104000000001
 11
1615.8676
 21
1095.7526
  0
ARC
  8
_0-0_LAYER001
  6
CONTINUOUS
 62
    4
 10
1732.8910999999998
 20
1248.6089999999999
 40
172.17964000000001
 50
227.18297000000004
 51
231.14230000000003
  0
LINE
  8
_0-0_LAYER001
  6
CONTINUOUS
 62
    4
 10
1624.8676
 20
1114.5315000000001
 11
1624.8676
 21
1111.4156
  0
LINE
  8
_0-0_LAYER001
  6
CONTINUOUS
 62
    4
 10
1633.3676
 20
1137.48
 11
1633.3676
 21
1109.8342
  0
LINE
  8
_0-0_LAYER001
  6
CONTINUOUS
 62
    4
 10
1642.3676
 20
1130.0337999999999
 11
1642.3676
 21
1125.5807
  0
ARC
  8
_0-0_LAYER001
  6
CONTINUOUS
 62
    4
 10
1732.8910999999998
 20
1248.6089999999999
 40
149.17964000000001
 50
228.1534
 51
232.64089999999999
  0
ARC
  8
_0-0_LAYER001
  6
CONTINUOUS
 62
    4
 10
1340.6726000000001
 20
1101.0721000000001
 40
69.214101999999997
 50
13.791351000000001
 51
163.33506000000003
  0
ARC
  8
_0-0_LAYER001
  6
CONTINUOUS
 62
    4
 10
1340.2774999999999
 20
1102.5555999999999
 40
50.327697999999998
 50
23.01118
 51
173.62688000000003
  0
ARC
  8
_0-0_LAYER001
  6
CONTINUOUS
 62
    4
 10
1202.2044000000001
 20
1301.5643
 40
212.52318
 50
244.57801000000001
 51
294.47764000000006
  0
ARC
  8
_0-0_LAYER001
  6
CONTINUOUS
 62
    4
 10
1202.2044000000001
 20
1301.5643
 40
214.52317999999997
 50
244.57801000000001
 51
294.78532999999999
  0
ARC
  8
_0-0_LAYER001
  6
CONTINUOUS
 62
    4
 10
1340.2774999999999
 20
1102.5555999999999
 40
48.327697999999998
 50
88.109851000000006
 51
174.95909000000003
  0
LINE
  8
_0-0_LAYER001
  6
CONTINUOUS
 62
    4
 10
1341.8715999999999
 20
1150.857
 11
1341.8715999999999
 21
1138.7279000000001
  0
LINE
  8
_0-0_LAYER001
  6
CONTINUOUS
 62
    4
 10
1407.8913
 20
1117.5717999999999
 11
1386.6005999999998
 21
1122.2292
  0
LINE
  8
_0-0_LAYER001
  6
CONTINUOUS
 62
    4
 10
1169.8595
 20
1060.2496000000001
 11
1163.2925
 21
1072.3985
  0
LINE
  8
_0-0_LAYER001
  6
CONTINUOUS
 62
    4
 10
1181.9857
 20
1059.9203
 11
1187.4158
 21
1068.78
  0
ARC
  8
_0-0_LAYER001
  6
CONTINUOUS
 62
    4
 10
1176.0174999999999
 20
1063.5781999999999
 40
7
 50
208.39301
 51
328.49572999999998
  0
LINE
  8
_0-0_LAYER001
  6
CONTINUOUS
 62
    4
 10
1261.3762999999999
 20
1063.9876999999999
 11
1267.3242
 21
1079.0324000000001
  0
ARC
  8
_0-0_LAYER001
  6
CONTINUOUS
 62
    4
 10
1254.8665000000001
 20
1066.5613000000001
 40
7
 50
210.96375
 51
338.42869000000002
  0
LINE
  8
_0-0_LAYER001
  6
CONTINUOUS
 62
    4
 10
1289.0174
 20
1070.9291000000001
 11
1282.0997
 21
1082.6509000000001
  0
ARC
  8
_0-0_LAYER001
  6
CONTINUOUS
 62
    4
 10
1292.4622999999999
 20
1072.9621999999999
 40
4
 50
210.54757000000001
 51
342.13990000000001
  0
ARC
  8
_0-0_LAYER001
  6
CONTINUOUS
 62
    4
 10
1202.2044000000001
 20
1301.5643
 40
194.52317999999997
 50
244.57801000000001
 51
291.77512000000002
  0
ARC
  8
_0-0_LAYER001
  6
CONTINUOUS
 62
    4
 10
1151.2606000000001
 20
1171.2914000000001
 40
73.645919000000006
 50
225.20483999999999
 51
236.85617999999999
  0
ARC
  8
_0-0_LAYER001
  6
CONTINUOUS
 62
    4
 10
1140.1679999999999
 20
1163.3860999999999
 40
81.008393999999996
 50
226.46691000000004
 51
242.05489
  0
ARC
  8
_0-0_LAYER001
  6
CONTINUOUS
 62
    4
 10
1193.6904999999999
 20
1237.9909
 40
154.70135999999999
 50
229.79871999999997
 51
237.31520999999998
  0
LINE
  8
_0-0_LAYER001
  6
CONTINUOUS
 62
    4
 10
1084.3715999999999
 20
1122.4860000000001
 11
1084.3715999999999
 21
1104.6569
  0
ARC
  8
_0-0_LAYER001
  6
CONTINUOUS
 62
    4
 10
1088.3715999999999
 20
1122.4860000000001
 40
4
 50
90
 51
180
  0
LINE
  8
_0-0_LAYER001
  6
CONTINUOUS
 62
    4
 10
1089.8347000000001
 20
1126.4860000000001
 11
1088.3715999999999
 21
1126.4860000000001
  0
LINE
  8
_0-0_LAYER001
  6
CONTINUOUS
 62
    4
 10
1093.8347000000001
 20
1122.4860000000001
 11
1093.8347000000001
 21
1119.8329000000001
  0
ARC
  8
_0-0_LAYER001
  6
CONTINUOUS
 62
    4
 10
1089.8347000000001
 20
1122.4860000000001
 40
4
 50
0
 51
90
  0
LINE
  8
_0-0_LAYER001
  6
CONTINUOUS
 62
    4
 10
1099.3715999999999
 20
1121.8767
 11
1099.3715999999999
 21
1119.03
  0
LINE
  8
_0-0_LAYER001
  6
CONTINUOUS
 62
    4
 10
1103.3715999999999
 20
1125.8767
 11
1118.6992
 21
1125.8767
  0
ARC
  8
_0-0_LAYER001
  6
CONTINUOUS
 62
    4
 10
1103.3715999999999
 20
1121.8767
 40
4
 50
90
 51
180
  0
ARC
  8
_0-0_LAYER001
  6
CONTINUOUS
 62
    4
 10
1202.2044000000001
 20
1301.5643
 40
232.52318
 50
244.57801000000001
 51
295.00637
  0
ARC
  8
_0-0_LAYER001
  6
CONTINUOUS
 62
    4
 10
1342.8706
 20
1098.4914000000001
 40
40.248902000000001
 50
91.422393999999997
 51
185.22383000000002
  0
ARC
  8
_0-0_LAYER001
  6
CONTINUOUS
 62
    4
 10
1298.8054999999999
 20
1094.4627
 40
4
 50
295.00637
 51
5.2238350000000304
  0
LINE
  8
_0-0_LAYER001
  6
CONTINUOUS
 62
    4
 10
1300.3570999999999
 20
1090.2933
 11
1296.4582
 21
1072.2609
  0
ARC
  8
_0-0_LAYER001
  6
CONTINUOUS
 62
    4
 10
1081.7578000000001
 20
1102.7425000000001
 40
69.214101999999997
 50
13.791351000000001
 51
163.33506000000003
  0
ARC
  8
_0-0_LAYER001
  6
CONTINUOUS
 62
    4
 10
1081.3626999999999
 20
1104.2260000000001
 40
50.327697999999998
 50
23.01118
 51
173.62688000000003
  0
ARC
  8
_0-0_LAYER001
  6
CONTINUOUS
 62
    4
 10
943.28960000000006
 20
1303.2347
 40
212.52318
 50
244.57801000000001
 51
294.47764000000006
  0
ARC
  8
_0-0_LAYER001
  6
CONTINUOUS
 62
    4
 10
943.28960000000006
 20
1303.2347
 40
214.52317999999997
 50
244.57801000000001
 51
294.78532999999999
  0
ARC
  8
_0-0_LAYER001
  6
CONTINUOUS
 62
    4
 10
1081.3626999999999
 20
1104.2260000000001
 40
48.327697999999998
 50
88.109851000000006
 51
174.95909000000003
  0
LINE
  8
_0-0_LAYER001
  6
CONTINUOUS
 62
    4
 10
1082.9567
 20
1152.5273999999999
 11
1082.9567
 21
1140.3984
  0
LINE
  8
_0-0_LAYER001
  6
CONTINUOUS
 62
    4
 10
1148.9765
 20
1119.2422999999999
 11
1127.6857
 21
1123.8996
  0
LINE
  8
_0-0_LAYER001
  6
CONTINUOUS
 62
    4
 10
910.94460000000004
 20
1061.9200000000001
 11
904.3777
 21
1074.0689
  0
LINE
  8
_0-0_LAYER001
  6
CONTINUOUS
 62
    4
 10
923.07079999999996
 20
1061.5907
 11
928.50099999999998
 21
1070.4503999999999
  0
ARC
  8
_0-0_LAYER001
  6
CONTINUOUS
 62
    4
 10
917.10259999999994
 20
1065.2487000000001
 40
7
 50
208.39301
 51
328.49572999999998
  0
LINE
  8
_0-0_LAYER001
  6
CONTINUOUS
 62
    4
 10
1002.4613999999999
 20
1065.6581000000001
 11
1008.4093
 21
1080.7028
  0
ARC
  8
_0-0_LAYER001
  6
CONTINUOUS
 62
    4
 10
995.95170000000007
 20
1068.2317
 40
7
 50
210.96375
 51
338.42869000000002
  0
LINE
  8
_0-0_LAYER001
  6
CONTINUOUS
 62
    4
 10
1030.1025999999999
 20
1072.5996
 11
1023.1848
 21
1084.3213000000001
  0
ARC
  8
_0-0_LAYER001
  6
CONTINUOUS
 62
    4
 10
1033.5473999999999
 20
1074.6325999999999
 40
4
 50
210.54757000000001
 51
342.13990000000001
  0
ARC
  8
_0-0_LAYER001
  6
CONTINUOUS
 62
    4
 10
943.28960000000006
 20
1303.2347
 40
194.52317999999997
 50
244.57801000000001
 51
291.77512000000002
  0
ARC
  8
_0-0_LAYER001
  6
CONTINUOUS
 62
    4
 10
892.34570000000008
 20
1172.9618
 40
73.645919000000006
 50
225.20483999999999
 51
236.85617999999999
  0
ARC
  8
_0-0_LAYER001
  6
CONTINUOUS
 62
    4
 10
881.2530999999999
 20
1165.0564999999999
 40
81.008393999999996
 50
226.46691000000004
 51
242.05489
  0
ARC
  8
_0-0_LAYER001
  6
CONTINUOUS
 62
    4
 10
934.77559999999994
 20
1239.6613
 40
154.70135999999999
 50
229.79871999999997
 51
237.31520999999998
  0
LINE
  8
_0-0_LAYER001
  6
CONTINUOUS
 62
    4
 10
825.45669999999996
 20
1124.1565000000001
 11
825.45669999999996
 21
1106.3272999999999
  0
ARC
  8
_0-0_LAYER001
  6
CONTINUOUS
 62
    4
 10
829.45669999999996
 20
1124.1565000000001
 40
4
 50
90
 51
180
  0
LINE
  8
_0-0_LAYER001
  6
CONTINUOUS
 62
    4
 10
830.9197999999999
 20
1128.1565000000001
 11
829.45669999999996
 21
1128.1565000000001
  0
LINE
  8
_0-0_LAYER001
  6
CONTINUOUS
 62
    4
 10
834.9197999999999
 20
1124.1565000000001
 11
834.9197999999999
 21
1121.5033000000001
  0
ARC
  8
_0-0_LAYER001
  6
CONTINUOUS
 62
    4
 10
830.9197999999999
 20
1124.1565000000001
 40
4
 50
0
 51
90
  0
LINE
  8
_0-0_LAYER001
  6
CONTINUOUS
 62
    4
 10
840.45669999999996
 20
1123.5471
 11
840.45669999999996
 21
1120.7003999999999
  0
LINE
  8
_0-0_LAYER001
  6
CONTINUOUS
 62
    4
 10
844.45669999999996
 20
1127.5471
 11
859.78430000000003
 21
1127.5471
  0
ARC
  8
_0-0_LAYER001
  6
CONTINUOUS
 62
    4
 10
844.45669999999996
 20
1123.5471
 40
4
 50
90
 51
180
  0
ARC
  8
_0-0_LAYER001
  6
CONTINUOUS
 62
    4
 10
943.28960000000006
 20
1303.2347
 40
232.52318
 50
244.57801000000001
 51
295.00637
  0
ARC
  8
_0-0_LAYER001
  6
CONTINUOUS
 62
    4
 10
1083.9558
 20
1100.1619000000001
 40
40.248902000000001
 50
91.422393999999997
 51
185.22383000000002
  0
ARC
  8
_0-0_LAYER001
  6
CONTINUOUS
 62
    4
 10
1039.8906999999999
 20
1096.1331
 40
4
 50
295.00637
 51
5.2238350000000304
  0
LINE
  8
_0-0_LAYER001
  6
CONTINUOUS
 62
    4
 10
1041.4422
 20
1091.9637
 11
1037.5433
 21
1073.9313
  0
ARC
  8
_0-0_LAYER001
  6
CONTINUOUS
 62
    4
 10
821.32819999999992
 20
1102.7171000000001
 40
69.214101999999997
 50
13.791351000000001
 51
131.08148
  0
ARC
  8
_0-0_LAYER001
  6
CONTINUOUS
 62
    4
 10
820.93309999999997
 20
1104.2004999999999
 40
50.327697999999998
 50
23.01118
 51
153.62195
  0
ARC
  8
_0-0_LAYER001
  6
CONTINUOUS
 62
    4
 10
820.93309999999997
 20
1104.2004999999999
 40
48.327697999999998
 50
88.109851000000006
 51
158.90060000000003
  0
LINE
  8
_0-0_LAYER001
  6
CONTINUOUS
 62
    4
 10
822.52710000000002
 20
1152.5019
 11
822.52710000000002
 21
1140.3729000000001
  0
LINE
  8
_0-0_LAYER001
  6
CONTINUOUS
 62
    4
 10
888.54690000000005
 20
1119.2167999999999
 11
867.25620000000004
 21
1123.8741
  0
ARC
  8
_0-0_LAYER001
  6
CONTINUOUS
 62
    4
 10
773.11779999999999
 20
1074.6070999999999
 40
4
 50
312.99266999999998
 51
342.13990000000001
  0
ARC
  8
_0-0_LAYER001
  6
CONTINUOUS
 62
    4
 10
682.8599999999999
 20
1303.2092
 40
232.52318
 50
293.57175999999998
 51
295.00637
  0
ARC
  8
_0-0_LAYER001
  6
CONTINUOUS
 62
    4
 10
823.52620000000002
 20
1100.1364000000001
 40
40.248902000000001
 50
91.422393999999997
 51
185.22383000000002
  0
ARC
  8
_0-0_LAYER001
  6
CONTINUOUS
 62
    4
 10
779.46109999999999
 20
1096.1076
 40
4
 50
295.00637
 51
5.2238350000000304
  0
LINE
  8
_0-0_LAYER001
  6
CONTINUOUS
 62
    4
 10
781.0127
 20
1091.9382000000001
 11
777.11380000000008
 21
1073.9059
  0
ARC
  8
_0-0_LAYER001
  6
CONTINUOUS
 62
    4
 10
1601.7817
 20
1101.3835999999999
 40
69.214101999999997
 50
13.791351000000001
 51
163.33506000000003
  0
ARC
  8
_0-0_LAYER001
  6
CONTINUOUS
 62
    4
 10
1601.3865999999998
 20
1102.867
 40
50.327697999999998
 50
23.01118
 51
173.62688000000003
  0
ARC
  8
_0-0_LAYER001
  6
CONTINUOUS
 62
    4
 10
1463.3135000000002
 20
1301.8757000000001
 40
212.52318
 50
244.57801000000001
 51
294.47764000000006
  0
ARC
  8
_0-0_LAYER001
  6
CONTINUOUS
 62
    4
 10
1463.3135000000002
 20
1301.8757000000001
 40
214.52317999999997
 50
244.57801000000001
 51
294.78532999999999
  0
ARC
  8
_0-0_LAYER001
  6
CONTINUOUS
 62
    4
 10
1601.3865999999998
 20
1102.867
 40
48.327697999999998
 50
88.109851000000006
 51
174.95909000000003
  0
LINE
  8
_0-0_LAYER001
  6
CONTINUOUS
 62
    4
 10
1602.9805999999999
 20
1151.1684
 11
1602.9805999999999
 21
1139.0393999999999
  0
LINE
  8
_0-0_LAYER001
  6
CONTINUOUS
 62
    4
 10
1669.0003999999999
 20
1117.8833
 11
1647.7096000000001
 21
1122.5406
  0
LINE
  8
_0-0_LAYER001
  6
CONTINUOUS
 62
    4
 10
1430.9686000000002
 20
1060.5610999999999
 11
1424.4015999999999
 21
1072.71
  0
LINE
  8
_0-0_LAYER001
  6
CONTINUOUS
 62
    4
 10
1443.0947000000001
 20
1060.2317
 11
1448.5248999999999
 21
1069.0915
  0
ARC
  8
_0-0_LAYER001
  6
CONTINUOUS
 62
    4
 10
1437.1264999999999
 20
1063.8896999999999
 40
7
 50
208.39301
 51
328.49572999999998
  0
LINE
  8
_0-0_LAYER001
  6
CONTINUOUS
 62
    4
 10
1522.4852999999998
 20
1064.2991
 11
1528.4331999999999
 21
1079.3439000000001
  0
ARC
  8
_0-0_LAYER001
  6
CONTINUOUS
 62
    4
 10
1515.9756000000002
 20
1066.8728000000001
 40
7
 50
210.96375
 51
338.42869000000002
  0
LINE
  8
_0-0_LAYER001
  6
CONTINUOUS
 62
    4
 10
1550.1264999999999
 20
1071.2406000000001
 11
1543.2087000000001
 21
1082.9622999999999
  0
ARC
  8
_0-0_LAYER001
  6
CONTINUOUS
 62
    4
 10
1553.5713000000001
 20
1073.2736
 40
4
 50
210.54757000000001
 51
342.13990000000001
  0
ARC
  8
_0-0_LAYER001
  6
CONTINUOUS
 62
    4
 10
1463.3135000000002
 20
1301.8757000000001
 40
194.52317999999997
 50
244.57801000000001
 51
291.77512000000002
  0
ARC
  8
_0-0_LAYER001
  6
CONTINUOUS
 62
    4
 10
1412.3696
 20
1171.6027999999999
 40
73.645919000000006
 50
225.20483999999999
 51
236.85617999999999
  0
ARC
  8
_0-0_LAYER001
  6
CONTINUOUS
 62
    4
 10
1401.277
 20
1163.6976
 40
81.008393999999996
 50
226.46691000000004
 51
242.05489
  0
ARC
  8
_0-0_LAYER001
  6
CONTINUOUS
 62
    4
 10
1454.7995000000001
 20
1238.3023000000001
 40
154.70135999999999
 50
229.79871999999997
 51
237.31520999999998
  0
LINE
  8
_0-0_LAYER001
  6
CONTINUOUS
 62
    4
 10
1345.4806000000003
 20
1122.7974999999999
 11
1345.4806000000003
 21
1104.9684
  0
ARC
  8
_0-0_LAYER001
  6
CONTINUOUS
 62
    4
 10
1349.4805999999999
 20
1122.7974999999999
 40
4
 50
90
 51
180
  0
LINE
  8
_0-0_LAYER001
  6
CONTINUOUS
 62
    4
 10
1350.9437
 20
1126.7974999999999
 11
1349.4805999999999
 21
1126.7974999999999
  0
LINE
  8
_0-0_LAYER001
  6
CONTINUOUS
 62
    4
 10
1354.9437
 20
1122.7974999999999
 11
1354.9437
 21
1120.1442999999999
  0
ARC
  8
_0-0_LAYER001
  6
CONTINUOUS
 62
    4
 10
1350.9437
 20
1122.7974999999999
 40
4
 50
0
 51
90
  0
LINE
  8
_0-0_LAYER001
  6
CONTINUOUS
 62
    4
 10
1360.4806000000003
 20
1122.1881000000001
 11
1360.4806000000003
 21
1119.3414
  0
LINE
  8
_0-0_LAYER001
  6
CONTINUOUS
 62
    4
 10
1364.4805999999999
 20
1126.1881000000001
 11
1379.8081999999999
 21
1126.1881000000001
  0
ARC
  8
_0-0_LAYER001
  6
CONTINUOUS
 62
    4
 10
1364.4805999999999
 20
1122.1881000000001
 40
4
 50
90
 51
180
  0
ARC
  8
_0-0_LAYER001
  6
CONTINUOUS
 62
    4
 10
1463.3135000000002
 20
1301.8757000000001
 40
232.52318
 50
244.57801000000001
 51
295.00637
  0
ARC
  8
_0-0_LAYER001
  6
CONTINUOUS
 62
    4
 10
1603.9796999999999
 20
1098.8028999999999
 40
40.248902000000001
 50
91.422393999999997
 51
185.22383000000002
  0
ARC
  8
_0-0_LAYER001
  6
CONTINUOUS
 62
    4
 10
1559.9146000000001
 20
1094.7741000000001
 40
4
 50
295.00637
 51
5.2238350000000304
  0
LINE
  8
_0-0_LAYER001
  6
CONTINUOUS
 62
    4
 10
1561.4661000000001
 20
1090.6047000000001
 11
1557.5672
 21
1072.5724
  0
ARC
  8
_0-0_LAYER001
  6
CONTINUOUS
 62
    4
 10
1862.1795000000002
 20
1103.7719
 40
69.214101999999997
 50
16.664929999999998
 51
166.20864
  0
ARC
  8
_0-0_LAYER001
  6
CONTINUOUS
 62
    4
 10
1862.5745999999999
 20
1105.2553
 40
50.327697999999998
 50
6.3731099999999996
 51
156.98881
  0
ARC
  8
_0-0_LAYER001
  6
CONTINUOUS
 62
    4
 10
1862.5745999999999
 20
1105.2553
 40
48.327697999999998
 50
5.0409090000000001
 51
91.890148000000011
  0
LINE
  8
_0-0_LAYER001
  6
CONTINUOUS
 62
    4
 10
1860.9805999999999
 20
1153.5568000000001
 11
1860.9805999999999
 21
1141.4277
  0
LINE
  8
_0-0_LAYER001
  6
CONTINUOUS
 62
    4
 10
1794.9607999999998
 20
1120.2716
 11
1816.2514999999999
 21
1124.9290000000001
  0
LINE
  8
_0-0_LAYER001
  6
CONTINUOUS
 62
    4
 10
1928.5079999999998
 20
1124.2678000000001
 11
1937.6280999999999
 21
1053.1311000000001
  0
LINE
  8
_0-0_LAYER001
  6
CONTINUOUS
 62
    4
 10
1937.6280999999999
 20
1053.1311000000001
 11
1920.489
 21
1053.1311000000001
  0
LINE
  8
_0-0_LAYER001
  6
CONTINUOUS
 62
    4
 10
1913.1462999999999
 20
1110.4041999999999
 11
1920.489
 21
1053.1311000000001
  0
LINE
  8
_0-0_LAYER001
  6
CONTINUOUS
 62
    4
 10
1910.8494999999998
 20
1108.6688999999999
 11
1917.9697000000001
 21
1053.1311000000001
  0
LINE
  8
_0-0_LAYER001
  6
CONTINUOUS
 62
    4
 10
1917.9697000000001
 20
1053.1311000000001
 11
1900.8305999999998
 21
1053.1311000000001
  0
LINE
  8
_0-0_LAYER001
  6
CONTINUOUS
 62
    4
 10
1891.8353999999999
 20
1123.2932000000001
 11
1900.8305999999998
 21
1053.1311000000001
  0
ARC
  8
_0-0_LAYER001
  6
CONTINUOUS
 62
    4
 10
1857.616
 20
1099.9691
 40
41.412356000000003
 50
34.278531000000001
 51
85.473896000000011
  0
LINE
  8
_0-0_LAYER001
  6
CONTINUOUS
 62
    2
 10
822.2050999999999
 20
1069.5381
 11
822.85200000000009
 21
1069.5381
  0
LINE
  8
_0-0_LAYER001
  6
CONTINUOUS
 62
    2
 10
1082.2050999999999
 20
1069.5381
 11
1082.8520000000001
 21
1069.5381
  0
LINE
  8
_0-0_LAYER001
  6
CONTINUOUS
 62
    2
 10
1342.2050999999999
 20
1069.5381
 11
1342.8520000000001
 21
1069.5381
  0
LINE
  8
_0-0_LAYER001
  6
CONTINUOUS
 62
    2
 10
1602.2051000000001
 20
1069.5381
 11
1602.8519999999999
 21
1069.5381
  0
LINE
  8
_0-0_LAYER001
  6
CONTINUOUS
 62
    2
 10
1886.4425000000001
 20
1039.5381
 11
1892.4810000000002
 21
1045.5766000000001
  0
LINE
  8
_0-0_LAYER001
  6
CONTINUOUS
 62
    2
 10
1875.8359
 20
1039.5381
 11
1892.4810000000002
 21
1056.1831999999999
  0
LINE
  8
_0-0_LAYER001
  6
CONTINUOUS
 62
    2
 10
1865.2293
 20
1039.5381
 11
1892.4810000000002
 21
1066.7898
  0
LINE
  8
_0-0_LAYER001
  6
CONTINUOUS
 62
    2
 10
1854.6226999999999
 20
1039.5381
 11
1892.4810000000002
 21
1077.3964000000001
  0
LINE
  8
_0-0_LAYER001
  6
CONTINUOUS
 62
    2
 10
1856.2080999999998
 20
1051.7301
 11
1892.4810000000002
 21
1088.0029999999999
  0
LINE
  8
_0-0_LAYER001
  6
CONTINUOUS
 62
    2
 10
1860.8748000000001
 20
1067.0033000000001
 11
1892.4810000000002
 21
1098.6096
  0
LINE
  8
_0-0_LAYER001
  6
CONTINUOUS
 62
    2
 10
1865.5414000000001
 20
1082.2765999999999
 11
1892.4810000000002
 21
1109.2162000000001
  0
LINE
  8
_0-0_LAYER001
  6
CONTINUOUS
 62
    2
 10
1870.2080999999998
 20
1097.5499
 11
1887.2532000000001
 21
1114.595
  0
LINE
  8
_0-0_LAYER001
  6
CONTINUOUS
 62
    2
 10
1874.8748000000001
 20
1112.8232
 11
1876.6466
 21
1114.595
  0
LINE
  8
_0-0_LAYER001
  6
CONTINUOUS
 62
    2
 10
1892.2051000000001
 20
1317.6138000000001
 11
1892.2051000000001
 21
1265.1138000000001
  0
CIRCLE
  8
_0-0_LAYER001
  6
CONTINUOUS
 62
    2
 10
1892.2051000000001
 20
1315.1138000000001
 40
1.6999999999999997
  0
LINE
  8
_0-0_LAYER001
  6
CONTINUOUS
 62
    2
 10
1892.2051000000001
 20
1315.1138000000001
 11
1862.2051000000001
 21
1315.1138000000001
  0
CIRCLE
  8
_0-0_LAYER001
  6
CONTINUOUS
 62
    2
 10
1862.2051000000001
 20
1315.1138000000001
 40
1.6999999999999997
  0
LINE
  8
_0-0_LAYER001
  6
CONTINUOUS
 62
    2
 10
1862.2051000000001
 20
1317.6138000000001
 11
1862.2051000000001
 21
1265.1138000000001
  0
CIRCLE
  8
_0-0_LAYER001
  6
CONTINUOUS
 62
    2
 10
1862.2051000000001
 20
1315.1138000000001
 40
1.6999999999999997
  0
LINE
  8
_0-0_LAYER001
  6
CONTINUOUS
 62
    2
 10
1862.2051000000001
 20
1315.1138000000001
 11
1602.2051000000001
 21
1315.1138000000001
  0
CIRCLE
  8
_0-0_LAYER001
  6
CONTINUOUS
 62
    2
 10
1602.2051000000001
 20
1315.1138000000001
 40
1.6999999999999997
  0
LINE
  8
_0-0_LAYER001
  6
CONTINUOUS
 62
    2
 10
1602.2051000000001
 20
1317.6138000000001
 11
1602.2051000000001
 21
1265.1138000000001
  0
CIRCLE
  8
_0-0_LAYER001
  6
CONTINUOUS
 62
    2
 10
1602.2051000000001
 20
1315.1138000000001
 40
1.6999999999999997
  0
LINE
  8
_0-0_LAYER001
  6
CONTINUOUS
 62
    2
 10
1602.2051000000001
 20
1315.1138000000001
 11
1342.2050999999999
 21
1315.1138000000001
  0
CIRCLE
  8
_0-0_LAYER001
  6
CONTINUOUS
 62
    2
 10
1342.2050999999999
 20
1315.1138000000001
 40
1.6999999999999997
  0
LINE
  8
_0-0_LAYER001
  6
CONTINUOUS
 62
    2
 10
1342.2050999999999
 20
1317.6138000000001
 11
1342.2050999999999
 21
1265.1138000000001
  0
CIRCLE
  8
_0-0_LAYER001
  6
CONTINUOUS
 62
    2
 10
1342.2050999999999
 20
1315.1138000000001
 40
1.6999999999999997
  0
LINE
  8
_0-0_LAYER001
  6
CONTINUOUS
 62
    2
 10
1342.2050999999999
 20
1315.1138000000001
 11
1082.2050999999999
 21
1315.1138000000001
  0
CIRCLE
  8
_0-0_LAYER001
  6
CONTINUOUS
 62
    2
 10
1082.2050999999999
 20
1315.1138000000001
 40
1.6999999999999997
  0
LINE
  8
_0-0_LAYER001
  6
CONTINUOUS
 62
    2
 10
1082.2050999999999
 20
1317.6138000000001
 11
1082.2050999999999
 21
1265.1138000000001
  0
CIRCLE
  8
_0-0_LAYER001
  6
CONTINUOUS
 62
    2
 10
1082.2050999999999
 20
1315.1138000000001
 40
1.6999999999999997
  0
LINE
  8
_0-0_LAYER001
  6
CONTINUOUS
 62
    2
 10
1082.2050999999999
 20
1315.1138000000001
 11
822.2050999999999
 21
1315.1138000000001
  0
CIRCLE
  8
_0-0_LAYER001
  6
CONTINUOUS
 62
    2
 10
822.2050999999999
 20
1315.1138000000001
 40
1.6999999999999997
  0
LINE
  8
_0-0_LAYER001
  6
CONTINUOUS
 62
    2
 10
822.2050999999999
 20
1317.6138000000001
 11
822.2050999999999
 21
1265.1138000000001
  0
LINE
  8
_0-0_LAYER001
  6
DASHED3
 62
    2
 10
1874.2768999999998
 20
1116.095
 11
1887.5038
 21
1116.095
  0
LINE
  8
_0-0_LAYER001
  6
DASHED3
 62
    2
 10
1853.8247999999999
 20
1052.0877
 11
770.88940000000002
 21
1052.0877
  0
LINE
  8
_0-0_LAYER001
  6
DASHED3
 62
    2
 10
1853.8247999999999
 20
1052.0877
 11
1874.2768999999998
 21
1116.095
  0
LINE
  8
_0-0_LAYER001
  6
CONTINUOUS
 62
    2
 10
1799.8163
 20
1067.2005999999999
 11
1811.0342000000001
 21
1067.2005999999999
  0
LINE
  8
_0-0_LAYER001
  6
CONTINUOUS
 62
    2
 10
1799.8163
 20
1067.2005999999999
 11
1799.8163
 21
1052.9546
  0
LINE
  8
_0-0_LAYER001
  6
CONTINUOUS
 62
    2
 10
1852.5270999999998
 20
1052.9546
 11
1871.1502999999998
 21
1111.2381
  0
LINE
  8
_0-0_LAYER001
  6
CONTINUOUS
 62
    2
 10
1799.8163
 20
1052.9546
 11
1852.5270999999998
 21
1052.9546
  0
LINE
  8
_0-0_LAYER001
  6
CONTINUOUS
 62
    2
 10
1796.6305000000002
 20
1069.5381
 11
770.88940000000002
 21
1069.5381
  0
LINE
  8
_0-0_LAYER001
  6
CONTINUOUS
 62
    2
 10
1796.6305000000002
 20
1054.5381
 11
770.88940000000002
 21
1054.5381
  0
LINE
  8
_0-0_LAYER001
  6
CONTINUOUS
 62
    2
 10
1796.6305000000002
 20
1069.5381
 11
1796.6305000000002
 21
1054.5381
  0
LINE
  8
_0-0_LAYER001
  6
CONTINUOUS
 62
    2
 10
1849.8163
 20
1050.5877
 11
1849.8163
 21
1038.5877
  0
LINE
  8
_0-0_LAYER001
  6
CONTINUOUS
 62
    2
 10
1871.1502999999998
 20
1111.2381
 11
1863.2354999999998
 21
1103.1373000000001
  0
LINE
  8
_0-0_LAYER001
  6
CONTINUOUS
 62
    2
 10
1811.5826999999999
 20
1047.6513
 11
1816.886
 21
1052.9546
  0
LINE
  8
_0-0_LAYER001
  6
CONTINUOUS
 62
    2
 10
1816.886
 20
1052.9546
 11
1814.9449
 21
1045.7101
  0
LINE
  8
_0-0_LAYER001
  6
CONTINUOUS
 62
    2
 10
1816.886
 20
1052.9546
 11
1727.4096
 21
897.97679999999991
  0
LINE
  8
_0-0_LAYER001
  6
CONTINUOUS
 62
    2
 10
1727.4096
 20
897.97679999999991
 11
1509.9096
 21
897.97679999999991
  0
LINE
  8
_0-0_LAYER001
  6
CONTINUOUS
 62
    2
 10
1920.4787000000001
 20
1069.8006
 11
1915.1754000000001
 21
1064.4973
  0
LINE
  8
_0-0_LAYER001
  6
CONTINUOUS
 62
    2
 10
1915.1754000000001
 20
1064.4973
 11
1917.1165000000001
 21
1071.7417
  0
LINE
  8
_0-0_LAYER001
  6
CONTINUOUS
 62
    2
 10
1915.1754000000001
 20
1064.4973
 11
1965.8912999999998
 21
1152.3398
  0
LINE
  8
_0-0_LAYER001
  6
CONTINUOUS
 62
    2
 10
1965.8912999999998
 20
1152.3398
 11
2145.8912999999998
 21
1152.3398
  0
LINE
  8
_0-0_LAYER001
  6
CONTINUOUS
 62
    2
 10
1875.7709
 20
1056.2284999999999
 11
1873.8298
 21
1063.473
  0
LINE
  8
_0-0_LAYER001
  6
CONTINUOUS
 62
    2
 10
1873.8298
 20
1063.473
 11
1879.1331
 21
1058.1696999999999
  0
LINE
  8
_0-0_LAYER001
  6
CONTINUOUS
 62
    2
 10
1873.8298
 20
1063.473
 11
1953.1104999999998
 21
926.15470000000005
  0
LINE
  8
_0-0_LAYER001
  6
CONTINUOUS
 62
    2
 10
1953.1104999999998
 20
926.15470000000005
 11
2199.1104999999998
 21
926.15470000000005
  0
LINE
  8
_0-0_LAYER001
  6
CONTINUOUS
 62
    2
 10
1118.6123
 20
769.38609999999994
 11
1184.3506
 21
769.38609999999994
  0
LINE
  8
_0-0_LAYER001
  6
CONTINUOUS
 62
    2
 10
1111.4391000000001
 20
799.2527
 11
1332.3797
 21
799.2527
  0
LINE
  8
_0-0_LAYER001
  6
CONTINUOUS
 62
    2
 10
1101.896
 20
829.34799999999996
 11
1345.7131999999999
 21
829.34799999999996
  0
LINE
  8
_0-0_LAYER001
  6
CONTINUOUS
 62
    2
 10
1041.0045
 20
1051.5225
 11
1041.0045
 21
1059.0225
  0
LINE
  8
_0-0_LAYER001
  6
CONTINUOUS
 62
    2
 10
1041.0045
 20
1059.0225
 11
1044.7545
 21
1052.5273
  0
LINE
  8
_0-0_LAYER001
  6
CONTINUOUS
 62
    2
 10
1041.0045
 20
1059.0225
 11
1118.6123
 21
769.38609999999994
  0
LINE
  8
_0-0_LAYER001
  6
CONTINUOUS
 62
    2
 10
1094.5121999999999
 20
859.32889999999998
 11
1299.3349000000001
 21
859.32889999999998
  0
LINE
  8
_0-1_ADD_LINE
  6
CONTINUOUS
 62
    7
 10
822.2050999999999
 20
1315.1138000000001
 11
822.2050999999999
 21
1265.1138000000001
  0
LINE
  8
_0-1_ADD_LINE
  6
CONTINUOUS
 62
    7
 10
822.2050999999999
 20
1315.1138000000001
 11
822.2050999999999
 21
1316.8138000000001
  0
LINE
  8
_0-1_ADD_LINE
  6
CONTINUOUS
 62
    7
 10
822.2050999999999
 20
1315.1138000000001
 11
1892.2051000000001
 21
1315.1138000000001
  0
LINE
  8
_0-1_ADD_LINE
  6
CONTINUOUS
 62
    7
 10
1892.2051000000001
 20
1265.1138000000001
 11
1892.2051000000001
 21
1317.6138000000001
  0
LINE
  8
_0-1_ADD_LINE
  6
CONTINUOUS
 62
    7
 10
1862.2051000000001
 20
1265.1138000000001
 11
1862.2051000000001
 21
1315.1138000000001
  0
LINE
  8
_0-1_ADD_LINE
  6
CONTINUOUS
 62
    7
 10
1862.2051000000001
 20
1315.1138000000001
 11
1862.2051000000001
 21
1317.6138000000001
  0
LINE
  8
_0-1_ADD_LINE
  6
CONTINUOUS
 62
    7
 10
1602.2051000000001
 20
1265.1138000000001
 11
1602.2051000000001
 21
1317.6138000000001
  0
LINE
  8
_0-1_ADD_LINE
  6
CONTINUOUS
 62
    7
 10
1396.9915000000001
 20
1232.1550999999999
 11
1437.4915000000001
 21
1232.1550999999999
  0
LINE
  8
_0-1_ADD_LINE
  6
CONTINUOUS
 62
    7
 10
1929.7541000000001
 20
1246.5640000000001
 11
1977.7541000000001
 21
1246.5640000000001
  0
LINE
  8
_0-1_ADD_LINE
  6
CONTINUOUS
 62
    7
 10
1965.8912999999998
 20
1152.3398
 11
2145.8912999999998
 21
1152.3398
  0
LINE
  8
_0-1_ADD_LINE
  6
CONTINUOUS
 62
    7
 10
1953.1104999999998
 20
926.15470000000005
 11
2199.1104999999998
 21
926.15470000000005
  0
LINE
  8
_0-1_ADD_LINE
  6
CONTINUOUS
 62
    7
 10
1944.2053999999998
 20
858.17830000000004
 11
1992.2053999999998
 21
858.17830000000004
  0
LINE
  8
_0-1_ADD_LINE
  6
CONTINUOUS
 62
    7
 10
1509.9096
 20
897.97679999999991
 11
1727.4096
 21
897.97679999999991
  0
LINE
  8
_0-1_ADD_LINE
  6
CONTINUOUS
 62
    7
 10
1861.5146
 20
917.3877
 11
1769.0128
 21
917.3877
  0
LINE
  8
_0-1_ADD_LINE
  6
CONTINUOUS
 62
    7
 10
1769.0128
 20
917.3877
 11
1769.0128
 21
1038.5877
  0
LINE
  8
_0-1_ADD_LINE
  6
CONTINUOUS
 62
    7
 10
1769.0128
 20
1038.5877
 11
1861.5146
 21
1038.5877
  0
LINE
  8
_0-1_ADD_LINE
  6
CONTINUOUS
 62
    7
 10
1861.5146
 20
1038.5877
 11
1861.5146
 21
917.3877
  0
LINE
  8
_0-1_ADD_LINE
  6
CONTINUOUS
 62
    7
 10
1815.2637
 20
917.3877
 11
1815.2637
 21
1038.5877
  0
LINE
  8
_0-1_ADD_LINE
  6
CONTINUOUS
 62
    7
 10
1799.8163
 20
1067.2005999999999
 11
1811.0342000000001
 21
1067.2005999999999
  0
LINE
  8
_0-1_ADD_LINE
  6
CONTINUOUS
 62
    7
 10
1799.8163
 20
1067.2005999999999
 11
1799.8163
 21
1052.9546
  0
LINE
  8
_0-1_ADD_LINE
  6
CONTINUOUS
 62
    7
 10
1799.8163
 20
1052.9546
 11
1852.5270999999998
 21
1052.9546
  0
LINE
  8
_0-1_ADD_LINE
  6
CONTINUOUS
 62
    7
 10
1853.8247999999999
 20
1052.0877
 11
770.88940000000002
 21
1052.0877
  0
LINE
  8
_0-1_ADD_LINE
  6
CONTINUOUS
 62
    7
 10
770.88940000000002
 20
1050.5877
 11
1849.8163
 21
1050.5877
  0
LINE
  8
_0-1_ADD_LINE
  6
CONTINUOUS
 62
    7
 10
1849.8163
 20
1050.5877
 11
1849.8163
 21
1039.5381
  0
LINE
  8
_0-1_ADD_LINE
  6
CONTINUOUS
 62
    7
 10
1769.0128
 20
1038.5877
 11
770.88940000000002
 21
1038.5877
  0
LINE
  8
_0-1_ADD_LINE
  6
CONTINUOUS
 62
    7
 10
770.88940000000002
 20
1054.5381
 11
1796.6305000000002
 21
1054.5381
  0
LINE
  8
_0-1_ADD_LINE
  6
CONTINUOUS
 62
    7
 10
1796.6305000000002
 20
1054.5381
 11
1796.6305000000002
 21
1069.5381
  0
LINE
  8
_0-1_ADD_LINE
  6
CONTINUOUS
 62
    7
 10
1796.6305000000002
 20
1069.5381
 11
770.88940000000002
 21
1069.5381
  0
LINE
  8
_0-1_ADD_LINE
  6
CONTINUOUS
 62
    7
 10
859.01279999999997
 20
1038.5877
 11
859.01279999999997
 21
917.3877
  0
LINE
  8
_0-1_ADD_LINE
  6
CONTINUOUS
 62
    7
 10
859.01279999999997
 20
917.3877
 11
905.26369999999997
 21
917.3877
  0
LINE
  8
_0-1_ADD_LINE
  6
CONTINUOUS
 62
    7
 10
905.26369999999997
 20
917.3877
 11
905.26369999999997
 21
1038.5877
  0
LINE
  8
_0-1_ADD_LINE
  6
CONTINUOUS
 62
    7
 10
1094.5122116345874
 20
859.32889999999998
 11
1299.3349000000001
 21
859.32889999999998
  0
LINE
  8
_0-1_ADD_LINE
  6
CONTINUOUS
 62
    7
 10
1102.5455654914231
 20
829.34799999999996
 11
1345.7131999999999
 21
829.34799999999996
  0
LINE
  8
_0-1_ADD_LINE
  6
CONTINUOUS
 62
    7
 10
1111.4391000000001
 20
799.2527
 11
1332.3797
 21
799.2527
  0
LINE
  8
_0-1_ADD_LINE
  6
CONTINUOUS
 62
    7
 10
1118.6123
 20
769.38609999999994
 11
1184.3506
 21
769.38609999999994
  0
LINE
  8
_0-1_ADD_LINE
  6
CONTINUOUS
 62
    7
 10
1314.0128
 20
917.3877
 11
1360.2637
 21
917.3877
  0
LINE
  8
_0-1_ADD_LINE
  6
CONTINUOUS
 62
    7
 10
1360.2637
 20
917.3877
 11
1360.2637
 21
1038.5877
  0
LINE
  8
_0-1_ADD_LINE
  6
CONTINUOUS
 62
    7
 10
1314.0128
 20
917.3877
 11
1314.0128
 21
1038.5877
  0
LINE
  8
_0-1_ADD_LINE
  6
CONTINUOUS
 62
    7
 10
1342.2050999999999
 20
1265.1138000000001
 11
1342.2050999999999
 21
1315.1138000000001
  0
LINE
  8
_0-1_ADD_LINE
  6
CONTINUOUS
 62
    7
 10
1342.2050999999999
 20
1313.4138000000003
 11
1342.2050999999999
 21
1317.6138000000001
  0
LINE
  8
_0-1_ADD_LINE
  6
CONTINUOUS
 62
    7
 10
1082.2050999999999
 20
1265.1138000000001
 11
1082.2050999999999
 21
1317.6138000000001
  0
LINE
  8
_0-1_ADD_LINE
  6
CONTINUOUS
 62
    7
 10
1965.8912999999998
 20
1152.3398
 11
1915.1754000000001
 21
1064.4973
  0
LINE
  8
_0-1_ADD_LINE
  6
CONTINUOUS
 62
    7
 10
1915.1754000000001
 20
1064.4973
 11
1920.4787000000001
 21
1069.8006
  0
LINE
  8
_0-1_ADD_LINE
  6
CONTINUOUS
 62
    7
 10
1915.1754000000001
 20
1064.4973
 11
1917.1165000000001
 21
1071.7417
  0
LINE
  8
_0-1_ADD_LINE
  6
CONTINUOUS
 62
    7
 10
1873.8298
 20
1063.473
 11
1875.7709
 21
1056.2284999999999
  0
LINE
  8
_0-1_ADD_LINE
  6
CONTINUOUS
 62
    7
 10
1873.8298
 20
1063.473
 11
1879.1331
 21
1058.1696999999999
  0
LINE
  8
_0-1_ADD_LINE
  6
CONTINUOUS
 62
    7
 10
1873.8298
 20
1063.473
 11
1953.1104999999998
 21
926.15470000000005
  0
LINE
  8
_0-1_ADD_LINE
  6
CONTINUOUS
 62
    7
 10
1884.4220999999998
 20
957.8436999999999
 11
1882.4810000000002
 21
965.08809999999994
  0
LINE
  8
_0-1_ADD_LINE
  6
CONTINUOUS
 62
    7
 10
1882.4810000000002
 20
965.08809999999994
 11
1887.7842999999998
 21
959.7847999999999
  0
LINE
  8
_0-1_ADD_LINE
  6
CONTINUOUS
 62
    7
 10
1882.4810000000002
 20
965.08809999999994
 11
1944.2053999999998
 21
858.17830000000004
  0
LINE
  8
_0-1_ADD_LINE
  6
CONTINUOUS
 62
    7
 10
1769.0128
 20
917.3877
 11
1815.2637
 21
1038.5877
  0
LINE
  8
_0-1_ADD_LINE
  6
CONTINUOUS
 62
    7
 10
1815.2637
 20
917.3877
 11
1861.5146
 21
1038.5877
  0
LINE
  8
_0-1_ADD_LINE
  6
CONTINUOUS
 62
    7
 10
1811.5826999999999
 20
1047.6513
 11
1816.886
 21
1052.9546
  0
LINE
  8
_0-1_ADD_LINE
  6
CONTINUOUS
 62
    7
 10
1816.886
 20
1052.9546
 11
1814.9449
 21
1045.7101
  0
LINE
  8
_0-1_ADD_LINE
  6
CONTINUOUS
 62
    7
 10
1816.886
 20
1052.9546
 11
1727.4096
 21
897.97679999999991
  0
LINE
  8
_0-1_ADD_LINE
  6
CONTINUOUS
 62
    7
 10
1853.8247999999999
 20
1052.0877
 11
1874.2768999999998
 21
1116.095
  0
LINE
  8
_0-1_ADD_LINE
  6
CONTINUOUS
 62
    7
 10
1874.2768999999998
 20
1116.095
 11
1887.5038
 21
1116.095
  0
LINE
  8
_0-1_ADD_LINE
  6
CONTINUOUS
 62
    7
 10
1863.2354999999998
 20
1103.1373000000001
 11
1871.1502999999998
 21
1111.2381
  0
LINE
  8
_0-1_ADD_LINE
  6
CONTINUOUS
 62
    7
 10
1871.1502999999998
 20
1111.2381
 11
1852.5270999999998
 21
1052.9546
  0
LINE
  8
_0-1_ADD_LINE
  6
CONTINUOUS
 62
    7
 10
1882.5695999999998
 20
1168.7203999999999
 11
1880.6284999999998
 21
1161.4758999999999
  0
LINE
  8
_0-1_ADD_LINE
  6
CONTINUOUS
 62
    7
 10
1880.6284999999998
 20
1161.4758999999999
 11
1885.9317999999998
 21
1166.7791999999999
  0
LINE
  8
_0-1_ADD_LINE
  6
CONTINUOUS
 62
    7
 10
1880.6284999999998
 20
1161.4758999999999
 11
1929.7541000000001
 21
1246.5640000000001
  0
LINE
  8
_0-1_ADD_LINE
  6
CONTINUOUS
 62
    7
 10
1354.0292999999999
 20
1161.6247000000001
 11
1352.0882000000001
 21
1154.3803
  0
LINE
  8
_0-1_ADD_LINE
  6
CONTINUOUS
 62
    7
 10
1352.0882000000001
 20
1154.3803
 11
1357.3915
 21
1159.6836000000001
  0
LINE
  8
_0-1_ADD_LINE
  6
CONTINUOUS
 62
    7
 10
1352.0882000000001
 20
1154.3803
 11
1396.9915000000001
 21
1232.1550999999999
  0
LINE
  8
_0-1_ADD_LINE
  6
CONTINUOUS
 62
    7
 10
1360.2637
 20
1038.5877
 11
1314.0128
 21
917.3877
  0
LINE
  8
_0-1_ADD_LINE
  6
CONTINUOUS
 62
    7
 10
1041.0045
 20
1051.5225
 11
1041.0045
 21
1059.0225
  0
LINE
  8
_0-1_ADD_LINE
  6
CONTINUOUS
 62
    7
 10
1041.0045
 20
1059.0225
 11
1044.7545
 21
1052.5273
  0
LINE
  8
_0-1_ADD_LINE
  6
CONTINUOUS
 62
    7
 10
1041.0045
 20
1059.0225
 11
1118.6123
 21
769.38609999999994
  0
LINE
  8
_0-1_ADD_LINE
  6
CONTINUOUS
 62
    7
 10
905.26369999999997
 20
1038.5877
 11
859.01279999999997
 21
917.3877
  0
TEXT
  8
_0-0_LAYER001
 62
    7
 10
1929.7541000000001
 20
1249.0640000000003
 40
20
 41
1
 50
0
  1
右袖瓦
  0
TEXT
  8
_0-0_LAYER001
 62
    7
 10
1118.6123
 20
771.88610000000028
 40
20
 41
1
 50
0
  1
　垂木
  0
TEXT
  8
_0-0_LAYER001
 62
    7
 10
1111.4391000000001
 20
801.75270000000023
 40
20
 41
1
 50
0
  1
　野地板：耐水合板ｔ＝１２
  0
TEXT
  8
_0-0_LAYER001
 62
    7
 10
1094.5122000000001
 20
861.82890000000032
 40
20
 41
1
 50
0
  1
　瓦桟：１５ｘ３０以上
  0
TEXT
  8
_0-0_LAYER001
 62
    7
 10
1390.2327385885674
 20
1237.3123515325283
 40
20
 41
1
 50
0
  1
桟　瓦
  0
TEXT
  8
_0-0_LAYER001
 62
    7
 10
944.95210248731905
 20
1326.5577054500582
 40
20
 41
1
 50
0
  1
260
  0
TEXT
  8
_0-0_LAYER001
 62
    7
 10
1203.9440535370111
 20
1325.5460181412705
 40
20
 41
1
 50
0
  1
260
  0
TEXT
  8
_0-0_LAYER001
 62
    7
 10
1461.924317277915
 20
1325.5460181412705
 40
20
 41
1
 50
0
  1
260
  0
TEXT
  8
_0-0_LAYER001
 62
    7
 10
1717.8812064012432
 20
1327.5693927588463
 40
20
 41
1
 50
0
  1
260
  0
TEXT
  8
_0-0_LAYER001
 62
    7
 10
1870.6459900282102
 20
1327.5693927588463
 40
20
 41
1
 50
0
  1
30
  0
TEXT
  8
_0-0_LAYER001
 62
    7
 10
1101.8960000000002
 20
831.84800000000018
 40
20
 41
1
 50
0
  1
　下葺材：ルーフィング
  0
TEXT
  8
_0-0_LAYER001
 62
    7
 10
1444.1401547721409
 20
906.9905417024936
 40
20
 41
1
 50
0
  1
捨水切カラー鋼板0.35mm以上
  0
TEXT
  8
_0-0_LAYER001
 62
    7
 10
1953.1105000000002
 20
928.65470000000028
 40
20
 41
1
 50
0
  1
登り淀：36x72（防腐処理）
  0
TEXT
  8
_0-0_LAYER001
 62
    7
 10
1967.6569217540846
 20
1164.9183147033534
 40
20
 41
1
 50
0
  1
パッキンステンレスネジ
  0
TEXT
  8
_0-0_LAYER001
 62
    7
 10
1957.4419604471195
 20
866.13069647463453
 40
20
 41
1
 50
0
  1
破風板
  0
ENDSEC
  0
EOF
