  0
SECTION
  2
HEADER
  9
$ACADVER
  1
AC1009
  9
$INSBASE
 10
0
 20
0
 30
0
  9
$EXTMIN
 10
0
 20
0
  9
$EXTMAX
 10
2970
 20
2100
  9
$LIMMIN
 10
0
 20
0
  9
$LIMMAX
 10
2970
 20
2100
  9
$LTSCALE
 40
10
  0
ENDSEC
  0
SECTION
  2
TABLES
  0
TABLE
  2
LTYPE
 70
     9
  0
LTYPE
  2
CONTINUOUS
 70
    64
  3
実線
 72
    65
 73
     0
 40
0.0
  0
LTYPE
  2
DASHED1
 70
    64
  3
--  --  --  --  --  --  --  --  
 72
    65
 73
     2
 40
2.5
 49
1.25
 49
-1.25
  0
LTYPE
  2
DASHED2
 70
    64
  3
----    ----    ----    ----    
 72
    65
 73
     2
 40
5.0
 49
2.5
 49
-2.5
  0
LTYPE
  2
DASHED3
 70
    64
  3
------  ------  ------  ------  
 72
    65
 73
     2
 40
5.0
 49
3.75
 49
-1.25
  0
LTYPE
  2
CENTER1
 70
    64
  3
----- - ----- - ----- - ----- - 
 72
    65
 73
     4
 40
10.0
 49
6.25
 49
-1.25
 49
1.25
 49
-1.25
  0
LTYPE
  2
CENTER2
 70
    64
  3
----------  --  ----------  --  
 72
    65
 73
     4
 40
20.0
 49
12.5
 49
-2.5
 49
2.5
 49
-2.5
  0
LTYPE
  2
PHANTOM1
 70
    64
  3
--- - - --- - - --- - - --- - - 
 72
    65
 73
     6
 40
10.0
 49
3.25
 49
-1.25
 49
1.25
 49
-1.25
 49
1.25
 49
-1.25
  0
LTYPE
  2
PHANTOM2
 70
    64
  3
--------  -  -  --------  -  -  
 72
    65
 73
     6
 40
20.0
 49
10.0
 49
-2.5
 49
1.25
 49
-2.5
 49
1.25
 49
-2.5
  0
LTYPE
  2
DOT
 70
    64
  3
-   -   -   -   -   -   -   -   
 72
    65
 73
     2
 40
2.5
 49
0.625
 49
-1.875
  0
LTYPE
  2
DUMMY
 70
    64
  3
ダミー
 72
    65
 73
     0
 40
0.0
  0
LTYPE
  2
RAND1
 70
    64
  3
ランダム線1
 72
    65
 73
     4
 40
10.0
 49
1.0
 49
-2.0
 49
3.0
 49
-4.0
  0
LTYPE
  2
RAND2
 70
    64
  3
ランダム線2
 72
    65
 73
     4
 40
14.0
 49
2.0
 49
-3.0
 49
4.0
 49
-5.0
  0
LTYPE
  2
RAND3
 70
    64
  3
ランダム線3
 72
    65
 73
     4
 40
18.0
 49
3.0
 49
-4.0
 49
5.0
 49
-6.0
  0
LTYPE
  2
RAND4
 70
    64
  3
ランダム線4
 72
    65
 73
     4
 40
22.0
 49
4.0
 49
-5.0
 49
6.0
 49
-7.0
  0
LTYPE
  2
RAND5
 70
    64
  3
ランダム線5
 72
    65
 73
     4
 40
26.0
 49
5.0
 49
-6.0
 49
7.0
 49
-8.0
  0
LTYPE
  2
LONG1
 70
    64
  3
----------  --  ----------  --  
 72
    65
 73
     4
 40
40.0
 49
32.5
 49
-2.5
 49
2.5
 49
-2.5
  0
LTYPE
  2
LONG2
 70
    64
  3
--------  -  -  --------  -  -  
 72
    65
 73
     6
 40
40.0
 49
30.0
 49
-2.5
 49
1.25
 49
-2.5
 49
1.25
 49
-2.5
  0
LTYPE
  2
LONG3
 70
    64
  3
+++++++++++++++..+++++++++++++++
 72
    65
 73
     2
 40
40.0
 49
37.5
 49
-2.5
  0
LTYPE
  2
LONG4
 70
    64
  3
+++++++++++++++..+++++++++++++++
 72
    65
 73
     2
 40
80.0
 49
75.0
 49
-5.0
  0
LTYPE
  2
LONG5
 70
    64
  3
----------  --  ----------  --  
 72
    65
 73
     4
 40
60.0
 49
37.5
 49
-7.5
 49
7.5
 49
-7.5
  0
LTYPE
  2
dashed
 70
   64
  3
-------   -------------   ------
 72
   65
 73
    2
 40
7.5
 49
6
 49
-1.5
  0
LTYPE
  2
dashed_spaced
 70
   64
  3
----        --------        ----
 72
   65
 73
    2
 40
12
 49
6
 49
-6
  0
LTYPE
  2
long_dashed_dotted
 70
   64
  3
------------- --- --------------
 72
   65
 73
    4
 40
15.25
 49
12
 49
-1.5
 49
0.25
 49
-1.5
  0
LTYPE
  2
long_dashed_double-dotted
 70
   64
  3
----------- --- --- ------------
 72
   65
 73
    6
 40
17
 49
12
 49
-1.5
 49
0.25
 49
-1.5
 49
0.25
 49
-1.5
  0
LTYPE
  2
long_dashed_triplicate-dotted
 70
   64
  3
--------- --- --- --- ----------
 72
   65
 73
    8
 40
18.75
 49
12
 49
-1.5
 49
0.25
 49
-1.5
 49
0.25
 49
-1.5
 49
0.25
 49
-1.5
  0
LTYPE
  2
dotted
 70
   64
  3
   -       -       -       -    
 72
   65
 73
    2
 40
1.75
 49
0.25
 49
-1.5
  0
LTYPE
  2
chain
 70
   64
  3
-------------- -- --------------
 72
   65
 73
    4
 40
18.5
 49
12
 49
-1.5
 49
3.5
 49
-1.5
  0
LTYPE
  2
chain_double_dash
 70
   64
  3
------------ -- -- -------------
 72
   65
 73
    6
 40
23.5
 49
12
 49
-1.5
 49
3.5
 49
-1.5
 49
3.5
 49
-1.5
  0
LTYPE
  2
dashed_dotted
 70
   64
  3
-----------     -     ----------
 72
   65
 73
    4
 40
9.25
 49
6
 49
-1.5
 49
0.25
 49
-1.5
  0
LTYPE
  2
double-dashed_dotted
 70
   64
  3
------   -----------   -   -----
 72
   65
 73
    6
 40
16.75
 49
6
 49
-1.5
 49
6
 49
-1.5
 49
0.25
 49
-1.5
  0
LTYPE
  2
dashed_double-dotted
 70
   64
  3
---------    -    -    ---------
 72
   65
 73
    6
 40
11
 49
6
 49
-1.5
 49
0.25
 49
-1.5
 49
0.25
 49
-1.5
  0
LTYPE
  2
double-dashed_double-dotted
 70
   64
  3
-----   ---------   -   -   ----
 72
   65
 73
    8
 40
18.5
 49
6
 49
-1.5
 49
6
 49
-1.5
 49
0.25
 49
-1.5
 49
0.25
 49
-1.5
  0
LTYPE
  2
dashed_triplicate-dotted
 70
   64
  3
-------    -    -    -    ------
 72
   65
 73
    8
 40
12.75
 49
6
 49
-1.5
 49
0.25
 49
-1.5
 49
0.25
 49
-1.5
 49
0.25
 49
-1.5
  0
LTYPE
  2
double-dashed_triplicate-dotted
 70
   64
  3
-----  ---------  -  -  -  -----
 72
   65
 73
   10
 40
20.25
 49
6
 49
-1.5
 49
6
 49
-1.5
 49
0.25
 49
-1.5
 49
0.25
 49
-1.5
 49
0.25
 49
-1.5
  0
LTYPE
  2
undefined
 70
   64
  3
--------------------------------
 72
   65
 73
    0
 40
0
  0
ENDTAB
  0
TABLE
  2
STYLE
  5
3
100
AcDbSymbolTable
 70
     1
  0
STYLE
  5
10
100
AcDbSymbolTableRecord
100
AcDbTextStyleTableRecord
  2
STANDARD
 70
     0
 40
0.0
 41
1.0
 50
0.0
 71
     0
 42
0.2
  3
txt
  4
bigfont.shx
  0
STYLE
  5
26
100
AcDbSymbolTableRecord
100
AcDbTextStyleTableRecord
  2
TATEGAKI
 70
    68
 40
0.0
 41
1.0
 50
0.0
 71
     0
 42
1.0
  3
txt
  4
bigfont.shx
  0
ENDTAB
  0
TABLE
  2
LAYER
 70
    3
  0
LAYER
  2
_0-0_LAYER001
 70
   64
 62
    7
  6
CONTINUOUS
  0
LAYER
  2
_0-1_ADD_LINE
 70
   64
 62
    7
  6
CONTINUOUS
  0
LAYER
  2
ADD_LINE
 70
   64
 62
    7
  6
CONTINUOUS
  0
ENDTAB
  0
ENDSEC
  0
SECTION
  2
BLOCKS
  0
ENDSEC
  0
SECTION
  2
ENTITIES
  0
LINE
  8
_0-0_LAYER001
  6
CONTINUOUS
 62
    2
 10
1477.3607999999999
 20
876.68779999999992
 11
1477.3607999999999
 21
797.73360000000002
  0
LINE
  8
_0-0_LAYER001
  6
DASHED1
 62
    2
 10
1751.4699000000001
 20
1001.3551
 11
1477.4679000000001
 21
878.05410000000006
  0
LINE
  8
_0-0_LAYER001
  6
DASHED1
 62
    2
 10
1203.2518
 20
1001.3551
 11
1477.2538
 21
878.05410000000006
  0
CIRCLE
  8
_0-0_LAYER001
  6
CONTINUOUS
 62
    2
 10
1823.4198000000001
 20
841.46579999999994
 40
1.6999999999999997
  0
LINE
  8
_0-0_LAYER001
  6
CONTINUOUS
 62
    2
 10
1823.4198000000001
 20
841.46579999999994
 11
1549.8434000000002
 21
718.35629999999992
  0
CIRCLE
  8
_0-0_LAYER001
  6
CONTINUOUS
 62
    2
 10
1549.8434000000002
 20
718.35629999999992
 40
1.6999999999999997
  0
LINE
  8
_0-0_LAYER001
  6
CONTINUOUS
 62
    2
 10
1824.4457000000002
 20
839.18599999999992
 11
1802.9016000000001
 21
887.06179999999995
  0
LINE
  8
_0-0_LAYER001
  6
CONTINUOUS
 62
    2
 10
1550.8692999999998
 20
716.0764999999999
 11
1529.3251
 21
763.9523999999999
  0
CIRCLE
  8
_0-0_LAYER001
  6
CONTINUOUS
 62
    2
 10
1131.3018999999999
 20
841.46579999999994
 40
1.6999999999999997
  0
LINE
  8
_0-0_LAYER001
  6
CONTINUOUS
 62
    2
 10
1131.3018999999999
 20
841.46579999999994
 11
1404.8783000000001
 21
718.35629999999992
  0
CIRCLE
  8
_0-0_LAYER001
  6
CONTINUOUS
 62
    2
 10
1404.8783000000001
 20
718.35629999999992
 40
1.6999999999999997
  0
LINE
  8
_0-0_LAYER001
  6
CONTINUOUS
 62
    2
 10
1130.2759000000001
 20
839.18599999999992
 11
1151.8200999999999
 21
887.06179999999995
  0
LINE
  8
_0-0_LAYER001
  6
CONTINUOUS
 62
    2
 10
1403.8524000000002
 20
716.0764999999999
 11
1425.3964999999998
 21
763.9523999999999
  0
LINE
  8
_0-0_LAYER001
  6
CONTINUOUS
 62
    2
 10
1158.2484999999999
 20
901.34709999999995
 11
1175.6112000000001
 21
899.26510000000007
  0
LINE
  8
_0-0_LAYER001
  6
CONTINUOUS
 62
    2
 10
1158.2556
 20
901.36300000000006
 11
1171.3289
 21
889.74880000000007
  0
LINE
  8
_0-0_LAYER001
  6
CONTINUOUS
 62
    2
 10
1797.0636
 20
900.03500000000008
 11
1779.7008999999998
 21
897.95299999999997
  0
LINE
  8
_0-0_LAYER001
  6
CONTINUOUS
 62
    2
 10
1797.0565000000001
 20
900.05079999999998
 11
1783.9832000000001
 21
888.4366
  0
LINE
  8
_0-0_LAYER001
  6
DASHED1
 62
    2
 10
1805.3813
 20
881.55079999999998
 11
1750.9367999999999
 21
1002.5385000000001
  0
LINE
  8
_0-0_LAYER001
  6
DASHED1
 62
    2
 10
1148.8498999999999
 20
880.46129999999994
 11
1203.252
 21
1001.355
  0
ARC
  8
_0-0_LAYER001
  6
CONTINUOUS
 62
    2
 10
1479.0655999999999
 20
866.5938000000001
 40
100
 50
252.30315999999999
 51
288.73410999999999
  0
LINE
  8
_0-0_LAYER001
  6
CONTINUOUS
 62
    2
 10
1797.0118000000002
 20
900.01109999999994
 11
1577.5909999999999
 21
801.27170000000001
  0
LINE
  8
_0-0_LAYER001
  6
CONTINUOUS
 62
    2
 10
1158.232
 20
901.31040000000007
 11
1375.1019999999999
 21
803.71890000000008
  0
LINE
  8
_0-0_LAYER001
  6
CONTINUOUS
 62
    2
 10
1477.3607999999999
 20
797.73360000000002
 11
2269.4198999999999
 21
1154.1603
  0
LINE
  8
_0-0_LAYER001
  6
DASHED3
 62
    2
 10
2238.8476999999998
 20
1222.0985000000001
 11
1477.3607999999999
 21
879.42920000000004
  0
LINE
  8
_0-0_LAYER001
  6
CONTINUOUS
 62
    2
 10
2239.8735999999999
 20
1219.8187
 11
1477.3607999999999
 21
876.68779999999992
  0
LINE
  8
_0-0_LAYER001
  6
CONTINUOUS
 62
    2
 10
2244.7979999999998
 20
1208.8756000000001
 11
1477.3607999999999
 21
863.52870000000007
  0
LINE
  8
_0-0_LAYER001
  6
CONTINUOUS
 62
    2
 10
1477.3607999999999
 20
797.73360000000002
 11
700.57999999999993
 21
1147.2851000000001
  0
LINE
  8
_0-0_LAYER001
  6
DASHED3
 62
    2
 10
731.15219999999999
 20
1215.2233000000001
 11
1477.3607999999999
 21
879.42920000000004
  0
LINE
  8
_0-0_LAYER001
  6
CONTINUOUS
 62
    2
 10
730.1262999999999
 20
1212.9435000000001
 11
1477.3607999999999
 21
876.68779999999992
  0
LINE
  8
_0-0_LAYER001
  6
CONTINUOUS
 62
    2
 10
725.20190000000002
 20
1202.0003999999999
 11
1477.3607999999999
 21
863.52870000000007
  0
LINE
  8
_0-0_LAYER001
  6
CONTINUOUS
 62
    2
 10
1358.7109
 20
934.46659999999997
 11
1477.3607999999999
 21
881.07410000000004
  0
LINE
  8
_0-0_LAYER001
  6
CONTINUOUS
 62
    2
 10
1596.0106999999998
 20
934.46659999999997
 11
1477.3607999999999
 21
881.07410000000004
  0
LINE
  8
_0-0_LAYER001
  6
CONTINUOUS
 62
    2
 10
1938.288
 20
1142.6110000000001
 11
1940.2292000000002
 21
1135.3665000000001
  0
LINE
  8
_0-0_LAYER001
  6
CONTINUOUS
 62
    2
 10
1940.2292000000002
 20
1135.3665000000001
 11
1934.9259000000002
 21
1140.6697999999999
  0
LINE
  8
_0-0_LAYER001
  6
CONTINUOUS
 62
    2
 10
1940.2292000000002
 20
1135.3665000000001
 11
1881.7510000000002
 21
1236.6538
  0
LINE
  8
_0-0_LAYER001
  6
CONTINUOUS
 62
    2
 10
1881.7510000000002
 20
1236.6538
 11
1841.2510000000002
 21
1236.6538
  0
LINE
  8
_0-0_LAYER001
  6
CONTINUOUS
 62
    2
 10
1137.4208000000001
 20
1034.1754000000001
 11
1164.7867000000001
 21
1021.8607999999999
  0
LINE
  8
_0-0_LAYER001
  6
CONTINUOUS
 62
    2
 10
899.68419999999992
 20
1141.1572000000001
 11
927.05009999999993
 21
1128.8425
  0
LINE
  8
_0-0_LAYER001
  6
CONTINUOUS
 62
    4
 10
1426.2457999999997
 20
948.77700000000004
 11
1142.3526999999999
 21
1048.8054
  0
LINE
  8
_0-0_LAYER001
  6
CONTINUOUS
 62
    4
 10
1434.9011
 20
976.9242999999999
 11
1196.4350999999999
 21
1078.9231
  0
LINE
  8
_0-0_LAYER001
  6
CONTINUOUS
 62
    4
 10
1142.3526999999999
 20
1048.8054
 11
1138.3648000000001
 21
1037.4874
  0
LINE
  8
_0-0_LAYER001
  6
CONTINUOUS
 62
    4
 10
1138.3648000000001
 20
1037.4874
 11
1129.8762999999999
 21
1040.4783
  0
LINE
  8
_0-0_LAYER001
  6
CONTINUOUS
 62
    4
 10
1149.3314
 20
1068.6119000000001
 11
1148.3344
 21
1065.7824000000001
  0
LINE
  8
_0-0_LAYER001
  6
CONTINUOUS
 62
    4
 10
1432.2276000000002
 20
965.75399999999991
 11
1148.3344
 21
1065.7824000000001
  0
LINE
  8
_0-0_LAYER001
  6
CONTINUOUS
 62
    4
 10
1149.3314
 20
1068.6119000000001
 11
1140.8429000000001
 21
1071.6027999999999
  0
LINE
  8
_0-0_LAYER001
  6
CONTINUOUS
 62
    4
 10
1140.8429000000001
 20
1071.6027999999999
 11
1129.8762999999999
 21
1040.4783
  0
LINE
  8
_0-0_LAYER001
  6
CONTINUOUS
 62
    4
 10
1215.335
 20
1134.2795000000001
 11
1187.9973
 21
1056.6914999999999
  0
LINE
  8
_0-0_LAYER001
  6
CONTINUOUS
 62
    4
 10
1187.9973
 20
1056.6914999999999
 11
904.10410000000002
 21
1156.7199000000001
  0
LINE
  8
_0-0_LAYER001
  6
CONTINUOUS
 62
    4
 10
1196.6525999999999
 20
1084.8388
 11
958.18650000000002
 21
1186.8375000000001
  0
LINE
  8
_0-0_LAYER001
  6
CONTINUOUS
 62
    4
 10
904.10410000000002
 20
1156.7199000000001
 11
900.11629999999991
 21
1145.4019000000001
  0
LINE
  8
_0-0_LAYER001
  6
CONTINUOUS
 62
    4
 10
900.11629999999991
 20
1145.4019000000001
 11
891.62779999999998
 21
1148.3928000000001
  0
LINE
  8
_0-0_LAYER001
  6
CONTINUOUS
 62
    4
 10
911.08279999999991
 20
1176.5264
 11
910.08590000000004
 21
1173.6968999999999
  0
LINE
  8
_0-0_LAYER001
  6
CONTINUOUS
 62
    4
 10
1193.979
 20
1073.6685
 11
910.08590000000004
 21
1173.6968999999999
  0
LINE
  8
_0-0_LAYER001
  6
CONTINUOUS
 62
    4
 10
1215.3252
 20
1134.6818000000001
 11
970.23669999999993
 21
1221.0374999999999
  0
LINE
  8
_0-0_LAYER001
  6
CONTINUOUS
 62
    4
 10
911.08279999999991
 20
1176.5264
 11
902.59429999999998
 21
1179.5172
  0
LINE
  8
_0-0_LAYER001
  6
CONTINUOUS
 62
    4
 10
902.59429999999998
 20
1179.5172
 11
891.62779999999998
 21
1148.3928000000001
  0
LINE
  8
_0-0_LAYER001
  6
CONTINUOUS
 62
    4
 10
977.81330000000003
 20
1240.6764000000001
 11
950.47550000000001
 21
1163.0884000000001
  0
LINE
  8
_0-0_LAYER001
  6
CONTINUOUS
 62
    4
 10
950.47550000000001
 20
1163.0884000000001
 11
722.03970000000004
 21
1243.5766000000001
  0
LINE
  8
_0-0_LAYER001
  6
CONTINUOUS
 62
    4
 10
959.13090000000011
 20
1191.2357
 11
739.18720000000008
 21
1285.3118999999997
  0
LINE
  8
_0-0_LAYER001
  6
CONTINUOUS
 62
    4
 10
956.45730000000003
 20
1180.0654
 11
728.88930000000005
 21
1260.2479000000001
  0
LINE
  8
_0-0_LAYER001
  6
CONTINUOUS
 62
    4
 10
977.80349999999999
 20
1241.0787
 11
753.4867999999999
 21
1320.1156000000001
  0
LINE
  8
_0-0_LAYER001
  6
CONTINUOUS
 62
    4
 10
1453.7085999999999
 20
1026.7198000000001
 11
1426.2457999999997
 21
948.77700000000004
  0
LINE
  8
_0-0_LAYER001
  6
CONTINUOUS
 62
    4
 10
1453.7085999999999
 20
1026.7198000000001
 11
1208.4852000000001
 21
1113.123
  0
LINE
  8
_0-0_LAYER001
  6
CONTINUOUS
 62
    2
 10
906.17579999999998
 20
1154.6847
 11
899.68419999999992
 21
1141.1572000000001
  0
LINE
  8
_0-0_LAYER001
  6
CONTINUOUS
 62
    2
 10
933.54169999999999
 20
1142.3701000000001
 11
927.05009999999993
 21
1128.8425
  0
LINE
  8
_0-0_LAYER001
  6
CONTINUOUS
 62
    2
 10
906.17579999999998
 20
1154.6847
 11
933.54169999999999
 21
1142.3701000000001
  0
LINE
  8
_0-0_LAYER001
  6
CONTINUOUS
 62
    2
 10
1171.2782999999999
 20
1035.3883000000001
 11
1164.7867000000001
 21
1021.8607999999999
  0
LINE
  8
_0-0_LAYER001
  6
CONTINUOUS
 62
    2
 10
1143.9124999999999
 20
1047.703
 11
1137.4208000000001
 21
1034.1754000000001
  0
LINE
  8
_0-0_LAYER001
  6
CONTINUOUS
 62
    2
 10
1143.9124999999999
 20
1047.703
 11
1171.2782999999999
 21
1035.3883000000001
  0
LINE
  8
_0-0_LAYER001
  6
DASHED1
 62
    1
 10
932.48919999999998
 20
1171.4295
 11
917.1409000000001
 21
1175.9495999999999
  0
LINE
  8
_0-0_LAYER001
  6
DASHED1
 62
    1
 10
917.1409000000001
 20
1175.9495999999999
 11
916.29340000000002
 21
1173.0717999999999
  0
LINE
  8
_0-0_LAYER001
  6
DASHED1
 62
    1
 10
932.48919999999998
 20
1171.4295
 11
931.6416999999999
 21
1168.5517
  0
LINE
  8
_0-0_LAYER001
  6
DASHED1
 62
    1
 10
931.6416999999999
 20
1168.5517
 11
916.29340000000002
 21
1173.0717999999999
  0
LINE
  8
_0-0_LAYER001
  6
DASHED1
 62
    1
 10
906.23990000000003
 20
1109.3467000000001
 11
914.46360000000004
 21
1127.9209000000001
  0
LINE
  8
_0-0_LAYER001
  6
DASHED1
 62
    1
 10
926.84529999999995
 20
1169.9641999999999
 11
914.46360000000004
 21
1127.9209000000001
  0
LINE
  8
_0-0_LAYER001
  6
DASHED1
 62
    1
 10
906.04719999999998
 20
1108.6922
 11
907.71540000000005
 21
1126.2455
  0
LINE
  8
_0-0_LAYER001
  6
DASHED1
 62
    1
 10
921.08969999999999
 20
1171.6592000000001
 11
907.71540000000005
 21
1126.2455
  0
LINE
  8
_0-0_LAYER001
  6
DASHED1
 62
    1
 10
1169.1098
 20
1065.1876
 11
1153.7615000000001
 21
1069.7076999999999
  0
LINE
  8
_0-0_LAYER001
  6
DASHED1
 62
    1
 10
1153.7615000000001
 20
1069.7076999999999
 11
1152.914
 21
1066.8299
  0
LINE
  8
_0-0_LAYER001
  6
DASHED1
 62
    1
 10
1169.1098
 20
1065.1876
 11
1168.2623000000001
 21
1062.3098
  0
LINE
  8
_0-0_LAYER001
  6
DASHED1
 62
    1
 10
1168.2623000000001
 20
1062.3098
 11
1152.914
 21
1066.8299
  0
LINE
  8
_0-0_LAYER001
  6
DASHED1
 62
    1
 10
1142.8605
 20
1003.1048000000001
 11
1151.0842
 21
1021.6790000000001
  0
LINE
  8
_0-0_LAYER001
  6
DASHED1
 62
    1
 10
1163.4658999999999
 20
1063.7222999999999
 11
1151.0842
 21
1021.6790000000001
  0
LINE
  8
_0-0_LAYER001
  6
DASHED1
 62
    1
 10
1142.6677999999999
 20
1002.4503
 11
1144.336
 21
1020.0037
  0
LINE
  8
_0-0_LAYER001
  6
DASHED1
 62
    1
 10
1157.7103
 20
1065.4173000000001
 11
1144.336
 21
1020.0037
  0
LINE
  8
_0-0_LAYER001
  6
DASHED1
 62
    1
 10
1367.0082
 20
1060.5875000000001
 11
1326.1694
 21
956.43090000000007
  0
LINE
  8
_0-0_LAYER001
  6
DASHED1
 62
    1
 10
1323.1159
 20
938.68910000000005
 11
1326.1694
 21
956.43090000000007
  0
LINE
  8
_0-0_LAYER001
  6
DASHED1
 62
    1
 10
1372.5941
 20
1058.3973000000001
 11
1331.4789000000001
 21
953.53580000000011
  0
LINE
  8
_0-0_LAYER001
  6
DASHED1
 62
    1
 10
1323.0781999999999
 20
938.20049999999992
 11
1331.4789000000001
 21
953.53580000000011
  0
LINE
  8
_0-0_LAYER001
  6
DASHED1
 62
    1
 10
1377.2491
 20
1056.5721000000001
 11
1362.3532
 21
1062.4126000000001
  0
LINE
  8
_0-0_LAYER001
  6
DASHED1
 62
    1
 10
1378.3442
 20
1059.3651
 11
1377.2491
 21
1056.5721000000001
  0
LINE
  8
_0-0_LAYER001
  6
DASHED1
 62
    1
 10
1363.4483
 20
1065.2056
 11
1362.3532
 21
1062.4126000000001
  0
LINE
  8
_0-0_LAYER001
  6
DASHED1
 62
    1
 10
1378.3442
 20
1059.3651
 11
1363.4483
 21
1065.2056
  0
LINE
  8
_0-0_LAYER001
  6
CONTINUOUS
 62
    2
 10
1143.9124999999999
 20
1047.703
 11
1164.7867000000001
 21
1021.8607999999999
  0
LINE
  8
_0-0_LAYER001
  6
CONTINUOUS
 62
    2
 10
906.17579999999998
 20
1154.6847
 11
927.05009999999993
 21
1128.8425
  0
LINE
  8
_0-0_LAYER001
  6
CONTINUOUS
 62
    2
 10
1421.3271
 20
914.43389999999999
 11
1421.3271
 21
906.93389999999999
  0
LINE
  8
_0-0_LAYER001
  6
CONTINUOUS
 62
    2
 10
1421.3271
 20
906.93389999999999
 11
1417.5771
 21
913.42910000000006
  0
LINE
  8
_0-0_LAYER001
  6
CONTINUOUS
 62
    2
 10
1421.3271
 20
906.93389999999999
 11
1324.2887000000001
 21
1269.0862999999999
  0
LINE
  8
_0-0_LAYER001
  6
CONTINUOUS
 62
    2
 10
1324.2887000000001
 20
1269.0862999999999
 11
1123.2887000000001
 21
1269.0862999999999
  0
LINE
  8
_0-0_LAYER001
  6
CONTINUOUS
 62
    2
 10
1582.9953
 20
644.68380000000002
 11
1561.4513000000002
 21
692.55970000000002
  0
CIRCLE
  8
_0-0_LAYER001
  6
CONTINUOUS
 62
    2
 10
1581.9694
 20
646.96360000000004
 40
1.6999999999999997
  0
LINE
  8
_0-0_LAYER001
  6
CONTINUOUS
 62
    2
 10
1581.9694
 20
646.96360000000004
 11
1718.7577000000001
 21
708.51780000000008
  0
CIRCLE
  8
_0-0_LAYER001
  6
CONTINUOUS
 62
    2
 10
1718.7577000000001
 20
708.51780000000008
 40
1.6999999999999997
  0
LINE
  8
_0-0_LAYER001
  6
CONTINUOUS
 62
    2
 10
1719.7836000000002
 20
706.23800000000006
 11
1698.2395999999999
 21
754.11390000000006
  0
LINE
  8
_0-0_LAYER001
  6
CONTINUOUS
 62
    2
 10
1637.8697000000002
 20
985.74229999999989
 11
1614.1491000000001
 21
940.98399999999992
  0
LINE
  8
_0-0_LAYER001
  6
CONTINUOUS
 62
    2
 10
1601.3939999999998
 20
969.3284000000001
 11
1650.6248000000001
 21
957.39799999999991
  0
LINE
  8
_0-0_LAYER001
  6
CONTINUOUS
 62
    2
 10
1614.1491000000001
 20
940.98399999999992
 11
1601.3941
 21
969.32850000000008
  0
LINE
  8
_0-0_LAYER001
  6
CONTINUOUS
 62
    2
 10
1637.8697999999999
 20
985.74240000000009
 11
1650.6248000000001
 21
957.39799999999991
  0
LINE
  8
_0-0_LAYER001
  6
CONTINUOUS
 62
    2
 10
1637.8697999999999
 20
985.74240000000009
 11
1601.3941
 21
969.32850000000008
  0
LINE
  8
_0-0_LAYER001
  6
CONTINUOUS
 62
    2
 10
1640.0868
 20
988.38490000000002
 11
1630.1734999999999
 21
986.12040000000002
  0
LINE
  8
_0-0_LAYER001
  6
CONTINUOUS
 62
    2
 10
1596.0106999999998
 20
968.55079999999998
 11
1596.0106999999998
 21
934.46659999999997
  0
LINE
  8
_0-0_LAYER001
  6
CONTINUOUS
 62
    2
 10
1640.0868
 20
988.38490000000002
 11
1596.0106999999998
 21
968.55079999999998
  0
LINE
  8
_0-0_LAYER001
  6
CONTINUOUS
 62
    2
 10
1352.8834999999999
 20
968.34159999999997
 11
1304.0968
 21
957.39799999999991
  0
LINE
  8
_0-0_LAYER001
  6
CONTINUOUS
 62
    2
 10
1316.4078999999997
 20
984.75559999999996
 11
1340.5725000000002
 21
940.98399999999992
  0
LINE
  8
_0-0_LAYER001
  6
CONTINUOUS
 62
    2
 10
1316.4078999999997
 20
984.75559999999996
 11
1304.0968
 21
957.39799999999991
  0
LINE
  8
_0-0_LAYER001
  6
CONTINUOUS
 62
    2
 10
1340.5725000000002
 20
940.98399999999992
 11
1352.8834999999999
 21
968.34159999999997
  0
LINE
  8
_0-0_LAYER001
  6
CONTINUOUS
 62
    2
 10
1316.4078999999997
 20
984.75559999999996
 11
1352.8834999999999
 21
968.34159999999997
  0
LINE
  8
_0-0_LAYER001
  6
CONTINUOUS
 62
    2
 10
1316.1018999999999
 20
986.95749999999998
 11
1326.0151999999998
 21
984.69299999999998
  0
LINE
  8
_0-0_LAYER001
  6
CONTINUOUS
 62
    2
 10
1358.7109
 20
967.78359999999998
 11
1358.7109
 21
934.46659999999997
  0
LINE
  8
_0-0_LAYER001
  6
CONTINUOUS
 62
    2
 10
1316.1018999999999
 20
986.95749999999998
 11
1358.7109
 21
967.78359999999998
  0
LINE
  8
_0-0_LAYER001
  6
CONTINUOUS
 62
    2
 10
1331.4150999999997
 20
970.72620000000006
 11
1331.4150999999997
 21
963.22620000000006
  0
LINE
  8
_0-0_LAYER001
  6
CONTINUOUS
 62
    2
 10
1331.4150999999997
 20
963.22620000000006
 11
1327.6650999999997
 21
969.7213999999999
  0
LINE
  8
_0-0_LAYER001
  6
CONTINUOUS
 62
    2
 10
1331.4150999999997
 20
963.22620000000006
 11
1272.9603999999999
 21
1181.3820000000001
  0
LINE
  8
_0-0_LAYER001
  6
CONTINUOUS
 62
    2
 10
1272.9603999999999
 20
1181.3820000000001
 11
1139.5621000000001
 21
1181.3820000000001
  0
LINE
  8
_0-0_LAYER001
  6
CONTINUOUS
 62
    2
 10
1467.2314999999999
 20
1084.8752999999999
 11
1488.7757000000001
 21
1036.9994999999999
  0
CIRCLE
  8
_0-0_LAYER001
  6
CONTINUOUS
 62
    2
 10
1468.2574
 20
1082.5954999999999
 40
1.6999999999999997
  0
LINE
  8
_0-0_LAYER001
  6
CONTINUOUS
 62
    2
 10
1468.2574
 20
1082.5954999999999
 11
1536.587
 21
1113.3439000000001
  0
CIRCLE
  8
_0-0_LAYER001
  6
CONTINUOUS
 62
    2
 10
1536.587
 20
1113.3439000000001
 40
1.6999999999999997
  0
LINE
  8
_0-0_LAYER001
  6
CONTINUOUS
 62
    2
 10
1535.5610999999999
 20
1115.6237000000001
 11
1557.1053000000002
 21
1067.7478000000001
  0
LINE
  8
_0-0_LAYER001
  6
CONTINUOUS
 62
    2
 10
1456.9805999999999
 20
1151.6894
 11
1474.4274999999998
 21
1102.1731
  0
CIRCLE
  8
_0-0_LAYER001
  6
CONTINUOUS
 62
    2
 10
1457.8114999999998
 20
1149.3315
 40
1.6999999999999997
  0
LINE
  8
_0-0_LAYER001
  6
CONTINUOUS
 62
    2
 10
1457.8114999999998
 20
1149.3315
 11
1703.0347999999999
 21
1235.7347
  0
CIRCLE
  8
_0-0_LAYER001
  6
CONTINUOUS
 62
    2
 10
1703.0347999999999
 20
1235.7347
 40
1.6999999999999997
  0
LINE
  8
_0-0_LAYER001
  6
CONTINUOUS
 62
    2
 10
1702.2040000000002
 20
1238.0925999999999
 11
1719.6507999999999
 21
1188.5763999999999
  0
LINE
  8
_0-0_LAYER001
  6
CONTINUOUS
 62
    2
 10
1692.0030999999999
 20
1266.3061
 11
1709.4499000000001
 21
1216.7899
  0
CIRCLE
  8
_0-0_LAYER001
  6
CONTINUOUS
 62
    2
 10
1692.8339000000001
 20
1263.9482
 40
1.6999999999999997
  0
LINE
  8
_0-0_LAYER001
  6
CONTINUOUS
 62
    2
 10
1692.8339000000001
 20
1263.9482
 11
1938.0572999999999
 21
1350.3514999999998
  0
CIRCLE
  8
_0-0_LAYER001
  6
CONTINUOUS
 62
    2
 10
1938.0572999999999
 20
1350.3514999999998
 40
1.6999999999999997
  0
LINE
  8
_0-0_LAYER001
  6
CONTINUOUS
 62
    2
 10
1937.2265000000002
 20
1352.7094
 11
1954.6732999999999
 21
1303.1931
  0
LINE
  8
_0-0_LAYER001
  6
CONTINUOUS
 62
    2
 10
1927.2568999999999
 20
1381.0043999999998
 11
1944.7037
 21
1331.4881
  0
CIRCLE
  8
_0-0_LAYER001
  6
CONTINUOUS
 62
    2
 10
1928.0877
 20
1378.6465000000001
 40
1.6999999999999997
  0
LINE
  8
_0-0_LAYER001
  6
CONTINUOUS
 62
    2
 10
1928.0877
 20
1378.6465000000001
 11
2145.6858000000002
 21
1455.3161
  0
LINE
  8
_0-0_LAYER001
  6
CONTINUOUS
 62
    2
 10
1817.3008
 20
1034.1754000000001
 11
1789.9349000000002
 21
1021.8607999999999
  0
LINE
  8
_0-0_LAYER001
  6
CONTINUOUS
 62
    2
 10
2055.0374000000002
 20
1141.1572000000001
 11
2027.6716000000001
 21
1128.8425
  0
LINE
  8
_0-0_LAYER001
  6
CONTINUOUS
 62
    4
 10
1528.4758000000002
 20
948.77700000000004
 11
1812.3690000000001
 21
1048.8054
  0
LINE
  8
_0-0_LAYER001
  6
CONTINUOUS
 62
    4
 10
1519.8204999999998
 20
976.9242999999999
 11
1758.2865999999999
 21
1078.9231
  0
LINE
  8
_0-0_LAYER001
  6
CONTINUOUS
 62
    4
 10
1812.3690000000001
 20
1048.8054
 11
1816.3568
 21
1037.4874
  0
LINE
  8
_0-0_LAYER001
  6
CONTINUOUS
 62
    4
 10
1816.3568
 20
1037.4874
 11
1824.8453
 21
1040.4783
  0
LINE
  8
_0-0_LAYER001
  6
CONTINUOUS
 62
    4
 10
1805.3903
 20
1068.6119000000001
 11
1806.3872000000001
 21
1065.7824000000001
  0
LINE
  8
_0-0_LAYER001
  6
CONTINUOUS
 62
    4
 10
1522.4940999999999
 20
965.75399999999991
 11
1806.3872000000001
 21
1065.7824000000001
  0
LINE
  8
_0-0_LAYER001
  6
CONTINUOUS
 62
    4
 10
1805.3903
 20
1068.6119000000001
 11
1813.8788
 21
1071.6027999999999
  0
LINE
  8
_0-0_LAYER001
  6
CONTINUOUS
 62
    4
 10
1813.8788
 20
1071.6027999999999
 11
1824.8453
 21
1040.4783
  0
LINE
  8
_0-0_LAYER001
  6
CONTINUOUS
 62
    4
 10
1739.3865999999998
 20
1134.2795000000001
 11
1766.7244000000001
 21
1056.6914999999999
  0
LINE
  8
_0-0_LAYER001
  6
CONTINUOUS
 62
    4
 10
1766.7244000000001
 20
1056.6914999999999
 11
2050.6174999999998
 21
1156.7199000000001
  0
LINE
  8
_0-0_LAYER001
  6
CONTINUOUS
 62
    4
 10
1758.0691000000002
 20
1084.8388
 11
1996.5351000000001
 21
1186.8375000000001
  0
LINE
  8
_0-0_LAYER001
  6
CONTINUOUS
 62
    4
 10
2050.6174999999998
 20
1156.7199000000001
 11
2054.6053999999999
 21
1145.4019000000001
  0
LINE
  8
_0-0_LAYER001
  6
CONTINUOUS
 62
    4
 10
2054.6053999999999
 20
1145.4019000000001
 11
2063.0938999999998
 21
1148.3928000000001
  0
LINE
  8
_0-0_LAYER001
  6
CONTINUOUS
 62
    4
 10
2043.6388000000002
 20
1176.5264
 11
2044.6358
 21
1173.6968999999999
  0
LINE
  8
_0-0_LAYER001
  6
CONTINUOUS
 62
    4
 10
1760.7426
 20
1073.6685
 11
2044.6358
 21
1173.6968999999999
  0
LINE
  8
_0-0_LAYER001
  6
CONTINUOUS
 62
    4
 10
1739.3964000000001
 20
1134.6818000000001
 11
1984.4848999999999
 21
1221.0374999999999
  0
LINE
  8
_0-0_LAYER001
  6
CONTINUOUS
 62
    4
 10
2043.6388000000002
 20
1176.5264
 11
2052.1273000000001
 21
1179.5172
  0
LINE
  8
_0-0_LAYER001
  6
CONTINUOUS
 62
    4
 10
2052.1273000000001
 20
1179.5172
 11
2063.0938999999998
 21
1148.3928000000001
  0
LINE
  8
_0-0_LAYER001
  6
CONTINUOUS
 62
    4
 10
1976.9083000000001
 20
1240.6764000000001
 11
2004.2460999999998
 21
1163.0884000000001
  0
LINE
  8
_0-0_LAYER001
  6
CONTINUOUS
 62
    4
 10
2004.2460999999998
 20
1163.0884000000001
 11
2232.6819
 21
1243.5766000000001
  0
LINE
  8
_0-0_LAYER001
  6
CONTINUOUS
 62
    4
 10
1995.5907999999999
 20
1191.2357
 11
2215.5344
 21
1285.3118999999997
  0
LINE
  8
_0-0_LAYER001
  6
CONTINUOUS
 62
    4
 10
1998.2642999999998
 20
1180.0654
 11
2225.8323
 21
1260.2479000000001
  0
LINE
  8
_0-0_LAYER001
  6
CONTINUOUS
 62
    4
 10
1976.9182000000001
 20
1241.0787
 11
2201.2348000000002
 21
1320.1156000000001
  0
LINE
  8
_0-0_LAYER001
  6
CONTINUOUS
 62
    4
 10
1501.0131000000001
 20
1026.7198000000001
 11
1528.4758000000002
 21
948.77700000000004
  0
LINE
  8
_0-0_LAYER001
  6
CONTINUOUS
 62
    4
 10
1501.0131000000001
 20
1026.7198000000001
 11
1746.2363999999998
 21
1113.123
  0
LINE
  8
_0-0_LAYER001
  6
CONTINUOUS
 62
    2
 10
2048.5457999999999
 20
1154.6847
 11
2055.0374000000002
 21
1141.1572000000001
  0
LINE
  8
_0-0_LAYER001
  6
CONTINUOUS
 62
    2
 10
2021.1799000000001
 20
1142.3701000000001
 11
2027.6716000000001
 21
1128.8425
  0
LINE
  8
_0-0_LAYER001
  6
CONTINUOUS
 62
    2
 10
2048.5457999999999
 20
1154.6847
 11
2021.1799000000001
 21
1142.3701000000001
  0
LINE
  8
_0-0_LAYER001
  6
CONTINUOUS
 62
    2
 10
1783.4432999999999
 20
1035.3883000000001
 11
1789.9349000000002
 21
1021.8607999999999
  0
LINE
  8
_0-0_LAYER001
  6
CONTINUOUS
 62
    2
 10
1810.8092000000001
 20
1047.703
 11
1817.3008
 21
1034.1754000000001
  0
LINE
  8
_0-0_LAYER001
  6
CONTINUOUS
 62
    2
 10
1810.8092000000001
 20
1047.703
 11
1783.4432999999999
 21
1035.3883000000001
  0
LINE
  8
_0-0_LAYER001
  6
DASHED1
 62
    1
 10
2022.2325000000001
 20
1171.4295
 11
2037.5807
 21
1175.9495999999999
  0
LINE
  8
_0-0_LAYER001
  6
DASHED1
 62
    1
 10
2037.5807
 20
1175.9495999999999
 11
2038.4281999999998
 21
1173.0717999999999
  0
LINE
  8
_0-0_LAYER001
  6
DASHED1
 62
    1
 10
2022.2325000000001
 20
1171.4295
 11
2023.0799999999999
 21
1168.5517
  0
LINE
  8
_0-0_LAYER001
  6
DASHED1
 62
    1
 10
2023.0799999999999
 20
1168.5517
 11
2038.4281999999998
 21
1173.0717999999999
  0
LINE
  8
_0-0_LAYER001
  6
DASHED1
 62
    1
 10
2048.4816999999998
 20
1109.3467000000001
 11
2040.2579999999998
 21
1127.9209000000001
  0
LINE
  8
_0-0_LAYER001
  6
DASHED1
 62
    1
 10
2027.8762999999999
 20
1169.9641999999999
 11
2040.2579999999998
 21
1127.9209000000001
  0
LINE
  8
_0-0_LAYER001
  6
DASHED1
 62
    1
 10
2048.6745000000001
 20
1108.6922
 11
2047.0061999999998
 21
1126.2455
  0
LINE
  8
_0-0_LAYER001
  6
DASHED1
 62
    1
 10
2033.6318999999999
 20
1171.6592000000001
 11
2047.0061999999998
 21
1126.2455
  0
LINE
  8
_0-0_LAYER001
  6
DASHED1
 62
    1
 10
1785.6118999999999
 20
1065.1876
 11
1800.9600999999998
 21
1069.7076999999999
  0
LINE
  8
_0-0_LAYER001
  6
DASHED1
 62
    1
 10
1800.9600999999998
 20
1069.7076999999999
 11
1801.8076000000001
 21
1066.8299
  0
LINE
  8
_0-0_LAYER001
  6
DASHED1
 62
    1
 10
1785.6118999999999
 20
1065.1876
 11
1786.4594000000002
 21
1062.3098
  0
LINE
  8
_0-0_LAYER001
  6
DASHED1
 62
    1
 10
1786.4594000000002
 20
1062.3098
 11
1801.8076000000001
 21
1066.8299
  0
LINE
  8
_0-0_LAYER001
  6
DASHED1
 62
    1
 10
1811.8611000000001
 20
1003.1048000000001
 11
1803.6374000000001
 21
1021.6790000000001
  0
LINE
  8
_0-0_LAYER001
  6
DASHED1
 62
    1
 10
1791.2557000000002
 20
1063.7222999999999
 11
1803.6374000000001
 21
1021.6790000000001
  0
LINE
  8
_0-0_LAYER001
  6
DASHED1
 62
    1
 10
1812.0538000000001
 20
1002.4503
 11
1810.3856000000001
 21
1020.0037
  0
LINE
  8
_0-0_LAYER001
  6
DASHED1
 62
    1
 10
1797.0113000000001
 20
1065.4173000000001
 11
1810.3856000000001
 21
1020.0037
  0
LINE
  8
_0-0_LAYER001
  6
DASHED1
 62
    1
 10
1587.7134999999998
 20
1060.5875000000001
 11
1628.5522999999998
 21
956.43090000000007
  0
LINE
  8
_0-0_LAYER001
  6
DASHED1
 62
    1
 10
1631.6057999999998
 20
938.68910000000005
 11
1628.5522999999998
 21
956.43090000000007
  0
LINE
  8
_0-0_LAYER001
  6
DASHED1
 62
    1
 10
1582.1275000000001
 20
1058.3973000000001
 11
1623.2426999999998
 21
953.53580000000011
  0
LINE
  8
_0-0_LAYER001
  6
DASHED1
 62
    1
 10
1631.6435000000001
 20
938.20049999999992
 11
1623.2426999999998
 21
953.53580000000011
  0
LINE
  8
_0-0_LAYER001
  6
DASHED1
 62
    1
 10
1577.4726000000001
 20
1056.5721000000001
 11
1592.3685
 21
1062.4126000000001
  0
LINE
  8
_0-0_LAYER001
  6
DASHED1
 62
    1
 10
1576.3775000000001
 20
1059.3651
 11
1577.4726000000001
 21
1056.5721000000001
  0
LINE
  8
_0-0_LAYER001
  6
DASHED1
 62
    1
 10
1591.2734
 20
1065.2056
 11
1592.3685
 21
1062.4126000000001
  0
LINE
  8
_0-0_LAYER001
  6
DASHED1
 62
    1
 10
1576.3775000000001
 20
1059.3651
 11
1591.2734
 21
1065.2056
  0
LINE
  8
_0-0_LAYER001
  6
CONTINUOUS
 62
    2
 10
1810.8092000000001
 20
1047.703
 11
1789.9349000000002
 21
1021.8607999999999
  0
LINE
  8
_0-0_LAYER001
  6
CONTINUOUS
 62
    2
 10
2048.5457999999999
 20
1154.6847
 11
2027.6716000000001
 21
1128.8425
  0
LINE
  8
_0-0_LAYER001
  6
CONTINUOUS
 62
    2
 10
1884.0277999999998
 20
744.99140000000011
 11
1948.6628999999998
 21
744.99140000000011
  0
LINE
  8
_0-0_LAYER001
  6
CONTINUOUS
 62
    2
 10
1876.8546000000001
 20
774.85799999999995
 11
2097.7953000000002
 21
774.85799999999995
  0
LINE
  8
_0-0_LAYER001
  6
CONTINUOUS
 62
    2
 10
1867.3114999999998
 20
804.9532999999999
 11
2108.9249
 21
804.9532999999999
  0
LINE
  8
_0-0_LAYER001
  6
CONTINUOUS
 62
    2
 10
1806.4200000000001
 20
1027.1278
 11
1806.4200000000001
 21
1034.6278
  0
LINE
  8
_0-0_LAYER001
  6
CONTINUOUS
 62
    2
 10
1806.4200000000001
 20
1034.6278
 11
1810.1700000000001
 21
1028.1327000000001
  0
LINE
  8
_0-0_LAYER001
  6
CONTINUOUS
 62
    2
 10
1806.4200000000001
 20
1034.6278
 11
1884.0277999999998
 21
744.99140000000011
  0
LINE
  8
_0-0_LAYER001
  6
CONTINUOUS
 62
    2
 10
1859.9277000000002
 20
834.93429999999989
 11
2064.7503999999999
 21
834.93429999999989
  0
LINE
  8
_0-1_ADD_LINE
  6
CONTINUOUS
 62
    7
 10
1123.2887000000001
 20
1269.0862999999999
 11
1324.2887000000001
 21
1269.0862999999999
  0
LINE
  8
_0-1_ADD_LINE
  6
CONTINUOUS
 62
    7
 10
1139.5621000000001
 20
1181.3820000000001
 11
1272.9603999999999
 21
1181.3820000000001
  0
LINE
  8
_0-1_ADD_LINE
  6
CONTINUOUS
 62
    7
 10
1859.9277000000002
 20
834.93429999999989
 11
2064.7503999999999
 21
834.93429999999989
  0
LINE
  8
_0-1_ADD_LINE
  6
CONTINUOUS
 62
    7
 10
1867.9610654914231
 20
804.9532999999999
 11
2096.8114999999998
 21
804.9532999999999
  0
LINE
  8
_0-1_ADD_LINE
  6
CONTINUOUS
 62
    7
 10
1876.8546000000001
 20
774.85799999999995
 11
2089.8546000000001
 21
774.85799999999995
  0
LINE
  8
_0-1_ADD_LINE
  6
CONTINUOUS
 62
    7
 10
1884.0277999999998
 20
744.99140000000011
 11
1948.6628999999998
 21
744.99140000000011
  0
LINE
  8
_0-1_ADD_LINE
  6
CONTINUOUS
 62
    7
 10
2145.6858000000002
 20
1455.3161
 11
1928.0877
 21
1378.6465000000001
  0
LINE
  8
_0-1_ADD_LINE
  6
CONTINUOUS
 62
    7
 10
1927.5227505213593
 20
1380.2498814538603
 11
1954.6732999999999
 21
1303.1931
  0
LINE
  8
_0-1_ADD_LINE
  6
CONTINUOUS
 62
    7
 10
1938.0572940298507
 20
1350.3514978964461
 11
1692.8339000000001
 21
1263.9482
  0
LINE
  8
_0-1_ADD_LINE
  6
CONTINUOUS
 62
    7
 10
1692.8339000000001
 20
1263.9482
 11
1692.2689509989618
 21
1265.551581622143
  0
LINE
  8
_0-1_ADD_LINE
  6
CONTINUOUS
 62
    7
 10
1692.8339000000001
 20
1263.9482
 11
1719.6507999999999
 21
1188.5763999999999
  0
LINE
  8
_0-1_ADD_LINE
  6
CONTINUOUS
 62
    7
 10
1703.0347999999999
 20
1235.7347
 11
1459.4148833545503
 21
1149.896444084269
  0
LINE
  8
_0-1_ADD_LINE
  6
CONTINUOUS
 62
    7
 10
1456.9805999999999
 20
1151.6894
 11
1474.4274999999998
 21
1102.1731
  0
LINE
  8
_0-1_ADD_LINE
  6
CONTINUOUS
 62
    7
 10
1467.2314999999999
 20
1084.8752999999999
 11
1488.7757000000001
 21
1036.9994999999999
  0
LINE
  8
_0-1_ADD_LINE
  6
CONTINUOUS
 62
    7
 10
1469.8076658795703
 20
1083.2931214608511
 11
1536.587
 21
1113.3439000000001
  0
LINE
  8
_0-1_ADD_LINE
  6
CONTINUOUS
 62
    7
 10
1535.5610999999999
 20
1115.6237000000001
 11
1557.1053000000002
 21
1067.7478000000001
  0
LINE
  8
_0-1_ADD_LINE
  6
CONTINUOUS
 62
    7
 10
1841.2510000000002
 20
1236.6538
 11
1881.7510000000002
 21
1236.6538
  0
LINE
  8
_0-1_ADD_LINE
  6
CONTINUOUS
 62
    7
 10
1881.7510000000002
 20
1236.6538
 11
1940.2292000000002
 21
1135.3665000000001
  0
LINE
  8
_0-1_ADD_LINE
  6
CONTINUOUS
 62
    7
 10
1940.2292000000002
 20
1135.3665000000001
 11
1938.288
 21
1142.6110000000001
  0
LINE
  8
_0-1_ADD_LINE
  6
CONTINUOUS
 62
    7
 10
1940.2292000000002
 20
1135.3665000000001
 11
1934.9259000000002
 21
1140.6697999999999
  0
LINE
  8
_0-1_ADD_LINE
  6
CONTINUOUS
 62
    7
 10
1324.2887000000001
 20
1269.0862999999999
 11
1421.3271
 21
906.93389999999999
  0
LINE
  8
_0-1_ADD_LINE
  6
CONTINUOUS
 62
    7
 10
1421.3271
 20
906.93389999999999
 11
1421.3271
 21
914.43389999999999
  0
LINE
  8
_0-1_ADD_LINE
  6
CONTINUOUS
 62
    7
 10
1421.3271
 20
906.93389999999999
 11
1417.5771
 21
913.42910000000006
  0
LINE
  8
_0-1_ADD_LINE
  6
CONTINUOUS
 62
    7
 10
1327.6650999999997
 20
969.7213999999999
 11
1331.4150999999997
 21
963.22620000000006
  0
LINE
  8
_0-1_ADD_LINE
  6
CONTINUOUS
 62
    7
 10
1331.4150999999997
 20
963.22620000000006
 11
1331.4150999999997
 21
969.80970340803333
  0
LINE
  8
_0-1_ADD_LINE
  6
CONTINUOUS
 62
    7
 10
1316.4078999999997
 20
984.75559999999996
 11
1304.0968
 21
957.39799999999991
  0
LINE
  8
_0-1_ADD_LINE
  6
CONTINUOUS
 62
    7
 10
1304.0968
 20
957.39799999999991
 11
1328.490194490488
 21
962.86980997989417
  0
LINE
  8
_0-1_ADD_LINE
  6
CONTINUOUS
 62
    7
 10
1328.490194490488
 20
962.86980997989417
 11
1316.4078999999997
 21
984.75559999999996
  0
LINE
  8
_0-1_ADD_LINE
  6
CONTINUOUS
 62
    7
 10
1316.4078999999997
 20
984.75559999999996
 11
1352.8834999999999
 21
968.34159999999997
  0
LINE
  8
_0-1_ADD_LINE
  6
CONTINUOUS
 62
    7
 10
1352.8834999999999
 20
968.34159999999997
 11
1328.490194490488
 21
962.86980997989417
  0
LINE
  8
_0-1_ADD_LINE
  6
CONTINUOUS
 62
    7
 10
1328.490194490488
 20
962.86980997989417
 11
1340.5725000000002
 21
940.98399999999992
  0
LINE
  8
_0-1_ADD_LINE
  6
CONTINUOUS
 62
    7
 10
1340.5725000000002
 20
940.98399999999992
 11
1352.8834999999999
 21
968.34159999999997
  0
LINE
  8
_0-1_ADD_LINE
  6
CONTINUOUS
 62
    7
 10
1340.5725000000002
 20
940.98399999999992
 11
1304.0968199852041
 21
957.39804441091462
  0
LINE
  8
_0-1_ADD_LINE
  6
CONTINUOUS
 62
    7
 10
1316.1018999999999
 20
986.95749999999998
 11
1325.6401280381347
 21
984.77867787292269
  0
LINE
  8
_0-1_ADD_LINE
  6
CONTINUOUS
 62
    7
 10
1316.1018999999999
 20
986.95749999999998
 11
1358.7109
 21
967.78359999999998
  0
LINE
  8
_0-1_ADD_LINE
  6
CONTINUOUS
 62
    7
 10
1358.7109
 20
967.78359999999998
 11
1358.7109
 21
934.46659999999997
  0
LINE
  8
_0-1_ADD_LINE
  6
CONTINUOUS
 62
    7
 10
1331.4150999999997
 20
963.52591084209416
 11
1272.9603999999999
 21
1181.3820000000001
  0
LINE
  8
_0-1_ADD_LINE
  6
CONTINUOUS
 62
    7
 10
1477.3607999999999
 20
881.07410000000004
 11
1358.7109
 21
934.46659999999997
  0
LINE
  8
_0-1_ADD_LINE
  6
CONTINUOUS
 62
    7
 10
1477.3607999999999
 20
879.42920000000004
 11
731.15219999999999
 21
1215.2233000000001
  0
LINE
  8
_0-1_ADD_LINE
  6
CONTINUOUS
 62
    7
 10
730.1262999999999
 20
1212.9435000000001
 11
1477.3607999999999
 21
876.68779999999992
  0
LINE
  8
_0-1_ADD_LINE
  6
CONTINUOUS
 62
    7
 10
1477.3607999999999
 20
876.68779999999981
 11
1477.3607999999999
 21
797.73360000000002
  0
LINE
  8
_0-1_ADD_LINE
  6
CONTINUOUS
 62
    7
 10
1477.3607999999999
 20
797.73360000000002
 11
700.57999999999993
 21
1147.2851000000001
  0
LINE
  8
_0-1_ADD_LINE
  6
CONTINUOUS
 62
    7
 10
725.20190000000002
 20
1202.0003999999999
 11
1477.3607999999999
 21
863.52870000000007
  0
LINE
  8
_0-1_ADD_LINE
  6
CONTINUOUS
 62
    7
 10
1477.3607999999999
 20
863.52870000000007
 11
2244.7979999999998
 21
1208.8756000000001
  0
LINE
  8
_0-1_ADD_LINE
  6
CONTINUOUS
 62
    7
 10
2269.4198999999999
 20
1154.1603
 11
1477.3607999999999
 21
797.73360000000002
  0
LINE
  8
_0-1_ADD_LINE
  6
CONTINUOUS
 62
    7
 10
1477.3607999999999
 20
881.07410000000004
 11
1596.0106999999998
 21
934.46659999999997
  0
LINE
  8
_0-1_ADD_LINE
  6
CONTINUOUS
 62
    7
 10
1477.3607999999999
 20
879.42920000000004
 11
2238.8476999999998
 21
1222.0985000000001
  0
LINE
  8
_0-1_ADD_LINE
  6
CONTINUOUS
 62
    7
 10
2239.8735999999999
 20
1219.8187
 11
1477.3607999999999
 21
876.68779999999981
  0
LINE
  8
_0-1_ADD_LINE
  6
CONTINUOUS
 62
    7
 10
1477.4679000000001
 20
878.05410000000006
 11
1751.4699000000001
 21
1001.3551
  0
LINE
  8
_0-1_ADD_LINE
  6
CONTINUOUS
 62
    7
 10
1751.9627068369828
 20
1000.2587084945067
 11
1824.4457000000002
 21
839.18599999999992
  0
LINE
  8
_0-1_ADD_LINE
  6
CONTINUOUS
 62
    7
 10
1823.4197884549149
 20
841.46579480470666
 11
1549.8434000000002
 21
718.35629999999992
  0
LINE
  8
_0-1_ADD_LINE
  6
CONTINUOUS
 62
    7
 10
1550.5410110652047
 20
716.80602944241843
 11
1529.3251
 21
763.9523999999999
  0
LINE
  8
_0-1_ADD_LINE
  6
CONTINUOUS
 62
    7
 10
1577.5909999999999
 20
801.27170000000001
 11
1797.0118000000002
 21
900.01109999999994
  0
LINE
  8
_0-1_ADD_LINE
  6
CONTINUOUS
 62
    7
 10
1797.0118000000002
 20
900.01109999999994
 11
1779.7008999999998
 21
897.95299999999997
  0
LINE
  8
_0-1_ADD_LINE
  6
CONTINUOUS
 62
    7
 10
1797.0118000000002
 20
900.01109999999994
 11
1783.9832000000001
 21
888.4366
  0
LINE
  8
_0-1_ADD_LINE
  6
CONTINUOUS
 62
    7
 10
1596.0106999999998
 20
934.46659999999997
 11
1596.0106999999998
 21
968.55079999999998
  0
LINE
  8
_0-1_ADD_LINE
  6
CONTINUOUS
 62
    7
 10
1596.0106999999998
 20
968.55079999999998
 11
1640.0868
 21
988.38490000000002
  0
LINE
  8
_0-1_ADD_LINE
  6
CONTINUOUS
 62
    7
 10
1640.0868
 20
988.38490000000002
 11
1630.1734999999999
 21
986.12040000000002
  0
LINE
  8
_0-1_ADD_LINE
  6
CONTINUOUS
 62
    7
 10
1637.8697000000002
 20
985.74229999999989
 11
1601.3939999999998
 21
969.3284000000001
  0
LINE
  8
_0-1_ADD_LINE
  6
CONTINUOUS
 62
    7
 10
1601.3939999999998
 20
969.3284000000001
 11
1614.1491000000001
 21
940.98399999999992
  0
LINE
  8
_0-1_ADD_LINE
  6
CONTINUOUS
 62
    7
 10
1614.1491000000001
 20
940.98399999999992
 11
1637.8697000000002
 21
985.74229999999989
  0
LINE
  8
_0-1_ADD_LINE
  6
CONTINUOUS
 62
    7
 10
1637.8697000000002
 20
985.74229999999989
 11
1650.6248000000001
 21
957.39799999999991
  0
LINE
  8
_0-1_ADD_LINE
  6
CONTINUOUS
 62
    7
 10
1650.6248000000001
 20
957.39799999999991
 11
1601.3941
 21
969.32850000000008
  0
LINE
  8
_0-1_ADD_LINE
  6
CONTINUOUS
 62
    7
 10
1477.2538
 20
878.05410000000006
 11
1203.252
 21
1001.355
  0
LINE
  8
_0-1_ADD_LINE
  6
CONTINUOUS
 62
    7
 10
1202.7587122904897
 20
1000.258803780236
 11
1131.3018999999999
 21
841.46579999999994
  0
LINE
  8
_0-1_ADD_LINE
  6
CONTINUOUS
 62
    7
 10
1131.3018999999999
 20
841.46579999999994
 11
1130.6042063457837
 21
839.91556660954984
  0
LINE
  8
_0-1_ADD_LINE
  6
CONTINUOUS
 62
    7
 10
1131.3018999999999
 20
841.46579999999994
 11
1404.8783000000001
 21
718.35629999999992
  0
LINE
  8
_0-1_ADD_LINE
  6
CONTINUOUS
 62
    7
 10
1404.1806876676042
 20
716.80603001264649
 11
1425.3964999999998
 21
763.9523999999999
  0
LINE
  8
_0-1_ADD_LINE
  6
CONTINUOUS
 62
    7
 10
1375.1019999999999
 20
803.71890000000008
 11
1158.3998092167192
 21
901.2348858524764
  0
LINE
  8
_0-1_ADD_LINE
  6
CONTINUOUS
 62
    7
 10
1158.3998092167192
 20
901.2348858524764
 11
1171.3289
 21
889.74880000000007
  0
LINE
  8
_0-1_ADD_LINE
  6
CONTINUOUS
 62
    7
 10
1158.3998092167192
 20
901.2348858524764
 11
1175.6112000000001
 21
899.26510000000007
  0
LINE
  8
_0-1_ADD_LINE
  6
CONTINUOUS
 62
    7
 10
1143.9124999999999
 20
1047.703
 11
1137.4208000000001
 21
1034.1754000000001
  0
LINE
  8
_0-1_ADD_LINE
  6
CONTINUOUS
 62
    7
 10
1137.4208000000001
 20
1034.1754000000001
 11
1164.7867000000001
 21
1021.8607999999999
  0
LINE
  8
_0-1_ADD_LINE
  6
CONTINUOUS
 62
    7
 10
1164.7867000000001
 20
1021.8607999999999
 11
1171.2782999999999
 21
1035.3883000000001
  0
LINE
  8
_0-1_ADD_LINE
  6
CONTINUOUS
 62
    7
 10
1171.2782999999999
 20
1035.3883000000001
 11
1143.9124999999999
 21
1047.703
  0
LINE
  8
_0-1_ADD_LINE
  6
CONTINUOUS
 62
    7
 10
1143.9124999999999
 20
1047.703
 11
1164.7867000000001
 21
1021.8607999999999
  0
LINE
  8
_0-1_ADD_LINE
  6
CONTINUOUS
 62
    7
 10
906.17579999999998
 20
1154.6847
 11
899.68419999999992
 21
1141.1572000000001
  0
LINE
  8
_0-1_ADD_LINE
  6
CONTINUOUS
 62
    7
 10
899.68419999999992
 20
1141.1572000000001
 11
927.05009999999993
 21
1128.8425
  0
LINE
  8
_0-1_ADD_LINE
  6
CONTINUOUS
 62
    7
 10
927.05009999999993
 20
1128.8425
 11
933.54169999999999
 21
1142.3701000000001
  0
LINE
  8
_0-1_ADD_LINE
  6
CONTINUOUS
 62
    7
 10
933.54169999999999
 20
1142.3701000000001
 11
906.17579999999998
 21
1154.6847
  0
LINE
  8
_0-1_ADD_LINE
  6
CONTINUOUS
 62
    7
 10
906.17579999999998
 20
1154.6847
 11
927.05009999999993
 21
1128.8425
  0
LINE
  8
_0-1_ADD_LINE
  6
CONTINUOUS
 62
    7
 10
1789.9349000000002
 20
1021.8607999999999
 11
1783.4432999999999
 21
1035.3883000000001
  0
LINE
  8
_0-1_ADD_LINE
  6
CONTINUOUS
 62
    7
 10
1783.4432999999999
 20
1035.3883000000001
 11
1810.8092000000001
 21
1047.703
  0
LINE
  8
_0-1_ADD_LINE
  6
CONTINUOUS
 62
    7
 10
1810.8092000000001
 20
1047.703
 11
1817.3008
 21
1034.1754000000001
  0
LINE
  8
_0-1_ADD_LINE
  6
CONTINUOUS
 62
    7
 10
1817.3008
 20
1034.1754000000001
 11
1789.9349000000002
 21
1021.8607999999999
  0
LINE
  8
_0-1_ADD_LINE
  6
CONTINUOUS
 62
    7
 10
1789.9349000000002
 20
1021.8607999999999
 11
1810.8092000000001
 21
1047.703
  0
LINE
  8
_0-1_ADD_LINE
  6
CONTINUOUS
 62
    7
 10
1806.4200000000001
 20
1033.4692400402262
 11
1806.4200000000001
 21
1027.5059242648038
  0
LINE
  8
_0-1_ADD_LINE
  6
CONTINUOUS
 62
    7
 10
1806.4200000000001
 20
1033.4692400402262
 11
1809.6838807802785
 21
1028.9746714517369
  0
LINE
  8
_0-1_ADD_LINE
  6
CONTINUOUS
 62
    7
 10
1806.4200000000001
 20
1033.4692400402262
 11
1884.0277999999998
 21
744.99140000000011
  0
LINE
  8
_0-1_ADD_LINE
  6
CONTINUOUS
 62
    7
 10
1698.2395999999999
 20
754.11390000000006
 11
1719.7836000000002
 21
706.23800000000006
  0
LINE
  8
_0-1_ADD_LINE
  6
CONTINUOUS
 62
    7
 10
1718.7576978219795
 20
708.51779901989914
 11
1583.5196688278143
 21
647.66121490917749
  0
LINE
  8
_0-1_ADD_LINE
  6
CONTINUOUS
 62
    7
 10
1561.4513000000002
 20
692.55970000000002
 11
1582.9953
 21
644.68380000000002
  0
LINE
  8
_0-1_ADD_LINE
  6
CONTINUOUS
 62
    7
 10
1581.9694
 20
646.96360000000004
 11
1583.5196688278143
 21
647.66121490917749
  0
LINE
  8
_0-1_ADD_LINE
  6
CONTINUOUS
 62
    7
 10
2021.1799000000001
 20
1142.3701000000001
 11
2027.6716000000001
 21
1128.8425
  0
LINE
  8
_0-1_ADD_LINE
  6
CONTINUOUS
 62
    7
 10
2027.6716000000001
 20
1128.8425
 11
2055.0374000000002
 21
1141.1572000000001
  0
LINE
  8
_0-1_ADD_LINE
  6
CONTINUOUS
 62
    7
 10
2055.0374000000002
 20
1141.1572000000001
 11
2048.5457999999999
 21
1154.6847
  0
LINE
  8
_0-1_ADD_LINE
  6
CONTINUOUS
 62
    7
 10
2048.5457999999999
 20
1154.6847
 11
2021.1799000000001
 21
1142.3701000000001
  0
LINE
  8
_0-1_ADD_LINE
  6
CONTINUOUS
 62
    7
 10
2027.6716000000001
 20
1128.8425
 11
2048.5457999999999
 21
1154.6847
  0
TEXT
  8
_0-0_LAYER001
 62
    7
 10
1837.9043313165914
 20
1237.3396008484408
 40
20
 41
1
 50
0
  1
　
  0
TEXT
  8
_0-0_LAYER001
 62
    7
 10
1142.4603999999995
 20
1183.8819999999996
 40
20
 41
1
 50
0
  1
桟木：４６ｘ４０
  0
TEXT
  8
_0-0_LAYER001
 62
    7
 10
1884.0277999999994
 20
747.49139999999966
 40
20
 41
1
 50
0
  1
　垂木
  0
TEXT
  8
_0-0_LAYER001
 62
    7
 10
1876.8545999999994
 20
777.35799999999972
 40
20
 41
1
 50
0
  1
　野地板：耐水合板ｔ＝１２
  0
TEXT
  8
_0-0_LAYER001
 62
    7
 10
1859.9276999999995
 20
837.43429999999967
 40
20
 41
1
 50
0
  1
　瓦桟：１５ｘ３０以上
  0
TEXT
  8
_0-0_LAYER001
 62
    7
 10
1836.6224798651976
 20
1243.7488581054108
 40
20
 41
1
 50
0
  1
桟　瓦
  0
TEXT
  8
_0-0_LAYER001
 62
    7
 10
1123.2886999999996
 20
1271.5862999999997
 40
20
 41
1
 50
0
  1
谷樋カラー鋼板0.35mm以上
  0
TEXT
  8
_0-0_LAYER001
 62
    7
 10
1567.1470613353856
 20
1197.8422167148428
 40
20
 41
1
 50
19.40966100000001
  1
260
  0
TEXT
  8
_0-0_LAYER001
 62
    7
 10
1800.5773741914415
 20
1314.5573731428706
 40
20
 41
1
 50
19.40966100000001
  1
260
  0
TEXT
  8
_0-0_LAYER001
 62
    7
 10
2038.6762933046184
 20
1430.1053780066186
 40
20
 41
1
 50
19.40966099999995
  1
260
  0
TEXT
  8
_0-0_LAYER001
 62
    7
 10
1490.1150580928866
 20
1102.1357884438596
 40
20
 41
1
 50
24.227800000000002
  1
75
  0
TEXT
  8
_0-0_LAYER001
 62
    7
 10
1263.6876546225126
 20
795.17492703814571
 40
20
 41
1
 50
-24.227755000000005
  1
300
  0
TEXT
  8
_0-0_LAYER001
 62
    7
 10
1673.3578536848909
 20
788.17201765246364
 40
20
 41
1
 50
24.227755000000005
  1
300
  0
TEXT
  8
_0-0_LAYER001
 62
    7
 10
1639.5104583207628
 20
684.29552843151964
 40
20
 41
1
 50
24.227546000000046
  1
150
  0
TEXT
  8
_0-0_LAYER001
 62
    7
 10
1361.7291168144252
 20
773.16601712688225
 40
20
 41
1
 50
0
  1
この範囲ルーフィング２枚葺き
  0
TEXT
  8
_0-0_LAYER001
 62
    7
 10
1867.3114999999996
 20
807.45329999999967
 40
20
 41
1
 50
0
  1
　下葺材：ルーフィング
  0
ENDSEC
  0
EOF
