  0
SECTION
  2
HEADER
  9
$ACADVER
  1
AC1009
  9
$INSBASE
 10
0
 20
0
 30
0
  9
$EXTMIN
 10
0
 20
0
  9
$EXTMAX
 10
2970
 20
2100
  9
$LIMMIN
 10
0
 20
0
  9
$LIMMAX
 10
2970
 20
2100
  9
$LTSCALE
 40
10
  0
ENDSEC
  0
SECTION
  2
TABLES
  0
TABLE
  2
LTYPE
 70
     9
  0
LTYPE
  2
CONTINUOUS
 70
    64
  3
実線
 72
    65
 73
     0
 40
0.0
  0
LTYPE
  2
DASHED1
 70
    64
  3
--  --  --  --  --  --  --  --  
 72
    65
 73
     2
 40
2.5
 49
1.25
 49
-1.25
  0
LTYPE
  2
DASHED2
 70
    64
  3
----    ----    ----    ----    
 72
    65
 73
     2
 40
5.0
 49
2.5
 49
-2.5
  0
LTYPE
  2
DASHED3
 70
    64
  3
------  ------  ------  ------  
 72
    65
 73
     2
 40
5.0
 49
3.75
 49
-1.25
  0
LTYPE
  2
CENTER1
 70
    64
  3
----- - ----- - ----- - ----- - 
 72
    65
 73
     4
 40
10.0
 49
6.25
 49
-1.25
 49
1.25
 49
-1.25
  0
LTYPE
  2
CENTER2
 70
    64
  3
----------  --  ----------  --  
 72
    65
 73
     4
 40
20.0
 49
12.5
 49
-2.5
 49
2.5
 49
-2.5
  0
LTYPE
  2
PHANTOM1
 70
    64
  3
--- - - --- - - --- - - --- - - 
 72
    65
 73
     6
 40
10.0
 49
3.25
 49
-1.25
 49
1.25
 49
-1.25
 49
1.25
 49
-1.25
  0
LTYPE
  2
PHANTOM2
 70
    64
  3
--------  -  -  --------  -  -  
 72
    65
 73
     6
 40
20.0
 49
10.0
 49
-2.5
 49
1.25
 49
-2.5
 49
1.25
 49
-2.5
  0
LTYPE
  2
DOT
 70
    64
  3
-   -   -   -   -   -   -   -   
 72
    65
 73
     2
 40
2.5
 49
0.625
 49
-1.875
  0
LTYPE
  2
DUMMY
 70
    64
  3
ダミー
 72
    65
 73
     0
 40
0.0
  0
LTYPE
  2
RAND1
 70
    64
  3
ランダム線1
 72
    65
 73
     4
 40
10.0
 49
1.0
 49
-2.0
 49
3.0
 49
-4.0
  0
LTYPE
  2
RAND2
 70
    64
  3
ランダム線2
 72
    65
 73
     4
 40
14.0
 49
2.0
 49
-3.0
 49
4.0
 49
-5.0
  0
LTYPE
  2
RAND3
 70
    64
  3
ランダム線3
 72
    65
 73
     4
 40
18.0
 49
3.0
 49
-4.0
 49
5.0
 49
-6.0
  0
LTYPE
  2
RAND4
 70
    64
  3
ランダム線4
 72
    65
 73
     4
 40
22.0
 49
4.0
 49
-5.0
 49
6.0
 49
-7.0
  0
LTYPE
  2
RAND5
 70
    64
  3
ランダム線5
 72
    65
 73
     4
 40
26.0
 49
5.0
 49
-6.0
 49
7.0
 49
-8.0
  0
LTYPE
  2
LONG1
 70
    64
  3
----------  --  ----------  --  
 72
    65
 73
     4
 40
40.0
 49
32.5
 49
-2.5
 49
2.5
 49
-2.5
  0
LTYPE
  2
LONG2
 70
    64
  3
--------  -  -  --------  -  -  
 72
    65
 73
     6
 40
40.0
 49
30.0
 49
-2.5
 49
1.25
 49
-2.5
 49
1.25
 49
-2.5
  0
LTYPE
  2
LONG3
 70
    64
  3
+++++++++++++++..+++++++++++++++
 72
    65
 73
     2
 40
40.0
 49
37.5
 49
-2.5
  0
LTYPE
  2
LONG4
 70
    64
  3
+++++++++++++++..+++++++++++++++
 72
    65
 73
     2
 40
80.0
 49
75.0
 49
-5.0
  0
LTYPE
  2
LONG5
 70
    64
  3
----------  --  ----------  --  
 72
    65
 73
     4
 40
60.0
 49
37.5
 49
-7.5
 49
7.5
 49
-7.5
  0
LTYPE
  2
dashed
 70
   64
  3
-------   -------------   ------
 72
   65
 73
    2
 40
7.5
 49
6
 49
-1.5
  0
LTYPE
  2
dashed_spaced
 70
   64
  3
----        --------        ----
 72
   65
 73
    2
 40
12
 49
6
 49
-6
  0
LTYPE
  2
long_dashed_dotted
 70
   64
  3
------------- --- --------------
 72
   65
 73
    4
 40
15.25
 49
12
 49
-1.5
 49
0.25
 49
-1.5
  0
LTYPE
  2
long_dashed_double-dotted
 70
   64
  3
----------- --- --- ------------
 72
   65
 73
    6
 40
17
 49
12
 49
-1.5
 49
0.25
 49
-1.5
 49
0.25
 49
-1.5
  0
LTYPE
  2
long_dashed_triplicate-dotted
 70
   64
  3
--------- --- --- --- ----------
 72
   65
 73
    8
 40
18.75
 49
12
 49
-1.5
 49
0.25
 49
-1.5
 49
0.25
 49
-1.5
 49
0.25
 49
-1.5
  0
LTYPE
  2
dotted
 70
   64
  3
   -       -       -       -    
 72
   65
 73
    2
 40
1.75
 49
0.25
 49
-1.5
  0
LTYPE
  2
chain
 70
   64
  3
-------------- -- --------------
 72
   65
 73
    4
 40
18.5
 49
12
 49
-1.5
 49
3.5
 49
-1.5
  0
LTYPE
  2
chain_double_dash
 70
   64
  3
------------ -- -- -------------
 72
   65
 73
    6
 40
23.5
 49
12
 49
-1.5
 49
3.5
 49
-1.5
 49
3.5
 49
-1.5
  0
LTYPE
  2
dashed_dotted
 70
   64
  3
-----------     -     ----------
 72
   65
 73
    4
 40
9.25
 49
6
 49
-1.5
 49
0.25
 49
-1.5
  0
LTYPE
  2
double-dashed_dotted
 70
   64
  3
------   -----------   -   -----
 72
   65
 73
    6
 40
16.75
 49
6
 49
-1.5
 49
6
 49
-1.5
 49
0.25
 49
-1.5
  0
LTYPE
  2
dashed_double-dotted
 70
   64
  3
---------    -    -    ---------
 72
   65
 73
    6
 40
11
 49
6
 49
-1.5
 49
0.25
 49
-1.5
 49
0.25
 49
-1.5
  0
LTYPE
  2
double-dashed_double-dotted
 70
   64
  3
-----   ---------   -   -   ----
 72
   65
 73
    8
 40
18.5
 49
6
 49
-1.5
 49
6
 49
-1.5
 49
0.25
 49
-1.5
 49
0.25
 49
-1.5
  0
LTYPE
  2
dashed_triplicate-dotted
 70
   64
  3
-------    -    -    -    ------
 72
   65
 73
    8
 40
12.75
 49
6
 49
-1.5
 49
0.25
 49
-1.5
 49
0.25
 49
-1.5
 49
0.25
 49
-1.5
  0
LTYPE
  2
double-dashed_triplicate-dotted
 70
   64
  3
-----  ---------  -  -  -  -----
 72
   65
 73
   10
 40
20.25
 49
6
 49
-1.5
 49
6
 49
-1.5
 49
0.25
 49
-1.5
 49
0.25
 49
-1.5
 49
0.25
 49
-1.5
  0
LTYPE
  2
undefined
 70
   64
  3
--------------------------------
 72
   65
 73
    0
 40
0
  0
ENDTAB
  0
TABLE
  2
STYLE
  5
3
100
AcDbSymbolTable
 70
     1
  0
STYLE
  5
10
100
AcDbSymbolTableRecord
100
AcDbTextStyleTableRecord
  2
STANDARD
 70
     0
 40
0.0
 41
1.0
 50
0.0
 71
     0
 42
0.2
  3
txt
  4
bigfont.shx
  0
STYLE
  5
26
100
AcDbSymbolTableRecord
100
AcDbTextStyleTableRecord
  2
TATEGAKI
 70
    68
 40
0.0
 41
1.0
 50
0.0
 71
     0
 42
1.0
  3
txt
  4
bigfont.shx
  0
ENDTAB
  0
TABLE
  2
LAYER
 70
    3
  0
LAYER
  2
_0-0_LAYER001
 70
   64
 62
    7
  6
CONTINUOUS
  0
LAYER
  2
_0-1_ADD_LINE
 70
   64
 62
    7
  6
CONTINUOUS
  0
LAYER
  2
ADD_LINE
 70
   64
 62
    7
  6
CONTINUOUS
  0
ENDTAB
  0
ENDSEC
  0
SECTION
  2
BLOCKS
  0
ENDSEC
  0
SECTION
  2
ENTITIES
  0
LINE
  8
_0-0_LAYER001
  6
CONTINUOUS
 62
    2
 10
1916.4353999999998
 20
898.44640000000004
 11
1856.4353999999998
 21
898.44640000000004
  0
LINE
  8
_0-0_LAYER001
  6
CONTINUOUS
 62
    2
 10
1856.4353999999998
 20
898.44640000000004
 11
1856.4353999999998
 21
958.44640000000004
  0
LINE
  8
_0-0_LAYER001
  6
CONTINUOUS
 62
    2
 10
1856.4353999999998
 20
958.44640000000004
 11
1916.4353999999998
 21
958.44640000000004
  0
LINE
  8
_0-0_LAYER001
  6
CONTINUOUS
 62
    2
 10
1916.4353999999998
 20
958.44640000000004
 11
1916.4353999999998
 21
898.44640000000004
  0
LINE
  8
_0-0_LAYER001
  6
CONTINUOUS
 62
    2
 10
1856.4353999999998
 20
958.44640000000004
 11
1916.4353999999998
 21
898.44640000000004
  0
LINE
  8
_0-0_LAYER001
  6
CONTINUOUS
 62
    2
 10
1614.4353999999998
 20
898.44640000000004
 11
1554.4353999999998
 21
898.44640000000004
  0
LINE
  8
_0-0_LAYER001
  6
CONTINUOUS
 62
    2
 10
1554.4353999999998
 20
898.44640000000004
 11
1554.4353999999998
 21
958.44640000000004
  0
LINE
  8
_0-0_LAYER001
  6
CONTINUOUS
 62
    2
 10
1554.4353999999998
 20
958.44640000000004
 11
1614.4353999999998
 21
958.44640000000004
  0
LINE
  8
_0-0_LAYER001
  6
CONTINUOUS
 62
    2
 10
1614.4353999999998
 20
958.44640000000004
 11
1614.4353999999998
 21
898.44640000000004
  0
LINE
  8
_0-0_LAYER001
  6
CONTINUOUS
 62
    2
 10
1554.4353999999998
 20
958.44640000000004
 11
1614.4353999999998
 21
898.44640000000004
  0
LINE
  8
_0-0_LAYER001
  6
CONTINUOUS
 62
    2
 10
1312.4353999999998
 20
898.44640000000004
 11
1252.4354000000001
 21
898.44640000000004
  0
LINE
  8
_0-0_LAYER001
  6
CONTINUOUS
 62
    2
 10
1252.4354000000001
 20
898.44640000000004
 11
1252.4354000000001
 21
958.44640000000004
  0
LINE
  8
_0-0_LAYER001
  6
CONTINUOUS
 62
    2
 10
1252.4354000000001
 20
958.44640000000004
 11
1312.4353999999998
 21
958.44640000000004
  0
LINE
  8
_0-0_LAYER001
  6
CONTINUOUS
 62
    2
 10
1312.4353999999998
 20
958.44640000000004
 11
1312.4353999999998
 21
898.44640000000004
  0
LINE
  8
_0-0_LAYER001
  6
CONTINUOUS
 62
    2
 10
1252.4354000000001
 20
958.44640000000004
 11
1312.4353999999998
 21
898.44640000000004
  0
LINE
  8
_0-0_LAYER001
  6
CONTINUOUS
 62
    2
 10
1010.4354000000001
 20
898.44640000000004
 11
950.43540000000007
 21
898.44640000000004
  0
LINE
  8
_0-0_LAYER001
  6
CONTINUOUS
 62
    2
 10
950.43540000000007
 20
898.44640000000004
 11
950.43540000000007
 21
958.44640000000004
  0
LINE
  8
_0-0_LAYER001
  6
CONTINUOUS
 62
    2
 10
950.43540000000007
 20
958.44640000000004
 11
1010.4354000000001
 21
958.44640000000004
  0
LINE
  8
_0-0_LAYER001
  6
CONTINUOUS
 62
    2
 10
1010.4354000000001
 20
958.44640000000004
 11
1010.4354000000001
 21
898.44640000000004
  0
LINE
  8
_0-0_LAYER001
  6
CONTINUOUS
 62
    2
 10
950.43540000000007
 20
958.44640000000004
 11
1010.4354000000001
 21
898.44640000000004
  0
LINE
  8
_0-0_LAYER001
  6
CONTINUOUS
 62
    2
 10
1804.8836999999999
 20
988.44640000000004
 11
1804.8836999999999
 21
973.44640000000004
  0
LINE
  8
_0-0_LAYER001
  6
CONTINUOUS
 62
    2
 10
1809.8836999999999
 20
973.44640000000004
 11
1898.9148
 21
973.44640000000004
  0
LINE
  8
_0-0_LAYER001
  6
CONTINUOUS
 62
    2
 10
1809.8836999999999
 20
973.44640000000004
 11
1820.1882000000001
 21
980.904
  0
LINE
  8
_0-0_LAYER001
  6
CONTINUOUS
 62
    2
 10
1916.4353999999998
 20
958.44640000000004
 11
822.52819999999997
 21
958.44640000000004
  0
LINE
  8
_0-0_LAYER001
  6
CONTINUOUS
 62
    2
 10
1916.4353999999998
 20
898.44640000000004
 11
822.52819999999997
 21
898.44640000000004
  0
LINE
  8
_0-0_LAYER001
  6
CONTINUOUS
 62
    2
 10
1916.4353999999998
 20
970.44640000000004
 11
822.52819999999997
 21
970.44640000000004
  0
LINE
  8
_0-0_LAYER001
  6
DASHED3
 62
    2
 10
1915.9353999999998
 20
971.94640000000004
 11
822.52819999999997
 21
971.94640000000004
  0
LINE
  8
_0-0_LAYER001
  6
CONTINUOUS
 62
    2
 10
1804.8836999999999
 20
988.44640000000004
 11
822.52819999999997
 21
988.44640000000004
  0
LINE
  8
_0-0_LAYER001
  6
CONTINUOUS
 62
    2
 10
1804.8836999999999
 20
973.44640000000004
 11
822.52819999999997
 21
973.44640000000004
  0
LINE
  8
_0-0_LAYER001
  6
CONTINUOUS
 62
    1
 10
1899.8836999999999
 20
1033.5019
 11
1914.8836999999999
 21
973.50189999999998
  0
LINE
  8
_0-0_LAYER001
  6
DASHED3
 62
    2
 10
1915.9353999999998
 20
971.94640000000004
 11
1915.9353999999998
 21
1270.4464
  0
LINE
  8
_0-0_LAYER001
  6
CONTINUOUS
 62
    3
 10
1917.4353999999998
 20
1331.8103999999998
 11
1917.4353999999998
 21
744.6851999999999
  0
LINE
  8
_0-0_LAYER001
  6
CONTINUOUS
 62
    2
 10
1853.6142
 20
968.63689999999997
 11
1857.3642
 21
975.13210000000004
  0
LINE
  8
_0-0_LAYER001
  6
CONTINUOUS
 62
    2
 10
1857.3642
 20
975.13210000000004
 11
1857.3642
 21
967.63210000000004
  0
LINE
  8
_0-0_LAYER001
  6
CONTINUOUS
 62
    2
 10
1857.3642
 20
975.13210000000004
 11
1806.0734000000002
 21
783.71209999999996
  0
LINE
  8
_0-0_LAYER001
  6
CONTINUOUS
 62
    2
 10
1806.0734000000002
 20
783.71209999999996
 11
1588.5734000000002
 21
783.71209999999996
  0
LINE
  8
_0-0_LAYER001
  6
CONTINUOUS
 62
    2
 10
1907.8098
 20
986.16129999999998
 11
1907.8098
 21
993.66129999999998
  0
LINE
  8
_0-0_LAYER001
  6
CONTINUOUS
 62
    2
 10
1907.8098
 20
993.66129999999998
 11
1911.5598
 21
987.16609999999991
  0
LINE
  8
_0-0_LAYER001
  6
CONTINUOUS
 62
    2
 10
1907.8098
 20
993.66129999999998
 11
1951.8780999999999
 21
829.19620000000009
  0
LINE
  8
_0-0_LAYER001
  6
CONTINUOUS
 62
    2
 10
1951.8780999999999
 20
829.19620000000009
 11
2098.8780999999999
 21
829.19620000000009
  0
LINE
  8
_0-0_LAYER001
  6
CONTINUOUS
 62
    2
 10
2123.7543999999998
 20
970.44640000000004
 11
2071.2543999999998
 21
970.44640000000004
  0
CIRCLE
  8
_0-0_LAYER001
  6
CONTINUOUS
 62
    2
 10
2121.2543999999998
 20
970.44640000000004
 40
1.6999999999999997
  0
LINE
  8
_0-0_LAYER001
  6
CONTINUOUS
 62
    2
 10
2121.2543999999998
 20
970.44640000000004
 11
2121.2543999999998
 21
1270.4464
  0
CIRCLE
  8
_0-0_LAYER001
  6
CONTINUOUS
 62
    2
 10
2121.2543999999998
 20
1270.4464
 40
1.6999999999999997
  0
LINE
  8
_0-0_LAYER001
  6
CONTINUOUS
 62
    2
 10
2123.7543999999998
 20
1270.4464
 11
2071.2543999999998
 21
1270.4464
  0
LINE
  8
_0-0_LAYER001
  6
CONTINUOUS
 62
    2
 10
1809.8836999999999
 20
842.46160000000009
 11
1809.8836999999999
 21
869.96160000000009
  0
CIRCLE
  8
_0-0_LAYER001
  6
CONTINUOUS
 62
    2
 10
1809.8836999999999
 20
844.96160000000009
 40
1.6999999999999997
  0
LINE
  8
_0-0_LAYER001
  6
CONTINUOUS
 62
    2
 10
1809.8836999999999
 20
844.96160000000009
 11
1899.8836999999999
 21
844.96160000000009
  0
CIRCLE
  8
_0-0_LAYER001
  6
CONTINUOUS
 62
    2
 10
1899.8836999999999
 20
844.96160000000009
 40
1.6999999999999997
  0
LINE
  8
_0-0_LAYER001
  6
CONTINUOUS
 62
    2
 10
1899.8836999999999
 20
842.46160000000009
 11
1899.8836999999999
 21
869.96160000000009
  0
LINE
  8
_0-0_LAYER001
  6
CONTINUOUS
 62
    2
 10
1914.8836999999999
 20
973.50189999999998
 11
1899.8836999999999
 21
973.50189999999998
  0
LINE
  8
_0-0_LAYER001
  6
CONTINUOUS
 62
    2
 10
1899.8836999999999
 20
973.50189999999998
 11
1899.8836999999999
 21
1035.4464
  0
LINE
  8
_0-0_LAYER001
  6
CONTINUOUS
 62
    2
 10
1914.8836999999999
 20
1035.4464
 11
1914.8836999999999
 21
973.50189999999998
  0
LINE
  8
_0-0_LAYER001
  6
CONTINUOUS
 62
    2
 10
1899.8836999999999
 20
1035.4464
 11
1914.8836999999999
 21
1035.4464
  0
LINE
  8
_0-0_LAYER001
  6
CONTINUOUS
 62
    2
 10
1898.9148
 20
973.44640000000004
 11
1898.9148
 21
1042.8378
  0
LINE
  8
_0-0_LAYER001
  6
CONTINUOUS
 62
    2
 10
1846.1192999999998
 20
1088.1026999999999
 11
1846.1192999999998
 21
1080.6026999999999
  0
LINE
  8
_0-0_LAYER001
  6
CONTINUOUS
 62
    2
 10
1846.1192999999998
 20
1080.6026999999999
 11
1842.3692999999998
 21
1087.0979
  0
LINE
  8
_0-0_LAYER001
  6
CONTINUOUS
 62
    2
 10
1846.1192999999998
 20
1080.6026999999999
 11
1819.3087
 21
1180.6614999999999
  0
LINE
  8
_0-0_LAYER001
  6
CONTINUOUS
 62
    2
 10
1819.3087
 20
1180.6614999999999
 11
1699.3087
 21
1180.6614999999999
  0
LINE
  8
_0-0_LAYER001
  6
CONTINUOUS
 62
    2
 10
1333.6777000000002
 20
1062.8426999999999
 11
1333.6777000000002
 21
1055.3426999999999
  0
LINE
  8
_0-0_LAYER001
  6
CONTINUOUS
 62
    2
 10
1333.6777000000002
 20
1055.3426999999999
 11
1329.9277000000002
 21
1061.8379
  0
LINE
  8
_0-0_LAYER001
  6
CONTINUOUS
 62
    2
 10
1333.6777000000002
 20
1055.3426999999999
 11
1299.7226000000001
 21
1182.0651
  0
LINE
  8
_0-0_LAYER001
  6
CONTINUOUS
 62
    2
 10
1299.7226000000001
 20
1182.0651
 11
1259.2226000000001
 21
1182.0651
  0
LINE
  8
_0-0_LAYER001
  6
CONTINUOUS
 62
    2
 10
864.39519999999993
 20
1322.4811999999999
 11
864.39519999999993
 21
1269.9811999999999
  0
CIRCLE
  8
_0-0_LAYER001
  6
CONTINUOUS
 62
    2
 10
864.39519999999993
 20
1319.9811999999999
 40
1.6999999999999997
  0
LINE
  8
_0-0_LAYER001
  6
CONTINUOUS
 62
    2
 10
864.39519999999993
 20
1319.9811999999999
 11
1124.3951999999999
 21
1319.9811999999999
  0
CIRCLE
  8
_0-0_LAYER001
  6
CONTINUOUS
 62
    2
 10
1124.3951999999999
 20
1319.9811999999999
 40
1.6999999999999997
  0
LINE
  8
_0-0_LAYER001
  6
CONTINUOUS
 62
    2
 10
1124.3951999999999
 20
1322.4811999999999
 11
1124.3951999999999
 21
1269.9811999999999
  0
CIRCLE
  8
_0-0_LAYER001
  6
CONTINUOUS
 62
    2
 10
1124.3951999999999
 20
1319.9811999999999
 40
1.6999999999999997
  0
LINE
  8
_0-0_LAYER001
  6
CONTINUOUS
 62
    2
 10
1124.3951999999999
 20
1319.9811999999999
 11
1384.3951999999999
 21
1319.9811999999999
  0
CIRCLE
  8
_0-0_LAYER001
  6
CONTINUOUS
 62
    2
 10
1384.3951999999999
 20
1319.9811999999999
 40
1.6999999999999997
  0
LINE
  8
_0-0_LAYER001
  6
CONTINUOUS
 62
    2
 10
1384.3951999999999
 20
1322.4811999999999
 11
1384.3951999999999
 21
1269.9811999999999
  0
CIRCLE
  8
_0-0_LAYER001
  6
CONTINUOUS
 62
    2
 10
1384.3951999999999
 20
1319.9811999999999
 40
1.6999999999999997
  0
LINE
  8
_0-0_LAYER001
  6
CONTINUOUS
 62
    2
 10
1384.3951999999999
 20
1319.9811999999999
 11
1644.3951999999999
 21
1319.9811999999999
  0
CIRCLE
  8
_0-0_LAYER001
  6
CONTINUOUS
 62
    2
 10
1644.3951999999999
 20
1319.9811999999999
 40
1.6999999999999997
  0
LINE
  8
_0-0_LAYER001
  6
CONTINUOUS
 62
    2
 10
1644.3951999999999
 20
1322.4811999999999
 11
1644.3951999999999
 21
1269.9811999999999
  0
LINE
  8
_0-0_LAYER001
  6
CONTINUOUS
 62
    2
 10
1912.8198000000002
 20
1197.0074
 11
1892.8198000000002
 21
1197.0074
  0
LINE
  8
_0-0_LAYER001
  6
CONTINUOUS
 62
    2
 10
1892.8198000000002
 20
1197.0074
 11
1892.8198000000002
 21
1157.0064
  0
LINE
  8
_0-0_LAYER001
  6
CONTINUOUS
 62
    2
 10
1892.8198000000002
 20
1157.0064
 11
1912.8198000000002
 21
1157.0064
  0
LINE
  8
_0-0_LAYER001
  6
CONTINUOUS
 62
    2
 10
1912.8198000000002
 20
1157.0064
 11
1912.8198000000002
 21
1197.0074
  0
LINE
  8
_0-0_LAYER001
  6
CONTINUOUS
 62
    2
 10
1912.8198000000002
 20
1197.0074
 11
1892.8198000000002
 21
1157.0064
  0
LINE
  8
_0-0_LAYER001
  6
CONTINUOUS
 62
    2
 10
1861.6685000000002
 20
1101.1023
 11
1861.6685000000002
 21
1093.6023
  0
LINE
  8
_0-0_LAYER001
  6
CONTINUOUS
 62
    2
 10
1861.6685000000002
 20
1093.6023
 11
1857.9185000000002
 21
1100.0975000000001
  0
LINE
  8
_0-0_LAYER001
  6
CONTINUOUS
 62
    2
 10
1861.6685000000002
 20
1093.6023
 11
1824.0522000000001
 21
1233.9881
  0
LINE
  8
_0-0_LAYER001
  6
CONTINUOUS
 62
    2
 10
1824.0522000000001
 20
1233.9881
 11
1590.0522000000001
 21
1233.9881
  0
LINE
  8
_0-0_LAYER001
  6
CONTINUOUS
 62
    2
 10
1908.6489999999999
 20
1188.8218999999999
 11
1903.3456999999999
 21
1183.5186000000001
  0
LINE
  8
_0-0_LAYER001
  6
CONTINUOUS
 62
    2
 10
1903.3456999999999
 20
1183.5186000000001
 11
1905.2869000000001
 21
1190.7629999999999
  0
LINE
  8
_0-0_LAYER001
  6
CONTINUOUS
 62
    2
 10
1903.3456999999999
 20
1183.5186000000001
 11
1936.9054000000001
 21
1241.6456000000001
  0
LINE
  8
_0-0_LAYER001
  6
CONTINUOUS
 62
    2
 10
1936.9054000000001
 20
1241.6456000000001
 11
1977.4054000000001
 21
1241.6456000000001
  0
LINE
  8
_0-0_LAYER001
  6
CONTINUOUS
 62
    2
 10
1892.8198000000002
 20
1393.8824999999999
 11
1892.8198000000002
 21
1109.4635000000001
  0
LINE
  8
_0-0_LAYER001
  6
CONTINUOUS
 62
    2
 10
1880.8198000000002
 20
1109.4635000000001
 11
1880.8198000000002
 21
1393.8824999999999
  0
LINE
  8
_0-0_LAYER001
  6
CONTINUOUS
 62
    2
 10
1892.8198000000002
 20
1109.4635000000001
 11
1880.8198000000002
 21
1109.4635000000001
  0
LINE
  8
_0-0_LAYER001
  6
CONTINUOUS
 62
    2
 10
2032.8962000000001
 20
1101.425
 11
1980.3962000000001
 21
1101.425
  0
CIRCLE
  8
_0-0_LAYER001
  6
CONTINUOUS
 62
    2
 10
2030.3962000000001
 20
1101.425
 40
1.6999999999999997
  0
LINE
  8
_0-0_LAYER001
  6
CONTINUOUS
 62
    2
 10
2030.3962000000001
 20
1101.425
 11
2030.3962000000001
 21
1251.425
  0
CIRCLE
  8
_0-0_LAYER001
  6
CONTINUOUS
 62
    2
 10
2030.3962000000001
 20
1251.425
 40
1.6999999999999997
  0
LINE
  8
_0-0_LAYER001
  6
CONTINUOUS
 62
    2
 10
2032.8962000000001
 20
1251.425
 11
1980.3962000000001
 21
1251.425
  0
LINE
  8
_0-0_LAYER001
  6
CONTINUOUS
 62
    2
 10
1886.0608000000002
 20
1313.8635999999999
 11
1886.0608000000002
 21
1306.3635999999999
  0
LINE
  8
_0-0_LAYER001
  6
CONTINUOUS
 62
    2
 10
1886.0608000000002
 20
1306.3635999999999
 11
1882.3108000000002
 21
1312.8586999999998
  0
LINE
  8
_0-0_LAYER001
  6
CONTINUOUS
 62
    2
 10
1886.0608000000002
 20
1306.3635999999999
 11
1863.8053
 21
1389.4223999999999
  0
LINE
  8
_0-0_LAYER001
  6
CONTINUOUS
 62
    2
 10
1863.8053
 20
1389.4223999999999
 11
1691.3053
 21
1389.4223999999999
  0
LINE
  8
_0-0_LAYER001
  6
CONTINUOUS
 62
    2
 10
2010.5329000000002
 20
970.44640000000004
 11
1958.0329000000002
 21
970.44640000000004
  0
CIRCLE
  8
_0-0_LAYER001
  6
CONTINUOUS
 62
    2
 10
2008.0329000000002
 20
970.44640000000004
 40
1.6999999999999997
  0
LINE
  8
_0-0_LAYER001
  6
CONTINUOUS
 62
    2
 10
2008.0329000000002
 20
970.44640000000004
 11
2008.0329000000002
 21
1035.4464
  0
CIRCLE
  8
_0-0_LAYER001
  6
CONTINUOUS
 62
    2
 10
2008.0329000000002
 20
1035.4464
 40
1.6999999999999997
  0
LINE
  8
_0-0_LAYER001
  6
CONTINUOUS
 62
    2
 10
2010.5329000000002
 20
1035.4464
 11
1958.0329000000002
 21
1035.4464
  0
LINE
  8
_0-0_LAYER001
  6
DASHED1
 62
    1
 10
1770.3813
 20
1017.3728000000001
 11
1786.3813
 21
1017.3728000000001
  0
LINE
  8
_0-0_LAYER001
  6
DASHED1
 62
    1
 10
1786.3813
 20
1017.3728000000001
 11
1786.3813
 21
1014.3728000000001
  0
LINE
  8
_0-0_LAYER001
  6
DASHED1
 62
    1
 10
1770.3813
 20
1017.3728000000001
 11
1770.3813
 21
1014.3728000000001
  0
LINE
  8
_0-0_LAYER001
  6
DASHED1
 62
    1
 10
1770.3813
 20
1014.3728000000001
 11
1786.3813
 21
1014.3728000000001
  0
LINE
  8
_0-0_LAYER001
  6
DASHED1
 62
    1
 10
1781.3813
 20
959.47669999999994
 11
1778.3312000000001
 21
944.9677999999999
  0
LINE
  8
_0-0_LAYER001
  6
DASHED1
 62
    1
 10
1781.3813
 20
1014.3728000000001
 11
1781.3813
 21
959.47669999999994
  0
LINE
  8
_0-0_LAYER001
  6
DASHED1
 62
    1
 10
1778.3312000000001
 20
944.9677999999999
 11
1775.3813
 21
959.22530000000006
  0
LINE
  8
_0-0_LAYER001
  6
DASHED1
 62
    1
 10
1775.3813
 20
1014.3728000000001
 11
1775.3813
 21
959.22530000000006
  0
LINE
  8
_0-0_LAYER001
  6
DASHED1
 62
    1
 10
1016.2365
 20
1013.1367
 11
1032.2365
 21
1013.1367
  0
LINE
  8
_0-0_LAYER001
  6
DASHED1
 62
    1
 10
1032.2365
 20
1013.1367
 11
1032.2365
 21
1010.1367
  0
LINE
  8
_0-0_LAYER001
  6
DASHED1
 62
    1
 10
1016.2365
 20
1013.1367
 11
1016.2365
 21
1010.1367
  0
LINE
  8
_0-0_LAYER001
  6
DASHED1
 62
    1
 10
1016.2365
 20
1010.1367
 11
1032.2365
 21
1010.1367
  0
LINE
  8
_0-0_LAYER001
  6
DASHED1
 62
    1
 10
1027.2365
 20
955.24070000000006
 11
1024.1863000000001
 21
940.73180000000002
  0
LINE
  8
_0-0_LAYER001
  6
DASHED1
 62
    1
 10
1027.2365
 20
1010.1367
 11
1027.2365
 21
955.24070000000006
  0
LINE
  8
_0-0_LAYER001
  6
DASHED1
 62
    1
 10
1024.1863000000001
 20
940.73180000000002
 11
1021.2365
 21
954.98929999999996
  0
LINE
  8
_0-0_LAYER001
  6
DASHED1
 62
    1
 10
1021.2365
 20
1010.1367
 11
1021.2365
 21
954.98929999999996
  0
LINE
  8
_0-0_LAYER001
  6
DASHED1
 62
    1
 10
1272.2374
 20
1013.1367
 11
1288.2374
 21
1013.1367
  0
LINE
  8
_0-0_LAYER001
  6
DASHED1
 62
    1
 10
1288.2374
 20
1013.1367
 11
1288.2374
 21
1010.1367
  0
LINE
  8
_0-0_LAYER001
  6
DASHED1
 62
    1
 10
1272.2374
 20
1013.1367
 11
1272.2374
 21
1010.1367
  0
LINE
  8
_0-0_LAYER001
  6
DASHED1
 62
    1
 10
1272.2374
 20
1010.1367
 11
1288.2374
 21
1010.1367
  0
LINE
  8
_0-0_LAYER001
  6
DASHED1
 62
    1
 10
1283.2374
 20
955.24070000000006
 11
1280.1872000000001
 21
940.73180000000002
  0
LINE
  8
_0-0_LAYER001
  6
DASHED1
 62
    1
 10
1283.2374
 20
1010.1367
 11
1283.2374
 21
955.24070000000006
  0
LINE
  8
_0-0_LAYER001
  6
DASHED1
 62
    1
 10
1280.1872000000001
 20
940.73180000000002
 11
1277.2374
 21
954.98929999999996
  0
LINE
  8
_0-0_LAYER001
  6
DASHED1
 62
    1
 10
1277.2374
 20
1010.1367
 11
1277.2374
 21
954.98929999999996
  0
LINE
  8
_0-0_LAYER001
  6
DASHED1
 62
    1
 10
1538.6167
 20
1013.1367
 11
1554.6167
 21
1013.1367
  0
LINE
  8
_0-0_LAYER001
  6
DASHED1
 62
    1
 10
1554.6167
 20
1013.1367
 11
1554.6167
 21
1010.1367
  0
LINE
  8
_0-0_LAYER001
  6
DASHED1
 62
    1
 10
1538.6167
 20
1013.1367
 11
1538.6167
 21
1010.1367
  0
LINE
  8
_0-0_LAYER001
  6
DASHED1
 62
    1
 10
1538.6167
 20
1010.1367
 11
1554.6167
 21
1010.1367
  0
LINE
  8
_0-0_LAYER001
  6
DASHED1
 62
    1
 10
1549.6167
 20
955.24070000000006
 11
1546.5666000000001
 21
940.73180000000002
  0
LINE
  8
_0-0_LAYER001
  6
DASHED1
 62
    1
 10
1549.6167
 20
1010.1367
 11
1549.6167
 21
955.24070000000006
  0
LINE
  8
_0-0_LAYER001
  6
DASHED1
 62
    1
 10
1546.5666000000001
 20
940.73180000000002
 11
1543.6167
 21
954.98929999999996
  0
LINE
  8
_0-0_LAYER001
  6
DASHED1
 62
    1
 10
1543.6167
 20
1010.1367
 11
1543.6167
 21
954.98929999999996
  0
LINE
  8
_0-0_LAYER001
  6
CONTINUOUS
 62
    4
 10
1552.1632
 20
982.17959999999994
 11
1546.5
 21
991.61830000000009
  0
LINE
  8
_0-0_LAYER001
  6
CONTINUOUS
 62
    4
 10
1291.0542
 20
981.86819999999989
 11
1285.3910000000001
 21
991.30680000000007
  0
LINE
  8
_0-0_LAYER001
  6
CONTINUOUS
 62
    4
 10
1032.1393
 20
983.53860000000009
 11
1026.4761000000001
 21
992.97720000000004
  0
LINE
  8
_0-0_LAYER001
  6
CONTINUOUS
 62
    4
 10
1866.5576999999998
 20
1049.6758
 11
1866.5576999999998
 21
1045.9003
  0
ARC
  8
_0-0_LAYER001
  6
CONTINUOUS
 62
    4
 10
1775.0812000000001
 20
1167.5173
 40
149.17964000000001
 50
307.82101999999998
 51
312.33985999999993
  0
ARC
  8
_0-0_LAYER001
  6
CONTINUOUS
 62
    4
 10
1775.0812000000001
 20
1167.5173
 40
172.17964000000001
 50
309.26612
 51
313.25087999999994
  0
LINE
  8
_0-0_LAYER001
  6
CONTINUOUS
 62
    4
 10
1875.5576999999998
 20
1057.2492
 11
1875.5576999999998
 21
1030.2049999999999
  0
LINE
  8
_0-0_LAYER001
  6
CONTINUOUS
 62
    4
 10
1884.0576999999998
 20
1034.2132999999999
 11
1884.0576999999998
 21
1031.9222
  0
LINE
  8
_0-0_LAYER001
  6
CONTINUOUS
 62
    4
 10
1893.0576999999998
 20
1042.1084000000001
 11
1893.0576999999998
 21
1016.2813000000001
  0
ARC
  8
_0-0_LAYER001
  6
CONTINUOUS
 62
    4
 10
1773.8661000000002
 20
1260.7902999999999
 40
234.01331999999999
 50
247.56478999999996
 51
293.24524000000002
  0
ARC
  8
_0-0_LAYER001
  6
CONTINUOUS
 62
    4
 10
1773.8661000000002
 20
1260.7902999999999
 40
254.01331999999999
 50
245.13487000000003
 51
295.70910000000003
  0
ARC
  8
_0-0_LAYER001
  6
CONTINUOUS
 62
    4
 10
1773.8661000000002
 20
1260.7902999999999
 40
252.01332000000002
 50
247.03975000000003
 51
293.79819000000003
  0
ARC
  8
_0-0_LAYER001
  6
CONTINUOUS
 62
    4
 10
1773.8661000000002
 20
1260.7902999999999
 40
272.01332000000002
 50
244.80213000000003
 51
295.98797999999999
  0
LINE
  8
_0-0_LAYER001
  6
CONTINUOUS
 62
    4
 10
1805.4895999999999
 20
975.37930000000006
 11
1812.971
 21
989.71849999999995
  0
LINE
  8
_0-0_LAYER001
  6
CONTINUOUS
 62
    4
 10
1798.3481999999999
 20
975.47589999999991
 11
1792.9540000000002
 21
986.53400000000011
  0
LINE
  8
_0-0_LAYER001
  6
CONTINUOUS
 62
    4
 10
1752.2532999999999
 20
975.4978000000001
 11
1758.3793000000001
 21
986.07909999999993
  0
LINE
  8
_0-0_LAYER001
  6
CONTINUOUS
 62
    4
 10
1745.1527999999998
 20
975.84069999999997
 11
1738.8173000000002
 21
989.71849999999995
  0
ARC
  8
_0-0_LAYER001
  6
CONTINUOUS
 62
    4
 10
1748.7916
 20
977.50189999999998
 40
4
 50
204.53772000000001
 51
329.93141000000003
  0
ARC
  8
_0-0_LAYER001
  6
CONTINUOUS
 62
    4
 10
1801.9432999999999
 20
977.22959999999989
 40
4
 50
206.00334000000004
 51
332.44718
  0
LINE
  8
_0-0_LAYER001
  6
CONTINUOUS
 62
    4
 10
1658.0576999999998
 20
1041.2186999999999
 11
1658.0576999999998
 21
1014.6609000000001
  0
ARC
  8
_0-0_LAYER001
  6
CONTINUOUS
 62
    4
 10
1775.0812000000001
 20
1167.5173
 40
172.17964000000001
 50
227.18297000000004
 51
231.14230000000003
  0
LINE
  8
_0-0_LAYER001
  6
CONTINUOUS
 62
    4
 10
1667.0576999999998
 20
1033.4398000000001
 11
1667.0576999999998
 21
1030.3239000000001
  0
LINE
  8
_0-0_LAYER001
  6
CONTINUOUS
 62
    4
 10
1675.5576999999998
 20
1056.3883000000001
 11
1675.5576999999998
 21
1028.7425000000001
  0
LINE
  8
_0-0_LAYER001
  6
CONTINUOUS
 62
    4
 10
1684.5576999999998
 20
1048.9421
 11
1684.5576999999998
 21
1044.489
  0
ARC
  8
_0-0_LAYER001
  6
CONTINUOUS
 62
    4
 10
1775.0812000000001
 20
1167.5173
 40
149.17964000000001
 50
228.1534
 51
232.64089999999999
  0
ARC
  8
_0-0_LAYER001
  6
CONTINUOUS
 62
    4
 10
1382.8627000000001
 20
1019.9803999999999
 40
69.214101999999997
 50
13.791351000000001
 51
163.33506000000003
  0
ARC
  8
_0-0_LAYER001
  6
CONTINUOUS
 62
    4
 10
1382.4675999999999
 20
1021.4639
 40
50.327697999999998
 50
23.01118
 51
173.62688000000003
  0
ARC
  8
_0-0_LAYER001
  6
CONTINUOUS
 62
    4
 10
1244.3945000000001
 20
1220.4726000000001
 40
212.52318
 50
244.57801000000001
 51
294.47764000000006
  0
ARC
  8
_0-0_LAYER001
  6
CONTINUOUS
 62
    4
 10
1244.3945000000001
 20
1220.4726000000001
 40
214.52317999999997
 50
244.57801000000001
 51
294.78532999999999
  0
ARC
  8
_0-0_LAYER001
  6
CONTINUOUS
 62
    4
 10
1382.4675999999999
 20
1021.4639
 40
48.327697999999998
 50
88.109851000000006
 51
174.95909000000003
  0
LINE
  8
_0-0_LAYER001
  6
CONTINUOUS
 62
    4
 10
1384.0617
 20
1069.7653
 11
1384.0617
 21
1057.6361999999999
  0
LINE
  8
_0-0_LAYER001
  6
CONTINUOUS
 62
    4
 10
1450.0814
 20
1036.4802
 11
1428.7907
 21
1041.1375
  0
LINE
  8
_0-0_LAYER001
  6
CONTINUOUS
 62
    4
 10
1212.0496000000001
 20
979.15789999999993
 11
1205.4826
 21
991.30680000000007
  0
LINE
  8
_0-0_LAYER001
  6
CONTINUOUS
 62
    4
 10
1224.1758
 20
978.82860000000005
 11
1229.6059
 21
987.68830000000003
  0
ARC
  8
_0-0_LAYER001
  6
CONTINUOUS
 62
    4
 10
1218.2076
 20
982.48649999999998
 40
7
 50
208.39301
 51
328.49572999999998
  0
LINE
  8
_0-0_LAYER001
  6
CONTINUOUS
 62
    4
 10
1303.5663999999999
 20
982.89599999999996
 11
1309.5143000000003
 21
997.94070000000011
  0
ARC
  8
_0-0_LAYER001
  6
CONTINUOUS
 62
    4
 10
1297.0565999999999
 20
985.4695999999999
 40
7
 50
210.96375
 51
338.42869000000002
  0
LINE
  8
_0-0_LAYER001
  6
CONTINUOUS
 62
    4
 10
1331.2075
 20
989.83750000000009
 11
1324.2898
 21
1001.5591999999999
  0
ARC
  8
_0-0_LAYER001
  6
CONTINUOUS
 62
    4
 10
1334.6523999999999
 20
991.87049999999999
 40
4
 50
210.54757000000001
 51
342.13990000000001
  0
ARC
  8
_0-0_LAYER001
  6
CONTINUOUS
 62
    4
 10
1244.3945000000001
 20
1220.4726000000001
 40
194.52317999999997
 50
244.57801000000001
 51
291.77512000000002
  0
ARC
  8
_0-0_LAYER001
  6
CONTINUOUS
 62
    4
 10
1193.4507000000001
 20
1090.1996999999999
 40
73.645919000000006
 50
225.20483999999999
 51
236.85617999999999
  0
ARC
  8
_0-0_LAYER001
  6
CONTINUOUS
 62
    4
 10
1182.3580999999999
 20
1082.2944
 40
81.008393999999996
 50
226.46691000000004
 51
242.05489
  0
ARC
  8
_0-0_LAYER001
  6
CONTINUOUS
 62
    4
 10
1235.8806
 20
1156.8992000000001
 40
154.70135999999999
 50
229.79871999999997
 51
237.31520999999998
  0
LINE
  8
_0-0_LAYER001
  6
CONTINUOUS
 62
    4
 10
1126.5617
 20
1041.3943999999999
 11
1126.5617
 21
1023.5652
  0
ARC
  8
_0-0_LAYER001
  6
CONTINUOUS
 62
    4
 10
1130.5617
 20
1041.3943999999999
 40
4
 50
90
 51
180
  0
LINE
  8
_0-0_LAYER001
  6
CONTINUOUS
 62
    4
 10
1132.0247999999999
 20
1045.3943999999999
 11
1130.5617
 21
1045.3943999999999
  0
LINE
  8
_0-0_LAYER001
  6
CONTINUOUS
 62
    4
 10
1136.0247999999999
 20
1041.3943999999999
 11
1136.0247999999999
 21
1038.7411999999999
  0
ARC
  8
_0-0_LAYER001
  6
CONTINUOUS
 62
    4
 10
1132.0247999999999
 20
1041.3943999999999
 40
4
 50
0
 51
90
  0
LINE
  8
_0-0_LAYER001
  6
CONTINUOUS
 62
    4
 10
1141.5617
 20
1040.7850000000001
 11
1141.5617
 21
1037.9383
  0
LINE
  8
_0-0_LAYER001
  6
CONTINUOUS
 62
    4
 10
1145.5617
 20
1044.7850000000001
 11
1160.8893
 21
1044.7850000000001
  0
ARC
  8
_0-0_LAYER001
  6
CONTINUOUS
 62
    4
 10
1145.5617
 20
1040.7850000000001
 40
4
 50
90
 51
180
  0
ARC
  8
_0-0_LAYER001
  6
CONTINUOUS
 62
    4
 10
1244.3945000000001
 20
1220.4726000000001
 40
232.52318
 50
244.57801000000001
 51
295.00637
  0
ARC
  8
_0-0_LAYER001
  6
CONTINUOUS
 62
    4
 10
1385.0607
 20
1017.3996999999999
 40
40.248902000000001
 50
91.422393999999997
 51
185.22383000000002
  0
ARC
  8
_0-0_LAYER001
  6
CONTINUOUS
 62
    4
 10
1340.9956
 20
1013.3710000000001
 40
4
 50
295.00637
 51
5.2238350000000304
  0
LINE
  8
_0-0_LAYER001
  6
CONTINUOUS
 62
    4
 10
1342.5472
 20
1009.2016000000001
 11
1338.6483000000001
 21
991.16920000000005
  0
ARC
  8
_0-0_LAYER001
  6
CONTINUOUS
 62
    4
 10
1123.9478999999999
 20
1021.6507999999999
 40
69.214101999999997
 50
13.791351000000001
 51
163.33506000000003
  0
ARC
  8
_0-0_LAYER001
  6
CONTINUOUS
 62
    4
 10
1123.5527999999999
 20
1023.1342999999999
 40
50.327697999999998
 50
23.01118
 51
173.62688000000003
  0
ARC
  8
_0-0_LAYER001
  6
CONTINUOUS
 62
    4
 10
985.47970000000009
 20
1222.143
 40
212.52318
 50
244.57801000000001
 51
294.47764000000006
  0
ARC
  8
_0-0_LAYER001
  6
CONTINUOUS
 62
    4
 10
985.47970000000009
 20
1222.143
 40
214.52317999999997
 50
244.57801000000001
 51
294.78532999999999
  0
ARC
  8
_0-0_LAYER001
  6
CONTINUOUS
 62
    4
 10
1123.5527999999999
 20
1023.1342999999999
 40
48.327697999999998
 50
88.109851000000006
 51
174.95909000000003
  0
LINE
  8
_0-0_LAYER001
  6
CONTINUOUS
 62
    4
 10
1125.1468
 20
1071.4357
 11
1125.1468
 21
1059.3067000000001
  0
LINE
  8
_0-0_LAYER001
  6
CONTINUOUS
 62
    4
 10
1191.1666
 20
1038.1505999999999
 11
1169.8758
 21
1042.8079
  0
LINE
  8
_0-0_LAYER001
  6
CONTINUOUS
 62
    4
 10
953.13470000000007
 20
980.8282999999999
 11
946.56780000000003
 21
992.97720000000004
  0
LINE
  8
_0-0_LAYER001
  6
CONTINUOUS
 62
    4
 10
965.26089999999999
 20
980.49900000000002
 11
970.69110000000001
 21
989.35879999999997
  0
ARC
  8
_0-0_LAYER001
  6
CONTINUOUS
 62
    4
 10
959.29269999999997
 20
984.15699999999993
 40
7
 50
208.39301
 51
328.49572999999998
  0
LINE
  8
_0-0_LAYER001
  6
CONTINUOUS
 62
    4
 10
1044.6514999999999
 20
984.56639999999993
 11
1050.5994000000001
 21
999.61110000000008
  0
ARC
  8
_0-0_LAYER001
  6
CONTINUOUS
 62
    4
 10
1038.1418000000001
 20
987.14010000000007
 40
7
 50
210.96375
 51
338.42869000000002
  0
LINE
  8
_0-0_LAYER001
  6
CONTINUOUS
 62
    4
 10
1072.2927
 20
991.50790000000006
 11
1065.3749
 21
1003.2295999999999
  0
ARC
  8
_0-0_LAYER001
  6
CONTINUOUS
 62
    4
 10
1075.7375
 20
993.54089999999997
 40
4
 50
210.54757000000001
 51
342.13990000000001
  0
ARC
  8
_0-0_LAYER001
  6
CONTINUOUS
 62
    4
 10
985.47970000000009
 20
1222.143
 40
194.52317999999997
 50
244.57801000000001
 51
291.77512000000002
  0
ARC
  8
_0-0_LAYER001
  6
CONTINUOUS
 62
    4
 10
934.53580000000011
 20
1091.8701000000001
 40
73.645919000000006
 50
225.20483999999999
 51
236.85617999999999
  0
ARC
  8
_0-0_LAYER001
  6
CONTINUOUS
 62
    4
 10
923.44319999999993
 20
1083.9648999999999
 40
81.008393999999996
 50
226.46691000000004
 51
242.05489
  0
ARC
  8
_0-0_LAYER001
  6
CONTINUOUS
 62
    4
 10
976.96569999999997
 20
1158.5696
 40
154.70135999999999
 50
229.79871999999997
 51
237.31520999999998
  0
LINE
  8
_0-0_LAYER001
  6
CONTINUOUS
 62
    4
 10
867.64679999999998
 20
1043.0648000000001
 11
867.64679999999998
 21
1025.2356
  0
ARC
  8
_0-0_LAYER001
  6
CONTINUOUS
 62
    4
 10
871.64679999999998
 20
1043.0648000000001
 40
4
 50
90
 51
180
  0
LINE
  8
_0-0_LAYER001
  6
CONTINUOUS
 62
    4
 10
873.10989999999993
 20
1047.0648000000001
 11
871.64679999999998
 21
1047.0648000000001
  0
LINE
  8
_0-0_LAYER001
  6
CONTINUOUS
 62
    4
 10
877.10989999999993
 20
1043.0648000000001
 11
877.10989999999993
 21
1040.4115999999999
  0
ARC
  8
_0-0_LAYER001
  6
CONTINUOUS
 62
    4
 10
873.10989999999993
 20
1043.0648000000001
 40
4
 50
0
 51
90
  0
LINE
  8
_0-0_LAYER001
  6
CONTINUOUS
 62
    4
 10
882.64679999999998
 20
1042.4554000000001
 11
882.64679999999998
 21
1039.6087
  0
LINE
  8
_0-0_LAYER001
  6
CONTINUOUS
 62
    4
 10
886.64679999999998
 20
1046.4554000000001
 11
901.97440000000006
 21
1046.4554000000001
  0
ARC
  8
_0-0_LAYER001
  6
CONTINUOUS
 62
    4
 10
886.64679999999998
 20
1042.4554000000001
 40
4
 50
90
 51
180
  0
ARC
  8
_0-0_LAYER001
  6
CONTINUOUS
 62
    4
 10
985.47970000000009
 20
1222.143
 40
232.52318
 50
244.57801000000001
 51
295.00637
  0
ARC
  8
_0-0_LAYER001
  6
CONTINUOUS
 62
    4
 10
1126.1459
 20
1019.0702000000001
 40
40.248902000000001
 50
91.422393999999997
 51
185.22383000000002
  0
ARC
  8
_0-0_LAYER001
  6
CONTINUOUS
 62
    4
 10
1082.0808
 20
1015.0414000000001
 40
4
 50
295.00637
 51
5.2238350000000304
  0
LINE
  8
_0-0_LAYER001
  6
CONTINUOUS
 62
    4
 10
1083.6323
 20
1010.8720000000001
 11
1079.7334000000001
 21
992.83969999999999
  0
ARC
  8
_0-0_LAYER001
  6
CONTINUOUS
 62
    4
 10
863.51829999999995
 20
1021.6253999999999
 40
69.214101999999997
 50
13.791351000000001
 51
126.31484999999999
  0
ARC
  8
_0-0_LAYER001
  6
CONTINUOUS
 62
    4
 10
863.1232
 20
1023.1088
 40
50.327697999999998
 50
23.01118
 51
143.76640000000003
  0
ARC
  8
_0-0_LAYER001
  6
CONTINUOUS
 62
    4
 10
863.1232
 20
1023.1088
 40
48.327697999999998
 50
88.109851000000006
 51
147.13958
  0
LINE
  8
_0-0_LAYER001
  6
CONTINUOUS
 62
    4
 10
864.71720000000005
 20
1071.4102
 11
864.71720000000005
 21
1059.2811999999999
  0
LINE
  8
_0-0_LAYER001
  6
CONTINUOUS
 62
    4
 10
930.73700000000008
 20
1038.1251
 11
909.44630000000006
 21
1042.7824000000001
  0
ARC
  8
_0-0_LAYER001
  6
CONTINUOUS
 62
    4
 10
725.05009999999993
 20
1222.1175000000001
 40
232.52318
 50
294.78527000000003
 51
295.00637
  0
ARC
  8
_0-0_LAYER001
  6
CONTINUOUS
 62
    4
 10
865.71630000000005
 20
1019.0446999999999
 40
40.248902000000001
 50
91.422393999999997
 51
185.22383000000002
  0
ARC
  8
_0-0_LAYER001
  6
CONTINUOUS
 62
    4
 10
821.65120000000002
 20
1015.0160000000001
 40
4
 50
295.00637
 51
5.2238350000000304
  0
LINE
  8
_0-0_LAYER001
  6
CONTINUOUS
 62
    4
 10
823.20280000000002
 20
1010.8465000000001
 11
822.52819999999997
 21
1007.7264
  0
ARC
  8
_0-0_LAYER001
  6
CONTINUOUS
 62
    4
 10
1643.9717999999998
 20
1020.2918999999999
 40
69.214101999999997
 50
13.791351000000001
 51
163.33506000000003
  0
ARC
  8
_0-0_LAYER001
  6
CONTINUOUS
 62
    4
 10
1643.5767000000001
 20
1021.7753
 40
50.327697999999998
 50
23.01118
 51
173.62688000000003
  0
ARC
  8
_0-0_LAYER001
  6
CONTINUOUS
 62
    4
 10
1505.5036
 20
1220.7840000000001
 40
212.52318
 50
244.57801000000001
 51
294.47764000000006
  0
ARC
  8
_0-0_LAYER001
  6
CONTINUOUS
 62
    4
 10
1505.5036
 20
1220.7840000000001
 40
214.52317999999997
 50
244.57801000000001
 51
294.78532999999999
  0
ARC
  8
_0-0_LAYER001
  6
CONTINUOUS
 62
    4
 10
1643.5767000000001
 20
1021.7753
 40
48.327697999999998
 50
88.109851000000006
 51
174.95909000000003
  0
LINE
  8
_0-0_LAYER001
  6
CONTINUOUS
 62
    4
 10
1645.1707000000001
 20
1070.0767000000001
 11
1645.1707000000001
 21
1057.9476999999999
  0
LINE
  8
_0-0_LAYER001
  6
CONTINUOUS
 62
    4
 10
1711.1905000000002
 20
1036.7916
 11
1689.8996999999999
 21
1041.4489000000001
  0
LINE
  8
_0-0_LAYER001
  6
CONTINUOUS
 62
    4
 10
1473.1587
 20
979.46939999999995
 11
1466.5916999999999
 21
991.61830000000009
  0
LINE
  8
_0-0_LAYER001
  6
CONTINUOUS
 62
    4
 10
1485.2847999999999
 20
979.1400000000001
 11
1490.7150000000001
 21
987.99980000000005
  0
ARC
  8
_0-0_LAYER001
  6
CONTINUOUS
 62
    4
 10
1479.3166000000001
 20
982.798
 40
7
 50
208.39301
 51
328.49572999999998
  0
LINE
  8
_0-0_LAYER001
  6
CONTINUOUS
 62
    4
 10
1564.6754000000001
 20
983.20749999999998
 11
1570.6233000000002
 21
998.2521999999999
  0
ARC
  8
_0-0_LAYER001
  6
CONTINUOUS
 62
    4
 10
1558.1657
 20
985.78109999999992
 40
7
 50
210.96375
 51
338.42869000000002
  0
LINE
  8
_0-0_LAYER001
  6
CONTINUOUS
 62
    4
 10
1592.3166000000001
 20
990.14889999999991
 11
1585.3987999999999
 21
1001.8706999999999
  0
ARC
  8
_0-0_LAYER001
  6
CONTINUOUS
 62
    4
 10
1595.7613999999999
 20
992.18190000000004
 40
4
 50
210.54757000000001
 51
342.13990000000001
  0
ARC
  8
_0-0_LAYER001
  6
CONTINUOUS
 62
    4
 10
1505.5036
 20
1220.7840000000001
 40
194.52317999999997
 50
244.57801000000001
 51
291.77512000000002
  0
ARC
  8
_0-0_LAYER001
  6
CONTINUOUS
 62
    4
 10
1454.5596999999998
 20
1090.5110999999999
 40
73.645919000000006
 50
225.20483999999999
 51
236.85617999999999
  0
ARC
  8
_0-0_LAYER001
  6
CONTINUOUS
 62
    4
 10
1443.4670999999998
 20
1082.6059
 40
81.008393999999996
 50
226.46691000000004
 51
242.05489
  0
ARC
  8
_0-0_LAYER001
  6
CONTINUOUS
 62
    4
 10
1496.9895999999999
 20
1157.2107000000001
 40
154.70135999999999
 50
229.79871999999997
 51
237.31520999999998
  0
LINE
  8
_0-0_LAYER001
  6
CONTINUOUS
 62
    4
 10
1387.6706999999999
 20
1041.7058
 11
1387.6706999999999
 21
1023.8767
  0
ARC
  8
_0-0_LAYER001
  6
CONTINUOUS
 62
    4
 10
1391.6706999999999
 20
1041.7058
 40
4
 50
90
 51
180
  0
LINE
  8
_0-0_LAYER001
  6
CONTINUOUS
 62
    4
 10
1393.1338000000001
 20
1045.7058
 11
1391.6706999999999
 21
1045.7058
  0
LINE
  8
_0-0_LAYER001
  6
CONTINUOUS
 62
    4
 10
1397.1338000000001
 20
1041.7058
 11
1397.1338000000001
 21
1039.0526
  0
ARC
  8
_0-0_LAYER001
  6
CONTINUOUS
 62
    4
 10
1393.1338000000001
 20
1041.7058
 40
4
 50
0
 51
90
  0
LINE
  8
_0-0_LAYER001
  6
CONTINUOUS
 62
    4
 10
1402.6706999999999
 20
1041.0963999999999
 11
1402.6706999999999
 21
1038.2497000000001
  0
LINE
  8
_0-0_LAYER001
  6
CONTINUOUS
 62
    4
 10
1406.6706999999999
 20
1045.0963999999999
 11
1421.9983
 21
1045.0963999999999
  0
ARC
  8
_0-0_LAYER001
  6
CONTINUOUS
 62
    4
 10
1406.6706999999999
 20
1041.0963999999999
 40
4
 50
90
 51
180
  0
ARC
  8
_0-0_LAYER001
  6
CONTINUOUS
 62
    4
 10
1505.5036
 20
1220.7840000000001
 40
232.52318
 50
244.57801000000001
 51
295.00637
  0
ARC
  8
_0-0_LAYER001
  6
CONTINUOUS
 62
    4
 10
1646.1698000000001
 20
1017.7112
 40
40.248902000000001
 50
91.422393999999997
 51
185.22383000000002
  0
ARC
  8
_0-0_LAYER001
  6
CONTINUOUS
 62
    4
 10
1602.1046999999999
 20
1013.6824999999999
 40
4
 50
295.00637
 51
5.2238350000000304
  0
LINE
  8
_0-0_LAYER001
  6
CONTINUOUS
 62
    4
 10
1603.6561999999999
 20
1009.5129999999999
 11
1599.7573000000002
 21
991.48070000000007
  0
LINE
  8
_0-0_LAYER001
  6
CONTINUOUS
 62
    2
 10
864.39519999999993
 20
988.44640000000004
 11
865.04209999999989
 21
988.44640000000004
  0
LINE
  8
_0-0_LAYER001
  6
CONTINUOUS
 62
    2
 10
1124.3951999999999
 20
988.44640000000004
 11
1125.0420999999999
 21
988.44640000000004
  0
LINE
  8
_0-0_LAYER001
  6
CONTINUOUS
 62
    2
 10
1384.3951999999999
 20
988.44640000000004
 11
1385.0421000000001
 21
988.44640000000004
  0
LINE
  8
_0-0_LAYER001
  6
CONTINUOUS
 62
    2
 10
1644.3951999999999
 20
988.44640000000004
 11
1645.0421000000001
 21
988.44640000000004
  0
LINE
  8
_0-0_LAYER001
  6
CONTINUOUS
 62
    2
 10
1914.4353999999998
 20
1102.6014
 11
1914.4353999999998
 21
1252.6014
  0
LINE
  8
_0-0_LAYER001
  6
CONTINUOUS
 62
    2
 10
1812.3398999999999
 20
1061.0577000000001
 11
1818.2213999999999
 21
1067.1842999999999
  0
LINE
  8
_0-0_LAYER001
  6
CONTINUOUS
 62
    2
 10
1817.0430000000001
 20
1085.4285
 11
1812.3398999999999
 21
1061.0577000000001
  0
LINE
  8
_0-0_LAYER001
  6
CONTINUOUS
 62
    2
 10
1828.8027000000002
 20
1070.2399
 11
1917.4353999999998
 21
1085.8681999999999
  0
LINE
  8
_0-0_LAYER001
  6
CONTINUOUS
 62
    2
 10
1826.1979999999999
 20
1085.0119999999999
 11
1914.8307
 21
1100.6403
  0
LINE
  8
_0-0_LAYER001
  6
CONTINUOUS
 62
    2
 10
1826.1979999999999
 20
1085.0119999999999
 11
1828.8027000000002
 21
1070.2399
  0
LINE
  8
_0-0_LAYER001
  6
CONTINUOUS
 62
    2
 10
1914.8307
 20
1100.6403
 11
1917.4353999999998
 21
1085.8681999999999
  0
LINE
  8
_0-0_LAYER001
  6
CONTINUOUS
 62
    2
 10
1917.4353999999998
 20
1085.8681999999999
 11
1826.1979999999999
 21
1085.0119999999999
  0
LINE
  8
_0-0_LAYER001
  6
DASHED1
 62
    2
 10
1965.4353999999998
 20
1065.8681999999999
 11
1960.4353000000001
 21
1068.8681999999999
  0
LINE
  8
_0-0_LAYER001
  6
DASHED1
 62
    2
 10
1960.4353000000001
 20
1062.8683000000001
 11
1965.4353999999998
 21
1065.8681999999999
  0
LINE
  8
_0-0_LAYER001
  6
CONTINUOUS
 62
    2
 10
1893.4353000000001
 20
1062.8683000000001
 11
1893.4353000000001
 21
1068.8681999999999
  0
LINE
  8
_0-0_LAYER001
  6
CONTINUOUS
 62
    2
 10
1887.4353999999998
 20
1059.8681999999999
 11
1887.4353999999998
 21
1071.8683000000001
  0
LINE
  8
_0-0_LAYER001
  6
CONTINUOUS
 62
    2
 10
1896.3222999999998
 20
1062.8683000000001
 11
1899.7854000000002
 21
1068.8681999999999
  0
LINE
  8
_0-0_LAYER001
  6
CONTINUOUS
 62
    2
 10
1887.4353999999998
 20
1059.8681999999999
 11
1893.4353000000001
 21
1062.8683000000001
  0
LINE
  8
_0-0_LAYER001
  6
CONTINUOUS
 62
    2
 10
1893.4353000000001
 20
1068.8681999999999
 11
1887.4353999999998
 21
1071.8683000000001
  0
LINE
  8
_0-0_LAYER001
  6
DASHED1
 62
    2
 10
1960.4353000000001
 20
1068.8681999999999
 11
1917.4353999999998
 21
1068.8681999999999
  0
LINE
  8
_0-0_LAYER001
  6
DASHED1
 62
    2
 10
1960.4353000000001
 20
1062.8683000000001
 11
1917.4353999999998
 21
1062.8683000000001
  0
LINE
  8
_0-0_LAYER001
  6
CONTINUOUS
 62
    2
 10
1917.4353999999998
 20
1061.6181999999999
 11
1917.4353999999998
 21
1070.1181999999999
  0
LINE
  8
_0-0_LAYER001
  6
CONTINUOUS
 62
    2
 10
1887.4353999999998
 20
1045.8681999999999
 11
1917.4353999999998
 21
1045.8681999999999
  0
LINE
  8
_0-0_LAYER001
  6
CONTINUOUS
 62
    2
 10
1917.4353999999998
 20
1068.8681999999999
 11
1893.4353000000001
 21
1068.8681999999999
  0
LINE
  8
_0-0_LAYER001
  6
CONTINUOUS
 62
    2
 10
1917.4353999999998
 20
1062.8683000000001
 11
1893.4353000000001
 21
1062.8683000000001
  0
LINE
  8
_0-0_LAYER001
  6
CONTINUOUS
 62
    2
 10
1902.0454
 20
1062.8683000000001
 11
1905.5084999999999
 21
1068.8681999999999
  0
LINE
  8
_0-0_LAYER001
  6
CONTINUOUS
 62
    2
 10
1907.7685999999999
 20
1062.8683000000001
 11
1911.2316000000001
 21
1068.8681999999999
  0
LINE
  8
_0-0_LAYER001
  6
CONTINUOUS
 62
    2
 10
1913.4917
 20
1062.8683000000001
 11
1916.9548
 21
1068.8681999999999
  0
LINE
  8
_0-0_LAYER001
  6
CONTINUOUS
 62
    2
 10
1887.4353999999998
 20
1045.8681999999999
 11
1887.4353999999998
 21
1080.5784000000001
  0
LINE
  8
_0-0_LAYER001
  6
CONTINUOUS
 62
    2
 10
1917.4353999999998
 20
1045.8681999999999
 11
1890.9394000000002
 21
1081.1963000000001
  0
LINE
  8
_0-0_LAYER001
  6
CONTINUOUS
 62
    2
 10
1817.0430000000001
 20
1085.4285
 11
1914.4353999999998
 21
1102.6014
  0
LINE
  8
_0-0_LAYER001
  6
CONTINUOUS
 62
    2
 10
1896.6134999999999
 20
1097.4281000000001
 11
1905.3829999999998
 21
1098.9744000000001
  0
LINE
  8
_0-0_LAYER001
  6
CONTINUOUS
 62
    2
 10
1904.1392000000001
 20
1069.7162000000001
 11
1907.5808999999999
 21
1061.4772
  0
LINE
  8
_0-0_LAYER001
  6
CONTINUOUS
 62
    2
 10
1903.0994000000001
 20
1096.9518
 11
1907.7892999999999
 21
1070.3599999999999
  0
LINE
  8
_0-0_LAYER001
  6
CONTINUOUS
 62
    2
 10
1907.5808999999999
 20
1061.4772
 11
1907.7892999999999
 21
1070.3599999999999
  0
LINE
  8
_0-0_LAYER001
  6
CONTINUOUS
 62
    2
 10
1899.4495000000002
 20
1096.3095000000001
 11
1896.6134999999999
 21
1097.4281000000001
  0
LINE
  8
_0-0_LAYER001
  6
CONTINUOUS
 62
    2
 10
1903.0994000000001
 20
1096.9518
 11
1905.3829999999998
 21
1098.9744000000001
  0
LINE
  8
_0-0_LAYER001
  6
CONTINUOUS
 62
    2
 10
1899.4495000000002
 20
1096.3095000000001
 11
1904.1392000000001
 21
1069.7162000000001
  0
LINE
  8
_0-0_LAYER001
  6
CONTINUOUS
 62
    2
 10
1898.9148
 20
1042.8378
 11
1894.8751999999999
 21
1034.5468000000001
  0
LINE
  8
_0-0_LAYER001
  6
CONTINUOUS
 62
    2
 10
1191.7318
 20
693.0775000000001
 11
1256.367
 21
693.0775000000001
  0
LINE
  8
_0-0_LAYER001
  6
CONTINUOUS
 62
    2
 10
1184.5587
 20
722.94409999999993
 11
1405.4992999999999
 21
722.94409999999993
  0
LINE
  8
_0-0_LAYER001
  6
CONTINUOUS
 62
    2
 10
1175.0155999999999
 20
753.03939999999989
 11
1416.6289000000002
 21
753.03939999999989
  0
LINE
  8
_0-0_LAYER001
  6
CONTINUOUS
 62
    2
 10
1114.124
 20
975.21389999999997
 11
1114.124
 21
982.71389999999997
  0
LINE
  8
_0-0_LAYER001
  6
CONTINUOUS
 62
    2
 10
1114.124
 20
982.71389999999997
 11
1117.874
 21
976.2186999999999
  0
LINE
  8
_0-0_LAYER001
  6
CONTINUOUS
 62
    2
 10
1114.124
 20
982.71389999999997
 11
1191.7318
 21
693.0775000000001
  0
LINE
  8
_0-0_LAYER001
  6
CONTINUOUS
 62
    2
 10
1167.6316999999999
 20
783.02040000000011
 11
1372.4544000000001
 21
783.02040000000011
  0
LINE
  8
_0-1_ADD_LINE
  6
CONTINUOUS
 62
    7
 10
864.39519999999993
 20
1269.9811999999999
 11
864.39519999999993
 21
1322.4811999999999
  0
LINE
  8
_0-1_ADD_LINE
  6
CONTINUOUS
 62
    7
 10
864.39519999999993
 20
1319.9811999999999
 11
1644.3951999999999
 21
1319.9811999999999
  0
LINE
  8
_0-1_ADD_LINE
  6
CONTINUOUS
 62
    7
 10
1644.3951999999999
 20
1269.9811999999999
 11
1644.3951999999999
 21
1322.4811999999999
  0
LINE
  8
_0-1_ADD_LINE
  6
CONTINUOUS
 62
    7
 10
1384.3951999999999
 20
1269.9811999999999
 11
1384.3951999999999
 21
1322.4811999999999
  0
LINE
  8
_0-1_ADD_LINE
  6
CONTINUOUS
 62
    7
 10
1124.3951999999999
 20
1269.9811999999999
 11
1124.3951999999999
 21
1322.4811999999999
  0
LINE
  8
_0-1_ADD_LINE
  6
CONTINUOUS
 62
    7
 10
1259.2226000000001
 20
1182.0651
 11
1299.7226000000001
 21
1182.0651
  0
LINE
  8
_0-1_ADD_LINE
  6
CONTINUOUS
 62
    7
 10
1167.6316999999999
 20
783.02040000000011
 11
1372.4544000000001
 21
783.02040000000011
  0
LINE
  8
_0-1_ADD_LINE
  6
CONTINUOUS
 62
    7
 10
1175.6650654914231
 20
753.03939999999989
 11
1416.6289000000002
 21
753.03939999999989
  0
LINE
  8
_0-1_ADD_LINE
  6
CONTINUOUS
 62
    7
 10
1184.5587
 20
722.94409999999993
 11
1405.4992999999999
 21
722.94409999999993
  0
LINE
  8
_0-1_ADD_LINE
  6
CONTINUOUS
 62
    7
 10
1191.7318
 20
693.0775000000001
 11
1256.367
 21
693.0775000000001
  0
LINE
  8
_0-1_ADD_LINE
  6
CONTINUOUS
 62
    7
 10
1588.5734000000002
 20
783.71209999999996
 11
1806.0734000000002
 21
783.71209999999996
  0
LINE
  8
_0-1_ADD_LINE
  6
CONTINUOUS
 62
    7
 10
1951.8780999999999
 20
829.19620000000009
 11
2098.8780999999999
 21
829.19620000000009
  0
LINE
  8
_0-1_ADD_LINE
  6
CONTINUOUS
 62
    7
 10
1691.3053
 20
1389.4223999999999
 11
1863.8053
 21
1389.4223999999999
  0
LINE
  8
_0-1_ADD_LINE
  6
CONTINUOUS
 62
    7
 10
1590.0522000000001
 20
1233.9881
 11
1824.0522000000001
 21
1233.9881
  0
LINE
  8
_0-1_ADD_LINE
  6
CONTINUOUS
 62
    7
 10
1699.3087
 20
1180.6614999999999
 11
1819.3087
 21
1180.6614999999999
  0
LINE
  8
_0-1_ADD_LINE
  6
CONTINUOUS
 62
    7
 10
1936.9054000000001
 20
1241.6456000000001
 11
1977.4054000000001
 21
1241.6456000000001
  0
LINE
  8
_0-1_ADD_LINE
  6
CONTINUOUS
 62
    7
 10
1980.3962000000001
 20
1251.425
 11
2032.8962000000001
 21
1251.425
  0
LINE
  8
_0-1_ADD_LINE
  6
CONTINUOUS
 62
    7
 10
1980.3962000000001
 20
1101.425
 11
2032.8962000000001
 21
1101.425
  0
LINE
  8
_0-1_ADD_LINE
  6
CONTINUOUS
 62
    7
 10
2030.3962000000001
 20
1101.425
 11
2030.3962000000001
 21
1251.425
  0
LINE
  8
_0-1_ADD_LINE
  6
CONTINUOUS
 62
    7
 10
2071.2543999999998
 20
1270.4464
 11
2123.7543999999998
 21
1270.4464
  0
LINE
  8
_0-1_ADD_LINE
  6
CONTINUOUS
 62
    7
 10
2121.2543999999998
 20
1270.4464
 11
2121.2543999999998
 21
970.44640000000004
  0
LINE
  8
_0-1_ADD_LINE
  6
CONTINUOUS
 62
    7
 10
2071.2543999999998
 20
970.44640000000004
 11
2123.7543999999998
 21
970.44640000000004
  0
LINE
  8
_0-1_ADD_LINE
  6
CONTINUOUS
 62
    7
 10
1958.0329000000002
 20
970.44640000000004
 11
2010.5329000000002
 21
970.44640000000004
  0
LINE
  8
_0-1_ADD_LINE
  6
CONTINUOUS
 62
    7
 10
2008.0329000000002
 20
972.14640000000009
 11
2008.0329000000002
 21
1035.4464
  0
LINE
  8
_0-1_ADD_LINE
  6
CONTINUOUS
 62
    7
 10
1958.0329000000002
 20
1035.4464
 11
2010.5329000000002
 21
1035.4464
  0
LINE
  8
_0-1_ADD_LINE
  6
CONTINUOUS
 62
    7
 10
1809.8836999999999
 20
869.96160000000009
 11
1809.8836999999999
 21
844.96160000000009
  0
LINE
  8
_0-1_ADD_LINE
  6
CONTINUOUS
 62
    7
 10
1809.8836999999999
 20
844.96160000000009
 11
1899.8836999999999
 21
844.96160000000009
  0
LINE
  8
_0-1_ADD_LINE
  6
CONTINUOUS
 62
    7
 10
1899.8836999999999
 20
843.26160000000016
 11
1899.8836999999999
 21
869.96160000000009
  0
LINE
  8
_0-1_ADD_LINE
  6
CONTINUOUS
 62
    7
 10
1809.8836999999999
 20
843.26160000000016
 11
1809.8836999999999
 21
844.96160000000009
  0
LINE
  8
_0-1_ADD_LINE
  6
CONTINUOUS
 62
    7
 10
1916.4353999999998
 20
898.44640000000004
 11
822.52819999999997
 21
898.44640000000004
  0
LINE
  8
_0-1_ADD_LINE
  6
CONTINUOUS
 62
    7
 10
822.52819999999997
 20
958.44640000000004
 11
1916.4353999999998
 21
958.44640000000004
  0
LINE
  8
_0-1_ADD_LINE
  6
CONTINUOUS
 62
    7
 10
1856.4353999999998
 20
958.44640000000004
 11
1856.4353999999998
 21
898.44640000000004
  0
LINE
  8
_0-1_ADD_LINE
  6
CONTINUOUS
 62
    7
 10
1916.4353999999998
 20
970.44640000000004
 11
822.52819999999997
 21
970.44640000000004
  0
LINE
  8
_0-1_ADD_LINE
  6
CONTINUOUS
 62
    7
 10
822.52819999999997
 20
971.94640000000004
 11
1915.9353999999998
 21
971.94640000000004
  0
LINE
  8
_0-1_ADD_LINE
  6
CONTINUOUS
 62
    7
 10
1898.9148
 20
973.44640000000004
 11
1809.8836999999999
 21
973.44640000000004
  0
LINE
  8
_0-1_ADD_LINE
  6
CONTINUOUS
 62
    7
 10
1804.8836999999999
 20
973.44640000000004
 11
822.52819999999997
 21
973.44640000000004
  0
LINE
  8
_0-1_ADD_LINE
  6
CONTINUOUS
 62
    7
 10
822.52819999999997
 20
988.44640000000004
 11
1804.8836999999999
 21
988.44640000000004
  0
LINE
  8
_0-1_ADD_LINE
  6
CONTINUOUS
 62
    7
 10
1804.8836999999999
 20
988.44640000000004
 11
1804.8836999999999
 21
973.44640000000004
  0
LINE
  8
_0-1_ADD_LINE
  6
CONTINUOUS
 62
    7
 10
1614.4353999999998
 20
958.44640000000004
 11
1614.4353999999998
 21
898.44640000000004
  0
LINE
  8
_0-1_ADD_LINE
  6
CONTINUOUS
 62
    7
 10
1554.4353999999998
 20
958.44640000000004
 11
1554.4353999999998
 21
898.44640000000004
  0
LINE
  8
_0-1_ADD_LINE
  6
CONTINUOUS
 62
    7
 10
1312.4353999999998
 20
958.44640000000004
 11
1312.4353999999998
 21
898.44640000000004
  0
LINE
  8
_0-1_ADD_LINE
  6
CONTINUOUS
 62
    7
 10
1252.4354000000001
 20
898.44640000000004
 11
1252.4354000000001
 21
958.44640000000004
  0
LINE
  8
_0-1_ADD_LINE
  6
CONTINUOUS
 62
    7
 10
1010.4354000000001
 20
898.44640000000004
 11
1010.4354000000001
 21
958.44640000000004
  0
LINE
  8
_0-1_ADD_LINE
  6
CONTINUOUS
 62
    7
 10
950.43540000000007
 20
898.44640000000004
 11
950.43540000000007
 21
958.44640000000004
  0
LINE
  8
_0-1_ADD_LINE
  6
CONTINUOUS
 62
    7
 10
1898.9148
 20
973.44640000000004
 11
1898.9148
 21
1042.8378
  0
LINE
  8
_0-1_ADD_LINE
  6
CONTINUOUS
 62
    7
 10
1899.8836999999999
 20
1035.4464
 11
1914.8836999999999
 21
1035.4464
  0
LINE
  8
_0-1_ADD_LINE
  6
CONTINUOUS
 62
    7
 10
1914.8836999999999
 20
1035.4464
 11
1914.8836999999999
 21
973.50189999999998
  0
LINE
  8
_0-1_ADD_LINE
  6
CONTINUOUS
 62
    7
 10
1913.2114960864037
 20
973.50189999999998
 11
1899.8836999999999
 21
973.50189999999998
  0
LINE
  8
_0-1_ADD_LINE
  6
CONTINUOUS
 62
    7
 10
1899.8836999999999
 20
973.50189999999998
 11
1899.8836999999999
 21
1033.5019
  0
LINE
  8
_0-1_ADD_LINE
  6
CONTINUOUS
 62
    7
 10
1915.9353999999998
 20
971.94640000000004
 11
1915.9353999999998
 21
1270.4464
  0
LINE
  8
_0-1_ADD_LINE
  6
CONTINUOUS
 62
    7
 10
1914.4353999999998
 20
1252.6014
 11
1914.4353999999998
 21
1102.6014
  0
LINE
  8
_0-1_ADD_LINE
  6
CONTINUOUS
 62
    7
 10
1892.8198000000002
 20
1157.0064
 11
1912.8198000000002
 21
1157.0064
  0
LINE
  8
_0-1_ADD_LINE
  6
CONTINUOUS
 62
    7
 10
1912.8198000000002
 20
1157.0064
 11
1912.8198000000002
 21
1197.0074
  0
LINE
  8
_0-1_ADD_LINE
  6
CONTINUOUS
 62
    7
 10
1912.8198000000002
 20
1197.0074
 11
1892.8198000000002
 21
1197.0074
  0
LINE
  8
_0-1_ADD_LINE
  6
CONTINUOUS
 62
    7
 10
1892.8198000000002
 20
1197.0074
 11
1892.8198000000002
 21
1109.4635000000001
  0
LINE
  8
_0-1_ADD_LINE
  6
CONTINUOUS
 62
    7
 10
1892.8198000000002
 20
1109.4635000000001
 11
1880.8198000000002
 21
1109.4635000000001
  0
LINE
  8
_0-1_ADD_LINE
  6
CONTINUOUS
 62
    7
 10
1880.8198000000002
 20
1109.4635000000001
 11
1880.8198000000002
 21
1393.8824999999999
  0
LINE
  8
_0-1_ADD_LINE
  6
CONTINUOUS
 62
    7
 10
1892.8198000000002
 20
1393.8824999999999
 11
1892.8198000000002
 21
1197.0074
  0
LINE
  8
_0-1_ADD_LINE
  6
CONTINUOUS
 62
    7
 10
1893.4353000000001
 20
1068.8681999999999
 11
1893.4353000000001
 21
1062.8683000000001
  0
LINE
  8
_0-1_ADD_LINE
  6
CONTINUOUS
 62
    7
 10
1893.4353000000001
 20
1062.8683000000001
 11
1960.4353000000001
 21
1062.8683000000001
  0
LINE
  8
_0-1_ADD_LINE
  6
CONTINUOUS
 62
    7
 10
1960.4353000000001
 20
1068.8681999999999
 11
1893.4353000000001
 21
1068.8681999999999
  0
LINE
  8
_0-1_ADD_LINE
  6
CONTINUOUS
 62
    7
 10
1917.4353999999998
 20
1045.8681999999999
 11
1887.4353999999998
 21
1045.8681999999999
  0
LINE
  8
_0-1_ADD_LINE
  6
CONTINUOUS
 62
    7
 10
1887.4353999999998
 20
1045.8681999999999
 11
1887.4353999999998
 21
1080.5784000000001
  0
LINE
  8
_0-1_ADD_LINE
  6
CONTINUOUS
 62
    7
 10
1914.4353999999998
 20
1102.6014
 11
1817.0430000000001
 21
1085.4285
  0
LINE
  8
_0-1_ADD_LINE
  6
CONTINUOUS
 62
    7
 10
1817.0430000000001
 20
1085.4285
 11
1812.3398999999999
 21
1061.0577000000001
  0
LINE
  8
_0-1_ADD_LINE
  6
CONTINUOUS
 62
    7
 10
1812.3398999999999
 20
1061.0577000000001
 11
1818.2213999999999
 21
1067.1842999999999
  0
LINE
  8
_0-1_ADD_LINE
  6
CONTINUOUS
 62
    7
 10
1917.4353999999998
 20
1085.8681999999999
 11
1914.8307
 21
1100.6403
  0
LINE
  8
_0-1_ADD_LINE
  6
CONTINUOUS
 62
    7
 10
1914.8307
 20
1100.6403
 11
1826.1979999999999
 21
1085.0119999999999
  0
LINE
  8
_0-1_ADD_LINE
  6
CONTINUOUS
 62
    7
 10
1826.1979999999999
 20
1085.0119999999999
 11
1828.8027000000002
 21
1070.2399
  0
LINE
  8
_0-1_ADD_LINE
  6
CONTINUOUS
 62
    7
 10
1828.8027000000002
 20
1070.2399
 11
1917.4353999999998
 21
1085.8681999999999
  0
LINE
  8
_0-1_ADD_LINE
  6
CONTINUOUS
 62
    7
 10
1917.4353999999998
 20
1085.8681999999999
 11
1826.1979999999999
 21
1085.0119999999999
  0
LINE
  8
_0-1_ADD_LINE
  6
CONTINUOUS
 62
    7
 10
1842.3692999999998
 20
1087.0979
 11
1846.1192999999998
 21
1080.6026999999999
  0
LINE
  8
_0-1_ADD_LINE
  6
CONTINUOUS
 62
    7
 10
1846.1192999999998
 20
1080.6026999999999
 11
1846.1192999999998
 21
1088.1026999999999
  0
LINE
  8
_0-1_ADD_LINE
  6
CONTINUOUS
 62
    7
 10
1846.1192999999998
 20
1080.6026999999999
 11
1819.3087
 21
1180.6614999999999
  0
LINE
  8
_0-1_ADD_LINE
  6
CONTINUOUS
 62
    7
 10
1857.9185000000002
 20
1100.0975000000001
 11
1861.6685000000002
 21
1093.6023
  0
LINE
  8
_0-1_ADD_LINE
  6
CONTINUOUS
 62
    7
 10
1861.6685000000002
 20
1093.6023
 11
1861.6685000000002
 21
1101.1023
  0
LINE
  8
_0-1_ADD_LINE
  6
CONTINUOUS
 62
    7
 10
1861.6685000000002
 20
1093.6023
 11
1824.0522000000001
 21
1233.9881
  0
LINE
  8
_0-1_ADD_LINE
  6
CONTINUOUS
 62
    7
 10
1892.8198000000002
 20
1157.0064
 11
1912.8198000000002
 21
1197.0074
  0
LINE
  8
_0-1_ADD_LINE
  6
CONTINUOUS
 62
    7
 10
1905.2869000000001
 20
1190.7629999999999
 11
1903.3456999999999
 21
1183.5186000000001
  0
LINE
  8
_0-1_ADD_LINE
  6
CONTINUOUS
 62
    7
 10
1903.3456999999999
 20
1183.5186000000001
 11
1908.6489999999999
 21
1188.8218999999999
  0
LINE
  8
_0-1_ADD_LINE
  6
CONTINUOUS
 62
    7
 10
1903.3456999999999
 20
1183.5186000000001
 11
1936.9054000000001
 21
1241.6456000000001
  0
LINE
  8
_0-1_ADD_LINE
  6
CONTINUOUS
 62
    7
 10
1882.3108000000002
 20
1312.8586999999998
 11
1886.0608000000002
 21
1306.3635999999999
  0
LINE
  8
_0-1_ADD_LINE
  6
CONTINUOUS
 62
    7
 10
1886.0608000000002
 20
1306.3635999999999
 11
1886.0608000000002
 21
1313.8635999999999
  0
LINE
  8
_0-1_ADD_LINE
  6
CONTINUOUS
 62
    7
 10
1886.0608000000002
 20
1306.3635999999999
 11
1863.8053
 21
1389.4223999999999
  0
LINE
  8
_0-1_ADD_LINE
  6
CONTINUOUS
 62
    7
 10
1960.4353000000001
 20
1068.8681999999999
 11
1965.4353999999998
 21
1065.8681999999999
  0
LINE
  8
_0-1_ADD_LINE
  6
CONTINUOUS
 62
    7
 10
1965.4353999999998
 20
1065.8681999999999
 11
1960.4353000000001
 21
1062.8683000000001
  0
LINE
  8
_0-1_ADD_LINE
  6
CONTINUOUS
 62
    7
 10
1893.4353000000001
 20
1068.8681999999999
 11
1887.4353999999998
 21
1071.8683000000001
  0
LINE
  8
_0-1_ADD_LINE
  6
CONTINUOUS
 62
    7
 10
1893.4353000000001
 20
1062.8683000000001
 11
1887.4353999999998
 21
1059.8681999999999
  0
LINE
  8
_0-1_ADD_LINE
  6
CONTINUOUS
 62
    7
 10
1890.9394323280271
 20
1081.196256895842
 11
1917.4353999999998
 21
1045.8681999999999
  0
LINE
  8
_0-1_ADD_LINE
  6
CONTINUOUS
 62
    7
 10
1905.3829999999998
 20
1098.9744000000001
 11
1903.0994000000001
 21
1096.9518
  0
LINE
  8
_0-1_ADD_LINE
  6
CONTINUOUS
 62
    7
 10
1903.0994000000001
 20
1096.9518
 11
1907.7892999999999
 21
1070.3599999999999
  0
LINE
  8
_0-1_ADD_LINE
  6
CONTINUOUS
 62
    7
 10
1907.7892999999999
 20
1070.3599999999999
 11
1907.5808999999999
 21
1061.4772
  0
LINE
  8
_0-1_ADD_LINE
  6
CONTINUOUS
 62
    7
 10
1907.5808999999999
 20
1061.4772
 11
1904.1392000000001
 21
1069.7162000000001
  0
LINE
  8
_0-1_ADD_LINE
  6
CONTINUOUS
 62
    7
 10
1904.1392000000001
 20
1069.7162000000001
 11
1899.4495000000002
 21
1096.3095000000001
  0
LINE
  8
_0-1_ADD_LINE
  6
CONTINUOUS
 62
    7
 10
1899.4495000000002
 20
1096.3095000000001
 11
1896.6134999999999
 21
1097.4281000000001
  0
LINE
  8
_0-1_ADD_LINE
  6
CONTINUOUS
 62
    7
 10
1898.9148
 20
1042.8378
 11
1894.8751999999999
 21
1034.5468000000001
  0
LINE
  8
_0-1_ADD_LINE
  6
CONTINUOUS
 62
    7
 10
1907.8098
 20
993.66129999999998
 11
1907.8098
 21
986.16129999999998
  0
LINE
  8
_0-1_ADD_LINE
  6
CONTINUOUS
 62
    7
 10
1907.8098
 20
993.66129999999998
 11
1911.3972741322546
 21
987.44760347098122
  0
LINE
  8
_0-1_ADD_LINE
  6
CONTINUOUS
 62
    7
 10
1907.8098
 20
993.66129999999998
 11
1951.8780999999999
 21
829.19620000000009
  0
LINE
  8
_0-1_ADD_LINE
  6
CONTINUOUS
 62
    7
 10
1856.4353999999998
 20
958.44640000000004
 11
1916.4353999999998
 21
898.44640000000004
  0
LINE
  8
_0-1_ADD_LINE
  6
CONTINUOUS
 62
    7
 10
1809.8836999999999
 20
973.44640000000004
 11
1809.8836999999999
 21
987.63484227711479
  0
LINE
  8
_0-1_ADD_LINE
  6
CONTINUOUS
 62
    7
 10
1809.8836999999999
 20
987.63484227711479
 11
1809.8836999999999
 21
988.41492038371382
  0
LINE
  8
_0-1_ADD_LINE
  6
CONTINUOUS
 62
    7
 10
1809.8836999999999
 20
988.41492038371382
 11
1822.3585537407139
 21
988.41492038371382
  0
LINE
  8
_0-1_ADD_LINE
  6
CONTINUOUS
 62
    7
 10
1853.6142
 20
968.63689999999997
 11
1857.3642
 21
975.13210000000004
  0
LINE
  8
_0-1_ADD_LINE
  6
CONTINUOUS
 62
    7
 10
1857.3642
 20
975.13210000000004
 11
1857.3642
 21
967.63210000000004
  0
LINE
  8
_0-1_ADD_LINE
  6
CONTINUOUS
 62
    7
 10
1857.3642
 20
975.13210000000004
 11
1806.0734000000002
 21
783.71209999999996
  0
LINE
  8
_0-1_ADD_LINE
  6
CONTINUOUS
 62
    7
 10
1916.4353999999998
 20
898.44640000000004
 11
1916.4353999999998
 21
958.44640000000004
  0
LINE
  8
_0-1_ADD_LINE
  6
CONTINUOUS
 62
    7
 10
1191.7318
 20
693.0775000000001
 11
1114.124
 21
982.71389999999997
  0
LINE
  8
_0-1_ADD_LINE
  6
CONTINUOUS
 62
    7
 10
1114.124
 20
982.71389999999997
 11
1114.124
 21
975.21389999999997
  0
LINE
  8
_0-1_ADD_LINE
  6
CONTINUOUS
 62
    7
 10
1114.124
 20
982.71389999999997
 11
1117.874
 21
976.2186999999999
  0
LINE
  8
_0-1_ADD_LINE
  6
CONTINUOUS
 62
    7
 10
950.43540000000007
 20
958.44640000000004
 11
1010.4354000000001
 21
898.44640000000004
  0
LINE
  8
_0-1_ADD_LINE
  6
CONTINUOUS
 62
    7
 10
1252.4354000000001
 20
958.44640000000004
 11
1312.4353999999998
 21
898.44640000000004
  0
LINE
  8
_0-1_ADD_LINE
  6
CONTINUOUS
 62
    7
 10
1329.9277000000002
 20
1061.8379
 11
1333.6777000000002
 21
1055.3426999999999
  0
LINE
  8
_0-1_ADD_LINE
  6
CONTINUOUS
 62
    7
 10
1333.6777000000002
 20
1055.3426999999999
 11
1333.6777000000002
 21
1062.8426999999999
  0
LINE
  8
_0-1_ADD_LINE
  6
CONTINUOUS
 62
    7
 10
1333.6777000000002
 20
1055.3426999999999
 11
1299.7226000000001
 21
1182.0651
  0
LINE
  8
_0-1_ADD_LINE
  6
CONTINUOUS
 62
    7
 10
1614.4353999999998
 20
898.44640000000004
 11
1554.4353999999998
 21
958.44640000000004
  0
TEXT
  8
_0-0_LAYER001
 62
    7
 10
1951.8781000000001
 20
831.6962000000002
 40
20
 41
1
 50
0
  1
下地材：１５ｘ６０
  0
TEXT
  8
_0-0_LAYER001
 62
    7
 10
1191.7318
 20
695.57750000000033
 40
20
 41
1
 50
0
  1
　垂木
  0
TEXT
  8
_0-0_LAYER001
 62
    7
 10
2063.7094382829041
 20
1094.061152997662
 40
20
 41
1
 50
90
  1
水切り鉄板立上がり寸法
  0
TEXT
  8
_0-0_LAYER001
 62
    7
 10
2151.270519160907
 20
1078.6091975486024
 40
20
 41
1
 50
90
  1
下葺き材立上がり寸法
  0
TEXT
  8
_0-0_LAYER001
 62
    7
 10
1929.8393760547492
 20
1244.5418998871373
 40
20
 41
1
 50
0
  1
胴　縁
  0
TEXT
  8
_0-0_LAYER001
 62
    7
 10
1184.5587
 20
725.44410000000028
 40
20
 41
1
 50
0
  1
　野地板：耐水合板ｔ＝１２
  0
TEXT
  8
_0-0_LAYER001
 62
    7
 10
1167.6316999999999
 20
785.52040000000022
 40
20
 41
1
 50
0
  1
　瓦桟：１５ｘ３０以上
  0
TEXT
  8
_0-0_LAYER001
 62
    7
 10
984.37577271682414
 20
1331.8768978910252
 40
20
 41
1
 50
0
  1
260
  0
TEXT
  8
_0-0_LAYER001
 62
    7
 10
1248.816961085118
 20
1331.8768978910252
 40
20
 41
1
 50
0
  1
260
  0
TEXT
  8
_0-0_LAYER001
 62
    7
 10
1506.8396740075805
 20
1335.7279831585254
 40
20
 41
1
 50
0
  1
260
  0
TEXT
  8
_0-0_LAYER001
 62
    7
 10
1683.8198093133872
 20
1394.6121471867184
 40
20
 41
1
 50
0
  1
外壁　防火サイディング
  0
TEXT
  8
_0-0_LAYER001
 62
    7
 10
1567.5299799742161
 20
1238.2794038555503
 40
20
 41
1
 50
0
  1
雨押水切カラー鋼板0.35mm以上
  0
TEXT
  8
_0-0_LAYER001
 62
    7
 10
1511.2015750038856
 20
789.69781304124695
 40
20
 41
1
 50
0
  1
　捨谷カラー鋼板0.35ｍｍ以上
  0
TEXT
  8
_0-0_LAYER001
 62
    7
 10
1175.0156000000002
 20
755.53940000000023
 40
20
 41
1
 50
0
  1
　下葺材：ルーフィング
  0
TEXT
  8
_0-0_LAYER001
 62
    7
 10
1992.0764177125091
 20
992.98139435107555
 40
20
 41
1
 50
90
  1
65
  0
TEXT
  8
_0-0_LAYER001
 62
    7
 10
2015.1829293175051
 20
1163.712841210217
 40
20
 41
1
 50
90
  1
150
  0
TEXT
  8
_0-0_LAYER001
 62
    7
 10
2105.0415855591591
 20
1109.7976474652248
 40
20
 41
1
 50
90
  1
300
  0
TEXT
  8
_0-0_LAYER001
 62
    7
 10
1650.7971905759175
 20
1185.9692378908858
 40
20
 41
1
 50
0
  1
笠木：１５ｘ９０
  0
TEXT
  8
_0-0_LAYER001
 62
    7
 10
1245.5195969796957
 20
1187.4702660153162
 40
20
 41
1
 50
0
  1
桟　瓦
  0
TEXT
  8
_0-0_LAYER001
 62
    7
 10
1847.4318748763064
 20
857.24407864061709
 40
20
 41
1
 50
0
  1
90
  0
ENDSEC
  0
EOF
