  0
SECTION
  2
HEADER
  9
$ACADVER
  1
AC1009
  9
$INSBASE
 10
0
 20
0
 30
0
  9
$EXTMIN
 10
0
 20
0
  9
$EXTMAX
 10
2970
 20
2100
  9
$LIMMIN
 10
0
 20
0
  9
$LIMMAX
 10
2970
 20
2100
  9
$LTSCALE
 40
10
  0
ENDSEC
  0
SECTION
  2
TABLES
  0
TABLE
  2
LTYPE
 70
     9
  0
LTYPE
  2
CONTINUOUS
 70
    64
  3
実線
 72
    65
 73
     0
 40
0.0
  0
LTYPE
  2
DASHED1
 70
    64
  3
--  --  --  --  --  --  --  --  
 72
    65
 73
     2
 40
2.5
 49
1.25
 49
-1.25
  0
LTYPE
  2
DASHED2
 70
    64
  3
----    ----    ----    ----    
 72
    65
 73
     2
 40
5.0
 49
2.5
 49
-2.5
  0
LTYPE
  2
DASHED3
 70
    64
  3
------  ------  ------  ------  
 72
    65
 73
     2
 40
5.0
 49
3.75
 49
-1.25
  0
LTYPE
  2
CENTER1
 70
    64
  3
----- - ----- - ----- - ----- - 
 72
    65
 73
     4
 40
10.0
 49
6.25
 49
-1.25
 49
1.25
 49
-1.25
  0
LTYPE
  2
CENTER2
 70
    64
  3
----------  --  ----------  --  
 72
    65
 73
     4
 40
20.0
 49
12.5
 49
-2.5
 49
2.5
 49
-2.5
  0
LTYPE
  2
PHANTOM1
 70
    64
  3
--- - - --- - - --- - - --- - - 
 72
    65
 73
     6
 40
10.0
 49
3.25
 49
-1.25
 49
1.25
 49
-1.25
 49
1.25
 49
-1.25
  0
LTYPE
  2
PHANTOM2
 70
    64
  3
--------  -  -  --------  -  -  
 72
    65
 73
     6
 40
20.0
 49
10.0
 49
-2.5
 49
1.25
 49
-2.5
 49
1.25
 49
-2.5
  0
LTYPE
  2
DOT
 70
    64
  3
-   -   -   -   -   -   -   -   
 72
    65
 73
     2
 40
2.5
 49
0.625
 49
-1.875
  0
LTYPE
  2
DUMMY
 70
    64
  3
ダミー
 72
    65
 73
     0
 40
0.0
  0
LTYPE
  2
RAND1
 70
    64
  3
ランダム線1
 72
    65
 73
     4
 40
10.0
 49
1.0
 49
-2.0
 49
3.0
 49
-4.0
  0
LTYPE
  2
RAND2
 70
    64
  3
ランダム線2
 72
    65
 73
     4
 40
14.0
 49
2.0
 49
-3.0
 49
4.0
 49
-5.0
  0
LTYPE
  2
RAND3
 70
    64
  3
ランダム線3
 72
    65
 73
     4
 40
18.0
 49
3.0
 49
-4.0
 49
5.0
 49
-6.0
  0
LTYPE
  2
RAND4
 70
    64
  3
ランダム線4
 72
    65
 73
     4
 40
22.0
 49
4.0
 49
-5.0
 49
6.0
 49
-7.0
  0
LTYPE
  2
RAND5
 70
    64
  3
ランダム線5
 72
    65
 73
     4
 40
26.0
 49
5.0
 49
-6.0
 49
7.0
 49
-8.0
  0
LTYPE
  2
LONG1
 70
    64
  3
----------  --  ----------  --  
 72
    65
 73
     4
 40
40.0
 49
32.5
 49
-2.5
 49
2.5
 49
-2.5
  0
LTYPE
  2
LONG2
 70
    64
  3
--------  -  -  --------  -  -  
 72
    65
 73
     6
 40
40.0
 49
30.0
 49
-2.5
 49
1.25
 49
-2.5
 49
1.25
 49
-2.5
  0
LTYPE
  2
LONG3
 70
    64
  3
+++++++++++++++..+++++++++++++++
 72
    65
 73
     2
 40
40.0
 49
37.5
 49
-2.5
  0
LTYPE
  2
LONG4
 70
    64
  3
+++++++++++++++..+++++++++++++++
 72
    65
 73
     2
 40
80.0
 49
75.0
 49
-5.0
  0
LTYPE
  2
LONG5
 70
    64
  3
----------  --  ----------  --  
 72
    65
 73
     4
 40
60.0
 49
37.5
 49
-7.5
 49
7.5
 49
-7.5
  0
LTYPE
  2
dashed
 70
   64
  3
-------   -------------   ------
 72
   65
 73
    2
 40
7.5
 49
6
 49
-1.5
  0
LTYPE
  2
dashed_spaced
 70
   64
  3
----        --------        ----
 72
   65
 73
    2
 40
12
 49
6
 49
-6
  0
LTYPE
  2
long_dashed_dotted
 70
   64
  3
------------- --- --------------
 72
   65
 73
    4
 40
15.25
 49
12
 49
-1.5
 49
0.25
 49
-1.5
  0
LTYPE
  2
long_dashed_double-dotted
 70
   64
  3
----------- --- --- ------------
 72
   65
 73
    6
 40
17
 49
12
 49
-1.5
 49
0.25
 49
-1.5
 49
0.25
 49
-1.5
  0
LTYPE
  2
long_dashed_triplicate-dotted
 70
   64
  3
--------- --- --- --- ----------
 72
   65
 73
    8
 40
18.75
 49
12
 49
-1.5
 49
0.25
 49
-1.5
 49
0.25
 49
-1.5
 49
0.25
 49
-1.5
  0
LTYPE
  2
dotted
 70
   64
  3
   -       -       -       -    
 72
   65
 73
    2
 40
1.75
 49
0.25
 49
-1.5
  0
LTYPE
  2
chain
 70
   64
  3
-------------- -- --------------
 72
   65
 73
    4
 40
18.5
 49
12
 49
-1.5
 49
3.5
 49
-1.5
  0
LTYPE
  2
chain_double_dash
 70
   64
  3
------------ -- -- -------------
 72
   65
 73
    6
 40
23.5
 49
12
 49
-1.5
 49
3.5
 49
-1.5
 49
3.5
 49
-1.5
  0
LTYPE
  2
dashed_dotted
 70
   64
  3
-----------     -     ----------
 72
   65
 73
    4
 40
9.25
 49
6
 49
-1.5
 49
0.25
 49
-1.5
  0
LTYPE
  2
double-dashed_dotted
 70
   64
  3
------   -----------   -   -----
 72
   65
 73
    6
 40
16.75
 49
6
 49
-1.5
 49
6
 49
-1.5
 49
0.25
 49
-1.5
  0
LTYPE
  2
dashed_double-dotted
 70
   64
  3
---------    -    -    ---------
 72
   65
 73
    6
 40
11
 49
6
 49
-1.5
 49
0.25
 49
-1.5
 49
0.25
 49
-1.5
  0
LTYPE
  2
double-dashed_double-dotted
 70
   64
  3
-----   ---------   -   -   ----
 72
   65
 73
    8
 40
18.5
 49
6
 49
-1.5
 49
6
 49
-1.5
 49
0.25
 49
-1.5
 49
0.25
 49
-1.5
  0
LTYPE
  2
dashed_triplicate-dotted
 70
   64
  3
-------    -    -    -    ------
 72
   65
 73
    8
 40
12.75
 49
6
 49
-1.5
 49
0.25
 49
-1.5
 49
0.25
 49
-1.5
 49
0.25
 49
-1.5
  0
LTYPE
  2
double-dashed_triplicate-dotted
 70
   64
  3
-----  ---------  -  -  -  -----
 72
   65
 73
   10
 40
20.25
 49
6
 49
-1.5
 49
6
 49
-1.5
 49
0.25
 49
-1.5
 49
0.25
 49
-1.5
 49
0.25
 49
-1.5
  0
LTYPE
  2
undefined
 70
   64
  3
--------------------------------
 72
   65
 73
    0
 40
0
  0
ENDTAB
  0
TABLE
  2
STYLE
  5
3
100
AcDbSymbolTable
 70
     1
  0
STYLE
  5
10
100
AcDbSymbolTableRecord
100
AcDbTextStyleTableRecord
  2
STANDARD
 70
     0
 40
0.0
 41
1.0
 50
0.0
 71
     0
 42
0.2
  3
txt
  4
bigfont.shx
  0
STYLE
  5
26
100
AcDbSymbolTableRecord
100
AcDbTextStyleTableRecord
  2
TATEGAKI
 70
    68
 40
0.0
 41
1.0
 50
0.0
 71
     0
 42
1.0
  3
txt
  4
bigfont.shx
  0
ENDTAB
  0
TABLE
  2
LAYER
 70
    3
  0
LAYER
  2
_0-0_LAYER001
 70
   64
 62
    7
  6
CONTINUOUS
  0
LAYER
  2
_0-1_ADD_LINE
 70
   64
 62
    7
  6
CONTINUOUS
  0
LAYER
  2
ADD_LINE
 70
   64
 62
    7
  6
CONTINUOUS
  0
ENDTAB
  0
ENDSEC
  0
SECTION
  2
BLOCKS
  0
ENDSEC
  0
SECTION
  2
ENTITIES
  0
LINE
  8
_0-0_LAYER001
  6
CONTINUOUS
 62
    2
 10
1052.7733000000001
 20
890.29420000000005
 11
1112.7733000000001
 21
890.29420000000005
  0
LINE
  8
_0-0_LAYER001
  6
CONTINUOUS
 62
    2
 10
1112.7733000000001
 20
890.29420000000005
 11
1112.7733000000001
 21
950.29420000000005
  0
LINE
  8
_0-0_LAYER001
  6
CONTINUOUS
 62
    2
 10
1112.7733000000001
 20
950.29420000000005
 11
1052.7733000000001
 21
950.29420000000005
  0
LINE
  8
_0-0_LAYER001
  6
CONTINUOUS
 62
    2
 10
1052.7733000000001
 20
950.29420000000005
 11
1052.7733000000001
 21
890.29420000000005
  0
LINE
  8
_0-0_LAYER001
  6
CONTINUOUS
 62
    2
 10
1112.7733000000001
 20
950.29420000000005
 11
1052.7733000000001
 21
890.29420000000005
  0
LINE
  8
_0-0_LAYER001
  6
CONTINUOUS
 62
    2
 10
1354.7732999999998
 20
890.29420000000005
 11
1414.7732999999998
 21
890.29420000000005
  0
LINE
  8
_0-0_LAYER001
  6
CONTINUOUS
 62
    2
 10
1414.7732999999998
 20
890.29420000000005
 11
1414.7732999999998
 21
950.29420000000005
  0
LINE
  8
_0-0_LAYER001
  6
CONTINUOUS
 62
    2
 10
1414.7732999999998
 20
950.29420000000005
 11
1354.7732999999998
 21
950.29420000000005
  0
LINE
  8
_0-0_LAYER001
  6
CONTINUOUS
 62
    2
 10
1354.7732999999998
 20
950.29420000000005
 11
1354.7732999999998
 21
890.29420000000005
  0
LINE
  8
_0-0_LAYER001
  6
CONTINUOUS
 62
    2
 10
1414.7732999999998
 20
950.29420000000005
 11
1354.7732999999998
 21
890.29420000000005
  0
LINE
  8
_0-0_LAYER001
  6
CONTINUOUS
 62
    2
 10
1656.7732999999998
 20
890.29420000000005
 11
1716.7732999999998
 21
890.29420000000005
  0
LINE
  8
_0-0_LAYER001
  6
CONTINUOUS
 62
    2
 10
1716.7732999999998
 20
890.29420000000005
 11
1716.7732999999998
 21
950.29420000000005
  0
LINE
  8
_0-0_LAYER001
  6
CONTINUOUS
 62
    2
 10
1716.7732999999998
 20
950.29420000000005
 11
1656.7732999999998
 21
950.29420000000005
  0
LINE
  8
_0-0_LAYER001
  6
CONTINUOUS
 62
    2
 10
1656.7732999999998
 20
950.29420000000005
 11
1656.7732999999998
 21
890.29420000000005
  0
LINE
  8
_0-0_LAYER001
  6
CONTINUOUS
 62
    2
 10
1716.7732999999998
 20
950.29420000000005
 11
1656.7732999999998
 21
890.29420000000005
  0
LINE
  8
_0-0_LAYER001
  6
CONTINUOUS
 62
    2
 10
1958.7732999999998
 20
890.29420000000005
 11
2018.7732999999998
 21
890.29420000000005
  0
LINE
  8
_0-0_LAYER001
  6
CONTINUOUS
 62
    2
 10
2018.7732999999998
 20
890.29420000000005
 11
2018.7732999999998
 21
950.29420000000005
  0
LINE
  8
_0-0_LAYER001
  6
CONTINUOUS
 62
    2
 10
2018.7732999999998
 20
950.29420000000005
 11
1958.7732999999998
 21
950.29420000000005
  0
LINE
  8
_0-0_LAYER001
  6
CONTINUOUS
 62
    2
 10
1958.7732999999998
 20
950.29420000000005
 11
1958.7732999999998
 21
890.29420000000005
  0
LINE
  8
_0-0_LAYER001
  6
CONTINUOUS
 62
    2
 10
2018.7732999999998
 20
950.29420000000005
 11
1958.7732999999998
 21
890.29420000000005
  0
LINE
  8
_0-0_LAYER001
  6
CONTINUOUS
 62
    2
 10
1164.325
 20
980.29420000000005
 11
1164.325
 21
965.29420000000005
  0
LINE
  8
_0-0_LAYER001
  6
CONTINUOUS
 62
    2
 10
1159.325
 20
965.29420000000005
 11
1070.2938999999999
 21
965.29420000000005
  0
LINE
  8
_0-0_LAYER001
  6
CONTINUOUS
 62
    2
 10
1052.7733000000001
 20
950.29420000000005
 11
2146.6804999999999
 21
950.29420000000005
  0
LINE
  8
_0-0_LAYER001
  6
CONTINUOUS
 62
    2
 10
1052.7733000000001
 20
890.29420000000005
 11
2146.6804999999999
 21
890.29420000000005
  0
LINE
  8
_0-0_LAYER001
  6
CONTINUOUS
 62
    2
 10
1052.7733000000001
 20
962.29420000000005
 11
2146.6804999999999
 21
962.29420000000005
  0
LINE
  8
_0-0_LAYER001
  6
DASHED3
 62
    2
 10
1053.2733000000001
 20
963.79420000000005
 11
2146.6804999999999
 21
963.79420000000005
  0
LINE
  8
_0-0_LAYER001
  6
CONTINUOUS
 62
    2
 10
1164.325
 20
980.29420000000005
 11
2146.6804999999999
 21
980.29420000000005
  0
LINE
  8
_0-0_LAYER001
  6
CONTINUOUS
 62
    2
 10
1164.325
 20
965.29420000000005
 11
2146.6804999999999
 21
965.29420000000005
  0
LINE
  8
_0-0_LAYER001
  6
CONTINUOUS
 62
    1
 10
1069.325
 20
1025.3497
 11
1054.325
 21
965.34969999999998
  0
LINE
  8
_0-0_LAYER001
  6
DASHED3
 62
    2
 10
1053.2733000000001
 20
963.79420000000005
 11
1053.2733000000001
 21
1262.2942
  0
LINE
  8
_0-0_LAYER001
  6
CONTINUOUS
 62
    2
 10
845.4543000000001
 20
962.29420000000005
 11
897.9543000000001
 21
962.29420000000005
  0
CIRCLE
  8
_0-0_LAYER001
  6
CONTINUOUS
 62
    2
 10
847.9543000000001
 20
962.29420000000005
 40
1.6999999999999997
  0
LINE
  8
_0-0_LAYER001
  6
CONTINUOUS
 62
    2
 10
847.9543000000001
 20
962.29420000000005
 11
847.9543000000001
 21
1262.2942
  0
CIRCLE
  8
_0-0_LAYER001
  6
CONTINUOUS
 62
    2
 10
847.9543000000001
 20
1262.2942
 40
1.6999999999999997
  0
LINE
  8
_0-0_LAYER001
  6
CONTINUOUS
 62
    2
 10
845.4543000000001
 20
1262.2942
 11
897.9543000000001
 21
1262.2942
  0
LINE
  8
_0-0_LAYER001
  6
CONTINUOUS
 62
    3
 10
1051.7733000000001
 20
1323.6582000000001
 11
1051.7733000000001
 21
736.5329999999999
  0
LINE
  8
_0-0_LAYER001
  6
CONTINUOUS
 62
    2
 10
1648.9299999999998
 20
1017.8047999999999
 11
1645.1799999999998
 21
1011.3096
  0
LINE
  8
_0-0_LAYER001
  6
CONTINUOUS
 62
    2
 10
1645.1799999999998
 20
1011.3096
 11
1645.1799999999998
 21
1018.8096
  0
LINE
  8
_0-0_LAYER001
  6
CONTINUOUS
 62
    2
 10
1645.1799999999998
 20
1011.3096
 11
1679.1351
 21
1138.0319999999999
  0
LINE
  8
_0-0_LAYER001
  6
CONTINUOUS
 62
    2
 10
1679.1351
 20
1138.0319999999999
 11
1719.6351
 21
1138.0319999999999
  0
LINE
  8
_0-0_LAYER001
  6
CONTINUOUS
 62
    2
 10
1111.8444999999999
 20
959.47990000000004
 11
1111.8444999999999
 21
966.97990000000004
  0
LINE
  8
_0-0_LAYER001
  6
CONTINUOUS
 62
    2
 10
1111.8444999999999
 20
966.97990000000004
 11
1115.5944999999999
 21
960.48469999999998
  0
LINE
  8
_0-0_LAYER001
  6
CONTINUOUS
 62
    2
 10
1111.8444999999999
 20
966.97990000000004
 11
1163.1352999999999
 21
775.55989999999997
  0
LINE
  8
_0-0_LAYER001
  6
CONTINUOUS
 62
    2
 10
1163.1352999999999
 20
775.55989999999997
 11
1380.6352999999999
 21
775.55989999999997
  0
LINE
  8
_0-0_LAYER001
  6
CONTINUOUS
 62
    2
 10
1057.6488999999999
 20
979.01389999999992
 11
1061.3988999999999
 21
985.50909999999999
  0
LINE
  8
_0-0_LAYER001
  6
CONTINUOUS
 62
    2
 10
1061.3988999999999
 20
985.50909999999999
 11
1061.3988999999999
 21
978.00909999999999
  0
LINE
  8
_0-0_LAYER001
  6
CONTINUOUS
 62
    2
 10
1061.3988999999999
 20
985.50909999999999
 11
1017.3306
 21
821.0440000000001
  0
LINE
  8
_0-0_LAYER001
  6
CONTINUOUS
 62
    2
 10
1017.3306
 20
821.0440000000001
 11
870.3306
 21
821.0440000000001
  0
LINE
  8
_0-0_LAYER001
  6
CONTINUOUS
 62
    2
 10
1069.325
 20
839.9677999999999
 11
1069.325
 21
867.4677999999999
  0
CIRCLE
  8
_0-0_LAYER001
  6
CONTINUOUS
 62
    2
 10
1069.325
 20
842.4677999999999
 40
1.6999999999999997
  0
LINE
  8
_0-0_LAYER001
  6
CONTINUOUS
 62
    2
 10
1069.325
 20
842.4677999999999
 11
1159.325
 21
842.4677999999999
  0
CIRCLE
  8
_0-0_LAYER001
  6
CONTINUOUS
 62
    2
 10
1159.325
 20
842.4677999999999
 40
1.6999999999999997
  0
LINE
  8
_0-0_LAYER001
  6
CONTINUOUS
 62
    2
 10
1159.325
 20
839.9677999999999
 11
1159.325
 21
867.4677999999999
  0
LINE
  8
_0-0_LAYER001
  6
CONTINUOUS
 62
    2
 10
1054.325
 20
965.34969999999998
 11
1069.325
 21
965.34969999999998
  0
LINE
  8
_0-0_LAYER001
  6
CONTINUOUS
 62
    2
 10
1069.325
 20
965.34969999999998
 11
1069.325
 21
1027.2942
  0
LINE
  8
_0-0_LAYER001
  6
CONTINUOUS
 62
    2
 10
1054.325
 20
1027.2942
 11
1054.325
 21
965.34969999999998
  0
LINE
  8
_0-0_LAYER001
  6
CONTINUOUS
 62
    2
 10
1069.325
 20
1027.2942
 11
1054.325
 21
1027.2942
  0
LINE
  8
_0-0_LAYER001
  6
CONTINUOUS
 62
    2
 10
1070.2938999999999
 20
965.29420000000005
 11
1070.2938999999999
 21
1035.3152
  0
LINE
  8
_0-0_LAYER001
  6
CONTINUOUS
 62
    2
 10
992.19589999999994
 20
962.29420000000005
 11
1019.6958999999999
 21
962.29420000000005
  0
CIRCLE
  8
_0-0_LAYER001
  6
CONTINUOUS
 62
    2
 10
994.69589999999994
 20
962.29420000000005
 40
1.6999999999999997
  0
LINE
  8
_0-0_LAYER001
  6
CONTINUOUS
 62
    2
 10
994.69589999999994
 20
962.29420000000005
 11
994.69589999999994
 21
1027.0342000000001
  0
CIRCLE
  8
_0-0_LAYER001
  6
CONTINUOUS
 62
    2
 10
994.69589999999994
 20
1027.0342000000001
 40
1.6999999999999997
  0
LINE
  8
_0-0_LAYER001
  6
CONTINUOUS
 62
    2
 10
992.19589999999994
 20
1027.0342000000001
 11
1019.6958999999999
 21
1027.0342000000001
  0
LINE
  8
_0-0_LAYER001
  6
CONTINUOUS
 62
    2
 10
1054.7733000000001
 20
1101.0289
 11
1054.7733000000001
 21
1251.0289
  0
LINE
  8
_0-0_LAYER001
  6
CONTINUOUS
 62
    2
 10
1156.8688
 20
1059.4852000000001
 11
1150.9873
 21
1065.6117999999999
  0
LINE
  8
_0-0_LAYER001
  6
CONTINUOUS
 62
    2
 10
1152.1657
 20
1083.856
 11
1156.8688
 21
1059.4852000000001
  0
LINE
  8
_0-0_LAYER001
  6
CONTINUOUS
 62
    2
 10
1140.4059999999999
 20
1068.6673000000001
 11
1051.7733000000001
 21
1084.2956999999999
  0
LINE
  8
_0-0_LAYER001
  6
CONTINUOUS
 62
    2
 10
1143.0107
 20
1083.4394
 11
1054.3779999999999
 21
1099.0678
  0
LINE
  8
_0-0_LAYER001
  6
CONTINUOUS
 62
    2
 10
1143.0107
 20
1083.4394
 11
1140.4059999999999
 21
1068.6673000000001
  0
LINE
  8
_0-0_LAYER001
  6
CONTINUOUS
 62
    2
 10
1054.3779999999999
 20
1099.0678
 11
1051.7733000000001
 21
1084.2956999999999
  0
LINE
  8
_0-0_LAYER001
  6
CONTINUOUS
 62
    2
 10
1051.7733000000001
 20
1084.2956999999999
 11
1143.0107
 21
1083.4394
  0
LINE
  8
_0-0_LAYER001
  6
DASHED1
 62
    2
 10
1003.7733000000001
 20
1064.2956999999999
 11
1008.7734
 21
1067.2956999999999
  0
LINE
  8
_0-0_LAYER001
  6
DASHED1
 62
    2
 10
1008.7734
 20
1061.2958000000001
 11
1003.7733000000001
 21
1064.2956999999999
  0
LINE
  8
_0-0_LAYER001
  6
CONTINUOUS
 62
    2
 10
1075.7734
 20
1061.2958000000001
 11
1075.7734
 21
1067.2956999999999
  0
LINE
  8
_0-0_LAYER001
  6
CONTINUOUS
 62
    2
 10
1081.7733000000001
 20
1058.2955999999999
 11
1081.7733000000001
 21
1070.2958000000001
  0
LINE
  8
_0-0_LAYER001
  6
CONTINUOUS
 62
    2
 10
1072.8864000000001
 20
1061.2958000000001
 11
1069.4232999999999
 21
1067.2956999999999
  0
LINE
  8
_0-0_LAYER001
  6
CONTINUOUS
 62
    2
 10
1081.7733000000001
 20
1058.2955999999999
 11
1075.7734
 21
1061.2958000000001
  0
LINE
  8
_0-0_LAYER001
  6
CONTINUOUS
 62
    2
 10
1075.7734
 20
1067.2956999999999
 11
1081.7733000000001
 21
1070.2958000000001
  0
LINE
  8
_0-0_LAYER001
  6
DASHED1
 62
    2
 10
1008.7734
 20
1067.2956999999999
 11
1051.7733000000001
 21
1067.2956999999999
  0
LINE
  8
_0-0_LAYER001
  6
DASHED1
 62
    2
 10
1008.7734
 20
1061.2958000000001
 11
1051.7733000000001
 21
1061.2958000000001
  0
LINE
  8
_0-0_LAYER001
  6
CONTINUOUS
 62
    2
 10
1051.7733000000001
 20
1060.0456999999999
 11
1051.7733000000001
 21
1068.5456999999999
  0
LINE
  8
_0-0_LAYER001
  6
CONTINUOUS
 62
    2
 10
1081.7733000000001
 20
1044.2956999999999
 11
1051.7733000000001
 21
1044.2956999999999
  0
LINE
  8
_0-0_LAYER001
  6
CONTINUOUS
 62
    2
 10
1051.7733000000001
 20
1067.2956999999999
 11
1075.7734
 21
1067.2956999999999
  0
LINE
  8
_0-0_LAYER001
  6
CONTINUOUS
 62
    2
 10
1051.7733000000001
 20
1061.2958000000001
 11
1075.7734
 21
1061.2958000000001
  0
LINE
  8
_0-0_LAYER001
  6
CONTINUOUS
 62
    2
 10
1067.1632
 20
1061.2958000000001
 11
1063.7002
 21
1067.2956999999999
  0
LINE
  8
_0-0_LAYER001
  6
CONTINUOUS
 62
    2
 10
1061.4401
 20
1061.2958000000001
 11
1057.9770000000001
 21
1067.2956999999999
  0
LINE
  8
_0-0_LAYER001
  6
CONTINUOUS
 62
    2
 10
1055.7170000000001
 20
1061.2958000000001
 11
1052.2538999999999
 21
1067.2956999999999
  0
LINE
  8
_0-0_LAYER001
  6
CONTINUOUS
 62
    2
 10
1081.7733000000001
 20
1044.2956999999999
 11
1081.7733000000001
 21
1079.0059000000001
  0
LINE
  8
_0-0_LAYER001
  6
CONTINUOUS
 62
    2
 10
1051.7733000000001
 20
1044.2956999999999
 11
1078.2692999999999
 21
1079.6238000000001
  0
LINE
  8
_0-0_LAYER001
  6
CONTINUOUS
 62
    2
 10
1152.1657
 20
1083.856
 11
1054.7733000000001
 21
1101.0289
  0
LINE
  8
_0-0_LAYER001
  6
CONTINUOUS
 62
    2
 10
1072.5952
 20
1095.8556000000001
 11
1063.8257000000001
 21
1097.4019000000001
  0
LINE
  8
_0-0_LAYER001
  6
CONTINUOUS
 62
    2
 10
1065.0695000000001
 20
1068.1437000000001
 11
1061.6278
 21
1059.9047
  0
LINE
  8
_0-0_LAYER001
  6
CONTINUOUS
 62
    2
 10
1066.1093000000001
 20
1095.3793000000001
 11
1061.4194
 21
1068.7873999999999
  0
LINE
  8
_0-0_LAYER001
  6
CONTINUOUS
 62
    2
 10
1061.6278
 20
1059.9047
 11
1061.4194
 21
1068.7873999999999
  0
LINE
  8
_0-0_LAYER001
  6
CONTINUOUS
 62
    2
 10
1069.7592
 20
1094.7370000000001
 11
1072.5952
 21
1095.8556000000001
  0
LINE
  8
_0-0_LAYER001
  6
CONTINUOUS
 62
    2
 10
1066.1093000000001
 20
1095.3793000000001
 11
1063.8257000000001
 21
1097.4019000000001
  0
LINE
  8
_0-0_LAYER001
  6
CONTINUOUS
 62
    2
 10
1069.7592
 20
1094.7370000000001
 11
1065.0695000000001
 21
1068.1437000000001
  0
LINE
  8
_0-0_LAYER001
  6
CONTINUOUS
 62
    2
 10
1056.3888999999999
 20
1194.5035
 11
1076.3888999999999
 21
1194.5035
  0
LINE
  8
_0-0_LAYER001
  6
CONTINUOUS
 62
    2
 10
1076.3888999999999
 20
1194.5035
 11
1076.3888999999999
 21
1154.5025000000001
  0
LINE
  8
_0-0_LAYER001
  6
CONTINUOUS
 62
    2
 10
1076.3888999999999
 20
1154.5025000000001
 11
1056.3888999999999
 21
1154.5025000000001
  0
LINE
  8
_0-0_LAYER001
  6
CONTINUOUS
 62
    2
 10
1056.3888999999999
 20
1154.5025000000001
 11
1056.3888999999999
 21
1194.5035
  0
LINE
  8
_0-0_LAYER001
  6
CONTINUOUS
 62
    2
 10
1056.3888999999999
 20
1194.5035
 11
1076.3888999999999
 21
1154.5025000000001
  0
LINE
  8
_0-0_LAYER001
  6
CONTINUOUS
 62
    2
 10
1111.5284999999999
 20
1098.4829999999999
 11
1107.7784999999999
 21
1091.9878000000001
  0
LINE
  8
_0-0_LAYER001
  6
CONTINUOUS
 62
    2
 10
1107.7784999999999
 20
1091.9878000000001
 11
1107.7784999999999
 21
1099.4878000000001
  0
LINE
  8
_0-0_LAYER001
  6
CONTINUOUS
 62
    2
 10
1107.7784999999999
 20
1091.9878000000001
 11
1145.1565000000001
 21
1231.4843000000001
  0
LINE
  8
_0-0_LAYER001
  6
CONTINUOUS
 62
    2
 10
1145.1565000000001
 20
1231.4843000000001
 11
1379.1565000000001
 21
1231.4843000000001
  0
LINE
  8
_0-0_LAYER001
  6
CONTINUOUS
 62
    2
 10
1063.9218000000001
 20
1188.2592
 11
1065.8630000000001
 21
1181.0146999999999
  0
LINE
  8
_0-0_LAYER001
  6
CONTINUOUS
 62
    2
 10
1065.8630000000001
 20
1181.0146999999999
 11
1060.5597
 21
1186.318
  0
LINE
  8
_0-0_LAYER001
  6
CONTINUOUS
 62
    2
 10
1065.8630000000001
 20
1181.0146999999999
 11
1032.3033
 21
1239.1416999999999
  0
LINE
  8
_0-0_LAYER001
  6
CONTINUOUS
 62
    2
 10
1032.3033
 20
1239.1416999999999
 11
991.80330000000004
 21
1239.1416999999999
  0
LINE
  8
_0-0_LAYER001
  6
CONTINUOUS
 62
    2
 10
936.3125
 20
1098.9211
 11
988.8125
 21
1098.9211
  0
CIRCLE
  8
_0-0_LAYER001
  6
CONTINUOUS
 62
    2
 10
938.8125
 20
1098.9211
 40
1.6999999999999997
  0
LINE
  8
_0-0_LAYER001
  6
CONTINUOUS
 62
    2
 10
938.8125
 20
1098.9211
 11
938.8125
 21
1248.9211
  0
CIRCLE
  8
_0-0_LAYER001
  6
CONTINUOUS
 62
    2
 10
938.8125
 20
1248.9211
 40
1.6999999999999997
  0
LINE
  8
_0-0_LAYER001
  6
CONTINUOUS
 62
    2
 10
936.3125
 20
1248.9211
 11
988.8125
 21
1248.9211
  0
LINE
  8
_0-0_LAYER001
  6
CONTINUOUS
 62
    2
 10
1076.3888999999999
 20
1391.3787
 11
1076.3888999999999
 21
1106.9595999999999
  0
LINE
  8
_0-0_LAYER001
  6
CONTINUOUS
 62
    2
 10
1088.3888999999999
 20
1106.9595999999999
 11
1088.3888999999999
 21
1391.3787
  0
LINE
  8
_0-0_LAYER001
  6
CONTINUOUS
 62
    2
 10
1076.3888999999999
 20
1106.9595999999999
 11
1088.3888999999999
 21
1106.9595999999999
  0
LINE
  8
_0-0_LAYER001
  6
CONTINUOUS
 62
    2
 10
1086.8978999999999
 20
1325.6576
 11
1083.1478999999999
 21
1319.1624999999999
  0
LINE
  8
_0-0_LAYER001
  6
CONTINUOUS
 62
    2
 10
1083.1478999999999
 20
1319.1624999999999
 11
1083.1478999999999
 21
1326.6624999999999
  0
LINE
  8
_0-0_LAYER001
  6
CONTINUOUS
 62
    2
 10
1083.1478999999999
 20
1319.1624999999999
 11
1105.4033999999999
 21
1402.2212999999999
  0
LINE
  8
_0-0_LAYER001
  6
CONTINUOUS
 62
    2
 10
1105.4033999999999
 20
1402.2212999999999
 11
1277.9033999999999
 21
1402.2212999999999
  0
LINE
  8
_0-0_LAYER001
  6
CONTINUOUS
 62
    2
 10
1134.3408999999999
 20
1085.2002
 11
1130.5908999999999
 21
1078.7049999999999
  0
LINE
  8
_0-0_LAYER001
  6
CONTINUOUS
 62
    2
 10
1130.5908999999999
 20
1078.7049999999999
 11
1130.5908999999999
 21
1086.2049999999999
  0
LINE
  8
_0-0_LAYER001
  6
CONTINUOUS
 62
    2
 10
1130.5908999999999
 20
1078.7049999999999
 11
1157.3527999999999
 21
1178.5818999999999
  0
LINE
  8
_0-0_LAYER001
  6
CONTINUOUS
 62
    2
 10
1157.3527999999999
 20
1178.5818999999999
 11
1277.3527999999999
 21
1178.5818999999999
  0
LINE
  8
_0-0_LAYER001
  6
CONTINUOUS
 62
    2
 10
1070.2938999999999
 20
1035.3152
 11
1072.9567999999999
 21
1028.8049000000001
  0
LINE
  8
_0-0_LAYER001
  6
DASHED1
 62
    1
 10
1225.654
 20
1006.7143000000001
 11
1241.654
 21
1006.7143000000001
  0
LINE
  8
_0-0_LAYER001
  6
DASHED1
 62
    1
 10
1241.654
 20
1006.7143000000001
 11
1241.654
 21
1003.7143000000001
  0
LINE
  8
_0-0_LAYER001
  6
DASHED1
 62
    1
 10
1225.654
 20
1006.7143000000001
 11
1225.654
 21
1003.7143000000001
  0
LINE
  8
_0-0_LAYER001
  6
DASHED1
 62
    1
 10
1225.654
 20
1003.7143000000001
 11
1241.654
 21
1003.7143000000001
  0
LINE
  8
_0-0_LAYER001
  6
DASHED1
 62
    1
 10
1236.654
 20
948.81819999999993
 11
1233.6039000000001
 21
934.30929999999989
  0
LINE
  8
_0-0_LAYER001
  6
DASHED1
 62
    1
 10
1236.654
 20
1003.7143000000001
 11
1236.654
 21
948.81819999999993
  0
LINE
  8
_0-0_LAYER001
  6
DASHED1
 62
    1
 10
1233.6039000000001
 20
934.30929999999989
 11
1230.654
 21
948.56680000000006
  0
LINE
  8
_0-0_LAYER001
  6
DASHED1
 62
    1
 10
1230.654
 20
1003.7143000000001
 11
1230.654
 21
948.56680000000006
  0
LINE
  8
_0-0_LAYER001
  6
CONTINUOUS
 62
    4
 10
1240.9519
 20
975.3608999999999
 11
1235.2887000000001
 21
984.79960000000005
  0
LINE
  8
_0-0_LAYER001
  6
DASHED1
 62
    1
 10
1486.8442
 20
1003.2547999999999
 11
1502.8442
 21
1003.2547999999999
  0
LINE
  8
_0-0_LAYER001
  6
DASHED1
 62
    1
 10
1502.8442
 20
1003.2547999999999
 11
1502.8442
 21
1000.2547999999999
  0
LINE
  8
_0-0_LAYER001
  6
DASHED1
 62
    1
 10
1486.8442
 20
1003.2547999999999
 11
1486.8442
 21
1000.2547999999999
  0
LINE
  8
_0-0_LAYER001
  6
DASHED1
 62
    1
 10
1486.8442
 20
1000.2547999999999
 11
1502.8442
 21
1000.2547999999999
  0
LINE
  8
_0-0_LAYER001
  6
DASHED1
 62
    1
 10
1497.8442
 20
945.3587
 11
1494.7939999999999
 21
930.84979999999996
  0
LINE
  8
_0-0_LAYER001
  6
DASHED1
 62
    1
 10
1497.8442
 20
1000.2547999999999
 11
1497.8442
 21
945.3587
  0
LINE
  8
_0-0_LAYER001
  6
DASHED1
 62
    1
 10
1494.7939999999999
 20
930.84979999999996
 11
1491.8442
 21
945.1072999999999
  0
LINE
  8
_0-0_LAYER001
  6
DASHED1
 62
    1
 10
1491.8442
 20
1000.2547999999999
 11
1491.8442
 21
945.1072999999999
  0
LINE
  8
_0-0_LAYER001
  6
DASHED1
 62
    1
 10
1746.3045999999999
 20
1004.9845
 11
1762.3045999999999
 21
1004.9845
  0
LINE
  8
_0-0_LAYER001
  6
DASHED1
 62
    1
 10
1762.3045999999999
 20
1004.9845
 11
1762.3045999999999
 21
1001.9845
  0
LINE
  8
_0-0_LAYER001
  6
DASHED1
 62
    1
 10
1746.3045999999999
 20
1004.9845
 11
1746.3045999999999
 21
1001.9845
  0
LINE
  8
_0-0_LAYER001
  6
DASHED1
 62
    1
 10
1746.3045999999999
 20
1001.9845
 11
1762.3045999999999
 21
1001.9845
  0
LINE
  8
_0-0_LAYER001
  6
DASHED1
 62
    1
 10
1757.3045999999999
 20
947.08850000000007
 11
1754.2543999999998
 21
932.57960000000003
  0
LINE
  8
_0-0_LAYER001
  6
DASHED1
 62
    1
 10
1757.3045999999999
 20
1001.9845
 11
1757.3045999999999
 21
947.08850000000007
  0
LINE
  8
_0-0_LAYER001
  6
DASHED1
 62
    1
 10
1754.2543999999998
 20
932.57960000000003
 11
1751.3045999999999
 21
946.83709999999996
  0
LINE
  8
_0-0_LAYER001
  6
DASHED1
 62
    1
 10
1751.3045999999999
 20
1001.9845
 11
1751.3045999999999
 21
946.83709999999996
  0
LINE
  8
_0-0_LAYER001
  6
DASHED1
 62
    1
 10
2002.3054999999999
 20
1004.9845
 11
2018.3054999999999
 21
1004.9845
  0
LINE
  8
_0-0_LAYER001
  6
DASHED1
 62
    1
 10
2018.3054999999999
 20
1004.9845
 11
2018.3054999999999
 21
1001.9845
  0
LINE
  8
_0-0_LAYER001
  6
DASHED1
 62
    1
 10
2002.3054999999999
 20
1004.9845
 11
2002.3054999999999
 21
1001.9845
  0
LINE
  8
_0-0_LAYER001
  6
DASHED1
 62
    1
 10
2002.3054999999999
 20
1001.9845
 11
2018.3054999999999
 21
1001.9845
  0
LINE
  8
_0-0_LAYER001
  6
DASHED1
 62
    1
 10
2013.3054999999999
 20
947.08850000000007
 11
2010.2552999999998
 21
932.57960000000003
  0
LINE
  8
_0-0_LAYER001
  6
DASHED1
 62
    1
 10
2013.3054999999999
 20
1001.9845
 11
2013.3054999999999
 21
947.08850000000007
  0
LINE
  8
_0-0_LAYER001
  6
DASHED1
 62
    1
 10
2010.2552999999998
 20
932.57960000000003
 11
2007.3054999999999
 21
946.83709999999996
  0
LINE
  8
_0-0_LAYER001
  6
DASHED1
 62
    1
 10
2007.3054999999999
 20
1001.9845
 11
2007.3054999999999
 21
946.83709999999996
  0
LINE
  8
_0-0_LAYER001
  6
CONTINUOUS
 62
    4
 10
2021.1223
 20
973.71599999999989
 11
2015.4591
 21
983.15460000000007
  0
LINE
  8
_0-0_LAYER001
  6
CONTINUOUS
 62
    4
 10
1762.2073999999998
 20
975.38640000000009
 11
1756.5441999999998
 21
984.82500000000005
  0
LINE
  8
_0-0_LAYER001
  6
CONTINUOUS
 62
    4
 10
1501.7779
 20
975.3608999999999
 11
1496.1147000000001
 21
984.79960000000005
  0
ARC
  8
_0-0_LAYER001
  6
CONTINUOUS
 62
    4
 10
2112.9308000000001
 20
1011.8281999999999
 40
69.214101999999997
 50
56.294509000000005
 51
163.33506
  0
ARC
  8
_0-0_LAYER001
  6
CONTINUOUS
 62
    4
 10
2112.5356999999999
 20
1013.3117
 40
50.327697999999998
 50
39.554400000000001
 51
173.62688
  0
ARC
  8
_0-0_LAYER001
  6
CONTINUOUS
 62
    4
 10
1974.4625999999998
 20
1212.3204000000001
 40
212.52318
 50
244.57801000000001
 51
294.47764000000006
  0
ARC
  8
_0-0_LAYER001
  6
CONTINUOUS
 62
    4
 10
1974.4625999999998
 20
1212.3204000000001
 40
214.52317999999997
 50
244.57801000000001
 51
294.78532999999999
  0
ARC
  8
_0-0_LAYER001
  6
CONTINUOUS
 62
    4
 10
2112.5356999999999
 20
1013.3117
 40
48.327697999999998
 50
88.109851000000006
 51
174.95909000000003
  0
LINE
  8
_0-0_LAYER001
  6
CONTINUOUS
 62
    4
 10
2114.1298000000002
 20
1061.6131
 11
2114.1298000000002
 21
1049.4839999999999
  0
LINE
  8
_0-0_LAYER001
  6
CONTINUOUS
 62
    4
 10
1942.1176999999998
 20
971.00569999999993
 11
1935.5506999999998
 21
983.15460000000007
  0
LINE
  8
_0-0_LAYER001
  6
CONTINUOUS
 62
    4
 10
1954.2438999999999
 20
970.67640000000006
 11
1959.674
 21
979.53610000000003
  0
ARC
  8
_0-0_LAYER001
  6
CONTINUOUS
 62
    4
 10
1948.2757000000001
 20
974.33429999999998
 40
7
 50
208.39301
 51
328.49572999999998
  0
LINE
  8
_0-0_LAYER001
  6
CONTINUOUS
 62
    4
 10
2033.6345000000001
 20
974.74379999999996
 11
2039.5823999999998
 21
989.78850000000011
  0
ARC
  8
_0-0_LAYER001
  6
CONTINUOUS
 62
    4
 10
2027.1246999999998
 20
977.31739999999991
 40
7
 50
210.96375
 51
338.42869000000002
  0
LINE
  8
_0-0_LAYER001
  6
CONTINUOUS
 62
    4
 10
2061.2755999999999
 20
981.6853000000001
 11
2054.3579
 21
993.40699999999993
  0
ARC
  8
_0-0_LAYER001
  6
CONTINUOUS
 62
    4
 10
2064.7204999999999
 20
983.7183
 40
4
 50
210.54757000000001
 51
342.13990000000001
  0
ARC
  8
_0-0_LAYER001
  6
CONTINUOUS
 62
    4
 10
1974.4625999999998
 20
1212.3204000000001
 40
194.52317999999997
 50
244.57801000000001
 51
291.77512000000002
  0
ARC
  8
_0-0_LAYER001
  6
CONTINUOUS
 62
    4
 10
1923.5187999999998
 20
1082.0474999999999
 40
73.645919000000006
 50
225.20483999999999
 51
236.85617999999999
  0
ARC
  8
_0-0_LAYER001
  6
CONTINUOUS
 62
    4
 10
1912.4261999999999
 20
1074.1422
 40
81.008393999999996
 50
226.46691000000004
 51
242.05489
  0
ARC
  8
_0-0_LAYER001
  6
CONTINUOUS
 62
    4
 10
1965.9486999999999
 20
1148.7470000000001
 40
154.70135999999999
 50
229.79871999999997
 51
237.31520999999998
  0
LINE
  8
_0-0_LAYER001
  6
CONTINUOUS
 62
    4
 10
1856.6298000000002
 20
1033.2421999999999
 11
1856.6298000000002
 21
1015.413
  0
ARC
  8
_0-0_LAYER001
  6
CONTINUOUS
 62
    4
 10
1860.6298000000002
 20
1033.2421999999999
 40
4
 50
90
 51
180
  0
LINE
  8
_0-0_LAYER001
  6
CONTINUOUS
 62
    4
 10
1862.0929000000001
 20
1037.2421999999999
 11
1860.6298000000002
 21
1037.2421999999999
  0
LINE
  8
_0-0_LAYER001
  6
CONTINUOUS
 62
    4
 10
1866.0929000000001
 20
1033.2421999999999
 11
1866.0929000000001
 21
1030.5889999999999
  0
ARC
  8
_0-0_LAYER001
  6
CONTINUOUS
 62
    4
 10
1862.0929000000001
 20
1033.2421999999999
 40
4
 50
0
 51
90
  0
LINE
  8
_0-0_LAYER001
  6
CONTINUOUS
 62
    4
 10
1871.6298000000002
 20
1032.6328000000001
 11
1871.6298000000002
 21
1029.7861
  0
LINE
  8
_0-0_LAYER001
  6
CONTINUOUS
 62
    4
 10
1875.6298000000002
 20
1036.6328000000001
 11
1890.9573999999998
 21
1036.6328000000001
  0
ARC
  8
_0-0_LAYER001
  6
CONTINUOUS
 62
    4
 10
1875.6298000000002
 20
1032.6328000000001
 40
4
 50
90
 51
180
  0
ARC
  8
_0-0_LAYER001
  6
CONTINUOUS
 62
    4
 10
1974.4625999999998
 20
1212.3204000000001
 40
232.52318
 50
244.57801000000001
 51
295.00637
  0
ARC
  8
_0-0_LAYER001
  6
CONTINUOUS
 62
    4
 10
2115.1288
 20
1009.2474999999999
 40
40.248902000000001
 50
91.422393999999997
 51
185.22383000000002
  0
ARC
  8
_0-0_LAYER001
  6
CONTINUOUS
 62
    4
 10
2071.0637000000002
 20
1005.2188000000001
 40
4
 50
295.00637
 51
5.2238350000000304
  0
LINE
  8
_0-0_LAYER001
  6
CONTINUOUS
 62
    4
 10
2072.6152999999999
 20
1001.0494000000001
 11
2068.7163999999998
 21
983.01700000000005
  0
ARC
  8
_0-0_LAYER001
  6
CONTINUOUS
 62
    4
 10
1854.0160000000001
 20
1013.4985999999999
 40
69.214101999999997
 50
13.791351000000001
 51
163.33506000000003
  0
ARC
  8
_0-0_LAYER001
  6
CONTINUOUS
 62
    4
 10
1853.6208999999999
 20
1014.9820999999999
 40
50.327697999999998
 50
23.01118
 51
173.62688000000003
  0
ARC
  8
_0-0_LAYER001
  6
CONTINUOUS
 62
    4
 10
1715.5477999999998
 20
1213.9908
 40
212.52318
 50
244.57801000000001
 51
294.47764000000006
  0
ARC
  8
_0-0_LAYER001
  6
CONTINUOUS
 62
    4
 10
1715.5477999999998
 20
1213.9908
 40
214.52317999999997
 50
244.57801000000001
 51
294.78532999999999
  0
ARC
  8
_0-0_LAYER001
  6
CONTINUOUS
 62
    4
 10
1853.6208999999999
 20
1014.9820999999999
 40
48.327697999999998
 50
88.109851000000006
 51
174.95909000000003
  0
LINE
  8
_0-0_LAYER001
  6
CONTINUOUS
 62
    4
 10
1855.2148999999999
 20
1063.2835
 11
1855.2148999999999
 21
1051.1545000000001
  0
LINE
  8
_0-0_LAYER001
  6
CONTINUOUS
 62
    4
 10
1921.2347
 20
1029.9983999999999
 11
1899.9439000000002
 21
1034.6557
  0
LINE
  8
_0-0_LAYER001
  6
CONTINUOUS
 62
    4
 10
1683.2028
 20
972.67609999999991
 11
1676.6359000000002
 21
984.82500000000005
  0
LINE
  8
_0-0_LAYER001
  6
CONTINUOUS
 62
    4
 10
1695.3290000000002
 20
972.34680000000003
 11
1700.7592
 21
981.20659999999998
  0
ARC
  8
_0-0_LAYER001
  6
CONTINUOUS
 62
    4
 10
1689.3607999999999
 20
976.00479999999993
 40
7
 50
208.39301
 51
328.49572999999998
  0
LINE
  8
_0-0_LAYER001
  6
CONTINUOUS
 62
    4
 10
1774.7195999999999
 20
976.41419999999994
 11
1780.6675
 21
991.45890000000009
  0
ARC
  8
_0-0_LAYER001
  6
CONTINUOUS
 62
    4
 10
1768.2098999999998
 20
978.98790000000008
 40
7
 50
210.96375
 51
338.42869000000002
  0
LINE
  8
_0-0_LAYER001
  6
CONTINUOUS
 62
    4
 10
1802.3607999999999
 20
983.35570000000007
 11
1795.4430000000002
 21
995.0773999999999
  0
ARC
  8
_0-0_LAYER001
  6
CONTINUOUS
 62
    4
 10
1805.8056000000001
 20
985.38869999999997
 40
4
 50
210.54757000000001
 51
342.13990000000001
  0
ARC
  8
_0-0_LAYER001
  6
CONTINUOUS
 62
    4
 10
1715.5477999999998
 20
1213.9908
 40
194.52317999999997
 50
244.57801000000001
 51
291.77512000000002
  0
ARC
  8
_0-0_LAYER001
  6
CONTINUOUS
 62
    4
 10
1664.6039000000001
 20
1083.7179000000001
 40
73.645919000000006
 50
225.20483999999999
 51
236.85617999999999
  0
ARC
  8
_0-0_LAYER001
  6
CONTINUOUS
 62
    4
 10
1653.5113000000001
 20
1075.8126999999999
 40
81.008393999999996
 50
226.46691000000004
 51
242.05489
  0
ARC
  8
_0-0_LAYER001
  6
CONTINUOUS
 62
    4
 10
1707.0338000000002
 20
1150.4174
 40
154.70135999999999
 50
229.79871999999997
 51
237.31520999999998
  0
LINE
  8
_0-0_LAYER001
  6
CONTINUOUS
 62
    4
 10
1597.7148999999999
 20
1034.9126000000001
 11
1597.7148999999999
 21
1017.0834
  0
ARC
  8
_0-0_LAYER001
  6
CONTINUOUS
 62
    4
 10
1601.7148999999999
 20
1034.9126000000001
 40
4
 50
90
 51
180
  0
LINE
  8
_0-0_LAYER001
  6
CONTINUOUS
 62
    4
 10
1603.1779999999999
 20
1038.9126000000001
 11
1601.7148999999999
 21
1038.9126000000001
  0
LINE
  8
_0-0_LAYER001
  6
CONTINUOUS
 62
    4
 10
1607.1779999999999
 20
1034.9126000000001
 11
1607.1779999999999
 21
1032.2593999999999
  0
ARC
  8
_0-0_LAYER001
  6
CONTINUOUS
 62
    4
 10
1603.1779999999999
 20
1034.9126000000001
 40
4
 50
0
 51
90
  0
LINE
  8
_0-0_LAYER001
  6
CONTINUOUS
 62
    4
 10
1612.7148999999999
 20
1034.3032000000001
 11
1612.7148999999999
 21
1031.4565
  0
LINE
  8
_0-0_LAYER001
  6
CONTINUOUS
 62
    4
 10
1616.7148999999999
 20
1038.3032000000001
 11
1632.0425
 21
1038.3032000000001
  0
ARC
  8
_0-0_LAYER001
  6
CONTINUOUS
 62
    4
 10
1616.7148999999999
 20
1034.3032000000001
 40
4
 50
90
 51
180
  0
ARC
  8
_0-0_LAYER001
  6
CONTINUOUS
 62
    4
 10
1715.5477999999998
 20
1213.9908
 40
232.52318
 50
244.57801000000001
 51
295.00637
  0
ARC
  8
_0-0_LAYER001
  6
CONTINUOUS
 62
    4
 10
1856.2139999999999
 20
1010.9179999999999
 40
40.248902000000001
 50
91.422393999999997
 51
185.22383000000002
  0
ARC
  8
_0-0_LAYER001
  6
CONTINUOUS
 62
    4
 10
1812.1489000000001
 20
1006.8892000000001
 40
4
 50
295.00637
 51
5.2238350000000304
  0
LINE
  8
_0-0_LAYER001
  6
CONTINUOUS
 62
    4
 10
1813.7004000000002
 20
1002.7198000000001
 11
1809.8015
 21
984.6875
  0
ARC
  8
_0-0_LAYER001
  6
CONTINUOUS
 62
    4
 10
1593.5864000000001
 20
1013.4731999999999
 40
69.214101999999997
 50
13.791351000000001
 51
163.33506000000003
  0
ARC
  8
_0-0_LAYER001
  6
CONTINUOUS
 62
    4
 10
1593.1913
 20
1014.9566
 40
50.327697999999998
 50
23.01118
 51
173.62688000000003
  0
ARC
  8
_0-0_LAYER001
  6
CONTINUOUS
 62
    4
 10
1455.1181999999999
 20
1213.9653000000001
 40
212.52318
 50
244.57801000000001
 51
294.47764000000006
  0
ARC
  8
_0-0_LAYER001
  6
CONTINUOUS
 62
    4
 10
1455.1181999999999
 20
1213.9653000000001
 40
214.52317999999997
 50
244.57801000000001
 51
294.78532999999999
  0
ARC
  8
_0-0_LAYER001
  6
CONTINUOUS
 62
    4
 10
1593.1913
 20
1014.9566
 40
48.327697999999998
 50
88.109851000000006
 51
174.95909000000003
  0
LINE
  8
_0-0_LAYER001
  6
CONTINUOUS
 62
    4
 10
1594.7853
 20
1063.258
 11
1594.7853
 21
1051.1289999999999
  0
LINE
  8
_0-0_LAYER001
  6
CONTINUOUS
 62
    4
 10
1660.8051
 20
1029.9729
 11
1639.5144
 21
1034.6302000000001
  0
LINE
  8
_0-0_LAYER001
  6
CONTINUOUS
 62
    4
 10
1422.7733000000001
 20
972.65069999999992
 11
1416.2063000000001
 21
984.79960000000005
  0
LINE
  8
_0-0_LAYER001
  6
CONTINUOUS
 62
    4
 10
1434.8993999999998
 20
972.32140000000004
 11
1440.3296
 21
981.18110000000001
  0
ARC
  8
_0-0_LAYER001
  6
CONTINUOUS
 62
    4
 10
1428.9312
 20
975.97929999999997
 40
7
 50
208.39301
 51
328.49572999999998
  0
LINE
  8
_0-0_LAYER001
  6
CONTINUOUS
 62
    4
 10
1514.29
 20
976.38879999999995
 11
1520.2379000000001
 21
991.43350000000009
  0
ARC
  8
_0-0_LAYER001
  6
CONTINUOUS
 62
    4
 10
1507.7802999999999
 20
978.96239999999989
 40
7
 50
210.96375
 51
338.42869000000002
  0
LINE
  8
_0-0_LAYER001
  6
CONTINUOUS
 62
    4
 10
1541.9312
 20
983.3302000000001
 11
1535.0135
 21
995.05199999999991
  0
ARC
  8
_0-0_LAYER001
  6
CONTINUOUS
 62
    4
 10
1545.3760000000002
 20
985.36320000000001
 40
4
 50
210.54757000000001
 51
342.13990000000001
  0
ARC
  8
_0-0_LAYER001
  6
CONTINUOUS
 62
    4
 10
1455.1181999999999
 20
1213.9653000000001
 40
194.52317999999997
 50
244.57801000000001
 51
291.77512000000002
  0
ARC
  8
_0-0_LAYER001
  6
CONTINUOUS
 62
    4
 10
1404.1742999999999
 20
1083.6923999999999
 40
73.645919000000006
 50
225.20483999999999
 51
236.85617999999999
  0
ARC
  8
_0-0_LAYER001
  6
CONTINUOUS
 62
    4
 10
1393.0817999999999
 20
1075.7872
 40
81.008393999999996
 50
226.46691000000004
 51
242.05489
  0
ARC
  8
_0-0_LAYER001
  6
CONTINUOUS
 62
    4
 10
1446.6043
 20
1150.3920000000001
 40
154.70135999999999
 50
229.79871999999997
 51
237.31520999999998
  0
LINE
  8
_0-0_LAYER001
  6
CONTINUOUS
 62
    4
 10
1337.2853
 20
1034.8870999999999
 11
1337.2853
 21
1017.058
  0
ARC
  8
_0-0_LAYER001
  6
CONTINUOUS
 62
    4
 10
1341.2853
 20
1034.8870999999999
 40
4
 50
90
 51
180
  0
LINE
  8
_0-0_LAYER001
  6
CONTINUOUS
 62
    4
 10
1342.7484999999999
 20
1038.8870999999999
 11
1341.2853
 21
1038.8870999999999
  0
LINE
  8
_0-0_LAYER001
  6
CONTINUOUS
 62
    4
 10
1346.7484999999999
 20
1034.8870999999999
 11
1346.7484999999999
 21
1032.2338999999999
  0
ARC
  8
_0-0_LAYER001
  6
CONTINUOUS
 62
    4
 10
1342.7484999999999
 20
1034.8870999999999
 40
4
 50
0
 51
90
  0
LINE
  8
_0-0_LAYER001
  6
CONTINUOUS
 62
    4
 10
1352.2853
 20
1034.2777000000001
 11
1352.2853
 21
1031.431
  0
LINE
  8
_0-0_LAYER001
  6
CONTINUOUS
 62
    4
 10
1356.2853
 20
1038.2777000000001
 11
1371.6129000000001
 21
1038.2777000000001
  0
ARC
  8
_0-0_LAYER001
  6
CONTINUOUS
 62
    4
 10
1356.2853
 20
1034.2777000000001
 40
4
 50
90
 51
180
  0
ARC
  8
_0-0_LAYER001
  6
CONTINUOUS
 62
    4
 10
1455.1181999999999
 20
1213.9653000000001
 40
232.52318
 50
244.57801000000001
 51
295.00637
  0
ARC
  8
_0-0_LAYER001
  6
CONTINUOUS
 62
    4
 10
1595.7844
 20
1010.8924999999999
 40
40.248902000000001
 50
91.422393999999997
 51
185.22383000000002
  0
ARC
  8
_0-0_LAYER001
  6
CONTINUOUS
 62
    4
 10
1551.7193000000002
 20
1006.8638000000001
 40
4
 50
295.00637
 51
5.2238350000000304
  0
LINE
  8
_0-0_LAYER001
  6
CONTINUOUS
 62
    4
 10
1553.2709
 20
1002.6943000000001
 11
1549.3719999999998
 21
984.66200000000003
  0
ARC
  8
_0-0_LAYER001
  6
CONTINUOUS
 62
    4
 10
1332.7604999999999
 20
1013.4731999999999
 40
69.214101999999997
 50
13.791351000000001
 51
163.33506000000003
  0
ARC
  8
_0-0_LAYER001
  6
CONTINUOUS
 62
    4
 10
1332.3653999999999
 20
1014.9566
 40
50.327697999999998
 50
23.01118
 51
173.62688000000003
  0
ARC
  8
_0-0_LAYER001
  6
CONTINUOUS
 62
    4
 10
1194.2923000000001
 20
1213.9653000000001
 40
212.52318
 50
244.57801000000001
 51
294.47764000000006
  0
ARC
  8
_0-0_LAYER001
  6
CONTINUOUS
 62
    4
 10
1194.2923000000001
 20
1213.9653000000001
 40
214.52317999999997
 50
244.57801000000001
 51
294.78532999999999
  0
ARC
  8
_0-0_LAYER001
  6
CONTINUOUS
 62
    4
 10
1332.3653999999999
 20
1014.9566
 40
48.327697999999998
 50
88.109851000000006
 51
174.95909000000003
  0
LINE
  8
_0-0_LAYER001
  6
CONTINUOUS
 62
    4
 10
1333.9594
 20
1063.258
 11
1333.9594
 21
1051.1289999999999
  0
LINE
  8
_0-0_LAYER001
  6
CONTINUOUS
 62
    4
 10
1399.9792
 20
1029.9729
 11
1378.6885000000002
 21
1034.6302000000001
  0
LINE
  8
_0-0_LAYER001
  6
CONTINUOUS
 62
    4
 10
1161.9474
 20
972.65069999999992
 11
1155.3804
 21
984.79960000000005
  0
LINE
  8
_0-0_LAYER001
  6
CONTINUOUS
 62
    4
 10
1174.0735
 20
972.32140000000004
 11
1179.5037
 21
981.18110000000001
  0
ARC
  8
_0-0_LAYER001
  6
CONTINUOUS
 62
    4
 10
1168.1052999999999
 20
975.97929999999997
 40
7
 50
208.39301
 51
328.49572999999998
  0
LINE
  8
_0-0_LAYER001
  6
CONTINUOUS
 62
    4
 10
1253.4640999999999
 20
976.38879999999995
 11
1259.412
 21
991.43350000000009
  0
ARC
  8
_0-0_LAYER001
  6
CONTINUOUS
 62
    4
 10
1246.9544000000001
 20
978.96239999999989
 40
7
 50
210.96375
 51
338.42869000000002
  0
LINE
  8
_0-0_LAYER001
  6
CONTINUOUS
 62
    4
 10
1281.1052999999997
 20
983.3302000000001
 11
1274.1875
 21
995.05199999999991
  0
ARC
  8
_0-0_LAYER001
  6
CONTINUOUS
 62
    4
 10
1284.5500999999999
 20
985.36320000000001
 40
4
 50
210.54757000000001
 51
342.13990000000001
  0
ARC
  8
_0-0_LAYER001
  6
CONTINUOUS
 62
    4
 10
1194.2923000000001
 20
1213.9653000000001
 40
194.52317999999997
 50
244.57801000000001
 51
291.77512000000002
  0
ARC
  8
_0-0_LAYER001
  6
CONTINUOUS
 62
    4
 10
1143.3484000000001
 20
1083.6923999999999
 40
73.645919000000006
 50
225.20483999999999
 51
236.85617999999999
  0
ARC
  8
_0-0_LAYER001
  6
CONTINUOUS
 62
    4
 10
1132.2557999999999
 20
1075.7872
 40
81.008393999999996
 50
226.46691000000004
 51
242.05489
  0
ARC
  8
_0-0_LAYER001
  6
CONTINUOUS
 62
    4
 10
1185.7783999999999
 20
1150.3920000000001
 40
154.70135999999999
 50
229.79871999999997
 51
237.31520999999998
  0
LINE
  8
_0-0_LAYER001
  6
CONTINUOUS
 62
    4
 10
1076.4594
 20
1034.8870999999999
 11
1076.4594
 21
1017.058
  0
ARC
  8
_0-0_LAYER001
  6
CONTINUOUS
 62
    4
 10
1080.4594
 20
1034.8870999999999
 40
4
 50
90
 51
180
  0
LINE
  8
_0-0_LAYER001
  6
CONTINUOUS
 62
    4
 10
1081.9224999999999
 20
1038.8870999999999
 11
1080.4594
 21
1038.8870999999999
  0
LINE
  8
_0-0_LAYER001
  6
CONTINUOUS
 62
    4
 10
1085.9224999999999
 20
1034.8870999999999
 11
1085.9224999999999
 21
1032.2338999999999
  0
ARC
  8
_0-0_LAYER001
  6
CONTINUOUS
 62
    4
 10
1081.9224999999999
 20
1034.8870999999999
 40
4
 50
0
 51
90
  0
LINE
  8
_0-0_LAYER001
  6
CONTINUOUS
 62
    4
 10
1091.4594
 20
1034.2777000000001
 11
1091.4594
 21
1031.431
  0
LINE
  8
_0-0_LAYER001
  6
CONTINUOUS
 62
    4
 10
1095.4594
 20
1038.2777000000001
 11
1110.787
 21
1038.2777000000001
  0
ARC
  8
_0-0_LAYER001
  6
CONTINUOUS
 62
    4
 10
1095.4594
 20
1034.2777000000001
 40
4
 50
90
 51
180
  0
ARC
  8
_0-0_LAYER001
  6
CONTINUOUS
 62
    4
 10
1194.2923000000001
 20
1213.9653000000001
 40
232.52318
 50
244.57801000000001
 51
295.00637
  0
ARC
  8
_0-0_LAYER001
  6
CONTINUOUS
 62
    4
 10
1334.9585
 20
1010.8924999999999
 40
40.248902000000001
 50
91.422393999999997
 51
185.22383000000002
  0
ARC
  8
_0-0_LAYER001
  6
CONTINUOUS
 62
    4
 10
1290.8933999999999
 20
1006.8638000000001
 40
4
 50
295.00637
 51
5.2238350000000304
  0
LINE
  8
_0-0_LAYER001
  6
CONTINUOUS
 62
    4
 10
1292.4449
 20
1002.6943000000001
 11
1288.546
 21
984.66200000000003
  0
ARC
  8
_0-0_LAYER001
  6
CONTINUOUS
 62
    4
 10
2235.5717
 20
1212.6318000000001
 40
212.52318
 50
244.57801000000001
 51
246.65016000000003
  0
ARC
  8
_0-0_LAYER001
  6
CONTINUOUS
 62
    4
 10
2235.5717
 20
1212.6318000000001
 40
214.52317999999997
 50
244.57801000000001
 51
246.88056
  0
ARC
  8
_0-0_LAYER001
  6
CONTINUOUS
 62
    4
 10
2184.6278000000002
 20
1082.3588999999999
 40
73.645919000000006
 50
225.20483999999999
 51
236.85617999999999
  0
ARC
  8
_0-0_LAYER001
  6
CONTINUOUS
 62
    4
 10
2173.5351999999998
 20
1074.4537
 40
81.008393999999996
 50
226.46691000000004
 51
242.05489
  0
ARC
  8
_0-0_LAYER001
  6
CONTINUOUS
 62
    4
 10
2227.0576999999998
 20
1149.0585000000001
 40
154.70135999999999
 50
229.79871999999997
 51
237.31520999999998
  0
LINE
  8
_0-0_LAYER001
  6
CONTINUOUS
 62
    4
 10
2117.7388000000001
 20
1033.5536
 11
2117.7388000000001
 21
1015.7245
  0
ARC
  8
_0-0_LAYER001
  6
CONTINUOUS
 62
    4
 10
2121.7388000000001
 20
1033.5536
 40
4
 50
90
 51
180
  0
LINE
  8
_0-0_LAYER001
  6
CONTINUOUS
 62
    4
 10
2123.2019
 20
1037.5536
 11
2121.7388000000001
 21
1037.5536
  0
LINE
  8
_0-0_LAYER001
  6
CONTINUOUS
 62
    4
 10
2127.2019
 20
1033.5536
 11
2127.2019
 21
1030.9004
  0
ARC
  8
_0-0_LAYER001
  6
CONTINUOUS
 62
    4
 10
2123.2019
 20
1033.5536
 40
4
 50
0
 51
90
  0
LINE
  8
_0-0_LAYER001
  6
CONTINUOUS
 62
    4
 10
2132.7388000000001
 20
1032.9441999999999
 11
2132.7388000000001
 21
1030.0975000000001
  0
LINE
  8
_0-0_LAYER001
  6
CONTINUOUS
 62
    4
 10
2136.7388000000001
 20
1036.9441999999999
 11
2151.3393000000001
 21
1036.9441999999999
  0
ARC
  8
_0-0_LAYER001
  6
CONTINUOUS
 62
    4
 10
2136.7388000000001
 20
1032.9441999999999
 40
4
 50
90
 51
180
  0
ARC
  8
_0-0_LAYER001
  6
CONTINUOUS
 62
    4
 10
2235.5717
 20
1212.6318000000001
 40
232.52318
 50
244.57801000000001
 51
248.76134000000002
  0
LINE
  8
_0-0_LAYER001
  6
CONTINUOUS
 62
    2
 10
1074.4632999999999
 20
980.29420000000005
 11
1075.1102000000001
 21
980.29420000000005
  0
LINE
  8
_0-0_LAYER001
  6
CONTINUOUS
 62
    2
 10
1334.4632999999999
 20
980.29420000000005
 11
1335.1102000000001
 21
980.29420000000005
  0
LINE
  8
_0-0_LAYER001
  6
CONTINUOUS
 62
    2
 10
1594.4632999999999
 20
980.29420000000005
 11
1595.1102000000001
 21
980.29420000000005
  0
LINE
  8
_0-0_LAYER001
  6
CONTINUOUS
 62
    2
 10
1854.4632999999999
 20
980.29420000000005
 11
1855.1102000000001
 21
980.29420000000005
  0
LINE
  8
_0-0_LAYER001
  6
CONTINUOUS
 62
    2
 10
2114.4632999999999
 20
980.29420000000005
 11
2115.1102000000001
 21
980.29420000000005
  0
LINE
  8
_0-0_LAYER001
  6
CONTINUOUS
 62
    2
 10
1334.4632999999999
 20
1314.9703
 11
1334.4632999999999
 21
1262.4703
  0
CIRCLE
  8
_0-0_LAYER001
  6
CONTINUOUS
 62
    2
 10
1334.4632999999999
 20
1312.4703
 40
1.6999999999999997
  0
LINE
  8
_0-0_LAYER001
  6
CONTINUOUS
 62
    2
 10
1334.4632999999999
 20
1312.4703
 11
1594.4632999999999
 21
1312.4703
  0
CIRCLE
  8
_0-0_LAYER001
  6
CONTINUOUS
 62
    2
 10
1594.4632999999999
 20
1312.4703
 40
1.6999999999999997
  0
LINE
  8
_0-0_LAYER001
  6
CONTINUOUS
 62
    2
 10
1594.4632999999999
 20
1314.9703
 11
1594.4632999999999
 21
1262.4703
  0
CIRCLE
  8
_0-0_LAYER001
  6
CONTINUOUS
 62
    2
 10
1594.4632999999999
 20
1312.4703
 40
1.6999999999999997
  0
LINE
  8
_0-0_LAYER001
  6
CONTINUOUS
 62
    2
 10
1594.4632999999999
 20
1312.4703
 11
1854.4632999999999
 21
1312.4703
  0
CIRCLE
  8
_0-0_LAYER001
  6
CONTINUOUS
 62
    2
 10
1854.4632999999999
 20
1312.4703
 40
1.6999999999999997
  0
LINE
  8
_0-0_LAYER001
  6
CONTINUOUS
 62
    2
 10
1854.4632999999999
 20
1314.9703
 11
1854.4632999999999
 21
1262.4703
  0
CIRCLE
  8
_0-0_LAYER001
  6
CONTINUOUS
 62
    2
 10
1854.4632999999999
 20
1312.4703
 40
1.6999999999999997
  0
LINE
  8
_0-0_LAYER001
  6
CONTINUOUS
 62
    2
 10
1854.4632999999999
 20
1312.4703
 11
2114.4632999999999
 21
1312.4703
  0
CIRCLE
  8
_0-0_LAYER001
  6
CONTINUOUS
 62
    2
 10
2114.4632999999999
 20
1312.4703
 40
1.6999999999999997
  0
LINE
  8
_0-0_LAYER001
  6
CONTINUOUS
 62
    2
 10
2114.4632999999999
 20
1314.9703
 11
2114.4632999999999
 21
1262.4703
  0
LINE
  8
_0-0_LAYER001
  6
CONTINUOUS
 62
    2
 10
1641.2891
 20
680.2786000000001
 11
1705.9243000000001
 21
680.2786000000001
  0
LINE
  8
_0-0_LAYER001
  6
CONTINUOUS
 62
    2
 10
1634.116
 20
710.14519999999993
 11
1855.0565999999999
 21
710.14519999999993
  0
LINE
  8
_0-0_LAYER001
  6
CONTINUOUS
 62
    2
 10
1624.5729000000001
 20
740.24050000000011
 11
1866.1862000000001
 21
740.24050000000011
  0
LINE
  8
_0-0_LAYER001
  6
CONTINUOUS
 62
    2
 10
1563.6813000000002
 20
962.41499999999996
 11
1563.6813000000002
 21
969.91499999999996
  0
LINE
  8
_0-0_LAYER001
  6
CONTINUOUS
 62
    2
 10
1563.6813000000002
 20
969.91499999999996
 11
1567.4313000000002
 21
963.4197999999999
  0
LINE
  8
_0-0_LAYER001
  6
CONTINUOUS
 62
    2
 10
1563.6813000000002
 20
969.91499999999996
 11
1641.2891
 21
680.2786000000001
  0
LINE
  8
_0-0_LAYER001
  6
CONTINUOUS
 62
    2
 10
1617.1889999999999
 20
770.22150000000011
 11
1822.0118000000002
 21
770.22150000000011
  0
LINE
  8
_0-1_ADD_LINE
  6
CONTINUOUS
 62
    7
 10
1105.4033999999999
 20
1402.2212999999999
 11
1277.9033999999999
 21
1402.2212999999999
  0
LINE
  8
_0-1_ADD_LINE
  6
CONTINUOUS
 62
    7
 10
1145.1565000000001
 20
1231.4843000000001
 11
1379.1565000000001
 21
1231.4843000000001
  0
LINE
  8
_0-1_ADD_LINE
  6
CONTINUOUS
 62
    7
 10
1157.3527999999999
 20
1178.5818999999999
 11
1277.3527999999999
 21
1178.5818999999999
  0
LINE
  8
_0-1_ADD_LINE
  6
CONTINUOUS
 62
    7
 10
936.3125
 20
1248.9211
 11
988.8125
 21
1248.9211
  0
LINE
  8
_0-1_ADD_LINE
  6
CONTINUOUS
 62
    7
 10
991.80330000000004
 20
1239.1416999999999
 11
1032.3033
 21
1239.1416999999999
  0
LINE
  8
_0-1_ADD_LINE
  6
CONTINUOUS
 62
    7
 10
1163.1352999999999
 20
775.55989999999997
 11
1380.6352999999999
 21
775.55989999999997
  0
LINE
  8
_0-1_ADD_LINE
  6
CONTINUOUS
 62
    7
 10
1617.1889999999999
 20
770.22150000000011
 11
1822.0118000000002
 21
770.22150000000011
  0
LINE
  8
_0-1_ADD_LINE
  6
CONTINUOUS
 62
    7
 10
1625.2223654914228
 20
740.24050000000011
 11
1866.1862000000001
 21
740.24050000000011
  0
LINE
  8
_0-1_ADD_LINE
  6
CONTINUOUS
 62
    7
 10
1634.116
 20
710.14519999999993
 11
1847.116
 21
710.14519999999993
  0
LINE
  8
_0-1_ADD_LINE
  6
CONTINUOUS
 62
    7
 10
1641.2891
 20
680.2786000000001
 11
1705.9243000000001
 21
680.2786000000001
  0
LINE
  8
_0-1_ADD_LINE
  6
CONTINUOUS
 62
    7
 10
1052.7733000000001
 20
890.29420000000005
 11
2146.6804999999999
 21
890.29420000000005
  0
LINE
  8
_0-1_ADD_LINE
  6
CONTINUOUS
 62
    7
 10
2146.6804999999999
 20
950.29420000000005
 11
1052.7733000000001
 21
950.29420000000005
  0
LINE
  8
_0-1_ADD_LINE
  6
CONTINUOUS
 62
    7
 10
1052.7733000000001
 20
962.29420000000005
 11
2146.6804999999999
 21
962.29420000000005
  0
LINE
  8
_0-1_ADD_LINE
  6
CONTINUOUS
 62
    7
 10
1070.2938999999999
 20
965.29420000000005
 11
1070.2938999999999
 21
1035.3152
  0
LINE
  8
_0-1_ADD_LINE
  6
CONTINUOUS
 62
    7
 10
1054.325
 20
1027.2942
 11
1069.325
 21
1027.2942
  0
LINE
  8
_0-1_ADD_LINE
  6
CONTINUOUS
 62
    7
 10
1069.325
 20
1027.2942
 11
1069.325
 21
965.34969999999998
  0
LINE
  8
_0-1_ADD_LINE
  6
CONTINUOUS
 62
    7
 10
1069.325
 20
965.34969999999998
 11
1054.325
 21
965.34969999999998
  0
LINE
  8
_0-1_ADD_LINE
  6
CONTINUOUS
 62
    7
 10
1054.325
 20
965.34969999999998
 11
1054.325
 21
1027.2942
  0
LINE
  8
_0-1_ADD_LINE
  6
CONTINUOUS
 62
    7
 10
1053.2733000000001
 20
963.79420000000005
 11
2146.6804999999999
 21
963.79420000000005
  0
LINE
  8
_0-1_ADD_LINE
  6
CONTINUOUS
 62
    7
 10
2146.6804999999999
 20
980.29420000000005
 11
1164.325
 21
980.29420000000005
  0
LINE
  8
_0-1_ADD_LINE
  6
CONTINUOUS
 62
    7
 10
1164.325
 20
980.29420000000005
 11
1164.325
 21
965.29420000000005
  0
LINE
  8
_0-1_ADD_LINE
  6
CONTINUOUS
 62
    7
 10
2146.6804999999999
 20
965.29420000000005
 11
1164.325
 21
965.29420000000005
  0
LINE
  8
_0-1_ADD_LINE
  6
CONTINUOUS
 62
    7
 10
1159.437596544411
 20
965.29420000000005
 11
1070.2938999999999
 21
965.29420000000005
  0
LINE
  8
_0-1_ADD_LINE
  6
CONTINUOUS
 62
    7
 10
1159.437596544411
 20
965.29420000000005
 11
1159.437596544411
 21
980.0202191753001
  0
LINE
  8
_0-1_ADD_LINE
  6
CONTINUOUS
 62
    7
 10
1159.437596544411
 20
980.0202191753001
 11
1147.5229349879939
 21
980.0202191753001
  0
LINE
  8
_0-1_ADD_LINE
  6
CONTINUOUS
 62
    7
 10
1111.8444999999999
 20
959.47990000000004
 11
1111.8444999999999
 21
966.97990000000004
  0
LINE
  8
_0-1_ADD_LINE
  6
CONTINUOUS
 62
    7
 10
1111.8444999999999
 20
966.97990000000004
 11
1115.5944999999999
 21
960.48469999999998
  0
LINE
  8
_0-1_ADD_LINE
  6
CONTINUOUS
 62
    7
 10
1111.8444999999999
 20
966.97990000000004
 11
1163.1352999999999
 21
775.55989999999997
  0
LINE
  8
_0-1_ADD_LINE
  6
CONTINUOUS
 62
    7
 10
1159.325
 20
867.4677999999999
 11
1159.325
 21
842.4677999999999
  0
LINE
  8
_0-1_ADD_LINE
  6
CONTINUOUS
 62
    7
 10
1159.325
 20
840.76779999999985
 11
1159.325
 21
844.16779999999994
  0
LINE
  8
_0-1_ADD_LINE
  6
CONTINUOUS
 62
    7
 10
1157.625
 20
842.4677999999999
 11
1159.325
 21
842.4677999999999
  0
LINE
  8
_0-1_ADD_LINE
  6
CONTINUOUS
 62
    7
 10
1159.325
 20
842.4677999999999
 11
1069.325
 21
842.4677999999999
  0
LINE
  8
_0-1_ADD_LINE
  6
CONTINUOUS
 62
    7
 10
1069.325
 20
839.9677999999999
 11
1069.325
 21
867.4677999999999
  0
LINE
  8
_0-1_ADD_LINE
  6
CONTINUOUS
 62
    7
 10
1017.3306
 20
821.0440000000001
 11
870.3306
 21
821.0440000000001
  0
LINE
  8
_0-1_ADD_LINE
  6
CONTINUOUS
 62
    7
 10
1017.3306
 20
821.0440000000001
 11
1061.3988999999999
 21
985.50909999999999
  0
LINE
  8
_0-1_ADD_LINE
  6
CONTINUOUS
 62
    7
 10
1061.3988999999999
 20
985.50909999999999
 11
1057.6488999999999
 21
979.01389999999992
  0
LINE
  8
_0-1_ADD_LINE
  6
CONTINUOUS
 62
    7
 10
1061.3988999999999
 20
985.50909999999999
 11
1061.3988999999999
 21
978.00909999999999
  0
LINE
  8
_0-1_ADD_LINE
  6
CONTINUOUS
 62
    7
 10
1052.7733000000001
 20
950.29420000000005
 11
1052.7733000000001
 21
890.29420000000005
  0
LINE
  8
_0-1_ADD_LINE
  6
CONTINUOUS
 62
    7
 10
1052.7733000000001
 20
890.29420000000005
 11
1112.7733000000001
 21
950.29420000000005
  0
LINE
  8
_0-1_ADD_LINE
  6
CONTINUOUS
 62
    7
 10
1112.7733000000001
 20
950.29420000000005
 11
1112.7733000000001
 21
890.29420000000005
  0
LINE
  8
_0-1_ADD_LINE
  6
CONTINUOUS
 62
    7
 10
1019.6958999999999
 20
962.29420000000005
 11
992.99589999999989
 21
962.29420000000005
  0
LINE
  8
_0-1_ADD_LINE
  6
CONTINUOUS
 62
    7
 10
994.69589999999994
 20
962.29420000000005
 11
994.69589999999994
 21
1027.0342000000001
  0
LINE
  8
_0-1_ADD_LINE
  6
CONTINUOUS
 62
    7
 10
992.99589999999989
 20
1027.0342000000001
 11
1019.6958999999999
 21
1027.0342000000001
  0
LINE
  8
_0-1_ADD_LINE
  6
CONTINUOUS
 62
    7
 10
1081.7733000000001
 20
1044.2956999999999
 11
1053.2733000000001
 21
1044.2956999999999
  0
LINE
  8
_0-1_ADD_LINE
  6
CONTINUOUS
 62
    7
 10
1053.2733000000001
 20
1044.2956999999999
 11
1053.2733000000001
 21
963.79420000000005
  0
LINE
  8
_0-1_ADD_LINE
  6
CONTINUOUS
 62
    7
 10
1053.2733000000001
 20
1044.2956999999999
 11
1053.2733000000001
 21
1262.2942
  0
LINE
  8
_0-1_ADD_LINE
  6
CONTINUOUS
 62
    7
 10
1054.7733000000001
 20
1251.0289
 11
1054.7733000000001
 21
1101.0289
  0
LINE
  8
_0-1_ADD_LINE
  6
CONTINUOUS
 62
    7
 10
1076.3888999999999
 20
1106.9595999999999
 11
1088.3888999999999
 21
1106.9595999999999
  0
LINE
  8
_0-1_ADD_LINE
  6
CONTINUOUS
 62
    7
 10
1088.3888999999999
 20
1106.9595999999999
 11
1088.3888999999999
 21
1391.3787
  0
LINE
  8
_0-1_ADD_LINE
  6
CONTINUOUS
 62
    7
 10
1076.3888999999999
 20
1391.3787
 11
1076.3888999999999
 21
1106.9595999999999
  0
LINE
  8
_0-1_ADD_LINE
  6
CONTINUOUS
 62
    7
 10
1056.3888999999999
 20
1154.5025000000001
 11
1076.3888999999999
 21
1154.5025000000001
  0
LINE
  8
_0-1_ADD_LINE
  6
CONTINUOUS
 62
    7
 10
1076.3888999999999
 20
1194.5035
 11
1056.3888999999999
 21
1194.5035
  0
LINE
  8
_0-1_ADD_LINE
  6
CONTINUOUS
 62
    7
 10
1056.3888999999999
 20
1194.5035
 11
1056.3888999999999
 21
1154.5025000000001
  0
LINE
  8
_0-1_ADD_LINE
  6
CONTINUOUS
 62
    7
 10
988.8125
 20
1098.9211
 11
937.11250000000007
 21
1098.9211
  0
LINE
  8
_0-1_ADD_LINE
  6
CONTINUOUS
 62
    7
 10
938.8125
 20
1098.9211
 11
938.8125
 21
1248.9211
  0
LINE
  8
_0-1_ADD_LINE
  6
CONTINUOUS
 62
    7
 10
897.9543000000001
 20
1262.2942
 11
845.4543000000001
 21
1262.2942
  0
LINE
  8
_0-1_ADD_LINE
  6
CONTINUOUS
 62
    7
 10
847.9543000000001
 20
1262.2942
 11
847.9543000000001
 21
962.29420000000005
  0
LINE
  8
_0-1_ADD_LINE
  6
CONTINUOUS
 62
    7
 10
846.25430000000006
 20
962.29420000000005
 11
897.9543000000001
 21
962.29420000000005
  0
LINE
  8
_0-1_ADD_LINE
  6
CONTINUOUS
 62
    7
 10
1081.7733000000001
 20
1044.2956999999999
 11
1081.7733000000001
 21
1079.0058690459616
  0
LINE
  8
_0-1_ADD_LINE
  6
CONTINUOUS
 62
    7
 10
1008.7734
 20
1067.2956999999999
 11
1075.7734
 21
1067.2956999999999
  0
LINE
  8
_0-1_ADD_LINE
  6
CONTINUOUS
 62
    7
 10
1075.7734
 20
1067.2956999999999
 11
1075.7734
 21
1061.2958000000001
  0
LINE
  8
_0-1_ADD_LINE
  6
CONTINUOUS
 62
    7
 10
1075.7734
 20
1061.2958000000001
 11
1008.7734
 21
1061.2958000000001
  0
LINE
  8
_0-1_ADD_LINE
  6
CONTINUOUS
 62
    7
 10
1334.4632999999999
 20
1262.4703
 11
1334.4632999999999
 21
1314.9703
  0
LINE
  8
_0-1_ADD_LINE
  6
CONTINUOUS
 62
    7
 10
1334.4632999999999
 20
1312.4703
 11
2114.4632999999999
 21
1312.4703
  0
LINE
  8
_0-1_ADD_LINE
  6
CONTINUOUS
 62
    7
 10
2114.4632999999999
 20
1262.4703
 11
2114.4632999999999
 21
1314.1703000000002
  0
LINE
  8
_0-1_ADD_LINE
  6
CONTINUOUS
 62
    7
 10
1854.4632999999999
 20
1262.4703
 11
1854.4632999999999
 21
1314.1703000000002
  0
LINE
  8
_0-1_ADD_LINE
  6
CONTINUOUS
 62
    7
 10
1594.4632999999999
 20
1262.4703
 11
1594.4632999999999
 21
1314.1703000000002
  0
LINE
  8
_0-1_ADD_LINE
  6
CONTINUOUS
 62
    7
 10
1354.7732999999998
 20
950.29420000000005
 11
1354.7732999999998
 21
890.29420000000005
  0
LINE
  8
_0-1_ADD_LINE
  6
CONTINUOUS
 62
    7
 10
1414.7732999999998
 20
890.29420000000005
 11
1414.7732999999998
 21
950.29420000000005
  0
LINE
  8
_0-1_ADD_LINE
  6
CONTINUOUS
 62
    7
 10
1656.7732999999998
 20
950.29420000000005
 11
1656.7732999999998
 21
890.29420000000005
  0
LINE
  8
_0-1_ADD_LINE
  6
CONTINUOUS
 62
    7
 10
1716.7732999999998
 20
890.29420000000005
 11
1716.7732999999998
 21
950.29420000000005
  0
LINE
  8
_0-1_ADD_LINE
  6
CONTINUOUS
 62
    7
 10
1958.7732999999998
 20
890.29420000000005
 11
1958.7732999999998
 21
950.29420000000005
  0
LINE
  8
_0-1_ADD_LINE
  6
CONTINUOUS
 62
    7
 10
2018.7732999999998
 20
890.29420000000005
 11
2018.7732999999998
 21
950.29420000000005
  0
LINE
  8
_0-1_ADD_LINE
  6
CONTINUOUS
 62
    7
 10
1083.1478999999999
 20
1326.6624999999999
 11
1083.1478999999999
 21
1319.1624999999999
  0
LINE
  8
_0-1_ADD_LINE
  6
CONTINUOUS
 62
    7
 10
1083.1478999999999
 20
1319.1624999999999
 11
1086.8978999999999
 21
1325.6576
  0
LINE
  8
_0-1_ADD_LINE
  6
CONTINUOUS
 62
    7
 10
1083.1478999999999
 20
1319.1624999999999
 11
1105.4033999999999
 21
1402.2212999999999
  0
LINE
  8
_0-1_ADD_LINE
  6
CONTINUOUS
 62
    7
 10
1032.3033
 20
1239.1416999999999
 11
1065.8630000000001
 21
1181.0146999999999
  0
LINE
  8
_0-1_ADD_LINE
  6
CONTINUOUS
 62
    7
 10
1065.8630000000001
 20
1181.0146999999999
 11
1063.9218000000001
 21
1188.2592
  0
LINE
  8
_0-1_ADD_LINE
  6
CONTINUOUS
 62
    7
 10
1065.8630000000001
 20
1181.0146999999999
 11
1060.5597
 21
1186.318
  0
LINE
  8
_0-1_ADD_LINE
  6
CONTINUOUS
 62
    7
 10
1056.3888999999999
 20
1194.5035
 11
1076.3888999999999
 21
1154.5025000000001
  0
LINE
  8
_0-1_ADD_LINE
  6
CONTINUOUS
 62
    7
 10
1054.7733000000001
 20
1101.0289
 11
1152.1657
 21
1083.856
  0
LINE
  8
_0-1_ADD_LINE
  6
CONTINUOUS
 62
    7
 10
1152.1657
 20
1083.856
 11
1156.8688
 21
1059.4852000000001
  0
LINE
  8
_0-1_ADD_LINE
  6
CONTINUOUS
 62
    7
 10
1156.8688
 20
1059.4852000000001
 11
1150.9873
 21
1065.6117999999999
  0
LINE
  8
_0-1_ADD_LINE
  6
CONTINUOUS
 62
    7
 10
1143.0107
 20
1083.4394
 11
1140.4059999999999
 21
1068.6673000000001
  0
LINE
  8
_0-1_ADD_LINE
  6
CONTINUOUS
 62
    7
 10
1140.4059999999999
 20
1068.6673000000001
 11
1051.7733000000001
 21
1084.2956999999999
  0
LINE
  8
_0-1_ADD_LINE
  6
CONTINUOUS
 62
    7
 10
1051.7733000000001
 20
1084.2956999999999
 11
1054.3779999999999
 21
1099.0678
  0
LINE
  8
_0-1_ADD_LINE
  6
CONTINUOUS
 62
    7
 10
1054.3779999999999
 20
1099.0678
 11
1143.0107
 21
1083.4394
  0
LINE
  8
_0-1_ADD_LINE
  6
CONTINUOUS
 62
    7
 10
1143.0107
 20
1083.4394
 11
1051.7733000000001
 21
1084.2956999999999
  0
LINE
  8
_0-1_ADD_LINE
  6
CONTINUOUS
 62
    7
 10
1063.8257000000001
 20
1097.4019000000001
 11
1066.1093000000001
 21
1095.3793000000001
  0
LINE
  8
_0-1_ADD_LINE
  6
CONTINUOUS
 62
    7
 10
1066.1093000000001
 20
1095.3793000000001
 11
1061.4194
 21
1068.7873999999999
  0
LINE
  8
_0-1_ADD_LINE
  6
CONTINUOUS
 62
    7
 10
1061.4194
 20
1068.7873999999999
 11
1061.6278
 21
1059.9047
  0
LINE
  8
_0-1_ADD_LINE
  6
CONTINUOUS
 62
    7
 10
1061.6278
 20
1059.9047
 11
1065.0695000000001
 21
1068.1437000000001
  0
LINE
  8
_0-1_ADD_LINE
  6
CONTINUOUS
 62
    7
 10
1065.0695000000001
 20
1068.1437000000001
 11
1069.7592
 21
1094.7370000000001
  0
LINE
  8
_0-1_ADD_LINE
  6
CONTINUOUS
 62
    7
 10
1069.7592
 20
1094.7370000000001
 11
1072.5952
 21
1095.8556000000001
  0
LINE
  8
_0-1_ADD_LINE
  6
CONTINUOUS
 62
    7
 10
1107.7784999999999
 20
1099.4878000000001
 11
1107.7784999999999
 21
1091.9878000000001
  0
LINE
  8
_0-1_ADD_LINE
  6
CONTINUOUS
 62
    7
 10
1107.7784999999999
 20
1091.9878000000001
 11
1111.5284999999999
 21
1098.4829999999999
  0
LINE
  8
_0-1_ADD_LINE
  6
CONTINUOUS
 62
    7
 10
1130.5908999999999
 20
1083.5559648598053
 11
1130.5908999999999
 21
1078.7049999999999
  0
LINE
  8
_0-1_ADD_LINE
  6
CONTINUOUS
 62
    7
 10
1130.5908999999999
 20
1078.7049999999999
 11
1133.3765075275583
 21
1083.529820803466
  0
LINE
  8
_0-1_ADD_LINE
  6
CONTINUOUS
 62
    7
 10
1078.2692478701454
 20
1079.6237304933306
 11
1051.7733000000001
 21
1044.2956999999999
  0
LINE
  8
_0-1_ADD_LINE
  6
CONTINUOUS
 62
    7
 10
1053.2733000000001
 20
1044.2956999999999
 11
1051.7733000000001
 21
1044.2956999999999
  0
LINE
  8
_0-1_ADD_LINE
  6
CONTINUOUS
 62
    7
 10
1075.7734
 20
1061.2958000000001
 11
1081.7733000000001
 21
1058.2955999999999
  0
LINE
  8
_0-1_ADD_LINE
  6
CONTINUOUS
 62
    7
 10
1075.7734
 20
1067.2956999999999
 11
1081.7733000000001
 21
1070.2958000000001
  0
LINE
  8
_0-1_ADD_LINE
  6
CONTINUOUS
 62
    7
 10
1008.7734
 20
1067.2956999999999
 11
1003.7733000000001
 21
1064.2956999999999
  0
LINE
  8
_0-1_ADD_LINE
  6
CONTINUOUS
 62
    7
 10
1003.7733000000001
 20
1064.2956999999999
 11
1008.7734
 21
1061.2958000000001
  0
LINE
  8
_0-1_ADD_LINE
  6
CONTINUOUS
 62
    7
 10
1130.5908999999999
 20
1078.7049999999999
 11
1157.3527999999999
 21
1178.5818999999999
  0
LINE
  8
_0-1_ADD_LINE
  6
CONTINUOUS
 62
    7
 10
1107.7784999999999
 20
1091.9878000000001
 11
1145.1565000000001
 21
1231.4843000000001
  0
LINE
  8
_0-1_ADD_LINE
  6
CONTINUOUS
 62
    7
 10
1679.1351
 20
1138.0319999999999
 11
1719.6351
 21
1138.0319999999999
  0
LINE
  8
_0-1_ADD_LINE
  6
CONTINUOUS
 62
    7
 10
1645.1799999999998
 20
1018.8096
 11
1645.1799999999998
 21
1011.3096
  0
LINE
  8
_0-1_ADD_LINE
  6
CONTINUOUS
 62
    7
 10
1645.1799999999998
 20
1011.3096
 11
1648.9299999999998
 21
1017.8047999999999
  0
LINE
  8
_0-1_ADD_LINE
  6
CONTINUOUS
 62
    7
 10
1645.1799999999998
 20
1011.3369880929145
 11
1679.1351
 21
1138.0319999999999
  0
LINE
  8
_0-1_ADD_LINE
  6
CONTINUOUS
 62
    7
 10
1563.6813000000002
 20
962.41499999999996
 11
1563.6813000000002
 21
969.91499999999996
  0
LINE
  8
_0-1_ADD_LINE
  6
CONTINUOUS
 62
    7
 10
1563.6813000000002
 20
969.91499999999996
 11
1567.4313000000002
 21
963.4197999999999
  0
LINE
  8
_0-1_ADD_LINE
  6
CONTINUOUS
 62
    7
 10
1563.6813000000002
 20
969.91499999999996
 11
1641.2891
 21
680.2786000000001
  0
LINE
  8
_0-1_ADD_LINE
  6
CONTINUOUS
 62
    7
 10
1716.7732999999998
 20
950.29420000000005
 11
1656.7732999999998
 21
890.29420000000005
  0
LINE
  8
_0-1_ADD_LINE
  6
CONTINUOUS
 62
    7
 10
1414.7732999999998
 20
950.29420000000005
 11
1354.7732999999998
 21
890.29420000000005
  0
LINE
  8
_0-1_ADD_LINE
  6
CONTINUOUS
 62
    7
 10
1958.7732999999998
 20
890.29420000000005
 11
2018.7732999999998
 21
950.29420000000005
  0
TEXT
  8
_0-0_LAYER001
 62
    7
 10
1157.3528000000001
 20
1180.0818999999999
 40
20
 41
1
 50
0
  1
笠木：１５ｘ９０
  0
TEXT
  8
_0-0_LAYER001
 62
    7
 10
991.80330000000004
 20
1241.6417000000004
 40
20
 41
1
 50
0
  1
胴　縁
  0
TEXT
  8
_0-0_LAYER001
 62
    7
 10
1105.4033999999999
 20
1404.7213000000002
 40
20
 41
1
 50
0
  1
外壁　防火サイディング
  0
TEXT
  8
_0-0_LAYER001
 62
    7
 10
1641.2891000000002
 20
682.77860000000021
 40
20
 41
1
 50
0
  1
　垂木
  0
TEXT
  8
_0-0_LAYER001
 62
    7
 10
1634.1160000000002
 20
712.64520000000016
 40
20
 41
1
 50
0
  1
　野地板：耐水合板ｔ＝１２
  0
TEXT
  8
_0-0_LAYER001
 62
    7
 10
1617.1890000000003
 20
772.72150000000011
 40
20
 41
1
 50
0
  1
　瓦桟：１５ｘ３０以上
  0
TEXT
  8
_0-0_LAYER001
 62
    7
 10
1678.200864601878
 20
1143.9347932873611
 40
20
 41
1
 50
0
  1
桟　瓦
  0
TEXT
  8
_0-0_LAYER001
 62
    7
 10
926.45726417593301
 20
1083.4079333496843
 40
20
 41
1
 50
90
  1
水切り鉄板立上がり寸法
  0
TEXT
  8
_0-0_LAYER001
 62
    7
 10
834.45643707066415
 20
1034.9864453995431
 40
20
 41
1
 50
90
  1
下葺き材立上がり寸法
  0
TEXT
  8
_0-0_LAYER001
 62
    7
 10
1453.6921471238679
 20
1328.5556894668211
 40
20
 41
1
 50
0
  1
260
  0
TEXT
  8
_0-0_LAYER001
 62
    7
 10
1714.4771992603651
 20
1334.065232821818
 40
20
 41
1
 50
0
  1
260
  0
TEXT
  8
_0-0_LAYER001
 62
    7
 10
1973.4257369451961
 20
1330.3922039184872
 40
20
 41
1
 50
0
  1
260
  0
TEXT
  8
_0-0_LAYER001
 62
    7
 10
1145.1565000000001
 20
1233.9843000000001
 40
20
 41
1
 50
0
  1
雨押水切カラー鋼板0.35ｍｍ以上
  0
TEXT
  8
_0-0_LAYER001
 62
    7
 10
1624.5729000000001
 20
742.74050000000011
 40
20
 41
1
 50
0
  1
　下葺材：ルーフィング
  0
TEXT
  8
_0-0_LAYER001
 62
    7
 10
1163.1352999999999
 20
778.0599000000002
 40
20
 41
1
 50
0
  1
　捨谷カラー鋼板0.35mm以上
  0
TEXT
  8
_0-0_LAYER001
 62
    7
 10
1103.6359097755121
 20
851.50563483748465
 40
20
 41
1
 50
0
  1
90
  0
TEXT
  8
_0-0_LAYER001
 62
    7
 10
829.59533044780164
 20
827.74489096514003
 40
20
 41
1
 50
0
  1
下地材：１５ｘ６０
  0
TEXT
  8
_0-0_LAYER001
 62
    7
 10
871.98309023202398
 20
1095.5133053372199
 40
20
 41
1
 50
90
  1
300
  0
TEXT
  8
_0-0_LAYER001
 62
    7
 10
961.56284293978604
 20
1153.6190908773895
 40
20
 41
1
 50
90
  1
150
  0
TEXT
  8
_0-0_LAYER001
 62
    7
 10
983.35251251734906
 20
990.19656904566216
 40
20
 41
1
 50
90
  1
65
  0
ENDSEC
  0
EOF
