  0
SECTION
  2
HEADER
  9
$ACADVER
  1
AC1009
  9
$INSBASE
 10
0
 20
0
 30
0
  9
$EXTMIN
 10
0
 20
0
  9
$EXTMAX
 10
2970
 20
2100
  9
$LIMMIN
 10
0
 20
0
  9
$LIMMAX
 10
2970
 20
2100
  9
$LTSCALE
 40
10
  0
ENDSEC
  0
SECTION
  2
TABLES
  0
TABLE
  2
LTYPE
 70
     9
  0
LTYPE
  2
CONTINUOUS
 70
    64
  3
実線
 72
    65
 73
     0
 40
0.0
  0
LTYPE
  2
DASHED1
 70
    64
  3
--  --  --  --  --  --  --  --  
 72
    65
 73
     2
 40
2.5
 49
1.25
 49
-1.25
  0
LTYPE
  2
DASHED2
 70
    64
  3
----    ----    ----    ----    
 72
    65
 73
     2
 40
5.0
 49
2.5
 49
-2.5
  0
LTYPE
  2
DASHED3
 70
    64
  3
------  ------  ------  ------  
 72
    65
 73
     2
 40
5.0
 49
3.75
 49
-1.25
  0
LTYPE
  2
CENTER1
 70
    64
  3
----- - ----- - ----- - ----- - 
 72
    65
 73
     4
 40
10.0
 49
6.25
 49
-1.25
 49
1.25
 49
-1.25
  0
LTYPE
  2
CENTER2
 70
    64
  3
----------  --  ----------  --  
 72
    65
 73
     4
 40
20.0
 49
12.5
 49
-2.5
 49
2.5
 49
-2.5
  0
LTYPE
  2
PHANTOM1
 70
    64
  3
--- - - --- - - --- - - --- - - 
 72
    65
 73
     6
 40
10.0
 49
3.25
 49
-1.25
 49
1.25
 49
-1.25
 49
1.25
 49
-1.25
  0
LTYPE
  2
PHANTOM2
 70
    64
  3
--------  -  -  --------  -  -  
 72
    65
 73
     6
 40
20.0
 49
10.0
 49
-2.5
 49
1.25
 49
-2.5
 49
1.25
 49
-2.5
  0
LTYPE
  2
DOT
 70
    64
  3
-   -   -   -   -   -   -   -   
 72
    65
 73
     2
 40
2.5
 49
0.625
 49
-1.875
  0
LTYPE
  2
DUMMY
 70
    64
  3
ダミー
 72
    65
 73
     0
 40
0.0
  0
LTYPE
  2
RAND1
 70
    64
  3
ランダム線1
 72
    65
 73
     4
 40
10.0
 49
1.0
 49
-2.0
 49
3.0
 49
-4.0
  0
LTYPE
  2
RAND2
 70
    64
  3
ランダム線2
 72
    65
 73
     4
 40
14.0
 49
2.0
 49
-3.0
 49
4.0
 49
-5.0
  0
LTYPE
  2
RAND3
 70
    64
  3
ランダム線3
 72
    65
 73
     4
 40
18.0
 49
3.0
 49
-4.0
 49
5.0
 49
-6.0
  0
LTYPE
  2
RAND4
 70
    64
  3
ランダム線4
 72
    65
 73
     4
 40
22.0
 49
4.0
 49
-5.0
 49
6.0
 49
-7.0
  0
LTYPE
  2
RAND5
 70
    64
  3
ランダム線5
 72
    65
 73
     4
 40
26.0
 49
5.0
 49
-6.0
 49
7.0
 49
-8.0
  0
LTYPE
  2
LONG1
 70
    64
  3
----------  --  ----------  --  
 72
    65
 73
     4
 40
40.0
 49
32.5
 49
-2.5
 49
2.5
 49
-2.5
  0
LTYPE
  2
LONG2
 70
    64
  3
--------  -  -  --------  -  -  
 72
    65
 73
     6
 40
40.0
 49
30.0
 49
-2.5
 49
1.25
 49
-2.5
 49
1.25
 49
-2.5
  0
LTYPE
  2
LONG3
 70
    64
  3
+++++++++++++++..+++++++++++++++
 72
    65
 73
     2
 40
40.0
 49
37.5
 49
-2.5
  0
LTYPE
  2
LONG4
 70
    64
  3
+++++++++++++++..+++++++++++++++
 72
    65
 73
     2
 40
80.0
 49
75.0
 49
-5.0
  0
LTYPE
  2
LONG5
 70
    64
  3
----------  --  ----------  --  
 72
    65
 73
     4
 40
60.0
 49
37.5
 49
-7.5
 49
7.5
 49
-7.5
  0
LTYPE
  2
dashed
 70
   64
  3
-------   -------------   ------
 72
   65
 73
    2
 40
7.5
 49
6
 49
-1.5
  0
LTYPE
  2
dashed_spaced
 70
   64
  3
----        --------        ----
 72
   65
 73
    2
 40
12
 49
6
 49
-6
  0
LTYPE
  2
long_dashed_dotted
 70
   64
  3
------------- --- --------------
 72
   65
 73
    4
 40
15.25
 49
12
 49
-1.5
 49
0.25
 49
-1.5
  0
LTYPE
  2
long_dashed_double-dotted
 70
   64
  3
----------- --- --- ------------
 72
   65
 73
    6
 40
17
 49
12
 49
-1.5
 49
0.25
 49
-1.5
 49
0.25
 49
-1.5
  0
LTYPE
  2
long_dashed_triplicate-dotted
 70
   64
  3
--------- --- --- --- ----------
 72
   65
 73
    8
 40
18.75
 49
12
 49
-1.5
 49
0.25
 49
-1.5
 49
0.25
 49
-1.5
 49
0.25
 49
-1.5
  0
LTYPE
  2
dotted
 70
   64
  3
   -       -       -       -    
 72
   65
 73
    2
 40
1.75
 49
0.25
 49
-1.5
  0
LTYPE
  2
chain
 70
   64
  3
-------------- -- --------------
 72
   65
 73
    4
 40
18.5
 49
12
 49
-1.5
 49
3.5
 49
-1.5
  0
LTYPE
  2
chain_double_dash
 70
   64
  3
------------ -- -- -------------
 72
   65
 73
    6
 40
23.5
 49
12
 49
-1.5
 49
3.5
 49
-1.5
 49
3.5
 49
-1.5
  0
LTYPE
  2
dashed_dotted
 70
   64
  3
-----------     -     ----------
 72
   65
 73
    4
 40
9.25
 49
6
 49
-1.5
 49
0.25
 49
-1.5
  0
LTYPE
  2
double-dashed_dotted
 70
   64
  3
------   -----------   -   -----
 72
   65
 73
    6
 40
16.75
 49
6
 49
-1.5
 49
6
 49
-1.5
 49
0.25
 49
-1.5
  0
LTYPE
  2
dashed_double-dotted
 70
   64
  3
---------    -    -    ---------
 72
   65
 73
    6
 40
11
 49
6
 49
-1.5
 49
0.25
 49
-1.5
 49
0.25
 49
-1.5
  0
LTYPE
  2
double-dashed_double-dotted
 70
   64
  3
-----   ---------   -   -   ----
 72
   65
 73
    8
 40
18.5
 49
6
 49
-1.5
 49
6
 49
-1.5
 49
0.25
 49
-1.5
 49
0.25
 49
-1.5
  0
LTYPE
  2
dashed_triplicate-dotted
 70
   64
  3
-------    -    -    -    ------
 72
   65
 73
    8
 40
12.75
 49
6
 49
-1.5
 49
0.25
 49
-1.5
 49
0.25
 49
-1.5
 49
0.25
 49
-1.5
  0
LTYPE
  2
double-dashed_triplicate-dotted
 70
   64
  3
-----  ---------  -  -  -  -----
 72
   65
 73
   10
 40
20.25
 49
6
 49
-1.5
 49
6
 49
-1.5
 49
0.25
 49
-1.5
 49
0.25
 49
-1.5
 49
0.25
 49
-1.5
  0
LTYPE
  2
undefined
 70
   64
  3
--------------------------------
 72
   65
 73
    0
 40
0
  0
ENDTAB
  0
TABLE
  2
STYLE
  5
3
100
AcDbSymbolTable
 70
     1
  0
STYLE
  5
10
100
AcDbSymbolTableRecord
100
AcDbTextStyleTableRecord
  2
STANDARD
 70
     0
 40
0.0
 41
1.0
 50
0.0
 71
     0
 42
0.2
  3
txt
  4
bigfont.shx
  0
STYLE
  5
26
100
AcDbSymbolTableRecord
100
AcDbTextStyleTableRecord
  2
TATEGAKI
 70
    68
 40
0.0
 41
1.0
 50
0.0
 71
     0
 42
1.0
  3
txt
  4
bigfont.shx
  0
ENDTAB
  0
TABLE
  2
LAYER
 70
    5
  0
LAYER
  2
_0-0_LAYER001
 70
   64
 62
    7
  6
CONTINUOUS
  0
LAYER
  2
_0-1_LAYER004
 70
   64
 62
    7
  6
CONTINUOUS
  0
LAYER
  2
_0-2_LAYER005
 70
   64
 62
    7
  6
CONTINUOUS
  0
LAYER
  2
_0-3_LAYER006
 70
   64
 62
    7
  6
CONTINUOUS
  0
LAYER
  2
ADD_LINE
 70
   64
 62
    7
  6
CONTINUOUS
  0
ENDTAB
  0
ENDSEC
  0
SECTION
  2
BLOCKS
  0
ENDSEC
  0
SECTION
  2
ENTITIES
  0
LINE
  8
_0-3_LAYER006
  6
CONTINUOUS
 62
    2
 10
1177.7184
 20
1035.9818
 11
2164.7366999999999
 21
1035.9818
  0
LINE
  8
_0-0_LAYER001
  6
DASHED1
 62
    2
 10
1187.7184
 20
1035.627
 11
1187.7184
 21
905.98180000000002
  0
LINE
  8
_0-3_LAYER006
  6
CONTINUOUS
 62
    1
 10
2152.6172000000001
 20
1035.9818
 11
2164.7366999999999
 21
1048.1013
  0
LINE
  8
_0-3_LAYER006
  6
CONTINUOUS
 62
    1
 10
2138.4749999999999
 20
1035.9818
 11
2164.7366999999999
 21
1062.2435
  0
LINE
  8
_0-3_LAYER006
  6
CONTINUOUS
 62
    1
 10
2124.3328999999999
 20
1035.9818
 11
2164.3328999999999
 21
1075.9818
  0
LINE
  8
_0-3_LAYER006
  6
CONTINUOUS
 62
    1
 10
2110.1907999999999
 20
1035.9818
 11
2150.1907999999999
 21
1075.9818
  0
LINE
  8
_0-3_LAYER006
  6
CONTINUOUS
 62
    1
 10
2096.0486000000001
 20
1035.9818
 11
2136.0486000000001
 21
1075.9818
  0
LINE
  8
_0-3_LAYER006
  6
CONTINUOUS
 62
    1
 10
2081.9065000000001
 20
1035.9818
 11
2121.9065000000001
 21
1075.9818
  0
LINE
  8
_0-3_LAYER006
  6
CONTINUOUS
 62
    1
 10
2067.7644
 20
1035.9818
 11
2107.7644
 21
1075.9818
  0
LINE
  8
_0-3_LAYER006
  6
CONTINUOUS
 62
    1
 10
2053.6221999999998
 20
1035.9818
 11
2093.6221999999998
 21
1075.9818
  0
LINE
  8
_0-3_LAYER006
  6
CONTINUOUS
 62
    1
 10
2039.4801000000002
 20
1035.9818
 11
2079.4801000000002
 21
1075.9818
  0
LINE
  8
_0-3_LAYER006
  6
CONTINUOUS
 62
    1
 10
2025.3380000000002
 20
1035.9818
 11
2065.3380000000002
 21
1075.9818
  0
LINE
  8
_0-3_LAYER006
  6
CONTINUOUS
 62
    1
 10
2011.1958
 20
1035.9818
 11
2051.1958
 21
1075.9818
  0
LINE
  8
_0-3_LAYER006
  6
CONTINUOUS
 62
    1
 10
1997.0536999999999
 20
1035.9818
 11
2037.0536999999999
 21
1075.9818
  0
LINE
  8
_0-3_LAYER006
  6
CONTINUOUS
 62
    1
 10
1982.9115999999999
 20
1035.9818
 11
2022.9115999999999
 21
1075.9818
  0
LINE
  8
_0-3_LAYER006
  6
CONTINUOUS
 62
    1
 10
1968.7694000000001
 20
1035.9818
 11
2008.7694000000001
 21
1075.9818
  0
LINE
  8
_0-3_LAYER006
  6
CONTINUOUS
 62
    1
 10
1954.6273000000001
 20
1035.9818
 11
1994.6273000000001
 21
1075.9818
  0
LINE
  8
_0-3_LAYER006
  6
CONTINUOUS
 62
    1
 10
1940.4850999999999
 20
1035.9818
 11
1980.4850999999999
 21
1075.9818
  0
LINE
  8
_0-3_LAYER006
  6
CONTINUOUS
 62
    1
 10
1926.3429999999998
 20
1035.9818
 11
1966.3429999999998
 21
1075.9818
  0
LINE
  8
_0-3_LAYER006
  6
CONTINUOUS
 62
    1
 10
1912.2008999999998
 20
1035.9818
 11
1952.2008999999998
 21
1075.9818
  0
LINE
  8
_0-3_LAYER006
  6
CONTINUOUS
 62
    1
 10
1898.0587
 20
1035.9818
 11
1938.0587
 21
1075.9818
  0
LINE
  8
_0-3_LAYER006
  6
CONTINUOUS
 62
    1
 10
1883.9166
 20
1035.9818
 11
1923.9166
 21
1075.9818
  0
LINE
  8
_0-3_LAYER006
  6
CONTINUOUS
 62
    1
 10
1869.7745
 20
1035.9818
 11
1909.7745
 21
1075.9818
  0
LINE
  8
_0-3_LAYER006
  6
CONTINUOUS
 62
    1
 10
1855.6323000000002
 20
1035.9818
 11
1895.6323000000002
 21
1075.9818
  0
LINE
  8
_0-3_LAYER006
  6
CONTINUOUS
 62
    1
 10
1841.4902000000002
 20
1035.9818
 11
1881.4902000000002
 21
1075.9818
  0
LINE
  8
_0-3_LAYER006
  6
CONTINUOUS
 62
    1
 10
1827.3481000000002
 20
1035.9818
 11
1867.3481000000002
 21
1075.9818
  0
LINE
  8
_0-3_LAYER006
  6
CONTINUOUS
 62
    1
 10
1813.2058999999999
 20
1035.9818
 11
1853.2058999999999
 21
1075.9818
  0
LINE
  8
_0-3_LAYER006
  6
CONTINUOUS
 62
    1
 10
1799.0637999999999
 20
1035.9818
 11
1839.0637999999999
 21
1075.9818
  0
LINE
  8
_0-3_LAYER006
  6
CONTINUOUS
 62
    1
 10
1784.9216999999999
 20
1035.9818
 11
1824.9216999999999
 21
1075.9818
  0
LINE
  8
_0-3_LAYER006
  6
CONTINUOUS
 62
    1
 10
1770.7795000000001
 20
1035.9818
 11
1810.7795000000001
 21
1075.9818
  0
LINE
  8
_0-3_LAYER006
  6
CONTINUOUS
 62
    1
 10
1756.6374000000001
 20
1035.9818
 11
1796.6374000000001
 21
1075.9818
  0
LINE
  8
_0-3_LAYER006
  6
CONTINUOUS
 62
    1
 10
1742.4951999999998
 20
1035.9818
 11
1782.4951999999998
 21
1075.9818
  0
LINE
  8
_0-3_LAYER006
  6
CONTINUOUS
 62
    1
 10
1728.3530999999998
 20
1035.9818
 11
1768.3530999999998
 21
1075.9818
  0
LINE
  8
_0-3_LAYER006
  6
CONTINUOUS
 62
    1
 10
1714.2109999999998
 20
1035.9818
 11
1754.2109999999998
 21
1075.9818
  0
LINE
  8
_0-3_LAYER006
  6
CONTINUOUS
 62
    1
 10
1700.0688
 20
1035.9818
 11
1740.0688
 21
1075.9818
  0
LINE
  8
_0-3_LAYER006
  6
CONTINUOUS
 62
    1
 10
1685.9267
 20
1035.9818
 11
1725.9267
 21
1075.9818
  0
LINE
  8
_0-3_LAYER006
  6
CONTINUOUS
 62
    1
 10
1671.7846
 20
1035.9818
 11
1711.7846
 21
1075.9818
  0
LINE
  8
_0-3_LAYER006
  6
CONTINUOUS
 62
    1
 10
1657.6424000000002
 20
1035.9818
 11
1697.6424000000002
 21
1075.9818
  0
LINE
  8
_0-3_LAYER006
  6
CONTINUOUS
 62
    1
 10
1643.5003000000002
 20
1035.9818
 11
1683.5003000000002
 21
1075.9818
  0
LINE
  8
_0-3_LAYER006
  6
CONTINUOUS
 62
    1
 10
1629.3582000000001
 20
1035.9818
 11
1669.3582000000001
 21
1075.9818
  0
LINE
  8
_0-3_LAYER006
  6
CONTINUOUS
 62
    1
 10
1615.2159999999999
 20
1035.9818
 11
1655.2159999999999
 21
1075.9818
  0
LINE
  8
_0-3_LAYER006
  6
CONTINUOUS
 62
    1
 10
1601.0738999999999
 20
1035.9818
 11
1641.0738999999999
 21
1075.9818
  0
LINE
  8
_0-3_LAYER006
  6
CONTINUOUS
 62
    1
 10
1586.9317999999998
 20
1035.9818
 11
1626.9317999999998
 21
1075.9818
  0
LINE
  8
_0-3_LAYER006
  6
CONTINUOUS
 62
    1
 10
1572.7896000000001
 20
1035.9818
 11
1612.7896000000001
 21
1075.9818
  0
LINE
  8
_0-3_LAYER006
  6
CONTINUOUS
 62
    1
 10
1558.6475
 20
1035.9818
 11
1598.6475
 21
1075.9818
  0
LINE
  8
_0-3_LAYER006
  6
CONTINUOUS
 62
    1
 10
1544.5052999999998
 20
1035.9818
 11
1584.5052999999998
 21
1075.9818
  0
LINE
  8
_0-3_LAYER006
  6
CONTINUOUS
 62
    1
 10
1530.3631999999998
 20
1035.9818
 11
1570.3631999999998
 21
1075.9818
  0
LINE
  8
_0-3_LAYER006
  6
CONTINUOUS
 62
    1
 10
1516.2211000000002
 20
1035.9818
 11
1556.2211000000002
 21
1075.9818
  0
LINE
  8
_0-3_LAYER006
  6
CONTINUOUS
 62
    1
 10
1502.0789
 20
1035.9818
 11
1542.0789
 21
1075.9818
  0
LINE
  8
_0-3_LAYER006
  6
CONTINUOUS
 62
    1
 10
1487.9367999999999
 20
1035.9818
 11
1527.9367999999999
 21
1075.9818
  0
LINE
  8
_0-3_LAYER006
  6
CONTINUOUS
 62
    1
 10
1473.7946999999999
 20
1035.9818
 11
1513.7946999999999
 21
1075.9818
  0
LINE
  8
_0-3_LAYER006
  6
CONTINUOUS
 62
    1
 10
1459.6525000000001
 20
1035.9818
 11
1499.6525000000001
 21
1075.9818
  0
LINE
  8
_0-3_LAYER006
  6
CONTINUOUS
 62
    1
 10
1445.5104000000001
 20
1035.9818
 11
1485.5104000000001
 21
1075.9818
  0
LINE
  8
_0-3_LAYER006
  6
CONTINUOUS
 62
    1
 10
1431.3683000000001
 20
1035.9818
 11
1471.3683000000001
 21
1075.9818
  0
LINE
  8
_0-3_LAYER006
  6
CONTINUOUS
 62
    1
 10
1417.2261000000001
 20
1035.9818
 11
1457.2260999999999
 21
1075.9818
  0
LINE
  8
_0-3_LAYER006
  6
CONTINUOUS
 62
    1
 10
1403.0840000000001
 20
1035.9818
 11
1443.0839999999998
 21
1075.9818
  0
LINE
  8
_0-3_LAYER006
  6
CONTINUOUS
 62
    1
 10
1388.9419
 20
1035.9818
 11
1428.9419
 21
1075.9818
  0
LINE
  8
_0-3_LAYER006
  6
CONTINUOUS
 62
    1
 10
1374.7997
 20
1035.9818
 11
1414.7997
 21
1075.9818
  0
LINE
  8
_0-3_LAYER006
  6
CONTINUOUS
 62
    1
 10
1360.6576
 20
1035.9818
 11
1400.6576
 21
1075.9818
  0
LINE
  8
_0-3_LAYER006
  6
CONTINUOUS
 62
    1
 10
1346.5155
 20
1035.9818
 11
1386.5155
 21
1075.9818
  0
LINE
  8
_0-3_LAYER006
  6
CONTINUOUS
 62
    1
 10
1332.3732999999997
 20
1035.9818
 11
1372.3732999999997
 21
1075.9818
  0
LINE
  8
_0-3_LAYER006
  6
CONTINUOUS
 62
    1
 10
1318.2311999999999
 20
1035.9818
 11
1358.2311999999999
 21
1075.9818
  0
LINE
  8
_0-3_LAYER006
  6
CONTINUOUS
 62
    1
 10
1304.0889999999999
 20
1035.9818
 11
1344.0889999999999
 21
1075.9818
  0
LINE
  8
_0-3_LAYER006
  6
CONTINUOUS
 62
    1
 10
1289.9468999999999
 20
1035.9818
 11
1329.9468999999999
 21
1075.9818
  0
LINE
  8
_0-3_LAYER006
  6
CONTINUOUS
 62
    1
 10
1275.8047999999999
 20
1035.9818
 11
1315.8047999999999
 21
1075.9818
  0
LINE
  8
_0-3_LAYER006
  6
CONTINUOUS
 62
    1
 10
1261.6626000000001
 20
1035.9818
 11
1301.6626000000001
 21
1075.9818
  0
LINE
  8
_0-3_LAYER006
  6
CONTINUOUS
 62
    1
 10
1247.5205000000001
 20
1035.9818
 11
1287.5205000000001
 21
1075.9818
  0
LINE
  8
_0-3_LAYER006
  6
CONTINUOUS
 62
    1
 10
1233.3784000000001
 20
1035.9818
 11
1243.3784000000001
 21
1045.9818
  0
LINE
  8
_0-3_LAYER006
  6
CONTINUOUS
 62
    1
 10
1252.7184
 20
1055.3217999999999
 11
1273.3784000000001
 21
1075.9818
  0
LINE
  8
_0-3_LAYER006
  6
CONTINUOUS
 62
    1
 10
1219.2362000000001
 20
1035.9818
 11
1229.2362000000001
 21
1045.9818
  0
LINE
  8
_0-3_LAYER006
  6
CONTINUOUS
 62
    1
 10
1252.7184
 20
1069.4639
 11
1259.2362000000001
 21
1075.9818
  0
LINE
  8
_0-3_LAYER006
  6
CONTINUOUS
 62
    1
 10
1205.0941
 20
1035.9818
 11
1215.0941
 21
1045.9818
  0
LINE
  8
_0-3_LAYER006
  6
CONTINUOUS
 62
    1
 10
1190.952
 20
1035.9818
 11
1200.952
 21
1045.9818
  0
LINE
  8
_0-3_LAYER006
  6
CONTINUOUS
 62
    1
 10
1177.7184
 20
1036.8904
 11
1186.8098
 21
1045.9818
  0
LINE
  8
_0-3_LAYER006
  6
CONTINUOUS
 62
    1
 10
1177.7184
 20
1039.5287000000001
 11
1181.2652
 21
1035.9818
  0
LINE
  8
_0-3_LAYER006
  6
CONTINUOUS
 62
    1
 10
1185.4074000000001
 20
1045.9818
 11
1195.4074000000001
 21
1035.9818
  0
LINE
  8
_0-3_LAYER006
  6
CONTINUOUS
 62
    1
 10
1199.5495000000001
 20
1045.9818
 11
1209.5495000000001
 21
1035.9818
  0
LINE
  8
_0-3_LAYER006
  6
CONTINUOUS
 62
    1
 10
1213.6917000000001
 20
1045.9818
 11
1223.6917000000001
 21
1035.9818
  0
LINE
  8
_0-3_LAYER006
  6
CONTINUOUS
 62
    1
 10
1227.8338000000001
 20
1045.9818
 11
1237.8338000000001
 21
1035.9818
  0
LINE
  8
_0-3_LAYER006
  6
CONTINUOUS
 62
    1
 10
1241.9758999999999
 20
1045.9818
 11
1251.9758999999999
 21
1035.9818
  0
LINE
  8
_0-3_LAYER006
  6
CONTINUOUS
 62
    1
 10
1252.7184
 20
1049.3815
 11
1266.1180999999999
 21
1035.9818
  0
LINE
  8
_0-3_LAYER006
  6
CONTINUOUS
 62
    1
 10
1252.7184
 20
1063.5236
 11
1280.2601999999999
 21
1035.9818
  0
LINE
  8
_0-3_LAYER006
  6
CONTINUOUS
 62
    1
 10
1254.4023
 20
1075.9818
 11
1294.4022999999997
 21
1035.9818
  0
LINE
  8
_0-3_LAYER006
  6
CONTINUOUS
 62
    1
 10
1268.5445
 20
1075.9818
 11
1308.5445
 21
1035.9818
  0
LINE
  8
_0-3_LAYER006
  6
CONTINUOUS
 62
    1
 10
1282.6866
 20
1075.9818
 11
1322.6866
 21
1035.9818
  0
LINE
  8
_0-3_LAYER006
  6
CONTINUOUS
 62
    1
 10
1296.8287
 20
1075.9818
 11
1336.8287
 21
1035.9818
  0
LINE
  8
_0-3_LAYER006
  6
CONTINUOUS
 62
    1
 10
1310.9709
 20
1075.9818
 11
1350.9709
 21
1035.9818
  0
LINE
  8
_0-3_LAYER006
  6
CONTINUOUS
 62
    1
 10
1325.1130000000001
 20
1075.9818
 11
1365.1130000000001
 21
1035.9818
  0
LINE
  8
_0-3_LAYER006
  6
CONTINUOUS
 62
    1
 10
1339.2551000000001
 20
1075.9818
 11
1379.2551000000001
 21
1035.9818
  0
LINE
  8
_0-3_LAYER006
  6
CONTINUOUS
 62
    1
 10
1353.3973000000001
 20
1075.9818
 11
1393.3973000000001
 21
1035.9818
  0
LINE
  8
_0-3_LAYER006
  6
CONTINUOUS
 62
    1
 10
1367.5394000000001
 20
1075.9818
 11
1407.5394000000001
 21
1035.9818
  0
LINE
  8
_0-3_LAYER006
  6
CONTINUOUS
 62
    1
 10
1381.6815999999999
 20
1075.9818
 11
1421.6815999999999
 21
1035.9818
  0
LINE
  8
_0-3_LAYER006
  6
CONTINUOUS
 62
    1
 10
1395.8236999999999
 20
1075.9818
 11
1435.8236999999999
 21
1035.9818
  0
LINE
  8
_0-3_LAYER006
  6
CONTINUOUS
 62
    1
 10
1409.9657999999999
 20
1075.9818
 11
1449.9657999999999
 21
1035.9818
  0
LINE
  8
_0-3_LAYER006
  6
CONTINUOUS
 62
    1
 10
1424.1079999999999
 20
1075.9818
 11
1464.1080000000002
 21
1035.9818
  0
LINE
  8
_0-3_LAYER006
  6
CONTINUOUS
 62
    1
 10
1438.2501000000002
 20
1075.9818
 11
1478.2501000000002
 21
1035.9818
  0
LINE
  8
_0-3_LAYER006
  6
CONTINUOUS
 62
    1
 10
1452.3921999999998
 20
1075.9818
 11
1492.3921999999998
 21
1035.9818
  0
LINE
  8
_0-3_LAYER006
  6
CONTINUOUS
 62
    1
 10
1466.5344
 20
1075.9818
 11
1506.5344
 21
1035.9818
  0
LINE
  8
_0-3_LAYER006
  6
CONTINUOUS
 62
    1
 10
1480.6765
 20
1075.9818
 11
1520.6765
 21
1035.9818
  0
LINE
  8
_0-3_LAYER006
  6
CONTINUOUS
 62
    1
 10
1494.8186000000001
 20
1075.9818
 11
1534.8186000000001
 21
1035.9818
  0
LINE
  8
_0-3_LAYER006
  6
CONTINUOUS
 62
    1
 10
1508.9607999999998
 20
1075.9818
 11
1548.9607999999998
 21
1035.9818
  0
LINE
  8
_0-3_LAYER006
  6
CONTINUOUS
 62
    1
 10
1523.1028999999999
 20
1075.9818
 11
1563.1028999999999
 21
1035.9818
  0
LINE
  8
_0-3_LAYER006
  6
CONTINUOUS
 62
    1
 10
1537.2449999999999
 20
1075.9818
 11
1577.2449999999999
 21
1035.9818
  0
LINE
  8
_0-3_LAYER006
  6
CONTINUOUS
 62
    1
 10
1551.3872000000001
 20
1075.9818
 11
1591.3872000000001
 21
1035.9818
  0
LINE
  8
_0-3_LAYER006
  6
CONTINUOUS
 62
    1
 10
1565.5293000000001
 20
1075.9818
 11
1605.5293000000001
 21
1035.9818
  0
LINE
  8
_0-3_LAYER006
  6
CONTINUOUS
 62
    1
 10
1579.6714999999999
 20
1075.9818
 11
1619.6714999999999
 21
1035.9818
  0
LINE
  8
_0-3_LAYER006
  6
CONTINUOUS
 62
    1
 10
1593.8136
 20
1075.9818
 11
1633.8136
 21
1035.9818
  0
LINE
  8
_0-3_LAYER006
  6
CONTINUOUS
 62
    1
 10
1607.9557
 20
1075.9818
 11
1647.9557
 21
1035.9818
  0
LINE
  8
_0-3_LAYER006
  6
CONTINUOUS
 62
    1
 10
1622.0979000000002
 20
1075.9818
 11
1662.0979000000002
 21
1035.9818
  0
LINE
  8
_0-3_LAYER006
  6
CONTINUOUS
 62
    1
 10
1636.2399999999998
 20
1075.9818
 11
1676.2399999999998
 21
1035.9818
  0
LINE
  8
_0-3_LAYER006
  6
CONTINUOUS
 62
    1
 10
1650.3820999999998
 20
1075.9818
 11
1690.3820999999998
 21
1035.9818
  0
LINE
  8
_0-3_LAYER006
  6
CONTINUOUS
 62
    1
 10
1664.5243
 20
1075.9818
 11
1704.5243
 21
1035.9818
  0
LINE
  8
_0-3_LAYER006
  6
CONTINUOUS
 62
    1
 10
1678.6664000000001
 20
1075.9818
 11
1718.6664000000001
 21
1035.9818
  0
LINE
  8
_0-3_LAYER006
  6
CONTINUOUS
 62
    1
 10
1692.8085000000001
 20
1075.9818
 11
1732.8085000000001
 21
1035.9818
  0
LINE
  8
_0-3_LAYER006
  6
CONTINUOUS
 62
    1
 10
1706.9506999999999
 20
1075.9818
 11
1746.9506999999999
 21
1035.9818
  0
LINE
  8
_0-3_LAYER006
  6
CONTINUOUS
 62
    1
 10
1721.0927999999999
 20
1075.9818
 11
1761.0927999999999
 21
1035.9818
  0
LINE
  8
_0-3_LAYER006
  6
CONTINUOUS
 62
    1
 10
1735.2348999999999
 20
1075.9818
 11
1775.2348999999999
 21
1035.9818
  0
LINE
  8
_0-3_LAYER006
  6
CONTINUOUS
 62
    1
 10
1749.3771000000002
 20
1075.9818
 11
1789.3771000000002
 21
1035.9818
  0
LINE
  8
_0-3_LAYER006
  6
CONTINUOUS
 62
    1
 10
1763.5192000000002
 20
1075.9818
 11
1803.5192000000002
 21
1035.9818
  0
LINE
  8
_0-3_LAYER006
  6
CONTINUOUS
 62
    1
 10
1777.6614
 20
1075.9818
 11
1817.6614
 21
1035.9818
  0
LINE
  8
_0-3_LAYER006
  6
CONTINUOUS
 62
    1
 10
1791.8035
 20
1075.9818
 11
1831.8035
 21
1035.9818
  0
LINE
  8
_0-3_LAYER006
  6
CONTINUOUS
 62
    1
 10
1805.9456
 20
1075.9818
 11
1845.9456
 21
1035.9818
  0
LINE
  8
_0-3_LAYER006
  6
CONTINUOUS
 62
    1
 10
1820.0877999999998
 20
1075.9818
 11
1860.0877999999998
 21
1035.9818
  0
LINE
  8
_0-3_LAYER006
  6
CONTINUOUS
 62
    1
 10
1834.2298999999998
 20
1075.9818
 11
1874.2298999999998
 21
1035.9818
  0
LINE
  8
_0-3_LAYER006
  6
CONTINUOUS
 62
    1
 10
1848.3719999999998
 20
1075.9818
 11
1888.3719999999998
 21
1035.9818
  0
LINE
  8
_0-3_LAYER006
  6
CONTINUOUS
 62
    1
 10
1862.5142000000001
 20
1075.9818
 11
1902.5142000000001
 21
1035.9818
  0
LINE
  8
_0-3_LAYER006
  6
CONTINUOUS
 62
    1
 10
1876.6563000000001
 20
1075.9818
 11
1916.6563000000001
 21
1035.9818
  0
LINE
  8
_0-3_LAYER006
  6
CONTINUOUS
 62
    1
 10
1890.7984000000001
 20
1075.9818
 11
1930.7984000000001
 21
1035.9818
  0
LINE
  8
_0-3_LAYER006
  6
CONTINUOUS
 62
    1
 10
1904.9405999999999
 20
1075.9818
 11
1944.9405999999999
 21
1035.9818
  0
LINE
  8
_0-3_LAYER006
  6
CONTINUOUS
 62
    1
 10
1919.0826999999999
 20
1075.9818
 11
1959.0826999999999
 21
1035.9818
  0
LINE
  8
_0-3_LAYER006
  6
CONTINUOUS
 62
    1
 10
1933.2248
 20
1075.9818
 11
1973.2248
 21
1035.9818
  0
LINE
  8
_0-3_LAYER006
  6
CONTINUOUS
 62
    1
 10
1947.3670000000002
 20
1075.9818
 11
1987.3670000000002
 21
1035.9818
  0
LINE
  8
_0-3_LAYER006
  6
CONTINUOUS
 62
    1
 10
1961.5091000000002
 20
1075.9818
 11
2001.5091000000002
 21
1035.9818
  0
LINE
  8
_0-3_LAYER006
  6
CONTINUOUS
 62
    1
 10
1975.6511999999998
 20
1075.9818
 11
2015.6511999999998
 21
1035.9818
  0
LINE
  8
_0-3_LAYER006
  6
CONTINUOUS
 62
    1
 10
1989.7934
 20
1075.9818
 11
2029.7934
 21
1035.9818
  0
LINE
  8
_0-3_LAYER006
  6
CONTINUOUS
 62
    1
 10
2003.9355
 20
1075.9818
 11
2043.9355
 21
1035.9818
  0
LINE
  8
_0-3_LAYER006
  6
CONTINUOUS
 62
    1
 10
2018.0776999999998
 20
1075.9818
 11
2058.0776999999998
 21
1035.9818
  0
LINE
  8
_0-3_LAYER006
  6
CONTINUOUS
 62
    1
 10
2032.2197999999999
 20
1075.9818
 11
2072.2197999999999
 21
1035.9818
  0
LINE
  8
_0-3_LAYER006
  6
CONTINUOUS
 62
    1
 10
2046.3618999999999
 20
1075.9818
 11
2086.3618999999999
 21
1035.9818
  0
LINE
  8
_0-3_LAYER006
  6
CONTINUOUS
 62
    1
 10
2060.5041000000001
 20
1075.9818
 11
2100.5041000000001
 21
1035.9818
  0
LINE
  8
_0-3_LAYER006
  6
CONTINUOUS
 62
    1
 10
2074.6462000000001
 20
1075.9818
 11
2114.6462000000001
 21
1035.9818
  0
LINE
  8
_0-3_LAYER006
  6
CONTINUOUS
 62
    1
 10
2088.7883000000002
 20
1075.9818
 11
2128.7883000000002
 21
1035.9818
  0
LINE
  8
_0-3_LAYER006
  6
CONTINUOUS
 62
    1
 10
2102.9304999999999
 20
1075.9818
 11
2142.9304999999999
 21
1035.9818
  0
LINE
  8
_0-3_LAYER006
  6
CONTINUOUS
 62
    1
 10
2117.0726
 20
1075.9818
 11
2157.0726
 21
1035.9818
  0
LINE
  8
_0-3_LAYER006
  6
CONTINUOUS
 62
    1
 10
2131.2147
 20
1075.9818
 11
2164.7366999999999
 21
1042.4598000000001
  0
LINE
  8
_0-3_LAYER006
  6
CONTINUOUS
 62
    1
 10
2145.3569000000002
 20
1075.9818
 11
2164.7366999999999
 21
1056.6018999999999
  0
LINE
  8
_0-3_LAYER006
  6
CONTINUOUS
 62
    1
 10
2159.4989999999998
 20
1075.9818
 11
2164.7366999999999
 21
1070.7440999999999
  0
LINE
  8
_0-0_LAYER001
  6
CONTINUOUS
 62
    2
 10
1015.9818
 20
1045.9818
 11
1033.4818
 21
1045.9818
  0
CIRCLE
  8
_0-0_LAYER001
  6
CONTINUOUS
 62
    2
 10
1018.4818
 20
1045.9818
 40
1.6999999999999997
  0
LINE
  8
_0-0_LAYER001
  6
CONTINUOUS
 62
    2
 10
1018.4818
 20
1045.9818
 11
1018.4818
 21
895.98180000000002
  0
CIRCLE
  8
_0-0_LAYER001
  6
CONTINUOUS
 62
    2
 10
1018.4818
 20
895.98180000000002
 40
1.6999999999999997
  0
LINE
  8
_0-0_LAYER001
  6
CONTINUOUS
 62
    2
 10
1015.9818
 20
895.98180000000002
 11
1068.4818
 21
895.98180000000002
  0
LINE
  8
_0-0_LAYER001
  6
CONTINUOUS
 62
    2
 10
1015.9818
 20
1045.9818
 11
1068.4818
 21
1045.9818
  0
CIRCLE
  8
_0-0_LAYER001
  6
CONTINUOUS
 62
    2
 10
1018.4818
 20
1045.9818
 40
1.6999999999999997
  0
LINE
  8
_0-0_LAYER001
  6
CONTINUOUS
 62
    2
 10
1018.4818
 20
1045.9818
 11
1018.4818
 21
1075.9818
  0
CIRCLE
  8
_0-0_LAYER001
  6
CONTINUOUS
 62
    2
 10
1018.4818
 20
1075.9818
 40
1.6999999999999997
  0
LINE
  8
_0-0_LAYER001
  6
CONTINUOUS
 62
    2
 10
1015.9818
 20
1075.9818
 11
1068.4818
 21
1075.9818
  0
LINE
  8
_0-2_LAYER005
  6
CONTINUOUS
 62
    2
 10
1182.7456
 20
1051.8340000000001
 11
1188.0489
 21
1057.1373000000001
  0
LINE
  8
_0-2_LAYER005
  6
CONTINUOUS
 62
    2
 10
1188.0489
 20
1057.1373000000001
 11
1186.1077
 21
1049.8928000000001
  0
LINE
  8
_0-2_LAYER005
  6
CONTINUOUS
 62
    2
 10
1188.0489
 20
1057.1373000000001
 11
1051.2632000000001
 21
820.21749999999997
  0
LINE
  8
_0-2_LAYER005
  6
CONTINUOUS
 62
    2
 10
1051.2632000000001
 20
820.21749999999997
 11
805.2632000000001
 21
820.21749999999997
  0
LINE
  8
_0-1_LAYER004
  6
CONTINUOUS
 62
    3
 10
1272.6241
 20
1050.9818
 11
2164.7366999999999
 21
1050.9818
  0
CIRCLE
  8
_0-1_LAYER004
  6
CONTINUOUS
 62
    3
 10
1278.0974000000001
 20
1052.2068999999999
 40
1.3049219999999999
  0
CIRCLE
  8
_0-1_LAYER004
  6
CONTINUOUS
 62
    3
 10
1428.0974000000001
 20
1052.2068999999999
 40
1.3049219999999999
  0
CIRCLE
  8
_0-1_LAYER004
  6
CONTINUOUS
 62
    3
 10
1578.0974000000001
 20
1052.2068999999999
 40
1.3049219999999999
  0
CIRCLE
  8
_0-1_LAYER004
  6
CONTINUOUS
 62
    3
 10
1728.0974000000001
 20
1052.2068999999999
 40
1.3049219999999999
  0
CIRCLE
  8
_0-1_LAYER004
  6
CONTINUOUS
 62
    3
 10
2028.0974000000001
 20
1052.2068999999999
 40
1.3049219999999999
  0
CIRCLE
  8
_0-1_LAYER004
  6
CONTINUOUS
 62
    3
 10
1878.0974000000001
 20
1052.2068999999999
 40
1.3049219999999999
  0
LINE
  8
_0-1_LAYER004
  6
DASHED1
 62
    2
 10
1362.8723
 20
1055.6609000000001
 11
1352.8723
 21
1055.6609000000001
  0
LINE
  8
_0-1_LAYER004
  6
DASHED1
 62
    2
 10
1384.2422999999999
 20
1001.6422
 11
1384.2422999999999
 21
991.6422
  0
LINE
  8
_0-1_LAYER004
  6
DASHED1
 62
    2
 10
1362.8723
 20
1055.6609000000001
 11
1362.8723
 21
1001.6422
  0
LINE
  8
_0-1_LAYER004
  6
DASHED1
 62
    2
 10
1352.8723
 20
1055.6609000000001
 11
1352.8723
 21
991.6422
  0
LINE
  8
_0-1_LAYER004
  6
DASHED1
 62
    2
 10
1362.8723
 20
1001.6422
 11
1384.2422999999999
 21
1001.6422
  0
LINE
  8
_0-1_LAYER004
  6
DASHED1
 62
    2
 10
1352.8723
 20
991.6422
 11
1384.2422999999999
 21
991.6422
  0
LINE
  8
_0-1_LAYER004
  6
DASHED1
 62
    2
 10
1962.8723
 20
1055.6609000000001
 11
1952.8723
 21
1055.6609000000001
  0
LINE
  8
_0-1_LAYER004
  6
DASHED1
 62
    2
 10
1984.2422999999999
 20
1001.6422
 11
1984.2422999999999
 21
991.6422
  0
LINE
  8
_0-1_LAYER004
  6
DASHED1
 62
    2
 10
1962.8723
 20
1055.6609000000001
 11
1962.8723
 21
1001.6422
  0
LINE
  8
_0-1_LAYER004
  6
DASHED1
 62
    2
 10
1952.8723
 20
1055.6609000000001
 11
1952.8723
 21
991.6422
  0
LINE
  8
_0-1_LAYER004
  6
DASHED1
 62
    2
 10
1962.8723
 20
1001.6422
 11
1984.2422999999999
 21
1001.6422
  0
LINE
  8
_0-1_LAYER004
  6
DASHED1
 62
    2
 10
1952.8723
 20
991.6422
 11
1984.2422999999999
 21
991.6422
  0
LINE
  8
_0-1_LAYER004
  6
CONTINUOUS
 62
    2
 10
1366.2391
 20
989.65470000000005
 11
1364.2979
 21
996.89920000000006
  0
LINE
  8
_0-1_LAYER004
  6
CONTINUOUS
 62
    2
 10
1364.2979
 20
996.89920000000006
 11
1369.6012000000001
 21
991.59590000000003
  0
LINE
  8
_0-1_LAYER004
  6
CONTINUOUS
 62
    2
 10
1364.2979
 20
996.89920000000006
 11
1388.9262000000003
 21
954.24170000000004
  0
LINE
  8
_0-1_LAYER004
  6
CONTINUOUS
 62
    2
 10
1388.9262000000003
 20
954.24170000000004
 11
1448.9261999999999
 21
954.24170000000004
  0
LINE
  8
_0-1_LAYER004
  6
CONTINUOUS
 62
    2
 10
1499.7615000000001
 20
1043.4562000000001
 11
1497.8202999999999
 21
1050.7005999999999
  0
LINE
  8
_0-1_LAYER004
  6
CONTINUOUS
 62
    2
 10
1497.8202999999999
 20
1050.7005999999999
 11
1503.1235999999999
 21
1045.3973000000001
  0
LINE
  8
_0-1_LAYER004
  6
CONTINUOUS
 62
    2
 10
1497.8202999999999
 20
1050.7005999999999
 11
1535.2829999999999
 21
985.81349999999998
  0
LINE
  8
_0-1_LAYER004
  6
CONTINUOUS
 62
    2
 10
1535.2829999999999
 20
985.81349999999998
 11
1595.2829999999999
 21
985.81349999999998
  0
LINE
  8
_0-0_LAYER001
  6
CONTINUOUS
 62
    2
 10
1015.9818
 20
1075.9818
 11
1068.4818
 21
1075.9818
  0
LINE
  8
_0-0_LAYER001
  6
CONTINUOUS
 62
    2
 10
1015.9818
 20
1075.9818
 11
1068.4818
 21
1075.9818
  0
CIRCLE
  8
_0-0_LAYER001
  6
CONTINUOUS
 62
    2
 10
1018.4818
 20
1075.9818
 40
1.6999999999999997
  0
LINE
  8
_0-0_LAYER001
  6
CONTINUOUS
 62
    2
 10
1018.4818
 20
1075.9818
 11
1018.4818
 21
1111.9818
  0
CIRCLE
  8
_0-0_LAYER001
  6
CONTINUOUS
 62
    2
 10
1018.4818
 20
1111.9818
 40
1.6999999999999997
  0
LINE
  8
_0-0_LAYER001
  6
CONTINUOUS
 62
    2
 10
1015.9818
 20
1111.9818
 11
1068.4818
 21
1111.9818
  0
LINE
  8
_0-2_LAYER005
  6
CONTINUOUS
 62
    2
 10
1186.1077
 20
1091.9447
 11
1188.0489
 21
1084.7002
  0
LINE
  8
_0-2_LAYER005
  6
CONTINUOUS
 62
    2
 10
1188.0489
 20
1084.7002
 11
1182.7456
 21
1090.0035
  0
LINE
  8
_0-2_LAYER005
  6
CONTINUOUS
 62
    2
 10
1188.0489
 20
1084.7002
 11
1099.4178999999999
 21
1238.2135000000001
  0
LINE
  8
_0-2_LAYER005
  6
CONTINUOUS
 62
    2
 10
1099.4178999999999
 20
1238.2135000000001
 11
847.33200000000011
 21
1238.2135000000001
  0
LINE
  8
_0-0_LAYER001
  6
CONTINUOUS
 62
    2
 10
1774.6507999999999
 20
808.85290000000009
 11
1979.4735000000001
 21
808.85290000000009
  0
LINE
  8
_0-0_LAYER001
  6
CONTINUOUS
 62
    2
 10
1790.4533999999999
 20
748.89110000000005
 11
2027.3517999999999
 21
748.89110000000005
  0
LINE
  8
_0-0_LAYER001
  6
CONTINUOUS
 62
    2
 10
1780.9103
 20
778.9864
 11
2118.1471000000001
 21
778.9864
  0
LINE
  8
_0-0_LAYER001
  6
CONTINUOUS
 62
    2
 10
1698.4177
 20
1081.7769000000001
 11
1698.4177
 21
1089.2769000000001
  0
LINE
  8
_0-0_LAYER001
  6
CONTINUOUS
 62
    2
 10
1698.4177
 20
1089.2769000000001
 11
1702.1677
 21
1082.7818
  0
LINE
  8
_0-0_LAYER001
  6
CONTINUOUS
 62
    2
 10
1698.4177
 20
1089.2769000000001
 11
1789.6794
 21
748.68370000000004
  0
LINE
  8
_0-0_LAYER001
  6
CONTINUOUS
 62
    2
 10
1217.7184
 20
1100.5137999999999
 11
1170.8623
 21
1113.3959
  0
LINE
  8
_0-0_LAYER001
  6
CONTINUOUS
 62
    4
 10
1873.2872000000002
 20
1151.0989999999999
 11
1875.3380000000002
 21
1151.9045000000001
  0
LINE
  8
_0-0_LAYER001
  6
CONTINUOUS
 62
    4
 10
1875.3380000000002
 20
1151.9045000000001
 11
1878.8865000000001
 21
1153.3007
  0
LINE
  8
_0-0_LAYER001
  6
CONTINUOUS
 62
    4
 10
1878.8865000000001
 20
1153.3007
 11
1882.4589999999998
 21
1154.713
  0
LINE
  8
_0-0_LAYER001
  6
CONTINUOUS
 62
    4
 10
1882.4589999999998
 20
1154.713
 11
1886.0596999999998
 21
1156.1472000000001
  0
LINE
  8
_0-0_LAYER001
  6
CONTINUOUS
 62
    4
 10
1886.0596999999998
 20
1156.1472000000001
 11
1889.6925999999999
 21
1157.6093000000001
  0
LINE
  8
_0-0_LAYER001
  6
CONTINUOUS
 62
    4
 10
1889.6925999999999
 20
1157.6093000000001
 11
1893.3512999999998
 21
1159.1007999999999
  0
LINE
  8
_0-0_LAYER001
  6
CONTINUOUS
 62
    4
 10
1893.3512999999998
 20
1159.1007999999999
 11
1895.4944
 21
1159.9848999999999
  0
LINE
  8
_0-0_LAYER001
  6
CONTINUOUS
 62
    4
 10
1895.4944
 20
1159.9848999999999
 11
1897.5065
 21
1160.8198
  0
LINE
  8
_0-0_LAYER001
  6
CONTINUOUS
 62
    4
 10
1897.5065
 20
1160.8198
 11
1900.7602999999999
 21
1162.1367
  0
LINE
  8
_0-0_LAYER001
  6
CONTINUOUS
 62
    4
 10
1900.7602999999999
 20
1162.1367
 11
1903.6408999999999
 21
1163.1993
  0
LINE
  8
_0-0_LAYER001
  6
CONTINUOUS
 62
    4
 10
1903.6408999999999
 20
1163.1993
 11
1906.0987
 21
1163.9534000000001
  0
LINE
  8
_0-0_LAYER001
  6
CONTINUOUS
 62
    4
 10
1906.0987
 20
1163.9534000000001
 11
1908.0846000000001
 21
1164.3886
  0
LINE
  8
_0-0_LAYER001
  6
CONTINUOUS
 62
    4
 10
1908.0846000000001
 20
1164.3886
 11
1909.8613999999998
 21
1164.5779
  0
LINE
  8
_0-0_LAYER001
  6
CONTINUOUS
 62
    4
 10
1909.8613999999998
 20
1164.5779
 11
1910.5410000000002
 21
1164.5786000000001
  0
LINE
  8
_0-0_LAYER001
  6
CONTINUOUS
 62
    4
 10
1910.5410000000002
 20
1164.5786000000001
 11
1910.4648000000002
 21
1164.5830000000001
  0
LINE
  8
_0-0_LAYER001
  6
CONTINUOUS
 62
    4
 10
1910.4648000000002
 20
1164.5830000000001
 11
1911.0794000000001
 21
1164.5201
  0
LINE
  8
_0-0_LAYER001
  6
CONTINUOUS
 62
    4
 10
1911.0794000000001
 20
1164.5201
 11
1911.6712000000002
 21
1164.4286999999999
  0
LINE
  8
_0-0_LAYER001
  6
CONTINUOUS
 62
    4
 10
1911.6712000000002
 20
1164.4286999999999
 11
1912.3406
 21
1164.2928999999999
  0
LINE
  8
_0-0_LAYER001
  6
CONTINUOUS
 62
    4
 10
1912.3406
 20
1164.2928999999999
 11
1913.0767000000001
 21
1164.1107
  0
LINE
  8
_0-0_LAYER001
  6
CONTINUOUS
 62
    4
 10
1913.0767000000001
 20
1164.1107
 11
1913.9294
 21
1163.8641
  0
LINE
  8
_0-0_LAYER001
  6
CONTINUOUS
 62
    4
 10
1913.9294
 20
1163.8641
 11
1914.1745999999998
 21
1163.7855999999999
  0
LINE
  8
_0-0_LAYER001
  6
CONTINUOUS
 62
    4
 10
1914.1745999999998
 20
1163.7855999999999
 11
1915.7426
 21
1163.2154
  0
LINE
  8
_0-0_LAYER001
  6
CONTINUOUS
 62
    4
 10
1915.7426
 20
1163.2154
 11
1918.7091999999998
 21
1161.8861999999999
  0
LINE
  8
_0-0_LAYER001
  6
CONTINUOUS
 62
    4
 10
1918.7091999999998
 20
1161.8861999999999
 11
1921.6931
 21
1160.2671
  0
LINE
  8
_0-0_LAYER001
  6
CONTINUOUS
 62
    4
 10
1921.6931
 20
1160.2671
 11
1924.8888000000002
 21
1158.2901999999999
  0
LINE
  8
_0-0_LAYER001
  6
CONTINUOUS
 62
    4
 10
1924.8888000000002
 20
1158.2901999999999
 11
1928.3058999999998
 21
1155.9928
  0
LINE
  8
_0-0_LAYER001
  6
CONTINUOUS
 62
    4
 10
1928.3058999999998
 20
1155.9928
 11
1931.9476
 21
1153.4409000000001
  0
LINE
  8
_0-0_LAYER001
  6
CONTINUOUS
 62
    4
 10
1931.9476
 20
1153.4409000000001
 11
1934.1767
 21
1151.8694
  0
LINE
  8
_0-0_LAYER001
  6
CONTINUOUS
 62
    4
 10
1934.1767
 20
1151.8694
 11
1937.7013000000002
 21
1149.4181000000001
  0
LINE
  8
_0-0_LAYER001
  6
CONTINUOUS
 62
    4
 10
1937.7013000000002
 20
1149.4181000000001
 11
1943.8517999999999
 21
1145.2786000000001
  0
LINE
  8
_0-0_LAYER001
  6
CONTINUOUS
 62
    4
 10
1943.8517999999999
 20
1145.2786000000001
 11
1950.2127999999998
 21
1141.2270000000001
  0
LINE
  8
_0-0_LAYER001
  6
CONTINUOUS
 62
    4
 10
1950.2127999999998
 20
1141.2270000000001
 11
1956.7885000000001
 21
1137.3296
  0
LINE
  8
_0-0_LAYER001
  6
CONTINUOUS
 62
    4
 10
1956.7885000000001
 20
1137.3296
 11
1963.6066999999998
 21
1133.6404
  0
LINE
  8
_0-0_LAYER001
  6
CONTINUOUS
 62
    4
 10
1963.6066999999998
 20
1133.6404
 11
1970.5974999999999
 21
1130.2632000000001
  0
LINE
  8
_0-0_LAYER001
  6
CONTINUOUS
 62
    4
 10
1970.5974999999999
 20
1130.2632000000001
 11
1974.8973999999998
 21
1128.3987
  0
LINE
  8
_0-0_LAYER001
  6
CONTINUOUS
 62
    4
 10
1974.8973999999998
 20
1128.3987
 11
1978.5230999999999
 21
1126.9512
  0
LINE
  8
_0-0_LAYER001
  6
CONTINUOUS
 62
    4
 10
1978.5230999999999
 20
1126.9512
 11
1984.6100999999999
 21
1124.7741000000001
  0
LINE
  8
_0-0_LAYER001
  6
CONTINUOUS
 62
    4
 10
1984.6100999999999
 20
1124.7741000000001
 11
1990.8874999999998
 21
1122.8505
  0
LINE
  8
_0-0_LAYER001
  6
CONTINUOUS
 62
    4
 10
1990.8874999999998
 20
1122.8505
 11
1997.2595999999999
 21
1121.2179000000001
  0
LINE
  8
_0-0_LAYER001
  6
CONTINUOUS
 62
    4
 10
1997.2595999999999
 20
1121.2179000000001
 11
2003.7130999999999
 21
1119.885
  0
LINE
  8
_0-0_LAYER001
  6
CONTINUOUS
 62
    4
 10
2003.7130999999999
 20
1119.885
 11
2010.1415000000002
 21
1118.8759
  0
LINE
  8
_0-0_LAYER001
  6
CONTINUOUS
 62
    4
 10
2010.1415000000002
 20
1118.8759
 11
2014.0070999999998
 21
1118.4211
  0
LINE
  8
_0-0_LAYER001
  6
CONTINUOUS
 62
    4
 10
2014.0070999999998
 20
1118.4211
 11
2017.0057999999999
 21
1118.1445000000001
  0
LINE
  8
_0-0_LAYER001
  6
CONTINUOUS
 62
    4
 10
2017.0057999999999
 20
1118.1445000000001
 11
2021.9031
 21
1117.8306
  0
LINE
  8
_0-0_LAYER001
  6
CONTINUOUS
 62
    4
 10
2021.9031
 20
1117.8306
 11
2026.8132999999998
 21
1117.6747
  0
LINE
  8
_0-0_LAYER001
  6
CONTINUOUS
 62
    4
 10
2026.8132999999998
 20
1117.6747
 11
2031.6614
 21
1117.6595
  0
LINE
  8
_0-0_LAYER001
  6
CONTINUOUS
 62
    4
 10
2031.6614
 20
1117.6595
 11
2036.4443000000001
 21
1117.7638999999999
  0
LINE
  8
_0-0_LAYER001
  6
CONTINUOUS
 62
    4
 10
2036.4443000000001
 20
1117.7638999999999
 11
2041.1296000000002
 21
1117.9663
  0
LINE
  8
_0-0_LAYER001
  6
CONTINUOUS
 62
    4
 10
2041.1296000000002
 20
1117.9663
 11
2043.9047999999998
 21
1118.1264000000001
  0
LINE
  8
_0-0_LAYER001
  6
CONTINUOUS
 62
    4
 10
2043.9047999999998
 20
1118.1264000000001
 11
2048.9326000000001
 21
1118.482
  0
LINE
  8
_0-0_LAYER001
  6
CONTINUOUS
 62
    4
 10
2048.9326000000001
 20
1118.482
 11
2057.4486999999999
 21
1119.2619999999999
  0
LINE
  8
_0-0_LAYER001
  6
CONTINUOUS
 62
    4
 10
2057.4486999999999
 20
1119.2619999999999
 11
2065.9209000000001
 21
1120.2308
  0
LINE
  8
_0-0_LAYER001
  6
CONTINUOUS
 62
    4
 10
2065.9209000000001
 20
1120.2308
 11
2074.2975000000001
 21
1121.3430000000001
  0
LINE
  8
_0-0_LAYER001
  6
CONTINUOUS
 62
    4
 10
2074.2975000000001
 20
1121.3430000000001
 11
2082.5819999999999
 21
1122.5594000000001
  0
LINE
  8
_0-0_LAYER001
  6
CONTINUOUS
 62
    4
 10
2082.5819999999999
 20
1122.5594000000001
 11
2090.7727
 21
1123.8411000000001
  0
LINE
  8
_0-0_LAYER001
  6
CONTINUOUS
 62
    4
 10
2090.7727
 20
1123.8411000000001
 11
2095.4996000000001
 21
1124.6026999999999
  0
LINE
  8
_0-0_LAYER001
  6
CONTINUOUS
 62
    4
 10
2095.4996000000001
 20
1124.6026999999999
 11
2097.9497000000001
 21
1125.0008
  0
LINE
  8
_0-0_LAYER001
  6
CONTINUOUS
 62
    4
 10
2097.9497000000001
 20
1125.0008
 11
2102.1545999999998
 21
1125.6881000000001
  0
LINE
  8
_0-0_LAYER001
  6
CONTINUOUS
 62
    4
 10
2102.1545999999998
 20
1125.6881000000001
 11
2106.3569000000002
 21
1126.3793000000001
  0
LINE
  8
_0-0_LAYER001
  6
CONTINUOUS
 62
    4
 10
2106.3569000000002
 20
1126.3793000000001
 11
2110.5544
 21
1127.0731000000001
  0
LINE
  8
_0-0_LAYER001
  6
CONTINUOUS
 62
    4
 10
2110.5544
 20
1127.0731000000001
 11
2114.7473
 21
1127.7684999999999
  0
LINE
  8
_0-0_LAYER001
  6
CONTINUOUS
 62
    4
 10
2114.7473
 20
1127.7684999999999
 11
2118.9358999999999
 21
1128.4647
  0
LINE
  8
_0-0_LAYER001
  6
CONTINUOUS
 62
    4
 10
2118.9358999999999
 20
1128.4647
 11
2120.5500000000002
 21
1128.7331999999999
  0
LINE
  8
_0-0_LAYER001
  6
CONTINUOUS
 62
    4
 10
1356.6808000000001
 20
1168.9292
 11
1357.8058000000001
 21
1169.3779999999999
  0
LINE
  8
_0-0_LAYER001
  6
CONTINUOUS
 62
    2
 10
1170.8623
 20
1113.3959
 11
1170.8623
 21
1075.9818
  0
LINE
  8
_0-0_LAYER001
  6
CONTINUOUS
 62
    4
 10
1477.2215999999999
 20
1088.9032
 11
1468.6860999999999
 21
1103.4365
  0
LINE
  8
_0-0_LAYER001
  6
CONTINUOUS
 62
    4
 10
1485.3895000000002
 20
1088.2529
 11
1493.6957000000002
 21
1098.3182999999999
  0
ARC
  8
_0-0_LAYER001
  6
CONTINUOUS
 62
    4
 10
1481.5329999999999
 20
1091.4353000000001
 40
5
 50
210.42578
 51
320.47001
  0
LINE
  8
_0-0_LAYER001
  6
CONTINUOUS
 62
    4
 10
1561.3350999999998
 20
1087.7829999999999
 11
1554.0097000000001
 21
1099.0889999999999
  0
LINE
  8
_0-0_LAYER001
  6
CONTINUOUS
 62
    4
 10
1569.8445999999999
 20
1087.9729
 11
1578.7829999999999
 21
1103.2185999999999
  0
ARC
  8
_0-0_LAYER001
  6
DASHED1
 62
    4
 10
1565.5313000000001
 20
1090.5018
 40
5
 50
212.93986000000001
 51
329.61716000000001
  0
LINE
  8
_0-0_LAYER001
  6
CONTINUOUS
 62
    4
 10
1357.8054999999999
 20
1169.3773000000001
 11
1358.615
 21
1169.6953000000001
  0
LINE
  8
_0-0_LAYER001
  6
CONTINUOUS
 62
    4
 10
1358.615
 20
1169.6953000000001
 11
1362.1451999999999
 21
1171.0843
  0
LINE
  8
_0-0_LAYER001
  6
CONTINUOUS
 62
    4
 10
1362.1451999999999
 20
1171.0843
 11
1365.6827000000001
 21
1172.4827
  0
LINE
  8
_0-0_LAYER001
  6
CONTINUOUS
 62
    4
 10
1365.6827000000001
 20
1172.4827
 11
1369.2319
 21
1173.8964000000001
  0
LINE
  8
_0-0_LAYER001
  6
CONTINUOUS
 62
    4
 10
1369.2319
 20
1173.8964000000001
 11
1372.7976000000001
 21
1175.3314
  0
LINE
  8
_0-0_LAYER001
  6
CONTINUOUS
 62
    4
 10
1372.7976000000001
 20
1175.3314
 11
1376.3842999999999
 21
1176.7936
  0
LINE
  8
_0-0_LAYER001
  6
CONTINUOUS
 62
    4
 10
1376.3842999999999
 20
1176.7936
 11
1378.4758999999999
 21
1177.6565000000001
  0
LINE
  8
_0-0_LAYER001
  6
CONTINUOUS
 62
    4
 10
1378.4758999999999
 20
1177.6565000000001
 11
1380.5435
 21
1178.5143
  0
LINE
  8
_0-0_LAYER001
  6
CONTINUOUS
 62
    4
 10
1380.5435
 20
1178.5143
 11
1384.1301000000001
 21
1179.9659999999999
  0
LINE
  8
_0-0_LAYER001
  6
CONTINUOUS
 62
    4
 10
1384.1301000000001
 20
1179.9659999999999
 11
1387.7446
 21
1181.2992999999999
  0
LINE
  8
_0-0_LAYER001
  6
CONTINUOUS
 62
    4
 10
1387.7446
 20
1181.2992999999999
 11
1391.3873000000001
 21
1182.4168999999999
  0
LINE
  8
_0-0_LAYER001
  6
CONTINUOUS
 62
    4
 10
1391.3873000000001
 20
1182.4168999999999
 11
1395.0585000000001
 21
1183.2215000000001
  0
LINE
  8
_0-0_LAYER001
  6
CONTINUOUS
 62
    4
 10
1395.0585000000001
 20
1183.2215000000001
 11
1398.7587000000003
 21
1183.6157000000001
  0
LINE
  8
_0-0_LAYER001
  6
CONTINUOUS
 62
    4
 10
1398.7587000000003
 20
1183.6157000000001
 11
1400.9181000000001
 21
1183.6179
  0
LINE
  8
_0-0_LAYER001
  6
CONTINUOUS
 62
    4
 10
1400.9181000000001
 20
1183.6179
 11
1401.7680999999998
 21
1183.5684000000001
  0
LINE
  8
_0-0_LAYER001
  6
CONTINUOUS
 62
    4
 10
1401.7680999999998
 20
1183.5684000000001
 11
1403.2346000000002
 21
1183.4183
  0
LINE
  8
_0-0_LAYER001
  6
CONTINUOUS
 62
    4
 10
1403.2346000000002
 20
1183.4183
 11
1404.6990000000001
 21
1183.192
  0
LINE
  8
_0-0_LAYER001
  6
CONTINUOUS
 62
    4
 10
1404.6990000000001
 20
1183.192
 11
1406.1570000000002
 21
1182.8963000000001
  0
LINE
  8
_0-0_LAYER001
  6
CONTINUOUS
 62
    4
 10
1406.1570000000002
 20
1182.8963000000001
 11
1407.6043
 21
1182.538
  0
LINE
  8
_0-0_LAYER001
  6
CONTINUOUS
 62
    4
 10
1407.6043
 20
1182.538
 11
1409.0365999999999
 21
1182.1238000000001
  0
LINE
  8
_0-0_LAYER001
  6
CONTINUOUS
 62
    4
 10
1409.0365999999999
 20
1182.1238000000001
 11
1409.8588999999997
 21
1181.8606
  0
LINE
  8
_0-0_LAYER001
  6
CONTINUOUS
 62
    4
 10
1409.8588999999997
 20
1181.8606
 11
1412.3701000000001
 21
1180.9474
  0
LINE
  8
_0-0_LAYER001
  6
CONTINUOUS
 62
    4
 10
1412.3701000000001
 20
1180.9474
 11
1416.5555999999997
 21
1179.0721000000001
  0
LINE
  8
_0-0_LAYER001
  6
CONTINUOUS
 62
    4
 10
1416.5555999999997
 20
1179.0721000000001
 11
1420.5904
 21
1176.8828000000001
  0
LINE
  8
_0-0_LAYER001
  6
CONTINUOUS
 62
    4
 10
1420.5904
 20
1176.8828000000001
 11
1424.5115000000001
 21
1174.4571000000001
  0
LINE
  8
_0-0_LAYER001
  6
CONTINUOUS
 62
    4
 10
1424.5115000000001
 20
1174.4571000000001
 11
1428.356
 21
1171.8724
  0
LINE
  8
_0-0_LAYER001
  6
CONTINUOUS
 62
    4
 10
1428.356
 20
1171.8724
 11
1432.1608000000001
 21
1169.2061000000001
  0
LINE
  8
_0-0_LAYER001
  6
CONTINUOUS
 62
    4
 10
1432.1608000000001
 20
1169.2061000000001
 11
1434.3640999999998
 21
1167.6529
  0
LINE
  8
_0-0_LAYER001
  6
CONTINUOUS
 62
    4
 10
1434.3640999999998
 20
1167.6529
 11
1437.7285999999999
 21
1165.3128999999999
  0
LINE
  8
_0-0_LAYER001
  6
CONTINUOUS
 62
    4
 10
1437.7285999999999
 20
1165.3128999999999
 11
1443.5763999999999
 21
1161.3771999999999
  0
LINE
  8
_0-0_LAYER001
  6
CONTINUOUS
 62
    4
 10
1443.5763999999999
 20
1161.3771999999999
 11
1449.5018
 21
1157.6029000000001
  0
LINE
  8
_0-0_LAYER001
  6
CONTINUOUS
 62
    4
 10
1449.5018
 20
1157.6029000000001
 11
1455.5264000000002
 21
1154.0322000000001
  0
LINE
  8
_0-0_LAYER001
  6
CONTINUOUS
 62
    4
 10
1455.5264000000002
 20
1154.0322000000001
 11
1461.6716000000001
 21
1150.7072000000001
  0
LINE
  8
_0-0_LAYER001
  6
CONTINUOUS
 62
    4
 10
1461.6716000000001
 20
1150.7072000000001
 11
1467.9589000000001
 21
1147.6699000000001
  0
LINE
  8
_0-0_LAYER001
  6
CONTINUOUS
 62
    4
 10
1467.9589000000001
 20
1147.6699000000001
 11
1471.6790999999998
 21
1146.0565999999999
  0
LINE
  8
_0-0_LAYER001
  6
CONTINUOUS
 62
    4
 10
1471.6790999999998
 20
1146.0565999999999
 11
1474.7557999999999
 21
1144.8284000000001
  0
LINE
  8
_0-0_LAYER001
  6
CONTINUOUS
 62
    4
 10
1474.7557999999999
 20
1144.8284000000001
 11
1480.1437999999998
 21
1142.9013
  0
LINE
  8
_0-0_LAYER001
  6
CONTINUOUS
 62
    4
 10
1480.1437999999998
 20
1142.9013
 11
1485.6233999999999
 21
1141.2221
  0
LINE
  8
_0-0_LAYER001
  6
CONTINUOUS
 62
    4
 10
1485.6233999999999
 20
1141.2221
 11
1491.1788000000001
 21
1139.7988
  0
LINE
  8
_0-0_LAYER001
  6
CONTINUOUS
 62
    4
 10
1491.1788000000001
 20
1139.7988
 11
1496.7939000000001
 21
1138.6391000000001
  0
LINE
  8
_0-0_LAYER001
  6
CONTINUOUS
 62
    4
 10
1496.7939000000001
 20
1138.6391000000001
 11
1502.4524999999999
 21
1137.7508
  0
LINE
  8
_0-0_LAYER001
  6
CONTINUOUS
 62
    4
 10
1502.4524999999999
 20
1137.7508
 11
1505.7483000000002
 21
1137.3630000000001
  0
LINE
  8
_0-0_LAYER001
  6
CONTINUOUS
 62
    4
 10
1505.7483000000002
 20
1137.3630000000001
 11
1508.2710000000002
 21
1137.1304
  0
LINE
  8
_0-0_LAYER001
  6
CONTINUOUS
 62
    4
 10
1508.2710000000002
 20
1137.1304
 11
1512.6275000000001
 21
1136.8511000000001
  0
LINE
  8
_0-0_LAYER001
  6
CONTINUOUS
 62
    4
 10
1512.6275000000001
 20
1136.8511000000001
 11
1516.9899999999998
 21
1136.7126000000001
  0
LINE
  8
_0-0_LAYER001
  6
CONTINUOUS
 62
    4
 10
1516.9899999999998
 20
1136.7126000000001
 11
1521.3557999999998
 21
1136.6989000000001
  0
LINE
  8
_0-0_LAYER001
  6
CONTINUOUS
 62
    4
 10
1521.3557999999998
 20
1136.6989000000001
 11
1525.7220000000002
 21
1136.7942
  0
LINE
  8
_0-0_LAYER001
  6
CONTINUOUS
 62
    4
 10
1525.7220000000002
 20
1136.7942
 11
1530.0857000000001
 21
1136.9827
  0
LINE
  8
_0-0_LAYER001
  6
CONTINUOUS
 62
    4
 10
1530.0857000000001
 20
1136.9827
 11
1532.6143999999999
 21
1137.1286
  0
LINE
  8
_0-0_LAYER001
  6
CONTINUOUS
 62
    4
 10
1532.6143999999999
 20
1137.1286
 11
1537.3393000000001
 21
1137.4627
  0
LINE
  8
_0-0_LAYER001
  6
CONTINUOUS
 62
    4
 10
1537.3393000000001
 20
1137.4627
 11
1545.4679000000001
 21
1138.2073
  0
LINE
  8
_0-0_LAYER001
  6
CONTINUOUS
 62
    4
 10
1545.4679000000001
 20
1138.2073
 11
1553.5765000000001
 21
1139.1344999999999
  0
LINE
  8
_0-0_LAYER001
  6
CONTINUOUS
 62
    4
 10
1553.5765000000001
 20
1139.1344999999999
 11
1561.6680999999999
 21
1140.2088000000001
  0
LINE
  8
_0-0_LAYER001
  6
CONTINUOUS
 62
    4
 10
1561.6680999999999
 20
1140.2088000000001
 11
1569.7458000000001
 21
1141.3949
  0
LINE
  8
_0-0_LAYER001
  6
CONTINUOUS
 62
    4
 10
1569.7458000000001
 20
1141.3949
 11
1577.8125
 21
1142.6572000000001
  0
LINE
  8
_0-0_LAYER001
  6
CONTINUOUS
 62
    4
 10
1577.8125
 20
1142.6572000000001
 11
1582.4872999999998
 21
1143.4104
  0
LINE
  8
_0-0_LAYER001
  6
CONTINUOUS
 62
    4
 10
1582.4872999999998
 20
1143.4104
 11
1584.9169999999999
 21
1143.8052
  0
LINE
  8
_0-0_LAYER001
  6
CONTINUOUS
 62
    4
 10
1584.9169999999999
 20
1143.8052
 11
1589.1048000000001
 21
1144.4897000000001
  0
LINE
  8
_0-0_LAYER001
  6
CONTINUOUS
 62
    4
 10
1589.1048000000001
 20
1144.4897000000001
 11
1593.2914000000001
 21
1145.1783
  0
LINE
  8
_0-0_LAYER001
  6
CONTINUOUS
 62
    4
 10
1593.2914000000001
 20
1145.1783
 11
1597.4769000000001
 21
1145.8701000000001
  0
LINE
  8
_0-0_LAYER001
  6
CONTINUOUS
 62
    4
 10
1597.4769000000001
 20
1145.8701000000001
 11
1601.6617999999999
 21
1146.5642
  0
LINE
  8
_0-0_LAYER001
  6
CONTINUOUS
 62
    4
 10
1601.6617999999999
 20
1146.5642
 11
1605.8463000000002
 21
1147.2597000000001
  0
LINE
  8
_0-0_LAYER001
  6
CONTINUOUS
 62
    4
 10
1605.8463000000002
 20
1147.2597000000001
 11
1608.2732000000001
 21
1147.6633999999999
  0
LINE
  8
_0-0_LAYER001
  6
CONTINUOUS
 62
    4
 10
1363.1498999999999
 20
1152.1377
 11
1365.2008000000001
 21
1152.9432999999999
  0
LINE
  8
_0-0_LAYER001
  6
CONTINUOUS
 62
    4
 10
1365.2008000000001
 20
1152.9432999999999
 11
1368.7492
 21
1154.3395
  0
LINE
  8
_0-0_LAYER001
  6
CONTINUOUS
 62
    4
 10
1368.7492
 20
1154.3395
 11
1372.3217999999999
 21
1155.7518
  0
LINE
  8
_0-0_LAYER001
  6
CONTINUOUS
 62
    4
 10
1372.3217999999999
 20
1155.7518
 11
1375.9224999999997
 21
1157.1859999999999
  0
LINE
  8
_0-0_LAYER001
  6
CONTINUOUS
 62
    4
 10
1375.9224999999997
 20
1157.1859999999999
 11
1379.5553999999997
 21
1158.6481000000001
  0
LINE
  8
_0-0_LAYER001
  6
CONTINUOUS
 62
    4
 10
1379.5553999999997
 20
1158.6481000000001
 11
1383.2140999999999
 21
1160.1396
  0
LINE
  8
_0-0_LAYER001
  6
CONTINUOUS
 62
    4
 10
1383.2140999999999
 20
1160.1396
 11
1385.3570999999999
 21
1161.0237
  0
LINE
  8
_0-0_LAYER001
  6
CONTINUOUS
 62
    4
 10
1385.3570999999999
 20
1161.0237
 11
1387.3693000000001
 21
1161.8585
  0
LINE
  8
_0-0_LAYER001
  6
CONTINUOUS
 62
    4
 10
1387.3693000000001
 20
1161.8585
 11
1390.6231
 21
1163.1755000000001
  0
LINE
  8
_0-0_LAYER001
  6
CONTINUOUS
 62
    4
 10
1390.6231
 20
1163.1755000000001
 11
1393.5037
 21
1164.2381
  0
LINE
  8
_0-0_LAYER001
  6
CONTINUOUS
 62
    4
 10
1393.5037
 20
1164.2381
 11
1395.9614999999999
 21
1164.9921999999999
  0
LINE
  8
_0-0_LAYER001
  6
CONTINUOUS
 62
    4
 10
1395.9614999999999
 20
1164.9921999999999
 11
1397.9473000000003
 21
1165.4274
  0
LINE
  8
_0-0_LAYER001
  6
CONTINUOUS
 62
    4
 10
1397.9473000000003
 20
1165.4274
 11
1399.7242000000001
 21
1165.6167
  0
LINE
  8
_0-0_LAYER001
  6
CONTINUOUS
 62
    4
 10
1399.7242000000001
 20
1165.6167
 11
1400.4038
 21
1165.6174000000001
  0
LINE
  8
_0-0_LAYER001
  6
CONTINUOUS
 62
    4
 10
1400.4038
 20
1165.6174000000001
 11
1400.3276000000001
 21
1165.6217999999999
  0
LINE
  8
_0-0_LAYER001
  6
CONTINUOUS
 62
    4
 10
1400.3276000000001
 20
1165.6217999999999
 11
1400.9422
 21
1165.5589
  0
LINE
  8
_0-0_LAYER001
  6
CONTINUOUS
 62
    4
 10
1400.9422
 20
1165.5589
 11
1401.5338999999999
 21
1165.4675
  0
LINE
  8
_0-0_LAYER001
  6
CONTINUOUS
 62
    4
 10
1401.5338999999999
 20
1165.4675
 11
1402.2032999999999
 21
1165.3317
  0
LINE
  8
_0-0_LAYER001
  6
CONTINUOUS
 62
    4
 10
1402.2032999999999
 20
1165.3317
 11
1402.9395
 21
1165.1494
  0
LINE
  8
_0-0_LAYER001
  6
CONTINUOUS
 62
    4
 10
1402.9395
 20
1165.1494
 11
1403.7922000000001
 21
1164.9029
  0
LINE
  8
_0-0_LAYER001
  6
CONTINUOUS
 62
    4
 10
1403.7922000000001
 20
1164.9029
 11
1404.0373999999999
 21
1164.8244
  0
LINE
  8
_0-0_LAYER001
  6
CONTINUOUS
 62
    4
 10
1404.0373999999999
 20
1164.8244
 11
1405.6053999999999
 21
1164.2542000000001
  0
LINE
  8
_0-0_LAYER001
  6
CONTINUOUS
 62
    4
 10
1405.6053999999999
 20
1164.2542000000001
 11
1408.5718999999999
 21
1162.925
  0
LINE
  8
_0-0_LAYER001
  6
CONTINUOUS
 62
    4
 10
1408.5718999999999
 20
1162.925
 11
1411.5559000000003
 21
1161.3059000000001
  0
LINE
  8
_0-0_LAYER001
  6
CONTINUOUS
 62
    4
 10
1411.5559000000003
 20
1161.3059000000001
 11
1414.7515000000001
 21
1159.329
  0
LINE
  8
_0-0_LAYER001
  6
CONTINUOUS
 62
    4
 10
1414.7515000000001
 20
1159.329
 11
1418.1686999999999
 21
1157.0316
  0
LINE
  8
_0-0_LAYER001
  6
CONTINUOUS
 62
    4
 10
1418.1686999999999
 20
1157.0316
 11
1421.8103999999998
 21
1154.4797000000001
  0
LINE
  8
_0-0_LAYER001
  6
CONTINUOUS
 62
    4
 10
1421.8103999999998
 20
1154.4797000000001
 11
1424.0395000000001
 21
1152.9082000000001
  0
LINE
  8
_0-0_LAYER001
  6
CONTINUOUS
 62
    4
 10
1424.0395000000001
 20
1152.9082000000001
 11
1427.5640000000001
 21
1150.4568999999999
  0
LINE
  8
_0-0_LAYER001
  6
CONTINUOUS
 62
    4
 10
1427.5640000000001
 20
1150.4568999999999
 11
1433.7145999999998
 21
1146.3173999999999
  0
LINE
  8
_0-0_LAYER001
  6
CONTINUOUS
 62
    4
 10
1433.7145999999998
 20
1146.3173999999999
 11
1440.0754999999999
 21
1142.2657999999999
  0
LINE
  8
_0-0_LAYER001
  6
CONTINUOUS
 62
    4
 10
1440.0754999999999
 20
1142.2657999999999
 11
1446.6513
 21
1138.3684000000001
  0
LINE
  8
_0-0_LAYER001
  6
CONTINUOUS
 62
    4
 10
1446.6513
 20
1138.3684000000001
 11
1453.4694
 21
1134.6792
  0
LINE
  8
_0-0_LAYER001
  6
CONTINUOUS
 62
    4
 10
1453.4694
 20
1134.6792
 11
1460.4603000000002
 21
1131.3019999999999
  0
LINE
  8
_0-0_LAYER001
  6
CONTINUOUS
 62
    4
 10
1460.4603000000002
 20
1131.3019999999999
 11
1464.7602000000002
 21
1129.4374
  0
LINE
  8
_0-0_LAYER001
  6
CONTINUOUS
 62
    4
 10
1464.7602000000002
 20
1129.4374
 11
1468.3858
 21
1127.99
  0
LINE
  8
_0-0_LAYER001
  6
CONTINUOUS
 62
    4
 10
1468.3858
 20
1127.99
 11
1474.4729000000002
 21
1125.8127999999999
  0
LINE
  8
_0-0_LAYER001
  6
CONTINUOUS
 62
    4
 10
1474.4729000000002
 20
1125.8127999999999
 11
1480.7501999999999
 21
1123.8893
  0
LINE
  8
_0-0_LAYER001
  6
CONTINUOUS
 62
    4
 10
1480.7501999999999
 20
1123.8893
 11
1487.1224000000002
 21
1122.2566999999999
  0
LINE
  8
_0-0_LAYER001
  6
CONTINUOUS
 62
    4
 10
1487.1224000000002
 20
1122.2566999999999
 11
1493.5758999999998
 21
1120.9238
  0
LINE
  8
_0-0_LAYER001
  6
CONTINUOUS
 62
    4
 10
1493.5758999999998
 20
1120.9238
 11
1500.0043000000001
 21
1119.9147
  0
LINE
  8
_0-0_LAYER001
  6
CONTINUOUS
 62
    4
 10
1500.0043000000001
 20
1119.9147
 11
1503.8697999999999
 21
1119.4599000000001
  0
LINE
  8
_0-0_LAYER001
  6
CONTINUOUS
 62
    4
 10
1503.8697999999999
 20
1119.4599000000001
 11
1506.8685999999998
 21
1119.1832999999999
  0
LINE
  8
_0-0_LAYER001
  6
CONTINUOUS
 62
    4
 10
1506.8685999999998
 20
1119.1832999999999
 11
1511.7658999999999
 21
1118.8694
  0
LINE
  8
_0-0_LAYER001
  6
CONTINUOUS
 62
    4
 10
1511.7658999999999
 20
1118.8694
 11
1516.6761000000001
 21
1118.7135000000001
  0
LINE
  8
_0-0_LAYER001
  6
CONTINUOUS
 62
    4
 10
1516.6761000000001
 20
1118.7135000000001
 11
1521.5241000000001
 21
1118.6983
  0
LINE
  8
_0-0_LAYER001
  6
CONTINUOUS
 62
    4
 10
1521.5241000000001
 20
1118.6983
 11
1526.3069999999998
 21
1118.8027
  0
LINE
  8
_0-0_LAYER001
  6
CONTINUOUS
 62
    4
 10
1526.3069999999998
 20
1118.8027
 11
1530.9922999999999
 21
1119.0051000000001
  0
LINE
  8
_0-0_LAYER001
  6
CONTINUOUS
 62
    4
 10
1530.9922999999999
 20
1119.0051000000001
 11
1533.7674999999999
 21
1119.1650999999999
  0
LINE
  8
_0-0_LAYER001
  6
CONTINUOUS
 62
    4
 10
1533.7674999999999
 20
1119.1650999999999
 11
1538.7954
 21
1119.5208
  0
LINE
  8
_0-0_LAYER001
  6
CONTINUOUS
 62
    4
 10
1538.7954
 20
1119.5208
 11
1547.3114999999998
 21
1120.3008
  0
LINE
  8
_0-0_LAYER001
  6
CONTINUOUS
 62
    4
 10
1547.3114999999998
 20
1120.3008
 11
1555.7837
 21
1121.2696000000001
  0
LINE
  8
_0-0_LAYER001
  6
CONTINUOUS
 62
    4
 10
1555.7837
 20
1121.2696000000001
 11
1564.1603
 21
1122.3818000000001
  0
LINE
  8
_0-0_LAYER001
  6
CONTINUOUS
 62
    4
 10
1564.1603
 20
1122.3818000000001
 11
1572.4448000000002
 21
1123.5981999999999
  0
LINE
  8
_0-0_LAYER001
  6
CONTINUOUS
 62
    4
 10
1572.4448000000002
 20
1123.5981999999999
 11
1580.6354000000001
 21
1124.8798999999999
  0
LINE
  8
_0-0_LAYER001
  6
CONTINUOUS
 62
    4
 10
1580.6354000000001
 20
1124.8798999999999
 11
1585.3624
 21
1125.6415
  0
LINE
  8
_0-0_LAYER001
  6
CONTINUOUS
 62
    4
 10
1585.3624
 20
1125.6415
 11
1587.8123999999998
 21
1126.0396000000001
  0
LINE
  8
_0-0_LAYER001
  6
CONTINUOUS
 62
    4
 10
1587.8123999999998
 20
1126.0396000000001
 11
1592.0174000000002
 21
1126.7268999999999
  0
LINE
  8
_0-0_LAYER001
  6
CONTINUOUS
 62
    4
 10
1592.0174000000002
 20
1126.7268999999999
 11
1596.2197000000001
 21
1127.4181000000001
  0
LINE
  8
_0-0_LAYER001
  6
CONTINUOUS
 62
    4
 10
1596.2197000000001
 20
1127.4181000000001
 11
1600.4171000000001
 21
1128.1119000000001
  0
LINE
  8
_0-0_LAYER001
  6
CONTINUOUS
 62
    4
 10
1600.4171000000001
 20
1128.1119000000001
 11
1604.6100000000001
 21
1128.8072999999999
  0
LINE
  8
_0-0_LAYER001
  6
CONTINUOUS
 62
    4
 10
1604.6100000000001
 20
1128.8072999999999
 11
1608.7986000000001
 21
1129.5035
  0
LINE
  8
_0-0_LAYER001
  6
CONTINUOUS
 62
    4
 10
1608.7986000000001
 20
1129.5035
 11
1610.4126999999999
 21
1129.7719
  0
ARC
  8
_0-0_LAYER001
  6
CONTINUOUS
 62
    4
 10
1644.6482999999998
 20
1155.5690999999999
 40
3
 50
103.0288
 51
179.49999999999997
  0
LINE
  8
_0-0_LAYER001
  6
CONTINUOUS
 62
    4
 10
1356.722
 20
1149.5944999999999
 11
1363.1143
 21
1152.1166000000001
  0
ARC
  8
_0-0_LAYER001
  6
CONTINUOUS
 62
    4
 10
1356.355
 20
1150.5246999999999
 40
1
 50
179.5
 51
291.53165999999999
  0
LINE
  8
_0-0_LAYER001
  6
CONTINUOUS
 62
    4
 10
1649.2123000000001
 20
1159.7045000000001
 11
1643.9720000000002
 21
1158.4919
  0
ARC
  8
_0-0_LAYER001
  6
CONTINUOUS
 62
    4
 10
1649.4376999999999
 20
1158.7302
 40
1
 50
359.50000000000006
 51
103.02880000000002
  0
LINE
  8
_0-0_LAYER001
  6
CONTINUOUS
 62
    4
 10
1611.5972999999999
 20
1128.0341000000001
 11
1641.9110999999998
 21
1135.1280999999999
  0
ARC
  8
_0-0_LAYER001
  6
CONTINUOUS
 62
    4
 10
1649.2519000000002
 20
1137.4374
 40
1
 50
359.50000000000006
 51
103.08296000000006
  0
LINE
  8
_0-0_LAYER001
  6
CONTINUOUS
 62
    4
 10
1642.6921000000002
 20
1136.9395
 11
1649.0255999999999
 21
1138.4114
  0
LINE
  8
_0-0_LAYER001
  6
CONTINUOUS
 62
    4
 10
1641.9185000000002
 20
1135.9742000000001
 11
1641.9110999999998
 21
1135.1280999999999
  0
ARC
  8
_0-0_LAYER001
  6
CONTINUOUS
 62
    4
 10
1642.9184
 20
1135.9655
 40
1
 50
103.08296000000001
 51
179.50000000000003
  0
ARC
  8
_0-0_LAYER001
  6
CONTINUOUS
 62
    4
 10
1649.2718
 20
1139.7204999999999
 40
1
 50
283.04496999999998
 51
359.5
  0
LINE
  8
_0-0_LAYER001
  6
CONTINUOUS
 62
    4
 10
1609.1266999999998
 20
1127.5306
 11
1611.5547999999999
 21
1127.9344000000001
  0
LINE
  8
_0-0_LAYER001
  6
CONTINUOUS
 62
    4
 10
1604.9376000000002
 20
1126.8343
 11
1609.1266999999998
 21
1127.5306
  0
LINE
  8
_0-0_LAYER001
  6
CONTINUOUS
 62
    4
 10
1600.7438000000002
 20
1126.1387
 11
1604.9376000000002
 21
1126.8343
  0
LINE
  8
_0-0_LAYER001
  6
CONTINUOUS
 62
    4
 10
1596.5450000000001
 20
1125.4448
 11
1600.7438000000002
 21
1126.1387
  0
LINE
  8
_0-0_LAYER001
  6
CONTINUOUS
 62
    4
 10
1592.3409999999999
 20
1124.7533000000001
 11
1596.5450000000001
 21
1125.4448
  0
LINE
  8
_0-0_LAYER001
  6
CONTINUOUS
 62
    4
 10
1588.1341000000002
 20
1124.0655999999999
 11
1592.3409999999999
 21
1124.7533000000001
  0
LINE
  8
_0-0_LAYER001
  6
CONTINUOUS
 62
    4
 10
1585.6817999999998
 20
1123.6670999999999
 11
1588.1341000000002
 21
1124.0655999999999
  0
LINE
  8
_0-0_LAYER001
  6
CONTINUOUS
 62
    4
 10
1580.9490999999998
 20
1122.9047
 11
1585.6817999999998
 21
1123.6670999999999
  0
LINE
  8
_0-0_LAYER001
  6
CONTINUOUS
 62
    4
 10
1572.7447000000002
 20
1121.6207999999999
 11
1580.9490999999998
 21
1122.9047
  0
LINE
  8
_0-0_LAYER001
  6
CONTINUOUS
 62
    4
 10
1564.4371999999998
 20
1120.4010000000001
 11
1572.7447000000002
 21
1121.6207999999999
  0
LINE
  8
_0-0_LAYER001
  6
CONTINUOUS
 62
    4
 10
1556.0288999999998
 20
1119.2846
 11
1564.4371999999998
 21
1120.4010000000001
  0
LINE
  8
_0-0_LAYER001
  6
CONTINUOUS
 62
    4
 10
1547.5162999999998
 20
1118.3112000000001
 11
1556.0288999999998
 21
1119.2846
  0
LINE
  8
_0-0_LAYER001
  6
CONTINUOUS
 62
    4
 10
1538.9571999999998
 20
1117.5272
 11
1547.5162999999998
 21
1118.3112000000001
  0
LINE
  8
_0-0_LAYER001
  6
CONTINUOUS
 62
    4
 10
1533.8957
 20
1117.1692
 11
1538.9571999999998
 21
1117.5272
  0
LINE
  8
_0-0_LAYER001
  6
CONTINUOUS
 62
    4
 10
1531.0931
 20
1117.0075999999999
 11
1533.8957
 21
1117.1692
  0
LINE
  8
_0-0_LAYER001
  6
CONTINUOUS
 62
    4
 10
1526.3719999999998
 20
1116.8036999999999
 11
1531.0931
 21
1117.0075999999999
  0
LINE
  8
_0-0_LAYER001
  6
CONTINUOUS
 62
    4
 10
1521.5428000000002
 20
1116.6982
 11
1526.3719999999998
 21
1116.8036999999999
  0
LINE
  8
_0-0_LAYER001
  6
CONTINUOUS
 62
    4
 10
1516.6412
 20
1116.7136
 11
1521.5428000000002
 21
1116.6982
  0
LINE
  8
_0-0_LAYER001
  6
CONTINUOUS
 62
    4
 10
1511.6700999999998
 20
1116.8714
 11
1516.6412
 21
1116.7136
  0
LINE
  8
_0-0_LAYER001
  6
CONTINUOUS
 62
    4
 10
1506.7127999999998
 20
1117.1892
 11
1511.6700999999998
 21
1116.8714
  0
LINE
  8
_0-0_LAYER001
  6
CONTINUOUS
 62
    4
 10
1503.6610999999998
 20
1117.4706000000001
 11
1506.7127999999998
 21
1117.1892
  0
LINE
  8
_0-0_LAYER001
  6
CONTINUOUS
 62
    4
 10
1499.7323000000001
 20
1117.9329
 11
1503.6610999999998
 21
1117.4706000000001
  0
LINE
  8
_0-0_LAYER001
  6
CONTINUOUS
 62
    4
 10
1493.2183
 20
1118.9554000000001
 11
1499.7323000000001
 21
1117.9329
  0
LINE
  8
_0-0_LAYER001
  6
CONTINUOUS
 62
    4
 10
1486.6716999999999
 20
1120.3076000000001
 11
1493.2183
 21
1118.9554000000001
  0
LINE
  8
_0-0_LAYER001
  6
CONTINUOUS
 62
    4
 10
1480.2087999999999
 20
1121.9634000000001
 11
1486.6716999999999
 21
1120.3076000000001
  0
LINE
  8
_0-0_LAYER001
  6
CONTINUOUS
 62
    4
 10
1473.8427999999999
 20
1123.9141
 11
1480.2087999999999
 21
1121.9634000000001
  0
LINE
  8
_0-0_LAYER001
  6
CONTINUOUS
 62
    4
 10
1467.6779999999999
 20
1126.1190999999999
 11
1473.8427999999999
 21
1123.9141
  0
LINE
  8
_0-0_LAYER001
  6
CONTINUOUS
 62
    4
 10
1463.9913999999999
 20
1127.5908999999999
 11
1467.6779999999999
 21
1126.1190999999999
  0
LINE
  8
_0-0_LAYER001
  6
CONTINUOUS
 62
    4
 10
1459.6271000000002
 20
1129.4834000000001
 11
1463.9913999999999
 21
1127.5908999999999
  0
LINE
  8
_0-0_LAYER001
  6
CONTINUOUS
 62
    4
 10
1452.5581000000002
 20
1132.8984
 11
1459.6271000000002
 21
1129.4834000000001
  0
LINE
  8
_0-0_LAYER001
  6
CONTINUOUS
 62
    4
 10
1445.6651999999999
 20
1136.6279999999999
 11
1452.5581000000002
 21
1132.8984
  0
LINE
  8
_0-0_LAYER001
  6
CONTINUOUS
 62
    4
 10
1439.0282000000002
 20
1140.5616
 11
1445.6651999999999
 21
1136.6279999999999
  0
LINE
  8
_0-0_LAYER001
  6
CONTINUOUS
 62
    4
 10
1432.6188999999999
 20
1144.6441
 11
1439.0282000000002
 21
1140.5616
  0
LINE
  8
_0-0_LAYER001
  6
CONTINUOUS
 62
    4
 10
1426.4346
 20
1148.8062
 11
1432.6188999999999
 21
1144.6441
  0
LINE
  8
_0-0_LAYER001
  6
CONTINUOUS
 62
    4
 10
1422.8923
 20
1151.2699
 11
1426.4346
 21
1148.8062
  0
LINE
  8
_0-0_LAYER001
  6
CONTINUOUS
 62
    4
 10
1420.6603
 20
1152.8434
 11
1422.8923
 21
1151.2699
  0
LINE
  8
_0-0_LAYER001
  6
CONTINUOUS
 62
    4
 10
1417.0367000000001
 20
1155.3825999999999
 11
1420.6603
 21
1152.8434
  0
LINE
  8
_0-0_LAYER001
  6
CONTINUOUS
 62
    4
 10
1413.6670999999999
 20
1157.6481000000001
 11
1417.0367000000001
 21
1155.3825999999999
  0
LINE
  8
_0-0_LAYER001
  6
CONTINUOUS
 62
    4
 10
1410.5521000000001
 20
1159.5752
 11
1413.6670999999999
 21
1157.6481000000001
  0
LINE
  8
_0-0_LAYER001
  6
CONTINUOUS
 62
    4
 10
1407.6848999999997
 20
1161.1309000000001
 11
1410.5521000000001
 21
1159.5752
  0
LINE
  8
_0-0_LAYER001
  6
CONTINUOUS
 62
    4
 10
1404.8538000000003
 20
1162.3994
 11
1407.6848999999997
 21
1161.1309000000001
  0
LINE
  8
_0-0_LAYER001
  6
CONTINUOUS
 62
    4
 10
1403.3905999999999
 20
1162.9314999999999
 11
1404.8538000000003
 21
1162.3994
  0
LINE
  8
_0-0_LAYER001
  6
CONTINUOUS
 62
    4
 10
1403.2094999999999
 20
1162.9893999999999
 11
1403.3905999999999
 21
1162.9314999999999
  0
LINE
  8
_0-0_LAYER001
  6
CONTINUOUS
 62
    4
 10
1402.4212
 20
1163.2174
 11
1403.2094999999999
 21
1162.9893999999999
  0
LINE
  8
_0-0_LAYER001
  6
CONTINUOUS
 62
    4
 10
1401.7640000000001
 20
1163.3801000000001
 11
1402.4212
 21
1163.2174
  0
LINE
  8
_0-0_LAYER001
  6
CONTINUOUS
 62
    4
 10
1401.1822000000002
 20
1163.4981
 11
1401.7640000000001
 21
1163.3801000000001
  0
LINE
  8
_0-0_LAYER001
  6
CONTINUOUS
 62
    4
 10
1401.1421999999998
 20
1163.5043000000001
 11
1401.1822000000002
 21
1163.4981
  0
LINE
  8
_0-0_LAYER001
  6
CONTINUOUS
 62
    4
 10
1605.116
 20
1108.3431
 11
1606.7301000000002
 21
1108.6116
  0
LINE
  8
_0-0_LAYER001
  6
CONTINUOUS
 62
    4
 10
1600.9274
 20
1107.6469
 11
1605.116
 21
1108.3431
  0
LINE
  8
_0-0_LAYER001
  6
CONTINUOUS
 62
    4
 10
1596.7345
 20
1106.9514999999999
 11
1600.9274
 21
1107.6469
  0
LINE
  8
_0-0_LAYER001
  6
CONTINUOUS
 62
    4
 10
1592.5371
 20
1106.2577000000001
 11
1596.7345
 21
1106.9514999999999
  0
LINE
  8
_0-0_LAYER001
  6
CONTINUOUS
 62
    4
 10
1588.3348000000001
 20
1105.5664999999999
 11
1592.5371
 21
1106.2577000000001
  0
LINE
  8
_0-0_LAYER001
  6
CONTINUOUS
 62
    4
 10
1584.1298000000002
 20
1104.8792000000001
 11
1588.3348000000001
 21
1105.5664999999999
  0
LINE
  8
_0-0_LAYER001
  6
CONTINUOUS
 62
    4
 10
1581.6797999999999
 20
1104.4811
 11
1584.1298000000002
 21
1104.8792000000001
  0
LINE
  8
_0-0_LAYER001
  6
CONTINUOUS
 62
    4
 10
1576.9528
 20
1103.7194999999999
 11
1581.6797999999999
 21
1104.4811
  0
LINE
  8
_0-0_LAYER001
  6
CONTINUOUS
 62
    4
 10
1568.7622000000001
 20
1102.4377999999999
 11
1576.9528
 21
1103.7194999999999
  0
LINE
  8
_0-0_LAYER001
  6
CONTINUOUS
 62
    4
 10
1560.4776999999999
 20
1101.2213999999999
 11
1568.7622000000001
 21
1102.4377999999999
  0
LINE
  8
_0-0_LAYER001
  6
CONTINUOUS
 62
    4
 10
1552.1010999999999
 20
1100.1092000000001
 11
1560.4776999999999
 21
1101.2213999999999
  0
LINE
  8
_0-0_LAYER001
  6
CONTINUOUS
 62
    4
 10
1543.6289000000002
 20
1099.1404
 11
1552.1010999999999
 21
1100.1092000000001
  0
LINE
  8
_0-0_LAYER001
  6
CONTINUOUS
 62
    4
 10
1535.1127999999999
 20
1098.3604
 11
1543.6289000000002
 21
1099.1404
  0
LINE
  8
_0-0_LAYER001
  6
CONTINUOUS
 62
    4
 10
1530.0848999999998
 20
1098.0047
 11
1535.1127999999999
 21
1098.3604
  0
LINE
  8
_0-0_LAYER001
  6
CONTINUOUS
 62
    4
 10
1527.3098
 20
1097.8447000000001
 11
1530.0848999999998
 21
1098.0047
  0
LINE
  8
_0-0_LAYER001
  6
CONTINUOUS
 62
    4
 10
1522.6244999999999
 20
1097.6423
 11
1527.3098
 21
1097.8447000000001
  0
LINE
  8
_0-0_LAYER001
  6
CONTINUOUS
 62
    4
 10
1517.8415
 20
1097.5379
 11
1522.6244999999999
 21
1097.6423
  0
LINE
  8
_0-0_LAYER001
  6
CONTINUOUS
 62
    4
 10
1512.9935
 20
1097.5531000000001
 11
1517.8415
 21
1097.5379
  0
LINE
  8
_0-0_LAYER001
  6
CONTINUOUS
 62
    4
 10
1508.0832999999998
 20
1097.7090000000001
 11
1512.9935
 21
1097.5531000000001
  0
LINE
  8
_0-0_LAYER001
  6
CONTINUOUS
 62
    4
 10
1503.1860000000001
 20
1098.0228999999999
 11
1508.0832999999998
 21
1097.7090000000001
  0
LINE
  8
_0-0_LAYER001
  6
CONTINUOUS
 62
    4
 10
1500.1873000000001
 20
1098.2995000000001
 11
1503.1860000000001
 21
1098.0228999999999
  0
LINE
  8
_0-0_LAYER001
  6
CONTINUOUS
 62
    4
 10
1496.3217
 20
1098.7543000000001
 11
1500.1873000000001
 21
1098.2995000000001
  0
LINE
  8
_0-0_LAYER001
  6
CONTINUOUS
 62
    4
 10
1489.8933000000002
 20
1099.7634
 11
1496.3217
 21
1098.7543000000001
  0
LINE
  8
_0-0_LAYER001
  6
CONTINUOUS
 62
    4
 10
1483.4398000000001
 20
1101.0962999999999
 11
1489.8933000000002
 21
1099.7634
  0
LINE
  8
_0-0_LAYER001
  6
CONTINUOUS
 62
    4
 10
1477.0675999999999
 20
1102.7289000000001
 11
1483.4398000000001
 21
1101.0962999999999
  0
LINE
  8
_0-0_LAYER001
  6
CONTINUOUS
 62
    4
 10
1470.7903000000001
 20
1104.6523999999999
 11
1477.0675999999999
 21
1102.7289000000001
  0
LINE
  8
_0-0_LAYER001
  6
CONTINUOUS
 62
    4
 10
1464.7031999999999
 20
1106.8296
 11
1470.7903000000001
 21
1104.6523999999999
  0
LINE
  8
_0-0_LAYER001
  6
CONTINUOUS
 62
    4
 10
1461.0776000000001
 20
1108.277
 11
1464.7031999999999
 21
1106.8296
  0
LINE
  8
_0-0_LAYER001
  6
CONTINUOUS
 62
    4
 10
1456.7777000000001
 20
1110.1415999999999
 11
1461.0776000000001
 21
1108.277
  0
LINE
  8
_0-0_LAYER001
  6
CONTINUOUS
 62
    4
 10
1449.7867999999999
 20
1113.5188000000001
 11
1456.7777000000001
 21
1110.1415999999999
  0
LINE
  8
_0-0_LAYER001
  6
CONTINUOUS
 62
    4
 10
1442.9686999999999
 20
1117.2080000000001
 11
1449.7867999999999
 21
1113.5188000000001
  0
LINE
  8
_0-0_LAYER001
  6
CONTINUOUS
 62
    4
 10
1436.393
 20
1121.1053999999999
 11
1442.9686999999999
 21
1117.2080000000001
  0
LINE
  8
_0-0_LAYER001
  6
CONTINUOUS
 62
    4
 10
1430.0319999999999
 20
1125.1569999999999
 11
1436.393
 21
1121.1053999999999
  0
LINE
  8
_0-0_LAYER001
  6
CONTINUOUS
 62
    4
 10
1423.8815
 20
1129.2964999999999
 11
1430.0319999999999
 21
1125.1569999999999
  0
LINE
  8
_0-0_LAYER001
  6
CONTINUOUS
 62
    4
 10
1420.3568999999998
 20
1131.7478000000001
 11
1423.8815
 21
1129.2964999999999
  0
LINE
  8
_0-0_LAYER001
  6
CONTINUOUS
 62
    4
 10
1418.1278
 20
1133.3193000000001
 11
1420.3568999999998
 21
1131.7478000000001
  0
LINE
  8
_0-0_LAYER001
  6
CONTINUOUS
 62
    4
 10
1414.4861000000001
 20
1135.8712
 11
1418.1278
 21
1133.3193000000001
  0
LINE
  8
_0-0_LAYER001
  6
CONTINUOUS
 62
    4
 10
1411.0689
 20
1138.1686
 11
1414.4861000000001
 21
1135.8712
  0
LINE
  8
_0-0_LAYER001
  6
CONTINUOUS
 62
    4
 10
1407.8733
 20
1140.1455000000001
 11
1411.0689
 21
1138.1686
  0
LINE
  8
_0-0_LAYER001
  6
CONTINUOUS
 62
    4
 10
1404.8894
 20
1141.7646
 11
1407.8733
 21
1140.1455000000001
  0
LINE
  8
_0-0_LAYER001
  6
CONTINUOUS
 62
    4
 10
1401.9228000000001
 20
1143.0938000000001
 11
1404.8894
 21
1141.7646
  0
LINE
  8
_0-0_LAYER001
  6
CONTINUOUS
 62
    4
 10
1401.1727999999998
 20
1143.3665000000001
 11
1401.9228000000001
 21
1143.0938000000001
  0
LINE
  8
_0-0_LAYER001
  6
CONTINUOUS
 62
    4
 10
1401.5059000000001
 20
1163.4096
 11
1401.3299000000002
 21
1143.2362000000001
  0
LINE
  8
_0-0_LAYER001
  6
CONTINUOUS
 62
    4
 10
1649.3200000000002
 20
1118.3979999999999
 11
1606.4998000000001
 21
1108.4767999999999
  0
ARC
  8
_0-0_LAYER001
  6
CONTINUOUS
 62
    4
 10
1649.0943000000002
 20
1119.3722
 40
1
 50
283.04496999999998
 51
359.5
  0
LINE
  8
_0-0_LAYER001
  6
CONTINUOUS
 62
    4
 10
1602.0088999999998
 20
1098.1632999999999
 11
1599.7635
 21
1106.7366999999999
  0
ARC
  8
_0-0_LAYER001
  6
CONTINUOUS
 62
    4
 10
1604.9110000000001
 20
1098.9233999999999
 40
3
 50
194.67639000000003
 51
270.00000000000006
  0
LINE
  8
_0-0_LAYER001
  6
CONTINUOUS
 62
    4
 10
1608.3289
 20
1095.9233999999999
 11
1604.9110000000001
 21
1095.9233999999999
  0
LINE
  8
_0-0_LAYER001
  6
CONTINUOUS
 62
    4
 10
1611.288
 20
1098.4302
 11
1613.2221
 21
1110.0343
  0
ARC
  8
_0-0_LAYER001
  6
CONTINUOUS
 62
    4
 10
1608.3289
 20
1098.9233999999999
 40
3
 50
270
 51
350.53766999999999
  0
LINE
  8
_0-0_LAYER001
  6
CONTINUOUS
 62
    4
 10
1355.4219000000001
 20
1167.0716
 11
1355.4219000000001
 21
1150.5391
  0
ARC
  8
_0-0_LAYER001
  6
CONTINUOUS
 62
    4
 10
1357.4218999999998
 20
1167.0716
 40
2
 50
111.74902000000002
 51
180
  0
LINE
  8
_0-0_LAYER001
  6
CONTINUOUS
 62
    4
 10
1649.4976000000001
 20
1138.7463
 11
1610.4218999999998
 21
1129.6927000000001
  0
LINE
  8
_0-0_LAYER001
  6
CONTINUOUS
 62
    4
 10
1610.4218999999998
 20
1148.1695
 11
1610.4218999999998
 21
1129.6927000000001
  0
LINE
  8
_0-0_LAYER001
  6
CONTINUOUS
 62
    4
 10
1608.3975999999998
 20
1147.7004999999999
 11
1641.6468
 21
1155.4041999999999
  0
LINE
  8
_0-0_LAYER001
  6
CONTINUOUS
 62
    4
 10
1650.3582999999999
 20
1158.7782999999999
 11
1650.3582999999999
 21
1139.6982
  0
LINE
  8
_0-0_LAYER001
  6
CONTINUOUS
 62
    4
 10
1650.4657000000002
 20
1137.7112999999999
 11
1650.4657000000002
 21
1119.5401999999999
  0
LINE
  8
_0-0_LAYER001
  6
CONTINUOUS
 62
    4
 10
1732.3845000000001
 20
1088.9899
 11
1723.8490000000002
 21
1103.5232000000001
  0
LINE
  8
_0-0_LAYER001
  6
CONTINUOUS
 62
    4
 10
1740.5524
 20
1088.3396
 11
1748.8586
 21
1098.4050999999999
  0
ARC
  8
_0-0_LAYER001
  6
CONTINUOUS
 62
    4
 10
1736.6959000000002
 20
1091.5219999999999
 40
5
 50
210.42578
 51
320.47001
  0
LINE
  8
_0-0_LAYER001
  6
CONTINUOUS
 62
    4
 10
1816.498
 20
1087.8697
 11
1809.1725999999999
 21
1099.1758
  0
LINE
  8
_0-0_LAYER001
  6
CONTINUOUS
 62
    4
 10
1825.0075000000002
 20
1088.0596
 11
1833.9459999999999
 21
1103.3053
  0
ARC
  8
_0-0_LAYER001
  6
DASHED1
 62
    4
 10
1820.6941999999999
 20
1090.5885000000001
 40
5
 50
212.93986000000001
 51
329.61716000000001
  0
LINE
  8
_0-0_LAYER001
  6
CONTINUOUS
 62
    4
 10
1612.9684000000002
 20
1169.4639999999999
 11
1613.7779999999998
 21
1169.7819999999999
  0
LINE
  8
_0-0_LAYER001
  6
CONTINUOUS
 62
    4
 10
1613.7779999999998
 20
1169.7819999999999
 11
1617.3081999999999
 21
1171.171
  0
LINE
  8
_0-0_LAYER001
  6
CONTINUOUS
 62
    4
 10
1617.3081999999999
 20
1171.171
 11
1620.8456000000001
 21
1172.5694000000001
  0
LINE
  8
_0-0_LAYER001
  6
CONTINUOUS
 62
    4
 10
1620.8456000000001
 20
1172.5694000000001
 11
1624.3948999999998
 21
1173.9830999999999
  0
LINE
  8
_0-0_LAYER001
  6
CONTINUOUS
 62
    4
 10
1624.3948999999998
 20
1173.9830999999999
 11
1627.9605000000001
 21
1175.4181000000001
  0
LINE
  8
_0-0_LAYER001
  6
CONTINUOUS
 62
    4
 10
1627.9605000000001
 20
1175.4181000000001
 11
1631.5472
 21
1176.8803
  0
LINE
  8
_0-0_LAYER001
  6
CONTINUOUS
 62
    4
 10
1631.5472
 20
1176.8803
 11
1633.6388999999999
 21
1177.7431999999999
  0
LINE
  8
_0-0_LAYER001
  6
CONTINUOUS
 62
    4
 10
1633.6388999999999
 20
1177.7431999999999
 11
1635.7064999999998
 21
1178.6010000000001
  0
LINE
  8
_0-0_LAYER001
  6
CONTINUOUS
 62
    4
 10
1635.7064999999998
 20
1178.6010000000001
 11
1639.2930999999999
 21
1180.0527
  0
LINE
  8
_0-0_LAYER001
  6
CONTINUOUS
 62
    4
 10
1639.2930999999999
 20
1180.0527
 11
1642.9074999999998
 21
1181.386
  0
LINE
  8
_0-0_LAYER001
  6
CONTINUOUS
 62
    4
 10
1642.9074999999998
 20
1181.386
 11
1646.5502000000001
 21
1182.5036
  0
LINE
  8
_0-0_LAYER001
  6
CONTINUOUS
 62
    4
 10
1646.5502000000001
 20
1182.5036
 11
1650.2215000000001
 21
1183.3081999999999
  0
LINE
  8
_0-0_LAYER001
  6
CONTINUOUS
 62
    4
 10
1650.2215000000001
 20
1183.3081999999999
 11
1653.9216000000001
 21
1183.7023999999999
  0
LINE
  8
_0-0_LAYER001
  6
CONTINUOUS
 62
    4
 10
1653.9216000000001
 20
1183.7023999999999
 11
1656.0810999999999
 21
1183.7047
  0
LINE
  8
_0-0_LAYER001
  6
CONTINUOUS
 62
    4
 10
1656.0810999999999
 20
1183.7047
 11
1656.931
 21
1183.6550999999999
  0
LINE
  8
_0-0_LAYER001
  6
CONTINUOUS
 62
    4
 10
1656.931
 20
1183.6550999999999
 11
1658.3975999999998
 21
1183.5050000000001
  0
LINE
  8
_0-0_LAYER001
  6
CONTINUOUS
 62
    4
 10
1658.3975999999998
 20
1183.5050000000001
 11
1659.8620000000001
 21
1183.2787000000001
  0
LINE
  8
_0-0_LAYER001
  6
CONTINUOUS
 62
    4
 10
1659.8620000000001
 20
1183.2787000000001
 11
1661.3199
 21
1182.9829999999999
  0
LINE
  8
_0-0_LAYER001
  6
CONTINUOUS
 62
    4
 10
1661.3199
 20
1182.9829999999999
 11
1662.7671999999998
 21
1182.6247000000001
  0
LINE
  8
_0-0_LAYER001
  6
CONTINUOUS
 62
    4
 10
1662.7671999999998
 20
1182.6247000000001
 11
1664.1995000000002
 21
1182.2104999999999
  0
LINE
  8
_0-0_LAYER001
  6
CONTINUOUS
 62
    4
 10
1664.1995000000002
 20
1182.2104999999999
 11
1665.0218
 21
1181.9474
  0
LINE
  8
_0-0_LAYER001
  6
CONTINUOUS
 62
    4
 10
1665.0218
 20
1181.9474
 11
1667.5329999999999
 21
1181.0341000000001
  0
LINE
  8
_0-0_LAYER001
  6
CONTINUOUS
 62
    4
 10
1667.5329999999999
 20
1181.0341000000001
 11
1671.7184999999999
 21
1179.1587999999999
  0
LINE
  8
_0-0_LAYER001
  6
CONTINUOUS
 62
    4
 10
1671.7184999999999
 20
1179.1587999999999
 11
1675.7532999999999
 21
1176.9695999999999
  0
LINE
  8
_0-0_LAYER001
  6
CONTINUOUS
 62
    4
 10
1675.7532999999999
 20
1176.9695999999999
 11
1679.6743999999999
 21
1174.5437999999999
  0
LINE
  8
_0-0_LAYER001
  6
CONTINUOUS
 62
    4
 10
1679.6743999999999
 20
1174.5437999999999
 11
1683.5189
 21
1171.9591
  0
LINE
  8
_0-0_LAYER001
  6
CONTINUOUS
 62
    4
 10
1683.5189
 20
1171.9591
 11
1687.3236999999999
 21
1169.2928999999999
  0
LINE
  8
_0-0_LAYER001
  6
CONTINUOUS
 62
    4
 10
1687.3236999999999
 20
1169.2928999999999
 11
1689.527
 21
1167.7397000000001
  0
LINE
  8
_0-0_LAYER001
  6
CONTINUOUS
 62
    4
 10
1689.527
 20
1167.7397000000001
 11
1692.8915000000002
 21
1165.3996
  0
LINE
  8
_0-0_LAYER001
  6
CONTINUOUS
 62
    4
 10
1692.8915000000002
 20
1165.3996
 11
1698.7393000000002
 21
1161.4639
  0
LINE
  8
_0-0_LAYER001
  6
CONTINUOUS
 62
    4
 10
1698.7393000000002
 20
1161.4639
 11
1704.6646999999998
 21
1157.6896999999999
  0
LINE
  8
_0-0_LAYER001
  6
CONTINUOUS
 62
    4
 10
1704.6646999999998
 20
1157.6896999999999
 11
1710.6893
 21
1154.1189999999999
  0
LINE
  8
_0-0_LAYER001
  6
CONTINUOUS
 62
    4
 10
1710.6893
 20
1154.1189999999999
 11
1716.8346000000001
 21
1150.7938999999999
  0
LINE
  8
_0-0_LAYER001
  6
CONTINUOUS
 62
    4
 10
1716.8346000000001
 20
1150.7938999999999
 11
1723.1219000000001
 21
1147.7565999999999
  0
LINE
  8
_0-0_LAYER001
  6
CONTINUOUS
 62
    4
 10
1723.1219000000001
 20
1147.7565999999999
 11
1726.8420000000001
 21
1146.1433999999999
  0
LINE
  8
_0-0_LAYER001
  6
CONTINUOUS
 62
    4
 10
1726.8420000000001
 20
1146.1433999999999
 11
1729.9187000000002
 21
1144.9150999999999
  0
LINE
  8
_0-0_LAYER001
  6
CONTINUOUS
 62
    4
 10
1729.9187000000002
 20
1144.9150999999999
 11
1735.3067000000001
 21
1142.9880000000001
  0
LINE
  8
_0-0_LAYER001
  6
CONTINUOUS
 62
    4
 10
1735.3067000000001
 20
1142.9880000000001
 11
1740.7864
 21
1141.3088
  0
LINE
  8
_0-0_LAYER001
  6
CONTINUOUS
 62
    4
 10
1740.7864
 20
1141.3088
 11
1746.3416999999999
 21
1139.8855000000001
  0
LINE
  8
_0-0_LAYER001
  6
CONTINUOUS
 62
    4
 10
1746.3416999999999
 20
1139.8855000000001
 11
1751.9567999999999
 21
1138.7257999999999
  0
LINE
  8
_0-0_LAYER001
  6
CONTINUOUS
 62
    4
 10
1751.9567999999999
 20
1138.7257999999999
 11
1757.6154999999999
 21
1137.8375000000001
  0
LINE
  8
_0-0_LAYER001
  6
CONTINUOUS
 62
    4
 10
1757.6154999999999
 20
1137.8375000000001
 11
1760.9112
 21
1137.4496999999999
  0
LINE
  8
_0-0_LAYER001
  6
CONTINUOUS
 62
    4
 10
1760.9112
 20
1137.4496999999999
 11
1763.4340000000002
 21
1137.2171000000001
  0
LINE
  8
_0-0_LAYER001
  6
CONTINUOUS
 62
    4
 10
1763.4340000000002
 20
1137.2171000000001
 11
1767.7903999999999
 21
1136.9377999999999
  0
LINE
  8
_0-0_LAYER001
  6
CONTINUOUS
 62
    4
 10
1767.7903999999999
 20
1136.9377999999999
 11
1772.1529
 21
1136.7992999999999
  0
LINE
  8
_0-0_LAYER001
  6
CONTINUOUS
 62
    4
 10
1772.1529
 20
1136.7992999999999
 11
1776.5187999999998
 21
1136.7855999999999
  0
LINE
  8
_0-0_LAYER001
  6
CONTINUOUS
 62
    4
 10
1776.5187999999998
 20
1136.7855999999999
 11
1780.8850000000002
 21
1136.8809000000001
  0
LINE
  8
_0-0_LAYER001
  6
CONTINUOUS
 62
    4
 10
1780.8850000000002
 20
1136.8809000000001
 11
1785.2487000000001
 21
1137.0695000000001
  0
LINE
  8
_0-0_LAYER001
  6
CONTINUOUS
 62
    4
 10
1785.2487000000001
 20
1137.0695000000001
 11
1787.7773000000002
 21
1137.2153000000001
  0
LINE
  8
_0-0_LAYER001
  6
CONTINUOUS
 62
    4
 10
1787.7773000000002
 20
1137.2153000000001
 11
1792.5021999999999
 21
1137.5495000000001
  0
LINE
  8
_0-0_LAYER001
  6
CONTINUOUS
 62
    4
 10
1792.5021999999999
 20
1137.5495000000001
 11
1800.6307999999999
 21
1138.2940000000001
  0
LINE
  8
_0-0_LAYER001
  6
CONTINUOUS
 62
    4
 10
1800.6307999999999
 20
1138.2940000000001
 11
1808.7393999999999
 21
1139.2212
  0
LINE
  8
_0-0_LAYER001
  6
CONTINUOUS
 62
    4
 10
1808.7393999999999
 20
1139.2212
 11
1816.8310000000001
 21
1140.2955999999999
  0
LINE
  8
_0-0_LAYER001
  6
CONTINUOUS
 62
    4
 10
1816.8310000000001
 20
1140.2955999999999
 11
1824.9087
 21
1141.4816000000001
  0
LINE
  8
_0-0_LAYER001
  6
CONTINUOUS
 62
    4
 10
1824.9087
 20
1141.4816000000001
 11
1832.9753999999998
 21
1142.7439999999999
  0
LINE
  8
_0-0_LAYER001
  6
CONTINUOUS
 62
    4
 10
1832.9753999999998
 20
1142.7439999999999
 11
1837.6502999999998
 21
1143.4971
  0
LINE
  8
_0-0_LAYER001
  6
CONTINUOUS
 62
    4
 10
1837.6502999999998
 20
1143.4971
 11
1840.0799000000002
 21
1143.8919000000001
  0
LINE
  8
_0-0_LAYER001
  6
CONTINUOUS
 62
    4
 10
1840.0799000000002
 20
1143.8919000000001
 11
1844.2676999999999
 21
1144.5763999999999
  0
LINE
  8
_0-0_LAYER001
  6
CONTINUOUS
 62
    4
 10
1844.2676999999999
 20
1144.5763999999999
 11
1848.4542000000001
 21
1145.2651000000001
  0
LINE
  8
_0-0_LAYER001
  6
CONTINUOUS
 62
    4
 10
1848.4542000000001
 20
1145.2651000000001
 11
1852.6397999999999
 21
1145.9567999999999
  0
LINE
  8
_0-0_LAYER001
  6
CONTINUOUS
 62
    4
 10
1852.6397999999999
 20
1145.9567999999999
 11
1856.8247000000001
 21
1146.6509000000001
  0
LINE
  8
_0-0_LAYER001
  6
CONTINUOUS
 62
    4
 10
1856.8247000000001
 20
1146.6509000000001
 11
1861.0091000000002
 21
1147.3463999999999
  0
LINE
  8
_0-0_LAYER001
  6
CONTINUOUS
 62
    4
 10
1861.0091000000002
 20
1147.3463999999999
 11
1863.4360000000001
 21
1147.7501
  0
LINE
  8
_0-0_LAYER001
  6
CONTINUOUS
 62
    4
 10
1618.3128999999999
 20
1152.2245
 11
1620.3636999999999
 21
1153.03
  0
LINE
  8
_0-0_LAYER001
  6
CONTINUOUS
 62
    4
 10
1620.3636999999999
 20
1153.03
 11
1623.9121
 21
1154.4262000000001
  0
LINE
  8
_0-0_LAYER001
  6
CONTINUOUS
 62
    4
 10
1623.9121
 20
1154.4262000000001
 11
1627.4847
 21
1155.8385000000001
  0
LINE
  8
_0-0_LAYER001
  6
CONTINUOUS
 62
    4
 10
1627.4847
 20
1155.8385000000001
 11
1631.0853999999999
 21
1157.2727
  0
LINE
  8
_0-0_LAYER001
  6
CONTINUOUS
 62
    4
 10
1631.0853999999999
 20
1157.2727
 11
1634.7183
 21
1158.7348
  0
LINE
  8
_0-0_LAYER001
  6
CONTINUOUS
 62
    4
 10
1634.7183
 20
1158.7348
 11
1638.377
 21
1160.2264
  0
LINE
  8
_0-0_LAYER001
  6
CONTINUOUS
 62
    4
 10
1638.377
 20
1160.2264
 11
1640.5201000000002
 21
1161.1104
  0
LINE
  8
_0-0_LAYER001
  6
CONTINUOUS
 62
    4
 10
1640.5201000000002
 20
1161.1104
 11
1642.5322000000001
 21
1161.9453000000001
  0
LINE
  8
_0-0_LAYER001
  6
CONTINUOUS
 62
    4
 10
1642.5322000000001
 20
1161.9453000000001
 11
1645.7860000000001
 21
1163.2621999999999
  0
LINE
  8
_0-0_LAYER001
  6
CONTINUOUS
 62
    4
 10
1645.7860000000001
 20
1163.2621999999999
 11
1648.6666
 21
1164.3248000000001
  0
LINE
  8
_0-0_LAYER001
  6
CONTINUOUS
 62
    4
 10
1648.6666
 20
1164.3248000000001
 11
1651.1244000000002
 21
1165.0789
  0
LINE
  8
_0-0_LAYER001
  6
CONTINUOUS
 62
    4
 10
1651.1244000000002
 20
1165.0789
 11
1653.1102999999998
 21
1165.5141000000001
  0
LINE
  8
_0-0_LAYER001
  6
CONTINUOUS
 62
    4
 10
1653.1102999999998
 20
1165.5141000000001
 11
1654.8870999999999
 21
1165.7034000000001
  0
LINE
  8
_0-0_LAYER001
  6
CONTINUOUS
 62
    4
 10
1654.8870999999999
 20
1165.7034000000001
 11
1655.5666999999999
 21
1165.7040999999999
  0
LINE
  8
_0-0_LAYER001
  6
CONTINUOUS
 62
    4
 10
1655.5666999999999
 20
1165.7040999999999
 11
1655.4904999999999
 21
1165.7085
  0
LINE
  8
_0-0_LAYER001
  6
CONTINUOUS
 62
    4
 10
1655.4904999999999
 20
1165.7085
 11
1656.1051000000002
 21
1165.6456000000001
  0
LINE
  8
_0-0_LAYER001
  6
CONTINUOUS
 62
    4
 10
1656.1051000000002
 20
1165.6456000000001
 11
1656.6968000000002
 21
1165.5542
  0
LINE
  8
_0-0_LAYER001
  6
CONTINUOUS
 62
    4
 10
1656.6968000000002
 20
1165.5542
 11
1657.3661999999999
 21
1165.4184
  0
LINE
  8
_0-0_LAYER001
  6
CONTINUOUS
 62
    4
 10
1657.3661999999999
 20
1165.4184
 11
1658.1024000000002
 21
1165.2362000000001
  0
LINE
  8
_0-0_LAYER001
  6
CONTINUOUS
 62
    4
 10
1658.1024000000002
 20
1165.2362000000001
 11
1658.9551000000001
 21
1164.9896000000001
  0
LINE
  8
_0-0_LAYER001
  6
CONTINUOUS
 62
    4
 10
1658.9551000000001
 20
1164.9896000000001
 11
1659.2003
 21
1164.9111
  0
LINE
  8
_0-0_LAYER001
  6
CONTINUOUS
 62
    4
 10
1659.2003
 20
1164.9111
 11
1660.7683000000002
 21
1164.3408999999999
  0
LINE
  8
_0-0_LAYER001
  6
CONTINUOUS
 62
    4
 10
1660.7683000000002
 20
1164.3408999999999
 11
1663.7348999999999
 21
1163.0117
  0
LINE
  8
_0-0_LAYER001
  6
CONTINUOUS
 62
    4
 10
1663.7348999999999
 20
1163.0117
 11
1666.7188000000001
 21
1161.3925999999999
  0
LINE
  8
_0-0_LAYER001
  6
CONTINUOUS
 62
    4
 10
1666.7188000000001
 20
1161.3925999999999
 11
1669.9144999999999
 21
1159.4157
  0
LINE
  8
_0-0_LAYER001
  6
CONTINUOUS
 62
    4
 10
1669.9144999999999
 20
1159.4157
 11
1673.3316
 21
1157.1183000000001
  0
LINE
  8
_0-0_LAYER001
  6
CONTINUOUS
 62
    4
 10
1673.3316
 20
1157.1183000000001
 11
1676.9733000000001
 21
1154.5663999999999
  0
LINE
  8
_0-0_LAYER001
  6
CONTINUOUS
 62
    4
 10
1676.9733000000001
 20
1154.5663999999999
 11
1679.2024000000001
 21
1152.9948999999999
  0
LINE
  8
_0-0_LAYER001
  6
CONTINUOUS
 62
    4
 10
1679.2024000000001
 20
1152.9948999999999
 11
1682.7269999999999
 21
1150.5436
  0
LINE
  8
_0-0_LAYER001
  6
CONTINUOUS
 62
    4
 10
1682.7269999999999
 20
1150.5436
 11
1688.8775000000001
 21
1146.4041
  0
LINE
  8
_0-0_LAYER001
  6
CONTINUOUS
 62
    4
 10
1688.8775000000001
 20
1146.4041
 11
1695.2384999999999
 21
1142.3525
  0
LINE
  8
_0-0_LAYER001
  6
CONTINUOUS
 62
    4
 10
1695.2384999999999
 20
1142.3525
 11
1701.8141999999998
 21
1138.4550999999999
  0
LINE
  8
_0-0_LAYER001
  6
CONTINUOUS
 62
    4
 10
1701.8141999999998
 20
1138.4550999999999
 11
1708.6323000000002
 21
1134.7659000000001
  0
LINE
  8
_0-0_LAYER001
  6
CONTINUOUS
 62
    4
 10
1708.6323000000002
 20
1134.7659000000001
 11
1715.6232
 21
1131.3887
  0
LINE
  8
_0-0_LAYER001
  6
CONTINUOUS
 62
    4
 10
1715.6232
 20
1131.3887
 11
1719.9231
 21
1129.5242000000001
  0
LINE
  8
_0-0_LAYER001
  6
CONTINUOUS
 62
    4
 10
1719.9231
 20
1129.5242000000001
 11
1723.5486999999998
 21
1128.0767000000001
  0
LINE
  8
_0-0_LAYER001
  6
CONTINUOUS
 62
    4
 10
1723.5486999999998
 20
1128.0767000000001
 11
1729.6358
 21
1125.8996
  0
LINE
  8
_0-0_LAYER001
  6
CONTINUOUS
 62
    4
 10
1729.6358
 20
1125.8996
 11
1735.9131000000002
 21
1123.9760000000001
  0
LINE
  8
_0-0_LAYER001
  6
CONTINUOUS
 62
    4
 10
1735.9131000000002
 20
1123.9760000000001
 11
1742.2853
 21
1122.3434
  0
LINE
  8
_0-0_LAYER001
  6
CONTINUOUS
 62
    4
 10
1742.2853
 20
1122.3434
 11
1748.7388000000001
 21
1121.0105000000001
  0
LINE
  8
_0-0_LAYER001
  6
CONTINUOUS
 62
    4
 10
1748.7388000000001
 20
1121.0105000000001
 11
1755.1671999999999
 21
1120.0014000000001
  0
LINE
  8
_0-0_LAYER001
  6
CONTINUOUS
 62
    4
 10
1755.1671999999999
 20
1120.0014000000001
 11
1759.0328
 21
1119.5465999999999
  0
LINE
  8
_0-0_LAYER001
  6
CONTINUOUS
 62
    4
 10
1759.0328
 20
1119.5465999999999
 11
1762.0315000000001
 21
1119.27
  0
LINE
  8
_0-0_LAYER001
  6
CONTINUOUS
 62
    4
 10
1762.0315000000001
 20
1119.27
 11
1766.9288000000001
 21
1118.9561000000001
  0
LINE
  8
_0-0_LAYER001
  6
CONTINUOUS
 62
    4
 10
1766.9288000000001
 20
1118.9561000000001
 11
1771.8389999999999
 21
1118.8001999999999
  0
LINE
  8
_0-0_LAYER001
  6
CONTINUOUS
 62
    4
 10
1771.8389999999999
 20
1118.8001999999999
 11
1776.6869999999999
 21
1118.7850000000001
  0
LINE
  8
_0-0_LAYER001
  6
CONTINUOUS
 62
    4
 10
1776.6869999999999
 20
1118.7850000000001
 11
1781.4699999999998
 21
1118.8894
  0
LINE
  8
_0-0_LAYER001
  6
CONTINUOUS
 62
    4
 10
1781.4699999999998
 20
1118.8894
 11
1786.1552999999999
 21
1119.0917999999999
  0
LINE
  8
_0-0_LAYER001
  6
CONTINUOUS
 62
    4
 10
1786.1552999999999
 20
1119.0917999999999
 11
1788.9304999999999
 21
1119.2519
  0
LINE
  8
_0-0_LAYER001
  6
CONTINUOUS
 62
    4
 10
1788.9304999999999
 20
1119.2519
 11
1793.9582999999998
 21
1119.6075000000001
  0
LINE
  8
_0-0_LAYER001
  6
CONTINUOUS
 62
    4
 10
1793.9582999999998
 20
1119.6075000000001
 11
1802.4744000000001
 21
1120.3875
  0
LINE
  8
_0-0_LAYER001
  6
CONTINUOUS
 62
    4
 10
1802.4744000000001
 20
1120.3875
 11
1810.9466000000002
 21
1121.3562999999999
  0
LINE
  8
_0-0_LAYER001
  6
CONTINUOUS
 62
    4
 10
1810.9466000000002
 20
1121.3562999999999
 11
1819.3231999999998
 21
1122.4684999999999
  0
LINE
  8
_0-0_LAYER001
  6
CONTINUOUS
 62
    4
 10
1819.3231999999998
 20
1122.4684999999999
 11
1827.6077
 21
1123.6849
  0
LINE
  8
_0-0_LAYER001
  6
CONTINUOUS
 62
    4
 10
1827.6077
 20
1123.6849
 11
1835.7982999999999
 21
1124.9666
  0
LINE
  8
_0-0_LAYER001
  6
CONTINUOUS
 62
    4
 10
1835.7982999999999
 20
1124.9666
 11
1840.5252999999998
 21
1125.7282
  0
LINE
  8
_0-0_LAYER001
  6
CONTINUOUS
 62
    4
 10
1840.5252999999998
 20
1125.7282
 11
1842.9753000000001
 21
1126.1262999999999
  0
LINE
  8
_0-0_LAYER001
  6
CONTINUOUS
 62
    4
 10
1842.9753000000001
 20
1126.1262999999999
 11
1847.1801999999998
 21
1126.8136
  0
LINE
  8
_0-0_LAYER001
  6
CONTINUOUS
 62
    4
 10
1847.1801999999998
 20
1126.8136
 11
1851.3825000000002
 21
1127.5047999999999
  0
LINE
  8
_0-0_LAYER001
  6
CONTINUOUS
 62
    4
 10
1851.3825000000002
 20
1127.5047999999999
 11
1855.5799999999999
 21
1128.1985999999999
  0
LINE
  8
_0-0_LAYER001
  6
CONTINUOUS
 62
    4
 10
1855.5799999999999
 20
1128.1985999999999
 11
1859.7728999999999
 21
1128.894
  0
LINE
  8
_0-0_LAYER001
  6
CONTINUOUS
 62
    4
 10
1859.7728999999999
 20
1128.894
 11
1863.9614999999999
 21
1129.5902000000001
  0
LINE
  8
_0-0_LAYER001
  6
CONTINUOUS
 62
    4
 10
1863.9614999999999
 20
1129.5902000000001
 11
1865.5756000000001
 21
1129.8587
  0
ARC
  8
_0-0_LAYER001
  6
CONTINUOUS
 62
    4
 10
1899.8112000000001
 20
1155.6558
 40
3
 50
103.0288
 51
179.49999999999997
  0
LINE
  8
_0-0_LAYER001
  6
CONTINUOUS
 62
    4
 10
1611.8849
 20
1149.6812
 11
1618.2772
 21
1152.2032999999999
  0
ARC
  8
_0-0_LAYER001
  6
CONTINUOUS
 62
    4
 10
1611.5178999999998
 20
1150.6114
 40
1
 50
179.5
 51
291.53165999999999
  0
LINE
  8
_0-0_LAYER001
  6
CONTINUOUS
 62
    4
 10
1904.3751999999999
 20
1159.7911999999999
 11
1899.1349
 21
1158.5786000000001
  0
ARC
  8
_0-0_LAYER001
  6
CONTINUOUS
 62
    4
 10
1904.6006000000002
 20
1158.8169
 40
1
 50
359.50000000000006
 51
103.02880000000002
  0
LINE
  8
_0-0_LAYER001
  6
CONTINUOUS
 62
    4
 10
1866.7602000000002
 20
1128.1207999999999
 11
1897.0740000000001
 21
1135.2148
  0
ARC
  8
_0-0_LAYER001
  6
CONTINUOUS
 62
    4
 10
1904.4148
 20
1137.5241000000001
 40
1
 50
359.50000000000006
 51
103.08296000000006
  0
LINE
  8
_0-0_LAYER001
  6
CONTINUOUS
 62
    4
 10
1897.855
 20
1137.0263
 11
1904.1884
 21
1138.4981
  0
LINE
  8
_0-0_LAYER001
  6
CONTINUOUS
 62
    4
 10
1897.0814
 20
1136.0608999999999
 11
1897.0740000000001
 21
1135.2148
  0
ARC
  8
_0-0_LAYER001
  6
CONTINUOUS
 62
    4
 10
1898.0812999999998
 20
1136.0522000000001
 40
1
 50
103.08296000000001
 51
179.50000000000003
  0
ARC
  8
_0-0_LAYER001
  6
CONTINUOUS
 62
    4
 10
1904.4346999999998
 20
1139.8072
 40
1
 50
283.04496999999998
 51
359.5
  0
LINE
  8
_0-0_LAYER001
  6
CONTINUOUS
 62
    4
 10
1864.2894999999999
 20
1127.6172999999999
 11
1866.7175999999999
 21
1128.0210999999999
  0
LINE
  8
_0-0_LAYER001
  6
CONTINUOUS
 62
    4
 10
1860.1005
 20
1126.921
 11
1864.2894999999999
 21
1127.6172999999999
  0
LINE
  8
_0-0_LAYER001
  6
CONTINUOUS
 62
    4
 10
1855.9067
 20
1126.2255
 11
1860.1005
 21
1126.921
  0
LINE
  8
_0-0_LAYER001
  6
CONTINUOUS
 62
    4
 10
1851.7078999999999
 20
1125.5315000000001
 11
1855.9067
 21
1126.2255
  0
LINE
  8
_0-0_LAYER001
  6
CONTINUOUS
 62
    4
 10
1847.5038
 20
1124.8399999999999
 11
1851.7078999999999
 21
1125.5315000000001
  0
LINE
  8
_0-0_LAYER001
  6
CONTINUOUS
 62
    4
 10
1843.297
 20
1124.1523999999999
 11
1847.5038
 21
1124.8399999999999
  0
LINE
  8
_0-0_LAYER001
  6
CONTINUOUS
 62
    4
 10
1840.8447999999999
 20
1123.7538
 11
1843.297
 21
1124.1523999999999
  0
LINE
  8
_0-0_LAYER001
  6
CONTINUOUS
 62
    4
 10
1836.1120000000001
 20
1122.9914000000001
 11
1840.8447999999999
 21
1123.7538
  0
LINE
  8
_0-0_LAYER001
  6
CONTINUOUS
 62
    4
 10
1827.9076
 20
1121.7075
 11
1836.1120000000001
 21
1122.9914000000001
  0
LINE
  8
_0-0_LAYER001
  6
CONTINUOUS
 62
    4
 10
1819.6001000000001
 20
1120.4876999999999
 11
1827.9076
 21
1121.7075
  0
LINE
  8
_0-0_LAYER001
  6
CONTINUOUS
 62
    4
 10
1811.1918000000001
 20
1119.3713
 11
1819.6001000000001
 21
1120.4876999999999
  0
LINE
  8
_0-0_LAYER001
  6
CONTINUOUS
 62
    4
 10
1802.6792999999998
 20
1118.3978999999999
 11
1811.1918000000001
 21
1119.3713
  0
LINE
  8
_0-0_LAYER001
  6
CONTINUOUS
 62
    4
 10
1794.1201000000001
 20
1117.6139000000001
 11
1802.6792999999998
 21
1118.3978999999999
  0
LINE
  8
_0-0_LAYER001
  6
CONTINUOUS
 62
    4
 10
1789.0585999999998
 20
1117.2559000000001
 11
1794.1201000000001
 21
1117.6139000000001
  0
LINE
  8
_0-0_LAYER001
  6
CONTINUOUS
 62
    4
 10
1786.2559999999999
 20
1117.0943
 11
1789.0585999999998
 21
1117.2559000000001
  0
LINE
  8
_0-0_LAYER001
  6
CONTINUOUS
 62
    4
 10
1781.5349999999999
 20
1116.8904
 11
1786.2559999999999
 21
1117.0943
  0
LINE
  8
_0-0_LAYER001
  6
CONTINUOUS
 62
    4
 10
1776.7057
 20
1116.7849000000001
 11
1781.5349999999999
 21
1116.8904
  0
LINE
  8
_0-0_LAYER001
  6
CONTINUOUS
 62
    4
 10
1771.8040999999998
 20
1116.8003000000001
 11
1776.7057
 21
1116.7849000000001
  0
LINE
  8
_0-0_LAYER001
  6
CONTINUOUS
 62
    4
 10
1766.8330999999998
 20
1116.9582
 11
1771.8040999999998
 21
1116.8003000000001
  0
LINE
  8
_0-0_LAYER001
  6
CONTINUOUS
 62
    4
 10
1761.8757000000001
 20
1117.2759000000001
 11
1766.8330999999998
 21
1116.9582
  0
LINE
  8
_0-0_LAYER001
  6
CONTINUOUS
 62
    4
 10
1758.8240000000001
 20
1117.5572999999999
 11
1761.8757000000001
 21
1117.2759000000001
  0
LINE
  8
_0-0_LAYER001
  6
CONTINUOUS
 62
    4
 10
1754.8951999999999
 20
1118.0196000000001
 11
1758.8240000000001
 21
1117.5572999999999
  0
LINE
  8
_0-0_LAYER001
  6
CONTINUOUS
 62
    4
 10
1748.3811999999998
 20
1119.0420999999999
 11
1754.8951999999999
 21
1118.0196000000001
  0
LINE
  8
_0-0_LAYER001
  6
CONTINUOUS
 62
    4
 10
1741.8346000000001
 20
1120.3942999999999
 11
1748.3811999999998
 21
1119.0420999999999
  0
LINE
  8
_0-0_LAYER001
  6
CONTINUOUS
 62
    4
 10
1735.3717000000001
 20
1122.0500999999999
 11
1741.8346000000001
 21
1120.3942999999999
  0
LINE
  8
_0-0_LAYER001
  6
CONTINUOUS
 62
    4
 10
1729.0057000000002
 20
1124.0008
 11
1735.3717000000001
 21
1122.0500999999999
  0
LINE
  8
_0-0_LAYER001
  6
CONTINUOUS
 62
    4
 10
1722.8409999999999
 20
1126.2058
 11
1729.0057000000002
 21
1124.0008
  0
LINE
  8
_0-0_LAYER001
  6
CONTINUOUS
 62
    4
 10
1719.1543000000001
 20
1127.6776
 11
1722.8409999999999
 21
1126.2058
  0
LINE
  8
_0-0_LAYER001
  6
CONTINUOUS
 62
    4
 10
1714.7901000000002
 20
1129.5700999999999
 11
1719.1543000000001
 21
1127.6776
  0
LINE
  8
_0-0_LAYER001
  6
CONTINUOUS
 62
    4
 10
1707.721
 20
1132.9851000000001
 11
1714.7901000000002
 21
1129.5700999999999
  0
LINE
  8
_0-0_LAYER001
  6
CONTINUOUS
 62
    4
 10
1700.8281000000002
 20
1136.7147
 11
1707.721
 21
1132.9851000000001
  0
LINE
  8
_0-0_LAYER001
  6
CONTINUOUS
 62
    4
 10
1694.1911
 20
1140.6483000000001
 11
1700.8281000000002
 21
1136.7147
  0
LINE
  8
_0-0_LAYER001
  6
CONTINUOUS
 62
    4
 10
1687.7818000000002
 20
1144.7308
 11
1694.1911
 21
1140.6483000000001
  0
LINE
  8
_0-0_LAYER001
  6
CONTINUOUS
 62
    4
 10
1681.5976000000001
 20
1148.8929000000001
 11
1687.7818000000002
 21
1144.7308
  0
LINE
  8
_0-0_LAYER001
  6
CONTINUOUS
 62
    4
 10
1678.0551999999998
 20
1151.3566000000001
 11
1681.5976000000001
 21
1148.8929000000001
  0
LINE
  8
_0-0_LAYER001
  6
CONTINUOUS
 62
    4
 10
1675.8231999999998
 20
1152.9301
 11
1678.0551999999998
 21
1151.3566000000001
  0
LINE
  8
_0-0_LAYER001
  6
CONTINUOUS
 62
    4
 10
1672.1997000000001
 20
1155.4693
 11
1675.8231999999998
 21
1152.9301
  0
LINE
  8
_0-0_LAYER001
  6
CONTINUOUS
 62
    4
 10
1668.8299999999999
 20
1157.7348
 11
1672.1997000000001
 21
1155.4693
  0
LINE
  8
_0-0_LAYER001
  6
CONTINUOUS
 62
    4
 10
1665.7150000000001
 20
1159.6619000000001
 11
1668.8299999999999
 21
1157.7348
  0
LINE
  8
_0-0_LAYER001
  6
CONTINUOUS
 62
    4
 10
1662.8478
 20
1161.2175999999999
 11
1665.7150000000001
 21
1159.6619000000001
  0
LINE
  8
_0-0_LAYER001
  6
CONTINUOUS
 62
    4
 10
1660.0167000000001
 20
1162.4861000000001
 11
1662.8478
 21
1161.2175999999999
  0
LINE
  8
_0-0_LAYER001
  6
CONTINUOUS
 62
    4
 10
1658.5535
 20
1163.0182
 11
1660.0167000000001
 21
1162.4861000000001
  0
LINE
  8
_0-0_LAYER001
  6
CONTINUOUS
 62
    4
 10
1658.3724000000002
 20
1163.0762
 11
1658.5535
 21
1163.0182
  0
LINE
  8
_0-0_LAYER001
  6
CONTINUOUS
 62
    4
 10
1657.5841
 20
1163.3041000000001
 11
1658.3724000000002
 21
1163.0762
  0
LINE
  8
_0-0_LAYER001
  6
CONTINUOUS
 62
    4
 10
1656.9268999999999
 20
1163.4667999999999
 11
1657.5841
 21
1163.3041000000001
  0
LINE
  8
_0-0_LAYER001
  6
CONTINUOUS
 62
    4
 10
1656.3452000000002
 20
1163.5848000000001
 11
1656.9268999999999
 21
1163.4667999999999
  0
LINE
  8
_0-0_LAYER001
  6
CONTINUOUS
 62
    4
 10
1656.3051
 20
1163.5909999999999
 11
1656.3452000000002
 21
1163.5848000000001
  0
LINE
  8
_0-0_LAYER001
  6
CONTINUOUS
 62
    4
 10
1860.2788999999998
 20
1108.4297999999999
 11
1861.893
 21
1108.6983
  0
LINE
  8
_0-0_LAYER001
  6
CONTINUOUS
 62
    4
 10
1856.0902999999998
 20
1107.7336
 11
1860.2788999999998
 21
1108.4297999999999
  0
LINE
  8
_0-0_LAYER001
  6
CONTINUOUS
 62
    4
 10
1851.8973999999998
 20
1107.0382
 11
1856.0902999999998
 21
1107.7336
  0
LINE
  8
_0-0_LAYER001
  6
CONTINUOUS
 62
    4
 10
1847.6999000000001
 20
1106.3444
 11
1851.8973999999998
 21
1107.0382
  0
LINE
  8
_0-0_LAYER001
  6
CONTINUOUS
 62
    4
 10
1843.4976000000001
 20
1105.6532
 11
1847.6999000000001
 21
1106.3444
  0
LINE
  8
_0-0_LAYER001
  6
CONTINUOUS
 62
    4
 10
1839.2928000000002
 20
1104.9658999999999
 11
1843.4976000000001
 21
1105.6532
  0
LINE
  8
_0-0_LAYER001
  6
CONTINUOUS
 62
    4
 10
1836.8427000000001
 20
1104.5678
 11
1839.2928000000002
 21
1104.9658999999999
  0
LINE
  8
_0-0_LAYER001
  6
CONTINUOUS
 62
    4
 10
1832.1158
 20
1103.8062
 11
1836.8427000000001
 21
1104.5678
  0
LINE
  8
_0-0_LAYER001
  6
CONTINUOUS
 62
    4
 10
1823.9250999999999
 20
1102.5245
 11
1832.1158
 21
1103.8062
  0
LINE
  8
_0-0_LAYER001
  6
CONTINUOUS
 62
    4
 10
1815.6406000000002
 20
1101.3081
 11
1823.9250999999999
 21
1102.5245
  0
LINE
  8
_0-0_LAYER001
  6
CONTINUOUS
 62
    4
 10
1807.2640000000001
 20
1100.1958999999999
 11
1815.6406000000002
 21
1101.3081
  0
LINE
  8
_0-0_LAYER001
  6
CONTINUOUS
 62
    4
 10
1798.7918
 20
1099.2271000000001
 11
1807.2640000000001
 21
1100.1958999999999
  0
LINE
  8
_0-0_LAYER001
  6
CONTINUOUS
 62
    4
 10
1790.2757000000001
 20
1098.4471000000001
 11
1798.7918
 21
1099.2271000000001
  0
LINE
  8
_0-0_LAYER001
  6
CONTINUOUS
 62
    4
 10
1785.2478999999998
 20
1098.0915
 11
1790.2757000000001
 21
1098.4471000000001
  0
LINE
  8
_0-0_LAYER001
  6
CONTINUOUS
 62
    4
 10
1782.4726999999998
 20
1097.9313999999999
 11
1785.2478999999998
 21
1098.0915
  0
LINE
  8
_0-0_LAYER001
  6
CONTINUOUS
 62
    4
 10
1777.7874000000002
 20
1097.729
 11
1782.4726999999998
 21
1097.9313999999999
  0
LINE
  8
_0-0_LAYER001
  6
CONTINUOUS
 62
    4
 10
1773.0045
 20
1097.6246000000001
 11
1777.7874000000002
 21
1097.729
  0
LINE
  8
_0-0_LAYER001
  6
CONTINUOUS
 62
    4
 10
1768.1563999999998
 20
1097.6397999999999
 11
1773.0045
 21
1097.6246000000001
  0
LINE
  8
_0-0_LAYER001
  6
CONTINUOUS
 62
    4
 10
1763.2462
 20
1097.7956999999999
 11
1768.1563999999998
 21
1097.6397999999999
  0
LINE
  8
_0-0_LAYER001
  6
CONTINUOUS
 62
    4
 10
1758.3489
 20
1098.1096
 11
1763.2462
 21
1097.7956999999999
  0
LINE
  8
_0-0_LAYER001
  6
CONTINUOUS
 62
    4
 10
1755.3501999999999
 20
1098.3861999999999
 11
1758.3489
 21
1098.1096
  0
LINE
  8
_0-0_LAYER001
  6
CONTINUOUS
 62
    4
 10
1751.4845999999998
 20
1098.8409999999999
 11
1755.3501999999999
 21
1098.3861999999999
  0
LINE
  8
_0-0_LAYER001
  6
CONTINUOUS
 62
    4
 10
1745.0562
 20
1099.8501000000001
 11
1751.4845999999998
 21
1098.8409999999999
  0
LINE
  8
_0-0_LAYER001
  6
CONTINUOUS
 62
    4
 10
1738.6026999999999
 20
1101.183
 11
1745.0562
 21
1099.8501000000001
  0
LINE
  8
_0-0_LAYER001
  6
CONTINUOUS
 62
    4
 10
1732.2305999999999
 20
1102.8155999999999
 11
1738.6026999999999
 21
1101.183
  0
LINE
  8
_0-0_LAYER001
  6
CONTINUOUS
 62
    4
 10
1725.9531999999999
 20
1104.7392
 11
1732.2305999999999
 21
1102.8155999999999
  0
LINE
  8
_0-0_LAYER001
  6
CONTINUOUS
 62
    4
 10
1719.8661999999999
 20
1106.9163000000001
 11
1725.9531999999999
 21
1104.7392
  0
LINE
  8
_0-0_LAYER001
  6
CONTINUOUS
 62
    4
 10
1716.2404999999999
 20
1108.3638000000001
 11
1719.8661999999999
 21
1106.9163000000001
  0
LINE
  8
_0-0_LAYER001
  6
CONTINUOUS
 62
    4
 10
1711.9405999999999
 20
1110.2283
 11
1716.2404999999999
 21
1108.3638000000001
  0
LINE
  8
_0-0_LAYER001
  6
CONTINUOUS
 62
    4
 10
1704.9497999999999
 20
1113.6056000000001
 11
1711.9405999999999
 21
1110.2283
  0
LINE
  8
_0-0_LAYER001
  6
CONTINUOUS
 62
    4
 10
1698.1316000000002
 20
1117.2946999999999
 11
1704.9497999999999
 21
1113.6056000000001
  0
LINE
  8
_0-0_LAYER001
  6
CONTINUOUS
 62
    4
 10
1691.5558999999998
 20
1121.1921
 11
1698.1316000000002
 21
1117.2946999999999
  0
LINE
  8
_0-0_LAYER001
  6
CONTINUOUS
 62
    4
 10
1685.1949
 20
1125.2437
 11
1691.5558999999998
 21
1121.1921
  0
LINE
  8
_0-0_LAYER001
  6
CONTINUOUS
 62
    4
 10
1679.0444000000002
 20
1129.3832
 11
1685.1949
 21
1125.2437
  0
LINE
  8
_0-0_LAYER001
  6
CONTINUOUS
 62
    4
 10
1675.5198
 20
1131.8344999999999
 11
1679.0444000000002
 21
1129.3832
  0
LINE
  8
_0-0_LAYER001
  6
CONTINUOUS
 62
    4
 10
1673.2907
 20
1133.4059999999999
 11
1675.5198
 21
1131.8344999999999
  0
LINE
  8
_0-0_LAYER001
  6
CONTINUOUS
 62
    4
 10
1669.6489999999999
 20
1135.9579000000001
 11
1673.2907
 21
1133.4059999999999
  0
LINE
  8
_0-0_LAYER001
  6
CONTINUOUS
 62
    4
 10
1666.2319000000002
 20
1138.2553
 11
1669.6489999999999
 21
1135.9579000000001
  0
LINE
  8
_0-0_LAYER001
  6
CONTINUOUS
 62
    4
 10
1663.0363000000002
 20
1140.2321999999999
 11
1666.2319000000002
 21
1138.2553
  0
LINE
  8
_0-0_LAYER001
  6
CONTINUOUS
 62
    4
 10
1660.0522999999998
 20
1141.8513
 11
1663.0363000000002
 21
1140.2321999999999
  0
LINE
  8
_0-0_LAYER001
  6
CONTINUOUS
 62
    4
 10
1657.0857000000001
 20
1143.1804999999999
 11
1660.0522999999998
 21
1141.8513
  0
LINE
  8
_0-0_LAYER001
  6
CONTINUOUS
 62
    4
 10
1656.3357999999998
 20
1143.4531999999999
 11
1657.0857000000001
 21
1143.1804999999999
  0
LINE
  8
_0-0_LAYER001
  6
CONTINUOUS
 62
    4
 10
1656.6687999999999
 20
1163.4964
 11
1656.4928
 21
1143.3228999999999
  0
LINE
  8
_0-0_LAYER001
  6
CONTINUOUS
 62
    4
 10
1904.4829
 20
1118.4847
 11
1861.6626999999999
 21
1108.5635
  0
ARC
  8
_0-0_LAYER001
  6
CONTINUOUS
 62
    4
 10
1904.2570999999998
 20
1119.4589000000001
 40
1
 50
283.04496999999998
 51
359.5
  0
LINE
  8
_0-0_LAYER001
  6
CONTINUOUS
 62
    4
 10
1857.1718000000001
 20
1098.25
 11
1854.9263999999998
 21
1106.8234
  0
ARC
  8
_0-0_LAYER001
  6
CONTINUOUS
 62
    4
 10
1860.0738999999999
 20
1099.0101
 40
3
 50
194.67639000000003
 51
270.00000000000006
  0
LINE
  8
_0-0_LAYER001
  6
CONTINUOUS
 62
    4
 10
1863.4917
 20
1096.0101
 11
1860.0738999999999
 21
1096.0101
  0
LINE
  8
_0-0_LAYER001
  6
CONTINUOUS
 62
    4
 10
1866.4508999999998
 20
1098.5169000000001
 11
1868.3849
 21
1110.1210000000001
  0
ARC
  8
_0-0_LAYER001
  6
CONTINUOUS
 62
    4
 10
1863.4917
 20
1099.0101
 40
3
 50
270
 51
350.53766999999999
  0
LINE
  8
_0-0_LAYER001
  6
CONTINUOUS
 62
    4
 10
1610.5848000000001
 20
1167.1583000000001
 11
1610.5848000000001
 21
1150.6259
  0
LINE
  8
_0-0_LAYER001
  6
CONTINUOUS
 62
    4
 10
1611.8438000000001
 20
1169.0159000000001
 11
1612.9688000000001
 21
1169.4647
  0
ARC
  8
_0-0_LAYER001
  6
CONTINUOUS
 62
    4
 10
1612.5848000000001
 20
1167.1583000000001
 40
2
 50
111.74902000000002
 51
180
  0
LINE
  8
_0-0_LAYER001
  6
CONTINUOUS
 62
    4
 10
1904.6604000000002
 20
1138.8331000000001
 11
1865.5848000000001
 21
1129.7793999999999
  0
LINE
  8
_0-0_LAYER001
  6
CONTINUOUS
 62
    4
 10
1865.5848000000001
 20
1148.2562
 11
1865.5848000000001
 21
1129.7793999999999
  0
LINE
  8
_0-0_LAYER001
  6
CONTINUOUS
 62
    4
 10
1863.5603999999998
 20
1147.7872
 11
1896.8096
 21
1155.4909
  0
LINE
  8
_0-0_LAYER001
  6
CONTINUOUS
 62
    4
 10
1905.5212000000001
 20
1158.865
 11
1905.5212000000001
 21
1139.7849000000001
  0
LINE
  8
_0-0_LAYER001
  6
CONTINUOUS
 62
    4
 10
1905.6286
 20
1137.798
 11
1905.6286
 21
1119.6269
  0
LINE
  8
_0-0_LAYER001
  6
CONTINUOUS
 62
    4
 10
1987.3588
 20
1087.8643999999999
 11
1978.8234000000002
 21
1102.3977
  0
LINE
  8
_0-0_LAYER001
  6
CONTINUOUS
 62
    4
 10
1995.5266999999999
 20
1087.2140999999999
 11
2003.8328999999999
 21
1097.2796000000001
  0
ARC
  8
_0-0_LAYER001
  6
DASHED1
 62
    4
 10
1991.6702
 20
1090.3965000000001
 40
5
 50
210.42578
 51
320.47001
  0
LINE
  8
_0-0_LAYER001
  6
CONTINUOUS
 62
    4
 10
2071.4722999999999
 20
1086.7442000000001
 11
2064.1469000000002
 21
1098.0503000000001
  0
LINE
  8
_0-0_LAYER001
  6
CONTINUOUS
 62
    4
 10
2079.9818
 20
1086.9340999999999
 11
2088.9203000000002
 21
1102.1797999999999
  0
ARC
  8
_0-0_LAYER001
  6
CONTINUOUS
 62
    4
 10
2075.6685000000002
 20
1089.463
 40
5
 50
212.93986000000001
 51
329.61716000000001
  0
LINE
  8
_0-0_LAYER001
  6
CONTINUOUS
 62
    4
 10
1867.9427000000001
 20
1168.3385000000001
 11
1868.7523000000001
 21
1168.6565000000001
  0
LINE
  8
_0-0_LAYER001
  6
CONTINUOUS
 62
    4
 10
1868.7523000000001
 20
1168.6565000000001
 11
1872.2824999999998
 21
1170.0454999999999
  0
LINE
  8
_0-0_LAYER001
  6
CONTINUOUS
 62
    4
 10
1872.2824999999998
 20
1170.0454999999999
 11
1875.8199
 21
1171.4439
  0
LINE
  8
_0-0_LAYER001
  6
CONTINUOUS
 62
    4
 10
1875.8199
 20
1171.4439
 11
1879.3692000000001
 21
1172.8576
  0
LINE
  8
_0-0_LAYER001
  6
CONTINUOUS
 62
    4
 10
1879.3692000000001
 20
1172.8576
 11
1882.9348
 21
1174.2926
  0
LINE
  8
_0-0_LAYER001
  6
CONTINUOUS
 62
    4
 10
1882.9348
 20
1174.2926
 11
1886.5214999999998
 21
1175.7547999999999
  0
LINE
  8
_0-0_LAYER001
  6
CONTINUOUS
 62
    4
 10
1886.5214999999998
 20
1175.7547999999999
 11
1888.6131999999998
 21
1176.6177
  0
LINE
  8
_0-0_LAYER001
  6
CONTINUOUS
 62
    4
 10
1888.6131999999998
 20
1176.6177
 11
1890.6808000000001
 21
1177.4755
  0
LINE
  8
_0-0_LAYER001
  6
CONTINUOUS
 62
    4
 10
1890.6808000000001
 20
1177.4755
 11
1894.2674000000002
 21
1178.9272000000001
  0
LINE
  8
_0-0_LAYER001
  6
CONTINUOUS
 62
    4
 10
1894.2674000000002
 20
1178.9272000000001
 11
1897.8818000000001
 21
1180.2605000000001
  0
LINE
  8
_0-0_LAYER001
  6
CONTINUOUS
 62
    4
 10
1897.8818000000001
 20
1180.2605000000001
 11
1901.5245
 21
1181.3780999999999
  0
LINE
  8
_0-0_LAYER001
  6
CONTINUOUS
 62
    4
 10
1901.5245
 20
1181.3780999999999
 11
1905.1958
 21
1182.1827000000001
  0
LINE
  8
_0-0_LAYER001
  6
CONTINUOUS
 62
    4
 10
1905.1958
 20
1182.1827000000001
 11
1908.8959
 21
1182.5769
  0
LINE
  8
_0-0_LAYER001
  6
CONTINUOUS
 62
    4
 10
1908.8959
 20
1182.5769
 11
1911.0554000000002
 21
1182.5790999999999
  0
LINE
  8
_0-0_LAYER001
  6
CONTINUOUS
 62
    4
 10
1911.0554000000002
 20
1182.5790999999999
 11
1911.9052999999999
 21
1182.5296000000001
  0
LINE
  8
_0-0_LAYER001
  6
CONTINUOUS
 62
    4
 10
1911.9052999999999
 20
1182.5296000000001
 11
1913.3719000000001
 21
1182.3795
  0
LINE
  8
_0-0_LAYER001
  6
CONTINUOUS
 62
    4
 10
1913.3719000000001
 20
1182.3795
 11
1914.8362999999999
 21
1182.1532
  0
LINE
  8
_0-0_LAYER001
  6
CONTINUOUS
 62
    4
 10
1914.8362999999999
 20
1182.1532
 11
1916.2941999999998
 21
1181.8575000000001
  0
LINE
  8
_0-0_LAYER001
  6
CONTINUOUS
 62
    4
 10
1916.2941999999998
 20
1181.8575000000001
 11
1917.7415000000001
 21
1181.4992
  0
LINE
  8
_0-0_LAYER001
  6
CONTINUOUS
 62
    4
 10
1917.7415000000001
 20
1181.4992
 11
1919.1738999999998
 21
1181.085
  0
LINE
  8
_0-0_LAYER001
  6
CONTINUOUS
 62
    4
 10
1919.1738999999998
 20
1181.085
 11
1919.9960999999998
 21
1180.8218999999999
  0
LINE
  8
_0-0_LAYER001
  6
CONTINUOUS
 62
    4
 10
1919.9960999999998
 20
1180.8218999999999
 11
1922.5073000000002
 21
1179.9086
  0
LINE
  8
_0-0_LAYER001
  6
CONTINUOUS
 62
    4
 10
1922.5073000000002
 20
1179.9086
 11
1926.6927999999998
 21
1178.0333000000001
  0
LINE
  8
_0-0_LAYER001
  6
CONTINUOUS
 62
    4
 10
1926.6927999999998
 20
1178.0333000000001
 11
1930.7276000000002
 21
1175.8440000000001
  0
LINE
  8
_0-0_LAYER001
  6
CONTINUOUS
 62
    4
 10
1930.7276000000002
 20
1175.8440000000001
 11
1934.6487000000002
 21
1173.4183
  0
LINE
  8
_0-0_LAYER001
  6
CONTINUOUS
 62
    4
 10
1934.6487000000002
 20
1173.4183
 11
1938.4931999999999
 21
1170.8335999999999
  0
LINE
  8
_0-0_LAYER001
  6
CONTINUOUS
 62
    4
 10
1938.4931999999999
 20
1170.8335999999999
 11
1942.2979999999998
 21
1168.1674
  0
LINE
  8
_0-0_LAYER001
  6
CONTINUOUS
 62
    4
 10
1942.2979999999998
 20
1168.1674
 11
1944.5012999999999
 21
1166.6142
  0
LINE
  8
_0-0_LAYER001
  6
CONTINUOUS
 62
    4
 10
1944.5012999999999
 20
1166.6142
 11
1947.8658999999998
 21
1164.2741000000001
  0
LINE
  8
_0-0_LAYER001
  6
CONTINUOUS
 62
    4
 10
1947.8658999999998
 20
1164.2741000000001
 11
1953.7136
 21
1160.3384000000001
  0
LINE
  8
_0-0_LAYER001
  6
CONTINUOUS
 62
    4
 10
1953.7136
 20
1160.3384000000001
 11
1959.6390000000001
 21
1156.5642
  0
LINE
  8
_0-0_LAYER001
  6
CONTINUOUS
 62
    4
 10
1959.6390000000001
 20
1156.5642
 11
1965.6637000000001
 21
1152.9935
  0
LINE
  8
_0-0_LAYER001
  6
CONTINUOUS
 62
    4
 10
1965.6637000000001
 20
1152.9935
 11
1971.8089
 21
1149.6684
  0
LINE
  8
_0-0_LAYER001
  6
CONTINUOUS
 62
    4
 10
1971.8089
 20
1149.6684
 11
1978.0962
 21
1146.6311000000001
  0
LINE
  8
_0-0_LAYER001
  6
CONTINUOUS
 62
    4
 10
1978.0962
 20
1146.6311000000001
 11
1981.8164000000002
 21
1145.0179000000001
  0
LINE
  8
_0-0_LAYER001
  6
CONTINUOUS
 62
    4
 10
1981.8164000000002
 20
1145.0179000000001
 11
1984.893
 21
1143.7896000000001
  0
LINE
  8
_0-0_LAYER001
  6
CONTINUOUS
 62
    4
 10
1984.893
 20
1143.7896000000001
 11
1990.2809999999999
 21
1141.8625
  0
LINE
  8
_0-0_LAYER001
  6
CONTINUOUS
 62
    4
 10
1990.2809999999999
 20
1141.8625
 11
1995.7606999999998
 21
1140.1832999999999
  0
LINE
  8
_0-0_LAYER001
  6
CONTINUOUS
 62
    4
 10
1995.7606999999998
 20
1140.1832999999999
 11
2001.3161
 21
1138.76
  0
LINE
  8
_0-0_LAYER001
  6
CONTINUOUS
 62
    4
 10
2001.3161
 20
1138.76
 11
2006.9310999999998
 21
1137.6003000000001
  0
LINE
  8
_0-0_LAYER001
  6
CONTINUOUS
 62
    4
 10
2006.9310999999998
 20
1137.6003000000001
 11
2012.5898000000002
 21
1136.712
  0
LINE
  8
_0-0_LAYER001
  6
CONTINUOUS
 62
    4
 10
2012.5898000000002
 20
1136.712
 11
2015.8854999999999
 21
1136.3242
  0
LINE
  8
_0-0_LAYER001
  6
CONTINUOUS
 62
    4
 10
2015.8854999999999
 20
1136.3242
 11
2018.4083000000001
 21
1136.0916
  0
LINE
  8
_0-0_LAYER001
  6
CONTINUOUS
 62
    4
 10
2018.4083000000001
 20
1136.0916
 11
2022.7647000000002
 21
1135.8123000000001
  0
LINE
  8
_0-0_LAYER001
  6
CONTINUOUS
 62
    4
 10
2022.7647000000002
 20
1135.8123000000001
 11
2027.1273000000001
 21
1135.6738
  0
LINE
  8
_0-0_LAYER001
  6
CONTINUOUS
 62
    4
 10
2027.1273000000001
 20
1135.6738
 11
2031.4931000000001
 21
1135.6601000000001
  0
LINE
  8
_0-0_LAYER001
  6
CONTINUOUS
 62
    4
 10
2031.4931000000001
 20
1135.6601000000001
 11
2035.8593000000001
 21
1135.7554
  0
LINE
  8
_0-0_LAYER001
  6
CONTINUOUS
 62
    4
 10
2035.8593000000001
 20
1135.7554
 11
2040.223
 21
1135.944
  0
LINE
  8
_0-0_LAYER001
  6
CONTINUOUS
 62
    4
 10
2040.223
 20
1135.944
 11
2042.7516000000001
 21
1136.0898
  0
LINE
  8
_0-0_LAYER001
  6
CONTINUOUS
 62
    4
 10
2042.7516000000001
 20
1136.0898
 11
2047.4765000000002
 21
1136.424
  0
LINE
  8
_0-0_LAYER001
  6
CONTINUOUS
 62
    4
 10
2047.4765000000002
 20
1136.424
 11
2055.6051000000002
 21
1137.1685
  0
LINE
  8
_0-0_LAYER001
  6
CONTINUOUS
 62
    4
 10
2055.6051000000002
 20
1137.1685
 11
2063.7136999999998
 21
1138.0957000000001
  0
LINE
  8
_0-0_LAYER001
  6
CONTINUOUS
 62
    4
 10
2063.7136999999998
 20
1138.0957000000001
 11
2071.8053
 21
1139.1700000000001
  0
LINE
  8
_0-0_LAYER001
  6
CONTINUOUS
 62
    4
 10
2071.8053
 20
1139.1700000000001
 11
2079.8829999999998
 21
1140.3561
  0
LINE
  8
_0-0_LAYER001
  6
CONTINUOUS
 62
    4
 10
2079.8829999999998
 20
1140.3561
 11
2087.9497000000001
 21
1141.6185
  0
LINE
  8
_0-0_LAYER001
  6
CONTINUOUS
 62
    4
 10
2087.9497000000001
 20
1141.6185
 11
2092.6246000000001
 21
1142.3715999999999
  0
LINE
  8
_0-0_LAYER001
  6
CONTINUOUS
 62
    4
 10
2092.6246000000001
 20
1142.3715999999999
 11
2095.0542
 21
1142.7664
  0
LINE
  8
_0-0_LAYER001
  6
CONTINUOUS
 62
    4
 10
2095.0542
 20
1142.7664
 11
2099.2420000000002
 21
1143.4509
  0
LINE
  8
_0-0_LAYER001
  6
CONTINUOUS
 62
    4
 10
2099.2420000000002
 20
1143.4509
 11
2103.4286000000002
 21
1144.1395
  0
LINE
  8
_0-0_LAYER001
  6
CONTINUOUS
 62
    4
 10
2103.4286000000002
 20
1144.1395
 11
2107.6142
 21
1144.8313000000001
  0
LINE
  8
_0-0_LAYER001
  6
CONTINUOUS
 62
    4
 10
2107.6142
 20
1144.8313000000001
 11
2111.7991000000002
 21
1145.5254
  0
LINE
  8
_0-0_LAYER001
  6
CONTINUOUS
 62
    4
 10
2111.7991000000002
 20
1145.5254
 11
2115.9834999999998
 21
1146.2209
  0
LINE
  8
_0-0_LAYER001
  6
CONTINUOUS
 62
    4
 10
2115.9834999999998
 20
1146.2209
 11
2118.4104000000002
 21
1146.6246000000001
  0
ARC
  8
_0-0_LAYER001
  6
CONTINUOUS
 62
    4
 10
2154.7856000000002
 20
1154.5302999999999
 40
3
 50
103.0288
 51
179.49999999999997
  0
LINE
  8
_0-0_LAYER001
  6
CONTINUOUS
 62
    4
 10
1866.8591999999999
 20
1148.5556999999999
 11
1873.2514999999999
 21
1151.0778
  0
ARC
  8
_0-0_LAYER001
  6
CONTINUOUS
 62
    4
 10
1866.4922000000001
 20
1149.4858999999999
 40
1
 50
179.5
 51
291.53165999999999
  0
LINE
  8
_0-0_LAYER001
  6
CONTINUOUS
 62
    4
 10
2159.3494999999998
 20
1158.6657
 11
2154.1091999999999
 21
1157.4530999999999
  0
ARC
  8
_0-0_LAYER001
  6
CONTINUOUS
 62
    4
 10
2159.5749999999998
 20
1157.6913999999999
 40
1
 50
359.50000000000006
 51
103.02880000000002
  0
LINE
  8
_0-0_LAYER001
  6
CONTINUOUS
 62
    4
 10
2121.7345999999998
 20
1126.9953
 11
2152.0482999999999
 21
1134.0893000000001
  0
ARC
  8
_0-0_LAYER001
  6
CONTINUOUS
 62
    4
 10
2159.3892000000001
 20
1136.3986
 40
1
 50
359.50000000000006
 51
103.08296000000006
  0
LINE
  8
_0-0_LAYER001
  6
CONTINUOUS
 62
    4
 10
2152.8292999999999
 20
1135.9007999999999
 11
2159.1628000000001
 21
1137.3725999999999
  0
LINE
  8
_0-0_LAYER001
  6
CONTINUOUS
 62
    4
 10
2152.0556999999999
 20
1134.9354000000001
 11
2152.0482999999999
 21
1134.0893000000001
  0
ARC
  8
_0-0_LAYER001
  6
CONTINUOUS
 62
    4
 10
2153.0556999999999
 20
1134.9267
 40
1
 50
103.08296000000001
 51
179.50000000000003
  0
ARC
  8
_0-0_LAYER001
  6
CONTINUOUS
 62
    4
 10
2159.4090999999999
 20
1138.6817000000001
 40
1
 50
283.04496999999998
 51
359.5
  0
LINE
  8
_0-0_LAYER001
  6
CONTINUOUS
 62
    4
 10
2119.2638999999999
 20
1126.4918
 11
2121.692
 21
1126.8956000000001
  0
LINE
  8
_0-0_LAYER001
  6
CONTINUOUS
 62
    4
 10
2115.0747999999999
 20
1125.7954999999999
 11
2119.2638999999999
 21
1126.4918
  0
LINE
  8
_0-0_LAYER001
  6
CONTINUOUS
 62
    4
 10
2110.8809999999999
 20
1125.0999999999999
 11
2115.0747999999999
 21
1125.7954999999999
  0
LINE
  8
_0-0_LAYER001
  6
CONTINUOUS
 62
    4
 10
2106.6822999999999
 20
1124.4059999999999
 11
2110.8809999999999
 21
1125.0999999999999
  0
LINE
  8
_0-0_LAYER001
  6
CONTINUOUS
 62
    4
 10
2102.4782
 20
1123.7145
 11
2106.6822999999999
 21
1124.4059999999999
  0
LINE
  8
_0-0_LAYER001
  6
CONTINUOUS
 62
    4
 10
2098.2714000000001
 20
1123.0268000000001
 11
2102.4782
 21
1123.7145
  0
LINE
  8
_0-0_LAYER001
  6
CONTINUOUS
 62
    4
 10
2095.8191000000002
 20
1122.6283000000001
 11
2098.2714000000001
 21
1123.0268000000001
  0
LINE
  8
_0-0_LAYER001
  6
CONTINUOUS
 62
    4
 10
2091.0862999999999
 20
1121.8659
 11
2095.8191000000002
 21
1122.6283000000001
  0
LINE
  8
_0-0_LAYER001
  6
CONTINUOUS
 62
    4
 10
2082.8818999999999
 20
1120.5820000000001
 11
2091.0862999999999
 21
1121.8659
  0
LINE
  8
_0-0_LAYER001
  6
CONTINUOUS
 62
    4
 10
2074.5744
 20
1119.3622
 11
2082.8818999999999
 21
1120.5820000000001
  0
LINE
  8
_0-0_LAYER001
  6
CONTINUOUS
 62
    4
 10
2066.1660999999999
 20
1118.2457999999999
 11
2074.5744
 21
1119.3622
  0
LINE
  8
_0-0_LAYER001
  6
CONTINUOUS
 62
    4
 10
2057.6536000000001
 20
1117.2724000000001
 11
2066.1660999999999
 21
1118.2457999999999
  0
LINE
  8
_0-0_LAYER001
  6
CONTINUOUS
 62
    4
 10
2049.0944
 20
1116.4884
 11
2057.6536000000001
 21
1117.2724000000001
  0
LINE
  8
_0-0_LAYER001
  6
CONTINUOUS
 62
    4
 10
2044.0329000000002
 20
1116.1304
 11
2049.0944
 21
1116.4884
  0
LINE
  8
_0-0_LAYER001
  6
CONTINUOUS
 62
    4
 10
2041.2303000000002
 20
1115.9688000000001
 11
2044.0329000000002
 21
1116.1304
  0
LINE
  8
_0-0_LAYER001
  6
CONTINUOUS
 62
    4
 10
2036.5093000000002
 20
1115.7648999999999
 11
2041.2303000000002
 21
1115.9688000000001
  0
LINE
  8
_0-0_LAYER001
  6
CONTINUOUS
 62
    4
 10
2031.6801
 20
1115.6594
 11
2036.5093000000002
 21
1115.7648999999999
  0
LINE
  8
_0-0_LAYER001
  6
CONTINUOUS
 62
    4
 10
2026.7784000000001
 20
1115.6748
 11
2031.6801
 21
1115.6594
  0
LINE
  8
_0-0_LAYER001
  6
CONTINUOUS
 62
    4
 10
2021.8074000000001
 20
1115.8326999999999
 11
2026.7784000000001
 21
1115.6748
  0
LINE
  8
_0-0_LAYER001
  6
CONTINUOUS
 62
    4
 10
2016.8499999999999
 20
1116.1504
 11
2021.8074000000001
 21
1115.8326999999999
  0
LINE
  8
_0-0_LAYER001
  6
CONTINUOUS
 62
    4
 10
2013.7984000000001
 20
1116.4318000000001
 11
2016.8499999999999
 21
1116.1504
  0
LINE
  8
_0-0_LAYER001
  6
CONTINUOUS
 62
    4
 10
2009.8694999999998
 20
1116.8941
 11
2013.7984000000001
 21
1116.4318000000001
  0
LINE
  8
_0-0_LAYER001
  6
CONTINUOUS
 62
    4
 10
2003.3555999999999
 20
1117.9166
 11
2009.8694999999998
 21
1116.8941
  0
LINE
  8
_0-0_LAYER001
  6
CONTINUOUS
 62
    4
 10
1996.8089
 20
1119.2688000000001
 11
2003.3555999999999
 21
1117.9166
  0
LINE
  8
_0-0_LAYER001
  6
CONTINUOUS
 62
    4
 10
1990.346
 20
1120.9246000000001
 11
1996.8089
 21
1119.2688000000001
  0
LINE
  8
_0-0_LAYER001
  6
CONTINUOUS
 62
    4
 10
1983.9801000000002
 20
1122.8752999999999
 11
1990.346
 21
1120.9246000000001
  0
LINE
  8
_0-0_LAYER001
  6
CONTINUOUS
 62
    4
 10
1977.8153000000002
 20
1125.0803000000001
 11
1983.9801000000002
 21
1122.8752999999999
  0
LINE
  8
_0-0_LAYER001
  6
CONTINUOUS
 62
    4
 10
1974.1286
 20
1126.5521000000001
 11
1977.8153000000002
 21
1125.0803000000001
  0
LINE
  8
_0-0_LAYER001
  6
CONTINUOUS
 62
    4
 10
1969.7644
 20
1128.4446
 11
1974.1286
 21
1126.5521000000001
  0
LINE
  8
_0-0_LAYER001
  6
CONTINUOUS
 62
    4
 10
1962.6952999999999
 20
1131.8596
 11
1969.7644
 21
1128.4446
  0
LINE
  8
_0-0_LAYER001
  6
CONTINUOUS
 62
    4
 10
1955.8024
 20
1135.5891999999999
 11
1962.6952999999999
 21
1131.8596
  0
LINE
  8
_0-0_LAYER001
  6
CONTINUOUS
 62
    4
 10
1949.1653999999999
 20
1139.5228
 11
1955.8024
 21
1135.5891999999999
  0
LINE
  8
_0-0_LAYER001
  6
CONTINUOUS
 62
    4
 10
1942.7561000000001
 20
1143.6052999999999
 11
1949.1653999999999
 21
1139.5228
  0
LINE
  8
_0-0_LAYER001
  6
CONTINUOUS
 62
    4
 10
1936.5718999999999
 20
1147.7674
 11
1942.7561000000001
 21
1143.6052999999999
  0
LINE
  8
_0-0_LAYER001
  6
CONTINUOUS
 62
    4
 10
1933.0295999999998
 20
1150.2311
 11
1936.5718999999999
 21
1147.7674
  0
LINE
  8
_0-0_LAYER001
  6
CONTINUOUS
 62
    4
 10
1930.7975000000001
 20
1151.8045999999999
 11
1933.0295999999998
 21
1150.2311
  0
LINE
  8
_0-0_LAYER001
  6
CONTINUOUS
 62
    4
 10
1927.174
 20
1154.3438000000001
 11
1930.7975000000001
 21
1151.8045999999999
  0
LINE
  8
_0-0_LAYER001
  6
CONTINUOUS
 62
    4
 10
1923.8042999999998
 20
1156.6093000000001
 11
1927.174
 21
1154.3438000000001
  0
LINE
  8
_0-0_LAYER001
  6
CONTINUOUS
 62
    4
 10
1920.6893
 20
1158.5364
 11
1923.8042999999998
 21
1156.6093000000001
  0
LINE
  8
_0-0_LAYER001
  6
CONTINUOUS
 62
    4
 10
1917.8220999999999
 20
1160.0921000000001
 11
1920.6893
 21
1158.5364
  0
LINE
  8
_0-0_LAYER001
  6
CONTINUOUS
 62
    4
 10
1914.991
 20
1161.3606
 11
1917.8220999999999
 21
1160.0921000000001
  0
LINE
  8
_0-0_LAYER001
  6
CONTINUOUS
 62
    4
 10
1913.5277999999998
 20
1161.8927000000001
 11
1914.991
 21
1161.3606
  0
LINE
  8
_0-0_LAYER001
  6
CONTINUOUS
 62
    4
 10
1913.3467000000001
 20
1161.9505999999999
 11
1913.5277999999998
 21
1161.8927000000001
  0
LINE
  8
_0-0_LAYER001
  6
CONTINUOUS
 62
    4
 10
1912.5583999999999
 20
1162.1786
 11
1913.3467000000001
 21
1161.9505999999999
  0
LINE
  8
_0-0_LAYER001
  6
CONTINUOUS
 62
    4
 10
1911.9013
 20
1162.3413
 11
1912.5583999999999
 21
1162.1786
  0
LINE
  8
_0-0_LAYER001
  6
CONTINUOUS
 62
    4
 10
1911.3195000000001
 20
1162.4593
 11
1911.9013
 21
1162.3413
  0
LINE
  8
_0-0_LAYER001
  6
CONTINUOUS
 62
    4
 10
1911.2793999999999
 20
1162.4655
 11
1911.3195000000001
 21
1162.4593
  0
LINE
  8
_0-0_LAYER001
  6
CONTINUOUS
 62
    4
 10
2115.2532999999999
 20
1107.3043
 11
2116.8674000000001
 21
1107.5727999999999
  0
LINE
  8
_0-0_LAYER001
  6
CONTINUOUS
 62
    4
 10
2111.0646999999999
 20
1106.6080999999999
 11
2115.2532999999999
 21
1107.3043
  0
LINE
  8
_0-0_LAYER001
  6
CONTINUOUS
 62
    4
 10
2106.8717999999999
 20
1105.9127000000001
 11
2111.0646999999999
 21
1106.6080999999999
  0
LINE
  8
_0-0_LAYER001
  6
CONTINUOUS
 62
    4
 10
2102.6743000000001
 20
1105.2189000000001
 11
2106.8717999999999
 21
1105.9127000000001
  0
LINE
  8
_0-0_LAYER001
  6
CONTINUOUS
 62
    4
 10
2098.4720000000002
 20
1104.5277000000001
 11
2102.6743000000001
 21
1105.2189000000001
  0
LINE
  8
_0-0_LAYER001
  6
CONTINUOUS
 62
    4
 10
2094.2671
 20
1103.8404
 11
2098.4720000000002
 21
1104.5277000000001
  0
LINE
  8
_0-0_LAYER001
  6
CONTINUOUS
 62
    4
 10
2091.8171000000002
 20
1103.4422999999999
 11
2094.2671
 21
1103.8404
  0
LINE
  8
_0-0_LAYER001
  6
CONTINUOUS
 62
    4
 10
2087.0900999999999
 20
1102.6806999999999
 11
2091.8171000000002
 21
1103.4422999999999
  0
LINE
  8
_0-0_LAYER001
  6
CONTINUOUS
 62
    4
 10
2078.8993999999998
 20
1101.3989999999999
 11
2087.0900999999999
 21
1102.6806999999999
  0
LINE
  8
_0-0_LAYER001
  6
CONTINUOUS
 62
    4
 10
2070.6149
 20
1100.1826000000001
 11
2078.8993999999998
 21
1101.3989999999999
  0
LINE
  8
_0-0_LAYER001
  6
CONTINUOUS
 62
    4
 10
2062.2383
 20
1099.0704000000001
 11
2070.6149
 21
1100.1826000000001
  0
LINE
  8
_0-0_LAYER001
  6
CONTINUOUS
 62
    4
 10
2053.7660999999998
 20
1098.1016
 11
2062.2383
 21
1099.0704000000001
  0
LINE
  8
_0-0_LAYER001
  6
CONTINUOUS
 62
    4
 10
2045.25
 20
1097.3216
 11
2053.7660999999998
 21
1098.1016
  0
LINE
  8
_0-0_LAYER001
  6
CONTINUOUS
 62
    4
 10
2040.2222000000002
 20
1096.9659999999999
 11
2045.25
 21
1097.3216
  0
LINE
  8
_0-0_LAYER001
  6
CONTINUOUS
 62
    4
 10
2037.4470000000001
 20
1096.8059000000001
 11
2040.2222000000002
 21
1096.9659999999999
  0
LINE
  8
_0-0_LAYER001
  6
CONTINUOUS
 62
    4
 10
2032.7617
 20
1096.6034999999999
 11
2037.4470000000001
 21
1096.8059000000001
  0
LINE
  8
_0-0_LAYER001
  6
CONTINUOUS
 62
    4
 10
2027.9787999999999
 20
1096.4991
 11
2032.7617
 21
1096.6034999999999
  0
LINE
  8
_0-0_LAYER001
  6
CONTINUOUS
 62
    4
 10
2023.1307000000002
 20
1096.5143
 11
2027.9787999999999
 21
1096.4991
  0
LINE
  8
_0-0_LAYER001
  6
CONTINUOUS
 62
    4
 10
2018.2204999999999
 20
1096.6702
 11
2023.1307000000002
 21
1096.5143
  0
LINE
  8
_0-0_LAYER001
  6
CONTINUOUS
 62
    4
 10
2013.3231999999998
 20
1096.9840999999999
 11
2018.2204999999999
 21
1096.6702
  0
LINE
  8
_0-0_LAYER001
  6
CONTINUOUS
 62
    4
 10
2010.3245000000002
 20
1097.2607
 11
2013.3231999999998
 21
1096.9840999999999
  0
LINE
  8
_0-0_LAYER001
  6
CONTINUOUS
 62
    4
 10
2006.4589000000001
 20
1097.7155
 11
2010.3245000000002
 21
1097.2607
  0
LINE
  8
_0-0_LAYER001
  6
CONTINUOUS
 62
    4
 10
2000.0304999999998
 20
1098.7246
 11
2006.4589000000001
 21
1097.7155
  0
LINE
  8
_0-0_LAYER001
  6
CONTINUOUS
 62
    4
 10
1993.5771
 20
1100.0574999999999
 11
2000.0304999999998
 21
1098.7246
  0
LINE
  8
_0-0_LAYER001
  6
CONTINUOUS
 62
    4
 10
1987.2049000000002
 20
1101.6901
 11
1993.5771
 21
1100.0574999999999
  0
LINE
  8
_0-0_LAYER001
  6
CONTINUOUS
 62
    4
 10
1980.9276
 20
1103.6137000000001
 11
1987.2049000000002
 21
1101.6901
  0
LINE
  8
_0-0_LAYER001
  6
CONTINUOUS
 62
    4
 10
1974.8404999999998
 20
1105.7908
 11
1980.9276
 21
1103.6137000000001
  0
LINE
  8
_0-0_LAYER001
  6
CONTINUOUS
 62
    4
 10
1971.2148000000002
 20
1107.2383
 11
1974.8404999999998
 21
1105.7908
  0
LINE
  8
_0-0_LAYER001
  6
CONTINUOUS
 62
    4
 10
1966.915
 20
1109.1027999999999
 11
1971.2148000000002
 21
1107.2383
  0
LINE
  8
_0-0_LAYER001
  6
CONTINUOUS
 62
    4
 10
1959.9241000000002
 20
1112.48
 11
1966.915
 21
1109.1027999999999
  0
LINE
  8
_0-0_LAYER001
  6
CONTINUOUS
 62
    4
 10
1953.1060000000002
 20
1116.1692
 11
1959.9241000000002
 21
1112.48
  0
LINE
  8
_0-0_LAYER001
  6
CONTINUOUS
 62
    4
 10
1946.5302000000001
 20
1120.0666000000001
 11
1953.1060000000002
 21
1116.1692
  0
LINE
  8
_0-0_LAYER001
  6
CONTINUOUS
 62
    4
 10
1940.1693
 20
1124.1181999999999
 11
1946.5302000000001
 21
1120.0666000000001
  0
LINE
  8
_0-0_LAYER001
  6
CONTINUOUS
 62
    4
 10
1934.0187000000001
 20
1128.2577000000001
 11
1940.1693
 21
1124.1181999999999
  0
LINE
  8
_0-0_LAYER001
  6
CONTINUOUS
 62
    4
 10
1930.4940999999999
 20
1130.7090000000001
 11
1934.0187000000001
 21
1128.2577000000001
  0
LINE
  8
_0-0_LAYER001
  6
CONTINUOUS
 62
    4
 10
1928.2649999999999
 20
1132.2805000000001
 11
1930.4940999999999
 21
1130.7090000000001
  0
LINE
  8
_0-0_LAYER001
  6
CONTINUOUS
 62
    4
 10
1924.6233000000002
 20
1134.8324
 11
1928.2649999999999
 21
1132.2805000000001
  0
LINE
  8
_0-0_LAYER001
  6
CONTINUOUS
 62
    4
 10
1921.2062000000001
 20
1137.1297999999999
 11
1924.6233000000002
 21
1134.8324
  0
LINE
  8
_0-0_LAYER001
  6
CONTINUOUS
 62
    4
 10
1918.0106000000001
 20
1139.1067
 11
1921.2062000000001
 21
1137.1297999999999
  0
LINE
  8
_0-0_LAYER001
  6
CONTINUOUS
 62
    4
 10
1915.0266000000001
 20
1140.7257999999999
 11
1918.0106000000001
 21
1139.1067
  0
LINE
  8
_0-0_LAYER001
  6
CONTINUOUS
 62
    4
 10
1912.0601000000001
 20
1142.0550000000001
 11
1915.0266000000001
 21
1140.7257999999999
  0
LINE
  8
_0-0_LAYER001
  6
CONTINUOUS
 62
    4
 10
1911.3101000000001
 20
1142.3277
 11
1912.0601000000001
 21
1142.0550000000001
  0
LINE
  8
_0-0_LAYER001
  6
CONTINUOUS
 62
    4
 10
1911.6432
 20
1162.3708999999999
 11
1911.4670999999998
 21
1142.1974
  0
LINE
  8
_0-0_LAYER001
  6
CONTINUOUS
 62
    4
 10
2159.4571999999998
 20
1117.3592000000001
 11
2116.6370000000002
 21
1107.4380000000001
  0
ARC
  8
_0-0_LAYER001
  6
CONTINUOUS
 62
    4
 10
2159.2314999999999
 20
1118.3334
 40
1
 50
283.04496999999998
 51
359.5
  0
LINE
  8
_0-0_LAYER001
  6
CONTINUOUS
 62
    4
 10
2112.1462000000001
 20
1097.1244999999999
 11
2109.9007000000001
 21
1105.6978999999999
  0
ARC
  8
_0-0_LAYER001
  6
CONTINUOUS
 62
    4
 10
2115.0482999999999
 20
1097.8846000000001
 40
3
 50
194.67639000000003
 51
270.00000000000006
  0
LINE
  8
_0-0_LAYER001
  6
CONTINUOUS
 62
    4
 10
2118.4661000000001
 20
1094.8846000000001
 11
2115.0482999999999
 21
1094.8846000000001
  0
LINE
  8
_0-0_LAYER001
  6
CONTINUOUS
 62
    4
 10
2121.4252999999999
 20
1097.3914
 11
2123.3593000000001
 21
1108.9955
  0
ARC
  8
_0-0_LAYER001
  6
CONTINUOUS
 62
    4
 10
2118.4661000000001
 20
1097.8846000000001
 40
3
 50
270
 51
350.53766999999999
  0
LINE
  8
_0-0_LAYER001
  6
CONTINUOUS
 62
    4
 10
1865.5592000000001
 20
1166.0328
 11
1865.5592000000001
 21
1149.5003999999999
  0
LINE
  8
_0-0_LAYER001
  6
CONTINUOUS
 62
    4
 10
1866.8181
 20
1167.8904
 11
1867.9431
 21
1168.3391999999999
  0
ARC
  8
_0-0_LAYER001
  6
CONTINUOUS
 62
    4
 10
1867.5592000000001
 20
1166.0328
 40
2
 50
111.74902000000002
 51
180
  0
LINE
  8
_0-0_LAYER001
  6
CONTINUOUS
 62
    4
 10
2159.6347999999998
 20
1137.7075
 11
2120.5592000000001
 21
1128.6539
  0
LINE
  8
_0-0_LAYER001
  6
CONTINUOUS
 62
    4
 10
2120.5592000000001
 20
1147.1306999999999
 11
2120.5592000000001
 21
1128.6539
  0
LINE
  8
_0-0_LAYER001
  6
CONTINUOUS
 62
    4
 10
2118.5347999999999
 20
1146.6617000000001
 11
2151.7840000000001
 21
1154.3653999999999
  0
LINE
  8
_0-0_LAYER001
  6
CONTINUOUS
 62
    4
 10
2160.4956000000002
 20
1157.7394999999999
 11
2160.4956000000002
 21
1138.6594
  0
LINE
  8
_0-0_LAYER001
  6
CONTINUOUS
 62
    4
 10
2160.6028999999999
 20
1136.6724999999999
 11
2160.6028999999999
 21
1118.5014000000001
  0
LINE
  8
_0-0_LAYER001
  6
CONTINUOUS
 62
    4
 10
1148.9966999999999
 20
1165.0341000000001
 11
1153.306
 21
1163.1584
  0
LINE
  8
_0-0_LAYER001
  6
CONTINUOUS
 62
    4
 10
1153.306
 20
1163.1584
 11
1160.6873000000001
 21
1159.9748
  0
LINE
  8
_0-0_LAYER001
  6
CONTINUOUS
 62
    4
 10
1160.6873000000001
 20
1159.9748
 11
1167.9928
 21
1156.9042999999999
  0
LINE
  8
_0-0_LAYER001
  6
CONTINUOUS
 62
    4
 10
1167.9928
 20
1156.9042999999999
 11
1175.2358999999999
 21
1153.9891
  0
LINE
  8
_0-0_LAYER001
  6
CONTINUOUS
 62
    4
 10
1175.2358999999999
 20
1153.9891
 11
1182.4286999999999
 21
1151.2697000000001
  0
LINE
  8
_0-0_LAYER001
  6
CONTINUOUS
 62
    4
 10
1182.4286999999999
 20
1151.2697000000001
 11
1189.6483000000001
 21
1148.7623000000001
  0
LINE
  8
_0-0_LAYER001
  6
CONTINUOUS
 62
    4
 10
1189.6483000000001
 20
1148.7623000000001
 11
1193.7615000000001
 21
1147.4504999999999
  0
LINE
  8
_0-0_LAYER001
  6
CONTINUOUS
 62
    4
 10
1193.7615000000001
 20
1147.4504999999999
 11
1196.6658
 21
1146.5805
  0
LINE
  8
_0-0_LAYER001
  6
CONTINUOUS
 62
    4
 10
1196.6658
 20
1146.5805
 11
1201.8996
 21
1145.1210000000001
  0
LINE
  8
_0-0_LAYER001
  6
CONTINUOUS
 62
    4
 10
1201.8996
 20
1145.1210000000001
 11
1207.1699000000001
 21
1143.7738999999999
  0
LINE
  8
_0-0_LAYER001
  6
CONTINUOUS
 62
    4
 10
1207.1699000000001
 20
1143.7738999999999
 11
1212.5191
 21
1142.5138999999999
  0
LINE
  8
_0-0_LAYER001
  6
CONTINUOUS
 62
    4
 10
1212.5191
 20
1142.5138999999999
 11
1217.9419
 21
1141.3287
  0
LINE
  8
_0-0_LAYER001
  6
CONTINUOUS
 62
    4
 10
1217.9419
 20
1141.3287
 11
1223.4499000000001
 21
1140.2018
  0
LINE
  8
_0-0_LAYER001
  6
CONTINUOUS
 62
    4
 10
1223.4499000000001
 20
1140.2018
 11
1226.643
 21
1139.5772999999999
  0
LINE
  8
_0-0_LAYER001
  6
CONTINUOUS
 62
    4
 10
1226.643
 20
1139.5772999999999
 11
1229.1056000000001
 21
1139.1086
  0
LINE
  8
_0-0_LAYER001
  6
CONTINUOUS
 62
    4
 10
1229.1056000000001
 20
1139.1086
 11
1233.3635999999999
 21
1138.3332
  0
LINE
  8
_0-0_LAYER001
  6
CONTINUOUS
 62
    4
 10
1233.3635999999999
 20
1138.3332
 11
1237.5400999999999
 21
1137.6314
  0
LINE
  8
_0-0_LAYER001
  6
CONTINUOUS
 62
    4
 10
1237.5400999999999
 20
1137.6314
 11
1241.6481000000001
 21
1137.0166999999999
  0
LINE
  8
_0-0_LAYER001
  6
CONTINUOUS
 62
    4
 10
1241.6481000000001
 20
1137.0166999999999
 11
1245.6872000000001
 21
1136.5036
  0
LINE
  8
_0-0_LAYER001
  6
CONTINUOUS
 62
    4
 10
1245.6872000000001
 20
1136.5036
 11
1249.7194999999999
 21
1136.0997
  0
LINE
  8
_0-0_LAYER001
  6
CONTINUOUS
 62
    4
 10
1249.7194999999999
 20
1136.0997
 11
1251.9417000000001
 21
1135.9304999999999
  0
LINE
  8
_0-0_LAYER001
  6
CONTINUOUS
 62
    4
 10
1251.9417000000001
 20
1135.9304999999999
 11
1254.1555000000001
 21
1135.8036999999999
  0
LINE
  8
_0-0_LAYER001
  6
CONTINUOUS
 62
    4
 10
1254.1555000000001
 20
1135.8036999999999
 11
1258.1880000000001
 21
1135.6685
  0
LINE
  8
_0-0_LAYER001
  6
CONTINUOUS
 62
    4
 10
1258.1880000000001
 20
1135.6685
 11
1262.2429
 21
1135.6392000000001
  0
LINE
  8
_0-0_LAYER001
  6
CONTINUOUS
 62
    4
 10
1262.2429
 20
1135.6392000000001
 11
1266.3804
 21
1135.6999000000001
  0
LINE
  8
_0-0_LAYER001
  6
CONTINUOUS
 62
    4
 10
1266.3804
 20
1135.6999000000001
 11
1270.5976000000001
 21
1135.836
  0
LINE
  8
_0-0_LAYER001
  6
CONTINUOUS
 62
    4
 10
1270.5976000000001
 20
1135.836
 11
1274.9048
 21
1136.0324000000001
  0
LINE
  8
_0-0_LAYER001
  6
CONTINUOUS
 62
    4
 10
1274.9048
 20
1136.0324000000001
 11
1277.4031
 21
1136.1654000000001
  0
LINE
  8
_0-0_LAYER001
  6
CONTINUOUS
 62
    4
 10
1277.4031
 20
1136.1654000000001
 11
1280.2636000000002
 21
1136.3304000000001
  0
LINE
  8
_0-0_LAYER001
  6
CONTINUOUS
 62
    4
 10
1280.2636000000002
 20
1136.3304000000001
 11
1285.2141000000001
 21
1136.6496
  0
LINE
  8
_0-0_LAYER001
  6
CONTINUOUS
 62
    4
 10
1285.2141000000001
 20
1136.6496
 11
1290.1154999999999
 21
1137.0146999999999
  0
LINE
  8
_0-0_LAYER001
  6
CONTINUOUS
 62
    4
 10
1290.1154999999999
 20
1137.0146999999999
 11
1294.9802999999999
 21
1137.4335000000001
  0
LINE
  8
_0-0_LAYER001
  6
CONTINUOUS
 62
    4
 10
1294.9802999999999
 20
1137.4335000000001
 11
1299.8070000000002
 21
1137.9128000000001
  0
LINE
  8
_0-0_LAYER001
  6
CONTINUOUS
 62
    4
 10
1299.8070000000002
 20
1137.9128000000001
 11
1304.6261999999999
 21
1138.4629
  0
LINE
  8
_0-0_LAYER001
  6
CONTINUOUS
 62
    4
 10
1304.6261999999999
 20
1138.4629
 11
1307.2791000000002
 21
1138.7999
  0
LINE
  8
_0-0_LAYER001
  6
CONTINUOUS
 62
    4
 10
1307.2791000000002
 20
1138.7999
 11
1315.0287000000001
 21
1139.9301
  0
LINE
  8
_0-0_LAYER001
  6
CONTINUOUS
 62
    4
 10
1315.0287000000001
 20
1139.9301
 11
1328.4971
 21
1142.3611000000001
  0
LINE
  8
_0-0_LAYER001
  6
CONTINUOUS
 62
    4
 10
1328.4971
 20
1142.3611000000001
 11
1341.9375
 21
1145.289
  0
LINE
  8
_0-0_LAYER001
  6
CONTINUOUS
 62
    4
 10
1341.9375
 20
1145.289
 11
1355.4549999999999
 21
1148.6325999999999
  0
LINE
  8
_0-0_LAYER001
  6
CONTINUOUS
 62
    4
 10
1355.4549999999999
 20
1148.6325999999999
 11
1369.0646999999999
 21
1152.2907
  0
LINE
  8
_0-0_LAYER001
  6
CONTINUOUS
 62
    4
 10
1369.0646999999999
 20
1152.2907
 11
1382.7825000000003
 21
1156.1588999999999
  0
LINE
  8
_0-0_LAYER001
  6
CONTINUOUS
 62
    4
 10
1382.7825000000003
 20
1156.1588999999999
 11
1388.5436
 21
1157.8108
  0
LINE
  8
_0-0_LAYER001
  6
CONTINUOUS
 62
    4
 10
1388.5652
 20
1160.3204000000001
 11
1388.4834000000001
 21
1157.9765
  0
ARC
  8
_0-0_LAYER001
  6
CONTINUOUS
 62
    4
 10
1389.5645999999999
 20
1160.2855
 40
1
 50
106.29949000000002
 51
178.00000000000003
  0
LINE
  8
_0-0_LAYER001
  6
CONTINUOUS
 62
    4
 10
1395.2387000000001
 20
1162.9865
 11
1389.2838999999999
 21
1161.2453
  0
ARC
  8
_0-0_LAYER001
  6
CONTINUOUS
 62
    4
 10
1395.5192999999999
 20
1162.0266999999999
 40
1
 50
358
 51
106.29949000000001
  0
LINE
  8
_0-0_LAYER001
  6
CONTINUOUS
 62
    4
 10
1148.9662000000001
 20
1165.0661
 11
1141.6181999999999
 21
1168.4908
  0
LINE
  8
_0-0_LAYER001
  6
CONTINUOUS
 62
    4
 10
1387.8253999999997
 20
1138.0243
 11
1387.7859000000001
 21
1136.893
  0
ARC
  8
_0-0_LAYER001
  6
CONTINUOUS
 62
    4
 10
1388.8248000000001
 20
1137.9893999999999
 40
1
 50
106.35783000000001
 51
178.00000000000003
  0
LINE
  8
_0-0_LAYER001
  6
CONTINUOUS
 62
    4
 10
1387.8007
 20
1136.7940000000001
 11
1374.3746000000001
 21
1133.008
  0
LINE
  8
_0-0_LAYER001
  6
CONTINUOUS
 62
    4
 10
1374.3746000000001
 20
1133.008
 11
1360.4523999999997
 21
1129.2660000000001
  0
LINE
  8
_0-0_LAYER001
  6
CONTINUOUS
 62
    4
 10
1360.4523999999997
 20
1129.2660000000001
 11
1346.4681
 21
1125.8069
  0
LINE
  8
_0-0_LAYER001
  6
CONTINUOUS
 62
    4
 10
1346.4681
 20
1125.8069
 11
1332.4031
 21
1122.7429999999999
  0
LINE
  8
_0-0_LAYER001
  6
CONTINUOUS
 62
    4
 10
1332.4031
 20
1122.7429999999999
 11
1318.2490000000003
 21
1120.1882000000001
  0
LINE
  8
_0-0_LAYER001
  6
CONTINUOUS
 62
    4
 10
1318.2490000000003
 20
1120.1882000000001
 11
1309.9826000000003
 21
1118.9826
  0
LINE
  8
_0-0_LAYER001
  6
CONTINUOUS
 62
    4
 10
1309.9826000000003
 20
1118.9826
 11
1307.0205000000001
 21
1118.6063999999999
  0
LINE
  8
_0-0_LAYER001
  6
CONTINUOUS
 62
    4
 10
1307.0205000000001
 20
1118.6063999999999
 11
1301.9294
 21
1118.0252
  0
LINE
  8
_0-0_LAYER001
  6
CONTINUOUS
 62
    4
 10
1301.9294
 20
1118.0252
 11
1296.8262
 21
1117.5183999999999
  0
LINE
  8
_0-0_LAYER001
  6
CONTINUOUS
 62
    4
 10
1296.8262
 20
1117.5183999999999
 11
1291.7159999999999
 21
1117.0785000000001
  0
LINE
  8
_0-0_LAYER001
  6
CONTINUOUS
 62
    4
 10
1291.7159999999999
 20
1117.0785000000001
 11
1286.6005
 21
1116.6975
  0
LINE
  8
_0-0_LAYER001
  6
CONTINUOUS
 62
    4
 10
1286.6005
 20
1116.6975
 11
1281.4828
 21
1116.3674000000001
  0
LINE
  8
_0-0_LAYER001
  6
CONTINUOUS
 62
    4
 10
1281.4828
 20
1116.3674000000001
 11
1278.5105000000001
 21
1116.1960999999999
  0
LINE
  8
_0-0_LAYER001
  6
CONTINUOUS
 62
    4
 10
1278.5105000000001
 20
1116.1960999999999
 11
1275.8920000000001
 21
1116.0565999999999
  0
LINE
  8
_0-0_LAYER001
  6
CONTINUOUS
 62
    4
 10
1275.8920000000001
 20
1116.0565999999999
 11
1271.3758
 21
1115.8507
  0
LINE
  8
_0-0_LAYER001
  6
CONTINUOUS
 62
    4
 10
1271.3758
 20
1115.8507
 11
1266.8497
 21
1115.7046
  0
LINE
  8
_0-0_LAYER001
  6
CONTINUOUS
 62
    4
 10
1266.8497
 20
1115.7046
 11
1262.3172
 21
1115.6380999999999
  0
LINE
  8
_0-0_LAYER001
  6
CONTINUOUS
 62
    4
 10
1262.3172
 20
1115.6380999999999
 11
1257.7805000000001
 21
1115.671
  0
LINE
  8
_0-0_LAYER001
  6
CONTINUOUS
 62
    4
 10
1257.7805000000001
 20
1115.671
 11
1253.2485999999999
 21
1115.8228999999999
  0
LINE
  8
_0-0_LAYER001
  6
CONTINUOUS
 62
    4
 10
1253.2485999999999
 20
1115.8228999999999
 11
1250.6107
 21
1115.9739
  0
LINE
  8
_0-0_LAYER001
  6
CONTINUOUS
 62
    4
 10
1250.6107
 20
1115.9739
 11
1247.9632999999999
 21
1116.1755000000001
  0
LINE
  8
_0-0_LAYER001
  6
CONTINUOUS
 62
    4
 10
1247.9632999999999
 20
1116.1755000000001
 11
1243.4300000000001
 21
1116.6296
  0
LINE
  8
_0-0_LAYER001
  6
CONTINUOUS
 62
    4
 10
1243.4300000000001
 20
1116.6296
 11
1238.9077
 21
1117.204
  0
LINE
  8
_0-0_LAYER001
  6
CONTINUOUS
 62
    4
 10
1238.9077
 20
1117.204
 11
1234.4029
 21
1117.8782000000001
  0
LINE
  8
_0-0_LAYER001
  6
CONTINUOUS
 62
    4
 10
1234.4029
 20
1117.8782000000001
 11
1229.9147
 21
1118.6323
  0
LINE
  8
_0-0_LAYER001
  6
CONTINUOUS
 62
    4
 10
1229.9147
 20
1118.6323
 11
1225.4440999999999
 21
1119.4465
  0
LINE
  8
_0-0_LAYER001
  6
CONTINUOUS
 62
    4
 10
1225.4440999999999
 20
1119.4465
 11
1222.854
 21
1119.9394
  0
LINE
  8
_0-0_LAYER001
  6
CONTINUOUS
 62
    4
 10
1222.854
 20
1119.9394
 11
1219.5261
 21
1120.5902000000001
  0
LINE
  8
_0-0_LAYER001
  6
CONTINUOUS
 62
    4
 10
1219.5261
 20
1120.5902000000001
 11
1213.8019999999999
 21
1121.7614000000001
  0
LINE
  8
_0-0_LAYER001
  6
CONTINUOUS
 62
    4
 10
1213.8019999999999
 20
1121.7614000000001
 11
1208.0908999999999
 21
1123.0096000000001
  0
LINE
  8
_0-0_LAYER001
  6
CONTINUOUS
 62
    4
 10
1208.0908999999999
 20
1123.0096000000001
 11
1202.4004
 21
1124.3499999999999
  0
LINE
  8
_0-0_LAYER001
  6
CONTINUOUS
 62
    4
 10
1202.4004
 20
1124.3499999999999
 11
1196.7363
 21
1125.7977000000001
  0
LINE
  8
_0-0_LAYER001
  6
CONTINUOUS
 62
    4
 10
1196.7363
 20
1125.7977000000001
 11
1191.1097
 21
1127.3668
  0
LINE
  8
_0-0_LAYER001
  6
CONTINUOUS
 62
    4
 10
1191.1097
 20
1127.3668
 11
1187.8532
 21
1128.3423
  0
LINE
  8
_0-0_LAYER001
  6
CONTINUOUS
 62
    4
 10
1187.8532
 20
1128.3423
 11
1183.3279
 21
1129.7855999999999
  0
LINE
  8
_0-0_LAYER001
  6
CONTINUOUS
 62
    4
 10
1183.3279
 20
1129.7855999999999
 11
1175.6103000000001
 21
1132.4658999999999
  0
LINE
  8
_0-0_LAYER001
  6
CONTINUOUS
 62
    4
 10
1175.6103000000001
 20
1132.4658999999999
 11
1167.9648999999999
 21
1135.3562999999999
  0
LINE
  8
_0-0_LAYER001
  6
CONTINUOUS
 62
    4
 10
1167.9648999999999
 20
1135.3562999999999
 11
1160.3839
 21
1138.4076
  0
LINE
  8
_0-0_LAYER001
  6
CONTINUOUS
 62
    4
 10
1160.3839
 20
1138.4076
 11
1160.0052000000001
 21
1138.5668000000001
  0
LINE
  8
_0-0_LAYER001
  6
CONTINUOUS
 62
    4
 10
1393.788
 20
1119.7832000000001
 11
1393.1763000000001
 21
1119.6079
  0
LINE
  8
_0-0_LAYER001
  6
CONTINUOUS
 62
    4
 10
1393.1763000000001
 20
1119.6079
 11
1379.1534999999999
 21
1115.6537000000001
  0
LINE
  8
_0-0_LAYER001
  6
CONTINUOUS
 62
    4
 10
1379.1534999999999
 20
1115.6537000000001
 11
1364.95
 21
1111.836
  0
LINE
  8
_0-0_LAYER001
  6
CONTINUOUS
 62
    4
 10
1364.95
 20
1111.836
 11
1350.5455999999999
 21
1108.2729999999999
  0
LINE
  8
_0-0_LAYER001
  6
CONTINUOUS
 62
    4
 10
1350.5455999999999
 20
1108.2729999999999
 11
1335.9185
 21
1105.0866000000001
  0
LINE
  8
_0-0_LAYER001
  6
CONTINUOUS
 62
    4
 10
1335.9185
 20
1105.0866000000001
 11
1321.1473000000001
 21
1102.4204999999999
  0
LINE
  8
_0-0_LAYER001
  6
CONTINUOUS
 62
    4
 10
1321.1473000000001
 20
1102.4204999999999
 11
1312.4157
 21
1101.1469999999999
  0
LINE
  8
_0-0_LAYER001
  6
CONTINUOUS
 62
    4
 10
1312.4157
 20
1101.1469999999999
 11
1309.1755000000001
 21
1100.7355
  0
LINE
  8
_0-0_LAYER001
  6
CONTINUOUS
 62
    4
 10
1309.1755000000001
 20
1100.7355
 11
1303.8396
 21
1100.1262999999999
  0
LINE
  8
_0-0_LAYER001
  6
CONTINUOUS
 62
    4
 10
1303.8396
 20
1100.1262999999999
 11
1298.4875
 21
1099.5949000000001
  0
LINE
  8
_0-0_LAYER001
  6
CONTINUOUS
 62
    4
 10
1298.4875
 20
1099.5949000000001
 11
1293.1565000000001
 21
1099.1359
  0
LINE
  8
_0-0_LAYER001
  6
CONTINUOUS
 62
    4
 10
1293.1565000000001
 20
1099.1359
 11
1287.8483000000001
 21
1098.7405000000001
  0
LINE
  8
_0-0_LAYER001
  6
CONTINUOUS
 62
    4
 10
1287.8483000000001
 20
1098.7405000000001
 11
1282.5800999999999
 21
1098.4007999999999
  0
LINE
  8
_0-0_LAYER001
  6
CONTINUOUS
 62
    4
 10
1282.5800999999999
 20
1098.4007999999999
 11
1279.5071
 21
1098.2236
  0
LINE
  8
_0-0_LAYER001
  6
CONTINUOUS
 62
    4
 10
1279.5071
 20
1098.2236
 11
1276.7806
 21
1098.0785000000001
  0
LINE
  8
_0-0_LAYER001
  6
CONTINUOUS
 62
    4
 10
1276.7806
 20
1098.0785000000001
 11
1272.0762
 21
1097.8639000000001
  0
LINE
  8
_0-0_LAYER001
  6
CONTINUOUS
 62
    4
 10
1272.0762
 20
1097.8639000000001
 11
1267.2720999999999
 21
1097.7088000000001
  0
LINE
  8
_0-0_LAYER001
  6
CONTINUOUS
 62
    4
 10
1267.2720999999999
 20
1097.7088000000001
 11
1262.384
 21
1097.6370999999999
  0
LINE
  8
_0-0_LAYER001
  6
CONTINUOUS
 62
    4
 10
1262.384
 20
1097.6370999999999
 11
1257.4137000000001
 21
1097.6731
  0
LINE
  8
_0-0_LAYER001
  6
CONTINUOUS
 62
    4
 10
1257.4137000000001
 20
1097.6731
 11
1252.4323999999999
 21
1097.8400999999999
  0
LINE
  8
_0-0_LAYER001
  6
CONTINUOUS
 62
    4
 10
1252.4323999999999
 20
1097.8400999999999
 11
1249.4127000000001
 21
1098.0130999999999
  0
LINE
  8
_0-0_LAYER001
  6
CONTINUOUS
 62
    4
 10
1249.4127000000001
 20
1098.0130999999999
 11
1246.3828000000001
 21
1098.2437
  0
LINE
  8
_0-0_LAYER001
  6
CONTINUOUS
 62
    4
 10
1246.3828000000001
 20
1098.2437
 11
1241.3984
 21
1098.7429999999999
  0
LINE
  8
_0-0_LAYER001
  6
CONTINUOUS
 62
    4
 10
1241.3984
 20
1098.7429999999999
 11
1236.4413
 21
1099.3726999999999
  0
LINE
  8
_0-0_LAYER001
  6
CONTINUOUS
 62
    4
 10
1236.4413
 20
1099.3726999999999
 11
1231.5793000000001
 21
1100.1003000000001
  0
LINE
  8
_0-0_LAYER001
  6
CONTINUOUS
 62
    4
 10
1231.5793000000001
 20
1100.1003000000001
 11
1226.8107
 21
1100.9014999999999
  0
LINE
  8
_0-0_LAYER001
  6
CONTINUOUS
 62
    4
 10
1226.8107
 20
1100.9014999999999
 11
1222.1487999999999
 21
1101.7505000000001
  0
LINE
  8
_0-0_LAYER001
  6
CONTINUOUS
 62
    4
 10
1222.1487999999999
 20
1101.7505000000001
 11
1219.444
 21
1102.2653
  0
LINE
  8
_0-0_LAYER001
  6
CONTINUOUS
 62
    4
 10
1219.444
 20
1102.2653
 11
1215.9947
 21
1102.9399000000001
  0
LINE
  8
_0-0_LAYER001
  6
CONTINUOUS
 62
    4
 10
1215.9947
 20
1102.9399000000001
 11
1210.0761
 21
1104.1507999999999
  0
LINE
  8
_0-0_LAYER001
  6
CONTINUOUS
 62
    4
 10
1210.0761
 20
1104.1507999999999
 11
1204.1054999999999
 21
1105.4558
  0
LINE
  8
_0-0_LAYER001
  6
CONTINUOUS
 62
    4
 10
1204.1054999999999
 20
1105.4558
 11
1198.1079
 21
1106.8685
  0
LINE
  8
_0-0_LAYER001
  6
CONTINUOUS
 62
    4
 10
1198.1079
 20
1106.8685
 11
1192.0894000000001
 21
1108.4068
  0
LINE
  8
_0-0_LAYER001
  6
CONTINUOUS
 62
    4
 10
1192.0894000000001
 20
1108.4068
 11
1186.1092000000001
 21
1110.0744999999999
  0
LINE
  8
_0-0_LAYER001
  6
CONTINUOUS
 62
    4
 10
1186.1092000000001
 20
1110.0744999999999
 11
1182.5355999999999
 21
1111.1449
  0
LINE
  8
_0-0_LAYER001
  6
CONTINUOUS
 62
    4
 10
1182.5355999999999
 20
1111.1449
 11
1177.6395
 21
1112.7065
  0
LINE
  8
_0-0_LAYER001
  6
CONTINUOUS
 62
    4
 10
1177.6395
 20
1112.7065
 11
1169.4738
 21
1115.5425
  0
LINE
  8
_0-0_LAYER001
  6
CONTINUOUS
 62
    4
 10
1169.4738
 20
1115.5425
 11
1161.4211
 21
1118.5869
  0
LINE
  8
_0-0_LAYER001
  6
CONTINUOUS
 62
    4
 10
1161.4211
 20
1118.5869
 11
1160.0005000000001
 21
1119.1586
  0
LINE
  8
_0-0_LAYER001
  6
CONTINUOUS
 62
    4
 10
1138.0385000000001
 20
1148.0341000000001
 11
1141.6747
 21
1087.5414000000001
  0
LINE
  8
_0-0_LAYER001
  6
CONTINUOUS
 62
    4
 10
1141.7902999999999
 20
1146.7575999999999
 11
1137.8134
 21
1147.9786999999999
  0
LINE
  8
_0-0_LAYER001
  6
CONTINUOUS
 62
    4
 10
1141.7902999999999
 20
1168.6442999999999
 11
1141.7902999999999
 21
1086.6538
  0
LINE
  8
_0-0_LAYER001
  6
CONTINUOUS
 62
    4
 10
1141.7902999999999
 20
1086.6538
 11
1159.7902999999999
 21
1086.6538
  0
LINE
  8
_0-0_LAYER001
  6
CONTINUOUS
 62
    4
 10
1159.7902999999999
 20
1140.7743
 11
1159.7902999999999
 21
1086.6538
  0
ARC
  8
_0-0_LAYER001
  6
CONTINUOUS
 62
    4
 10
1143.848
 20
1107.4414999999999
 40
36.94905
 50
64.439241999999993
 51
92.897946000000005
  0
LINE
  8
_0-0_LAYER001
  6
CONTINUOUS
 62
    4
 10
1387.7058999999999
 20
1138.8452
 11
1394.462
 21
1140.7825
  0
LINE
  8
_0-0_LAYER001
  6
CONTINUOUS
 62
    4
 10
1373.8435999999999
 20
1134.9363000000001
 11
1387.7058999999999
 21
1138.8452
  0
LINE
  8
_0-0_LAYER001
  6
CONTINUOUS
 62
    4
 10
1359.9527
 20
1131.2026000000001
 11
1373.8435999999999
 21
1134.9363000000001
  0
LINE
  8
_0-0_LAYER001
  6
CONTINUOUS
 62
    4
 10
1346.0150000000001
 20
1127.7551000000001
 11
1359.9527
 21
1131.2026000000001
  0
LINE
  8
_0-0_LAYER001
  6
CONTINUOUS
 62
    4
 10
1332.0125000000003
 20
1124.7048
 11
1346.0150000000001
 21
1127.7551000000001
  0
LINE
  8
_0-0_LAYER001
  6
CONTINUOUS
 62
    4
 10
1317.9269999999999
 20
1122.1623999999999
 11
1332.0125000000003
 21
1124.7048
  0
LINE
  8
_0-0_LAYER001
  6
CONTINUOUS
 62
    4
 10
1309.7121999999999
 20
1120.9643000000001
 11
1317.9269999999999
 21
1122.1623999999999
  0
LINE
  8
_0-0_LAYER001
  6
CONTINUOUS
 62
    4
 10
1306.7811000000002
 20
1120.5920000000001
 11
1309.7121999999999
 21
1120.9643000000001
  0
LINE
  8
_0-0_LAYER001
  6
CONTINUOUS
 62
    4
 10
1301.7172
 20
1120.0139999999999
 11
1306.7811000000002
 21
1120.5920000000001
  0
LINE
  8
_0-0_LAYER001
  6
CONTINUOUS
 62
    4
 10
1296.6415999999999
 20
1119.5099
 11
1301.7172
 21
1120.0139999999999
  0
LINE
  8
_0-0_LAYER001
  6
CONTINUOUS
 62
    4
 10
1291.556
 20
1119.0721000000001
 11
1296.6415999999999
 21
1119.5099
  0
LINE
  8
_0-0_LAYER001
  6
CONTINUOUS
 62
    4
 10
1286.4618999999998
 20
1118.6927000000001
 11
1291.556
 21
1119.0721000000001
  0
LINE
  8
_0-0_LAYER001
  6
CONTINUOUS
 62
    4
 10
1281.3608999999999
 20
1118.3637000000001
 11
1286.4618999999998
 21
1118.6927000000001
  0
LINE
  8
_0-0_LAYER001
  6
CONTINUOUS
 62
    4
 10
1278.3997999999999
 20
1118.193
 11
1281.3608999999999
 21
1118.3637000000001
  0
LINE
  8
_0-0_LAYER001
  6
CONTINUOUS
 62
    4
 10
1275.7933
 20
1118.0542
 11
1278.3997999999999
 21
1118.193
  0
LINE
  8
_0-0_LAYER001
  6
CONTINUOUS
 62
    4
 10
1271.298
 20
1117.8492000000001
 11
1275.7933
 21
1118.0542
  0
LINE
  8
_0-0_LAYER001
  6
CONTINUOUS
 62
    4
 10
1266.8027999999999
 20
1117.7040999999999
 11
1271.298
 21
1117.8492000000001
  0
LINE
  8
_0-0_LAYER001
  6
CONTINUOUS
 62
    4
 10
1262.3098
 20
1117.6382000000001
 11
1266.8027999999999
 21
1117.7040999999999
  0
LINE
  8
_0-0_LAYER001
  6
CONTINUOUS
 62
    4
 10
1257.8212000000001
 20
1117.6706999999999
 11
1262.3098
 21
1117.6382000000001
  0
LINE
  8
_0-0_LAYER001
  6
CONTINUOUS
 62
    4
 10
1253.3393000000001
 20
1117.8208999999999
 11
1257.8212000000001
 21
1117.6706999999999
  0
LINE
  8
_0-0_LAYER001
  6
CONTINUOUS
 62
    4
 10
1250.7438
 20
1117.9695999999999
 11
1253.3393000000001
 21
1117.8208999999999
  0
LINE
  8
_0-0_LAYER001
  6
CONTINUOUS
 62
    4
 10
1248.1389999999999
 20
1118.1678999999999
 11
1250.7438
 21
1117.9695999999999
  0
LINE
  8
_0-0_LAYER001
  6
CONTINUOUS
 62
    4
 10
1243.6557
 20
1118.617
 11
1248.1389999999999
 21
1118.1678999999999
  0
LINE
  8
_0-0_LAYER001
  6
CONTINUOUS
 62
    4
 10
1239.1818000000001
 20
1119.1853000000001
 11
1243.6557
 21
1118.617
  0
LINE
  8
_0-0_LAYER001
  6
CONTINUOUS
 62
    4
 10
1234.7166
 20
1119.8534999999999
 11
1239.1818000000001
 21
1119.1853000000001
  0
LINE
  8
_0-0_LAYER001
  6
CONTINUOUS
 62
    4
 10
1230.2596000000001
 20
1120.6024
 11
1234.7166
 21
1119.8534999999999
  0
LINE
  8
_0-0_LAYER001
  6
CONTINUOUS
 62
    4
 10
1225.8103000000001
 20
1121.4127000000001
 11
1230.2596000000001
 21
1120.6024
  0
LINE
  8
_0-0_LAYER001
  6
CONTINUOUS
 62
    4
 10
1223.2329
 20
1121.9032
 11
1225.8103000000001
 21
1121.4127000000001
  0
LINE
  8
_0-0_LAYER001
  6
CONTINUOUS
 62
    4
 10
1219.9185
 20
1122.5514000000001
 11
1223.2329
 21
1121.9032
  0
LINE
  8
_0-0_LAYER001
  6
CONTINUOUS
 62
    4
 10
1214.2159999999999
 20
1123.7181
 11
1219.9185
 21
1122.5514000000001
  0
LINE
  8
_0-0_LAYER001
  6
CONTINUOUS
 62
    4
 10
1208.5337
 20
1124.9601
 11
1214.2159999999999
 21
1123.7181
  0
LINE
  8
_0-0_LAYER001
  6
CONTINUOUS
 62
    4
 10
1202.8773000000001
 20
1126.2924
 11
1208.5337
 21
1124.9601
  0
LINE
  8
_0-0_LAYER001
  6
CONTINUOUS
 62
    4
 10
1197.2526
 20
1127.73
 11
1202.8773000000001
 21
1126.2924
  0
LINE
  8
_0-0_LAYER001
  6
CONTINUOUS
 62
    4
 10
1191.6652999999999
 20
1129.2882
 11
1197.2526
 21
1127.73
  0
LINE
  8
_0-0_LAYER001
  6
CONTINUOUS
 62
    4
 10
1188.444
 20
1130.2530999999999
 11
1191.6652999999999
 21
1129.2882
  0
LINE
  8
_0-0_LAYER001
  6
CONTINUOUS
 62
    4
 10
1183.9599000000001
 20
1131.6831999999999
 11
1188.444
 21
1130.2530999999999
  0
LINE
  8
_0-0_LAYER001
  6
CONTINUOUS
 62
    4
 10
1176.2922000000001
 20
1134.3462999999999
 11
1183.9599000000001
 21
1131.6831999999999
  0
LINE
  8
_0-0_LAYER001
  6
CONTINUOUS
 62
    4
 10
1168.692
 20
1137.2195999999999
 11
1176.2922000000001
 21
1134.3462999999999
  0
LINE
  8
_0-0_LAYER001
  6
CONTINUOUS
 62
    4
 10
1161.1448
 20
1140.2573
 11
1168.692
 21
1137.2195999999999
  0
LINE
  8
_0-0_LAYER001
  6
CONTINUOUS
 62
    4
 10
1159.9091000000001
 20
1140.7765999999999
 11
1161.1448
 21
1140.2573
  0
LINE
  8
_0-0_LAYER001
  6
CONTINUOUS
 62
    4
 10
1355.49
 20
1148.3159000000001
 11
1355.49
 21
1130.5585000000001
  0
LINE
  8
_0-0_LAYER001
  6
CONTINUOUS
 62
    4
 10
1395.0745999999999
 20
1140.8661
 11
1388.5432000000001
 21
1138.9490000000001
  0
ARC
  8
_0-0_LAYER001
  6
CONTINUOUS
 62
    4
 10
1395.3562999999999
 20
1139.9065000000001
 40
1
 50
0
 51
106.35783000000001
  0
LINE
  8
_0-0_LAYER001
  6
CONTINUOUS
 62
    4
 10
1395.6864
 20
1141.2311999999999
 11
1394.4661999999998
 21
1140.8043
  0
LINE
  8
_0-0_LAYER001
  6
CONTINUOUS
 62
    4
 10
1396.3562999999999
 20
1142.1750999999999
 11
1396.3562999999999
 21
1161.9380000000001
  0
ARC
  8
_0-0_LAYER001
  6
CONTINUOUS
 62
    4
 10
1395.3562999999999
 20
1142.1750999999999
 40
1
 50
289.27960000000002
 51
0.0000000000000127
  0
LINE
  8
_0-0_LAYER001
  6
CONTINUOUS
 62
    4
 10
1395.6594999999998
 20
1120.393
 11
1393.8453999999999
 21
1119.8157000000001
  0
LINE
  8
_0-0_LAYER001
  6
CONTINUOUS
 62
    4
 10
1396.3562999999999
 20
1121.3459
 11
1396.3562999999999
 21
1139.9065000000001
  0
ARC
  8
_0-0_LAYER001
  6
CONTINUOUS
 62
    4
 10
1395.3562999999999
 20
1121.3459
 40
1
 50
287.65382
 51
0.0000000000000254
  0
LINE
  8
_0-0_LAYER001
  6
DASHED1
 62
    2
 10
1183.9742000000001
 20
1139.0797
 11
1199.9742000000001
 21
1139.0797
  0
LINE
  8
_0-0_LAYER001
  6
DASHED1
 62
    2
 10
1199.9742000000001
 20
1139.0797
 11
1199.9742000000001
 21
1136.0797
  0
LINE
  8
_0-0_LAYER001
  6
DASHED1
 62
    2
 10
1183.9742000000001
 20
1139.0797
 11
1183.9742000000001
 21
1136.0797
  0
LINE
  8
_0-0_LAYER001
  6
DASHED1
 62
    2
 10
1183.9742000000001
 20
1136.0797
 11
1199.9742000000001
 21
1136.0797
  0
LINE
  8
_0-0_LAYER001
  6
DASHED1
 62
    2
 10
1194.9742000000001
 20
1081.1836000000001
 11
1191.924
 21
1066.6747
  0
LINE
  8
_0-0_LAYER001
  6
DASHED1
 62
    2
 10
1194.9742000000001
 20
1136.0797
 11
1194.9742000000001
 21
1081.1836000000001
  0
LINE
  8
_0-0_LAYER001
  6
DASHED1
 62
    2
 10
1191.924
 20
1066.6747
 11
1188.9742000000001
 21
1080.9322
  0
LINE
  8
_0-0_LAYER001
  6
DASHED1
 62
    2
 10
1188.9742000000001
 20
1136.0797
 11
1188.9742000000001
 21
1080.9322
  0
LINE
  8
_0-0_LAYER001
  6
DASHED1
 62
    2
 10
1459.2655
 20
1134.3604
 11
1475.2655
 21
1134.3604
  0
LINE
  8
_0-0_LAYER001
  6
DASHED1
 62
    2
 10
1475.2655
 20
1134.3604
 11
1475.2655
 21
1131.3604
  0
LINE
  8
_0-0_LAYER001
  6
DASHED1
 62
    2
 10
1459.2655
 20
1134.3604
 11
1459.2655
 21
1131.3604
  0
LINE
  8
_0-0_LAYER001
  6
DASHED1
 62
    2
 10
1459.2655
 20
1131.3604
 11
1475.2655
 21
1131.3604
  0
LINE
  8
_0-0_LAYER001
  6
DASHED1
 62
    2
 10
1470.2655
 20
1076.4643000000001
 11
1467.2152999999998
 21
1061.9554000000001
  0
LINE
  8
_0-0_LAYER001
  6
DASHED1
 62
    2
 10
1470.2655
 20
1131.3604
 11
1470.2655
 21
1076.4643000000001
  0
LINE
  8
_0-0_LAYER001
  6
DASHED1
 62
    2
 10
1467.2152999999998
 20
1061.9554000000001
 11
1464.2655
 21
1076.2129
  0
LINE
  8
_0-0_LAYER001
  6
DASHED1
 62
    2
 10
1464.2655
 20
1131.3604
 11
1464.2655
 21
1076.2129
  0
LINE
  8
_0-0_LAYER001
  6
DASHED1
 62
    2
 10
1714.1066000000001
 20
1129.6411000000001
 11
1730.1066000000001
 21
1129.6411000000001
  0
LINE
  8
_0-0_LAYER001
  6
DASHED1
 62
    2
 10
1730.1066000000001
 20
1129.6411000000001
 11
1730.1066000000001
 21
1126.6411000000001
  0
LINE
  8
_0-0_LAYER001
  6
DASHED1
 62
    2
 10
1714.1066000000001
 20
1129.6411000000001
 11
1714.1066000000001
 21
1126.6411000000001
  0
LINE
  8
_0-0_LAYER001
  6
DASHED1
 62
    2
 10
1714.1066000000001
 20
1126.6411000000001
 11
1730.1066000000001
 21
1126.6411000000001
  0
LINE
  8
_0-0_LAYER001
  6
DASHED1
 62
    2
 10
1725.1066000000001
 20
1071.7449999999999
 11
1722.0563999999999
 21
1057.2361000000001
  0
LINE
  8
_0-0_LAYER001
  6
DASHED1
 62
    2
 10
1725.1066000000001
 20
1126.6411000000001
 11
1725.1066000000001
 21
1071.7449999999999
  0
LINE
  8
_0-0_LAYER001
  6
DASHED1
 62
    2
 10
1722.0563999999999
 20
1057.2361000000001
 11
1719.1066000000001
 21
1071.4936
  0
LINE
  8
_0-0_LAYER001
  6
DASHED1
 62
    2
 10
1719.1066000000001
 20
1126.6411000000001
 11
1719.1066000000001
 21
1071.4936
  0
LINE
  8
_0-0_LAYER001
  6
DASHED1
 62
    2
 10
1975.2399999999998
 20
1131.2141999999999
 11
1991.2399999999998
 21
1131.2141999999999
  0
LINE
  8
_0-0_LAYER001
  6
DASHED1
 62
    2
 10
1991.2399999999998
 20
1131.2141999999999
 11
1991.2399999999998
 21
1128.2141999999999
  0
LINE
  8
_0-0_LAYER001
  6
DASHED1
 62
    2
 10
1975.2399999999998
 20
1131.2141999999999
 11
1975.2399999999998
 21
1128.2141999999999
  0
LINE
  8
_0-0_LAYER001
  6
DASHED1
 62
    2
 10
1975.2399999999998
 20
1128.2141999999999
 11
1991.2399999999998
 21
1128.2141999999999
  0
LINE
  8
_0-0_LAYER001
  6
DASHED1
 62
    2
 10
1986.2399999999998
 20
1073.3181
 11
1983.1898000000001
 21
1058.8091999999999
  0
LINE
  8
_0-0_LAYER001
  6
DASHED1
 62
    2
 10
1986.2399999999998
 20
1128.2141999999999
 11
1986.2399999999998
 21
1073.3181
  0
LINE
  8
_0-0_LAYER001
  6
DASHED1
 62
    2
 10
1983.1898000000001
 20
1058.8091999999999
 11
1980.2399999999998
 21
1073.0667000000001
  0
LINE
  8
_0-0_LAYER001
  6
DASHED1
 62
    2
 10
1980.2399999999998
 20
1128.2141999999999
 11
1980.2399999999998
 21
1073.0667000000001
  0
LINE
  8
_0-0_LAYER001
  6
CONTINUOUS
 62
    2
 10
1217.7184
 20
1100.5137999999999
 11
1170.8623
 21
1075.9818
  0
LINE
  8
_0-0_LAYER001
  6
CONTINUOUS
 62
    2
 10
1170.8623
 20
1113.3959
 11
1217.7184
 21
1075.9818
  0
LINE
  8
_0-1_LAYER004
  6
CONTINUOUS
 62
    3
 10
1252.7184
 20
1045.9818
 11
1162.7184
 21
1045.9818
  0
LINE
  8
_0-1_LAYER004
  6
CONTINUOUS
 62
    2
 10
1252.7184
 20
1075.9818
 11
2164.7366999999999
 21
1075.9818
  0
LINE
  8
_0-1_LAYER004
  6
CONTINUOUS
 62
    3
 10
1162.7184
 20
1075.9818
 11
1162.7184
 21
1045.9818
  0
LINE
  8
_0-1_LAYER004
  6
CONTINUOUS
 62
    3
 10
1252.7184
 20
1075.9818
 11
1162.7184
 21
1075.9818
  0
LINE
  8
_0-1_LAYER004
  6
CONTINUOUS
 62
    2
 10
1217.7184
 20
1100.5137999999999
 11
1217.7184
 21
1075.9818
  0
LINE
  8
_0-1_LAYER004
  6
DASHED3
 62
    2
 10
1219.3794
 20
1078.4608000000001
 11
2164.7366999999999
 21
1078.4608000000001
  0
LINE
  8
_0-1_LAYER004
  6
CONTINUOUS
 62
    2
 10
1219.3794
 20
1081.4608000000001
 11
2164.7366999999999
 21
1081.4608000000001
  0
LINE
  8
_0-1_LAYER004
  6
CONTINUOUS
 62
    3
 10
1252.7184
 20
1075.9818
 11
1252.7184
 21
1045.9818
  0
LINE
  8
_0-1_LAYER004
  6
CONTINUOUS
 62
    2
 10
1244.7754
 20
1045.9818
 11
1252.7184
 21
1053.9238
  0
LINE
  8
_0-1_LAYER004
  6
CONTINUOUS
 62
    2
 10
1233.4623999999999
 20
1045.9818
 11
1252.7184
 21
1065.2378000000001
  0
LINE
  8
_0-1_LAYER004
  6
CONTINUOUS
 62
    2
 10
1222.1484
 20
1045.9818
 11
1252.1484
 21
1075.9818
  0
LINE
  8
_0-1_LAYER004
  6
CONTINUOUS
 62
    2
 10
1210.8344
 20
1045.9818
 11
1240.8344
 21
1075.9818
  0
LINE
  8
_0-1_LAYER004
  6
CONTINUOUS
 62
    2
 10
1199.5214000000001
 20
1045.9818
 11
1229.5214000000001
 21
1075.9818
  0
LINE
  8
_0-1_LAYER004
  6
CONTINUOUS
 62
    2
 10
1188.2074
 20
1045.9818
 11
1218.2074
 21
1075.9818
  0
LINE
  8
_0-1_LAYER004
  6
CONTINUOUS
 62
    2
 10
1176.8933999999999
 20
1045.9818
 11
1206.8933999999999
 21
1075.9818
  0
LINE
  8
_0-1_LAYER004
  6
CONTINUOUS
 62
    2
 10
1165.5804000000001
 20
1045.9818
 11
1195.5794000000001
 21
1075.9818
  0
LINE
  8
_0-1_LAYER004
  6
CONTINUOUS
 62
    2
 10
1162.7184
 20
1054.4338
 11
1184.2664
 21
1075.9818
  0
LINE
  8
_0-1_LAYER004
  6
CONTINUOUS
 62
    2
 10
1162.7184
 20
1065.7478000000001
 11
1172.9523999999999
 21
1075.9818
  0
LINE
  8
_0-1_LAYER004
  6
CONTINUOUS
 62
    2
 10
1177.7184
 20
905.98180000000002
 11
1187.7184
 21
905.98180000000002
  0
LINE
  8
_0-1_LAYER004
  6
CONTINUOUS
 62
    2
 10
1187.7184
 20
905.98180000000002
 11
1187.7184
 21
895.98180000000002
  0
LINE
  8
_0-1_LAYER004
  6
CONTINUOUS
 62
    2
 10
1187.7184
 20
895.98180000000002
 11
2164.7366999999999
 21
895.98180000000002
  0
LINE
  8
_0-1_LAYER004
  6
DASHED1
 62
    2
 10
1187.7184
 20
905.98180000000002
 11
2164.7366999999999
 21
905.98180000000002
  0
LINE
  8
_0-1_LAYER004
  6
CONTINUOUS
 62
    2
 10
1373.4854
 20
1035.9818
 11
1233.4854
 21
895.98180000000002
  0
LINE
  8
_0-1_LAYER004
  6
CONTINUOUS
 62
    2
 10
1350.8584000000001
 20
1035.9818
 11
1210.8584000000001
 21
895.98180000000002
  0
LINE
  8
_0-1_LAYER004
  6
CONTINUOUS
 62
    2
 10
1362.1713999999999
 20
1035.9818
 11
1222.1713999999999
 21
895.98180000000002
  0
LINE
  8
_0-1_LAYER004
  6
CONTINUOUS
 62
    2
 10
1923.3883999999998
 20
1035.9818
 11
1783.3883999999998
 21
895.98180000000002
  0
LINE
  8
_0-1_LAYER004
  6
CONTINUOUS
 62
    2
 10
1900.7613999999999
 20
1035.9818
 11
1760.7613999999999
 21
895.98180000000002
  0
LINE
  8
_0-1_LAYER004
  6
CONTINUOUS
 62
    2
 10
1912.0754000000002
 20
1035.9818
 11
1772.0754000000002
 21
895.98180000000002
  0
LINE
  8
_0-1_LAYER004
  6
CONTINUOUS
 62
    2
 10
1177.7184
 20
1045.9818
 11
1177.7184
 21
905.98180000000002
  0
LINE
  8
_0-1_LAYER004
  6
CONTINUOUS
 62
    2
 10
1219.3794
 20
1095.4608000000001
 11
1219.3794
 21
1081.4608000000001
  0
LINE
  8
_0-3_LAYER006
  6
CONTINUOUS
 62
    2
 10
1219.3794
 20
1095.4608000000001
 11
2164.7366999999999
 21
1095.4608000000001
  0
LINE
  8
_0-0_LAYER001
  6
CONTINUOUS
 62
    2
 10
1141.7902999999999
 20
802.33750000000009
 11
1141.7902999999999
 21
854.83750000000009
  0
CIRCLE
  8
_0-0_LAYER001
  6
CONTINUOUS
 62
    2
 10
1141.7902999999999
 20
804.83750000000009
 40
1.6999999999999997
  0
LINE
  8
_0-0_LAYER001
  6
CONTINUOUS
 62
    2
 10
1141.7902999999999
 20
804.83750000000009
 11
1162.7184
 21
804.83750000000009
  0
CIRCLE
  8
_0-0_LAYER001
  6
CONTINUOUS
 62
    2
 10
1162.7184
 20
804.83750000000009
 40
1.6999999999999997
  0
LINE
  8
_0-0_LAYER001
  6
CONTINUOUS
 62
    2
 10
1162.7184
 20
802.33750000000009
 11
1162.7184
 21
854.83750000000009
  0
CIRCLE
  8
_0-0_LAYER001
  6
CONTINUOUS
 62
    2
 10
1162.7184
 20
804.83750000000009
 40
1.6999999999999997
  0
LINE
  8
_0-0_LAYER001
  6
CONTINUOUS
 62
    2
 10
1162.7184
 20
804.83750000000009
 11
1177.7184
 21
804.83750000000009
  0
CIRCLE
  8
_0-0_LAYER001
  6
CONTINUOUS
 62
    2
 10
1177.7184
 20
804.83750000000009
 40
1.6999999999999997
  0
LINE
  8
_0-0_LAYER001
  6
CONTINUOUS
 62
    2
 10
1177.7184
 20
802.33750000000009
 11
1177.7184
 21
854.83750000000009
  0
LINE
  8
_0-0_LAYER001
  6
CONTINUOUS
 62
    2
 10
1142.0183999999999
 20
1338.3161999999998
 11
1142.0183999999999
 21
1285.8161999999998
  0
CIRCLE
  8
_0-0_LAYER001
  6
CONTINUOUS
 62
    2
 10
1142.0183999999999
 20
1335.8161999999998
 40
1.6999999999999997
  0
LINE
  8
_0-0_LAYER001
  6
CONTINUOUS
 62
    2
 10
1142.0183999999999
 20
1335.8161999999998
 11
1352.0183999999999
 21
1335.8161999999998
  0
CIRCLE
  8
_0-0_LAYER001
  6
CONTINUOUS
 62
    2
 10
1352.0183999999999
 20
1335.8161999999998
 40
1.6999999999999997
  0
LINE
  8
_0-0_LAYER001
  6
CONTINUOUS
 62
    2
 10
1352.0183999999999
 20
1338.3161999999998
 11
1352.0183999999999
 21
1285.8161999999998
  0
CIRCLE
  8
_0-0_LAYER001
  6
CONTINUOUS
 62
    2
 10
1352.0183999999999
 20
1335.8161999999998
 40
1.6999999999999997
  0
LINE
  8
_0-0_LAYER001
  6
CONTINUOUS
 62
    2
 10
1352.0183999999999
 20
1335.8161999999998
 11
1607.0183999999999
 21
1335.8161999999998
  0
CIRCLE
  8
_0-0_LAYER001
  6
CONTINUOUS
 62
    2
 10
1607.0183999999999
 20
1335.8161999999998
 40
1.6999999999999997
  0
LINE
  8
_0-0_LAYER001
  6
CONTINUOUS
 62
    2
 10
1607.0183999999999
 20
1338.3161999999998
 11
1607.0183999999999
 21
1285.8161999999998
  0
CIRCLE
  8
_0-0_LAYER001
  6
CONTINUOUS
 62
    2
 10
1607.0183999999999
 20
1335.8161999999998
 40
1.6999999999999997
  0
LINE
  8
_0-0_LAYER001
  6
CONTINUOUS
 62
    2
 10
1607.0183999999999
 20
1335.8161999999998
 11
1862.0183999999999
 21
1335.8161999999998
  0
CIRCLE
  8
_0-0_LAYER001
  6
CONTINUOUS
 62
    2
 10
1862.0183999999999
 20
1335.8161999999998
 40
1.6999999999999997
  0
LINE
  8
_0-0_LAYER001
  6
CONTINUOUS
 62
    2
 10
1862.0183999999999
 20
1338.3161999999998
 11
1862.0183999999999
 21
1285.8161999999998
  0
CIRCLE
  8
_0-0_LAYER001
  6
CONTINUOUS
 62
    2
 10
1862.0183999999999
 20
1335.8161999999998
 40
1.6999999999999997
  0
LINE
  8
_0-0_LAYER001
  6
CONTINUOUS
 62
    2
 10
1862.0183999999999
 20
1335.8161999999998
 11
2117.0183999999999
 21
1335.8161999999998
  0
CIRCLE
  8
_0-0_LAYER001
  6
CONTINUOUS
 62
    2
 10
2117.0183999999999
 20
1335.8161999999998
 40
1.6999999999999997
  0
LINE
  8
_0-0_LAYER001
  6
CONTINUOUS
 62
    2
 10
2117.0183999999999
 20
1338.3161999999998
 11
2117.0183999999999
 21
1285.8161999999998
  0
LINE
  8
_0-1_LAYER004
  6
CONTINUOUS
 62
    7
 10
847.33200000000011
 20
1238.2135000000001
 11
1099.4178999999999
 21
1238.2135000000001
  0
LINE
  8
_0-1_LAYER004
  6
CONTINUOUS
 62
    7
 10
1018.4818
 20
1111.9818
 11
1068.4818
 21
1111.9818
  0
LINE
  8
_0-1_LAYER004
  6
CONTINUOUS
 62
    7
 10
1018.4818
 20
1111.9818
 11
1018.4818
 21
895.98180000000002
  0
LINE
  8
_0-1_LAYER004
  6
CONTINUOUS
 62
    7
 10
1016.7818
 20
895.98180000000002
 11
1068.4818
 21
895.98180000000002
  0
LINE
  8
_0-1_LAYER004
  6
CONTINUOUS
 62
    7
 10
1016.7818
 20
1045.9818
 11
1068.4818
 21
1045.9818
  0
LINE
  8
_0-1_LAYER004
  6
CONTINUOUS
 62
    7
 10
1015.9818
 20
1075.9818
 11
1068.4818
 21
1075.9818
  0
LINE
  8
_0-1_LAYER004
  6
CONTINUOUS
 62
    7
 10
1177.7184
 20
905.98180000000002
 11
1177.7184
 21
1045.9818
  0
LINE
  8
_0-1_LAYER004
  6
CONTINUOUS
 62
    7
 10
1187.7184
 20
905.98180000000002
 11
1177.7184
 21
905.98180000000002
  0
LINE
  8
_0-1_LAYER004
  6
CONTINUOUS
 62
    7
 10
1187.7184
 20
905.98180000000002
 11
1187.7184
 21
895.98180000000002
  0
LINE
  8
_0-1_LAYER004
  6
CONTINUOUS
 62
    7
 10
1187.7184
 20
895.98180000000002
 11
2164.7366999999999
 21
895.98180000000002
  0
LINE
  8
_0-1_LAYER004
  6
CONTINUOUS
 62
    7
 10
2164.7366999999999
 20
905.98180000000002
 11
1187.7184
 21
905.98180000000002
  0
LINE
  8
_0-1_LAYER004
  6
CONTINUOUS
 62
    7
 10
1177.7184
 20
854.83750000000009
 11
1177.7184
 21
804.83750000000009
  0
LINE
  8
_0-1_LAYER004
  6
CONTINUOUS
 62
    7
 10
1162.7184
 20
854.83750000000009
 11
1162.7184
 21
803.13750000000005
  0
LINE
  8
_0-1_LAYER004
  6
CONTINUOUS
 62
    7
 10
1141.7902999999999
 20
803.13750000000005
 11
1141.7902999999999
 21
854.83750000000009
  0
LINE
  8
_0-1_LAYER004
  6
CONTINUOUS
 62
    7
 10
1141.7902999999999
 20
804.83750000000009
 11
1177.7184
 21
804.83750000000009
  0
LINE
  8
_0-1_LAYER004
  6
CONTINUOUS
 62
    7
 10
1177.7184
 20
804.83750000000009
 11
1177.7184
 21
803.13750000000005
  0
LINE
  8
_0-1_LAYER004
  6
CONTINUOUS
 62
    7
 10
1142.0183999999999
 20
1285.8161999999998
 11
1142.0183999999999
 21
1337.5162
  0
LINE
  8
_0-1_LAYER004
  6
CONTINUOUS
 62
    7
 10
1142.0183999999999
 20
1335.8161999999998
 11
2117.0183999999999
 21
1335.8161999999998
  0
LINE
  8
_0-1_LAYER004
  6
CONTINUOUS
 62
    7
 10
2117.0183999999999
 20
1337.5162
 11
2117.0183999999999
 21
1285.8161999999998
  0
LINE
  8
_0-1_LAYER004
  6
CONTINUOUS
 62
    7
 10
1862.0183999999999
 20
1337.5162
 11
1862.0183999999999
 21
1285.8161999999998
  0
LINE
  8
_0-1_LAYER004
  6
CONTINUOUS
 62
    7
 10
1607.0183999999999
 20
1337.5162
 11
1607.0183999999999
 21
1285.8161999999998
  0
LINE
  8
_0-1_LAYER004
  6
CONTINUOUS
 62
    7
 10
1352.0183999999999
 20
1337.5162
 11
1352.0183999999999
 21
1285.8161999999998
  0
LINE
  8
_0-1_LAYER004
  6
CONTINUOUS
 62
    7
 10
1170.8623
 20
1113.3959
 11
1170.8623
 21
1075.9818
  0
LINE
  8
_0-1_LAYER004
  6
CONTINUOUS
 62
    7
 10
1219.3794
 20
1095.4608000000001
 11
1219.3794
 21
1081.4608000000001
  0
LINE
  8
_0-1_LAYER004
  6
CONTINUOUS
 62
    7
 10
1219.3794
 20
1095.4608000000001
 11
2164.7366999999999
 21
1095.4608000000001
  0
LINE
  8
_0-1_LAYER004
  6
CONTINUOUS
 62
    7
 10
2164.7366999999999
 20
1081.4608000000001
 11
1219.3794
 21
1081.4608000000001
  0
LINE
  8
_0-1_LAYER004
  6
CONTINUOUS
 62
    7
 10
1219.3794
 20
1078.4608000000001
 11
2164.7366999999999
 21
1078.4608000000001
  0
LINE
  8
_0-1_LAYER004
  6
CONTINUOUS
 62
    7
 10
2164.3328999999999
 20
1075.9818
 11
1252.1484
 21
1075.9818
  0
LINE
  8
_0-1_LAYER004
  6
CONTINUOUS
 62
    7
 10
1177.7184
 20
1035.9818
 11
2164.7366999999999
 21
1035.9818
  0
LINE
  8
_0-1_LAYER004
  6
CONTINUOUS
 62
    7
 10
1774.6507999999999
 20
808.85290000000009
 11
1979.4735000000001
 21
808.85290000000009
  0
LINE
  8
_0-1_LAYER004
  6
CONTINUOUS
 62
    7
 10
1781.5598135943114
 20
778.9864
 11
2118.1471000000001
 21
778.9864
  0
LINE
  8
_0-1_LAYER004
  6
CONTINUOUS
 62
    7
 10
1790.4533999999999
 20
748.89110000000005
 11
2027.3517999999999
 21
748.89110000000005
  0
LINE
  8
_0-1_LAYER004
  6
CONTINUOUS
 62
    7
 10
805.2632000000001
 20
820.21749999999997
 11
1051.2632000000001
 21
820.21749999999997
  0
LINE
  8
_0-1_LAYER004
  6
CONTINUOUS
 62
    7
 10
1099.4178999999999
 20
1238.2135000000001
 11
1188.0489
 21
1084.7002
  0
LINE
  8
_0-1_LAYER004
  6
CONTINUOUS
 62
    7
 10
1188.0489
 20
1084.7002
 11
1186.1077
 21
1091.9447
  0
LINE
  8
_0-1_LAYER004
  6
CONTINUOUS
 62
    7
 10
1188.0489
 20
1084.7002
 11
1182.7456
 21
1090.0035
  0
LINE
  8
_0-1_LAYER004
  6
CONTINUOUS
 62
    7
 10
1217.7184
 20
1100.5137999999999
 11
1217.7184
 21
1075.9818
  0
LINE
  8
_0-1_LAYER004
  6
CONTINUOUS
 62
    7
 10
1217.7184
 20
1075.9818
 11
1217.7184
 21
1100.5137999999999
  0
LINE
  8
_0-1_LAYER004
  6
CONTINUOUS
 62
    7
 10
1217.7184
 20
1075.9818
 11
1170.8623
 21
1113.3959
  0
LINE
  8
_0-1_LAYER004
  6
CONTINUOUS
 62
    7
 10
1170.8623
 20
1113.3959
 11
1217.7184
 21
1100.5137999999999
  0
LINE
  8
_0-1_LAYER004
  6
CONTINUOUS
 62
    7
 10
1217.7184
 20
1100.5137999999999
 11
1170.8623
 21
1075.9818
  0
LINE
  8
_0-1_LAYER004
  6
CONTINUOUS
 62
    7
 10
1188.0489
 20
1057.1373000000001
 11
1186.1077
 21
1049.8928000000001
  0
LINE
  8
_0-1_LAYER004
  6
CONTINUOUS
 62
    7
 10
1188.0489
 20
1057.1373000000001
 11
1182.7456
 21
1051.8340000000001
  0
LINE
  8
_0-1_LAYER004
  6
CONTINUOUS
 62
    7
 10
1188.0489
 20
1057.1373000000001
 11
1051.2632000000001
 21
820.21749999999997
  0
LINE
  8
_0-1_LAYER004
  6
CONTINUOUS
 62
    7
 10
1210.8584000000001
 20
895.98180000000002
 11
1350.8584000000001
 21
1035.9818
  0
LINE
  8
_0-1_LAYER004
  6
CONTINUOUS
 62
    7
 10
1362.1713999999999
 20
1035.9818
 11
1222.1713999999999
 21
895.98180000000002
  0
LINE
  8
_0-1_LAYER004
  6
CONTINUOUS
 62
    7
 10
1233.4854
 20
895.98180000000002
 11
1373.4854
 21
1035.9818
  0
LINE
  8
_0-1_LAYER004
  6
CONTINUOUS
 62
    7
 10
1364.2979
 20
996.89920000000006
 11
1366.2391
 21
989.65470000000005
  0
LINE
  8
_0-1_LAYER004
  6
CONTINUOUS
 62
    7
 10
1364.2979
 20
996.89920000000006
 11
1369.5549000000001
 21
991.6422
  0
LINE
  8
_0-1_LAYER004
  6
CONTINUOUS
 62
    7
 10
1364.2979
 20
996.89920000000006
 11
1388.9262000000003
 21
954.24170000000004
  0
LINE
  8
_0-1_LAYER004
  6
CONTINUOUS
 62
    7
 10
1760.7613999999999
 20
895.98180000000002
 11
1900.7613999999999
 21
1035.9818
  0
LINE
  8
_0-1_LAYER004
  6
CONTINUOUS
 62
    7
 10
1912.0754000000002
 20
1035.9818
 11
1772.0754000000002
 21
895.98180000000002
  0
LINE
  8
_0-1_LAYER004
  6
CONTINUOUS
 62
    7
 10
1783.3883999999998
 20
895.98180000000002
 11
1923.3883999999998
 21
1035.9818
  0
LINE
  8
_0-1_LAYER004
  6
CONTINUOUS
 62
    7
 10
1952.8723
 20
1055.6609000000001
 11
1962.8723
 21
1055.6609000000001
  0
LINE
  8
_0-1_LAYER004
  6
CONTINUOUS
 62
    7
 10
1962.8723
 20
1055.6609000000001
 11
1962.8723
 21
1001.6422
  0
LINE
  8
_0-1_LAYER004
  6
CONTINUOUS
 62
    7
 10
1962.8723
 20
1001.6422
 11
1984.2422999999999
 21
1001.6422
  0
LINE
  8
_0-1_LAYER004
  6
CONTINUOUS
 62
    7
 10
1984.2422999999999
 20
1001.6422
 11
1984.2422999999999
 21
991.6422
  0
LINE
  8
_0-1_LAYER004
  6
CONTINUOUS
 62
    7
 10
1984.2422999999999
 20
991.6422
 11
1952.8723
 21
991.6422
  0
LINE
  8
_0-1_LAYER004
  6
CONTINUOUS
 62
    7
 10
1952.8723
 20
991.6422
 11
1952.8723
 21
1055.6609000000001
  0
LINE
  8
_0-1_LAYER004
  6
CONTINUOUS
 62
    7
 10
1535.2829999999999
 20
985.81349999999998
 11
1607.6320426952266
 21
985.81349999999998
  0
LINE
  8
_0-1_LAYER004
  6
CONTINUOUS
 62
    7
 10
1388.9262000000003
 20
954.24170000000004
 11
1464.5712614079068
 21
954.24170000000004
  0
LINE
  8
_0-1_LAYER004
  6
CONTINUOUS
 62
    7
 10
1352.8723
 20
1055.6609000000001
 11
1362.8723
 21
1055.6609000000001
  0
LINE
  8
_0-1_LAYER004
  6
CONTINUOUS
 62
    7
 10
1362.8723
 20
1055.6609000000001
 11
1362.8723
 21
1001.6422
  0
LINE
  8
_0-1_LAYER004
  6
CONTINUOUS
 62
    7
 10
1362.8723
 20
1001.6422
 11
1384.2422999999999
 21
1001.6422
  0
LINE
  8
_0-1_LAYER004
  6
CONTINUOUS
 62
    7
 10
1384.2422999999999
 20
1001.6422
 11
1384.2422999999999
 21
991.6422
  0
LINE
  8
_0-1_LAYER004
  6
CONTINUOUS
 62
    7
 10
1384.2422999999999
 20
991.6422
 11
1352.8723
 21
991.6422
  0
LINE
  8
_0-1_LAYER004
  6
CONTINUOUS
 62
    7
 10
1352.8723
 20
991.6422
 11
1352.8723
 21
1055.6609000000001
  0
LINE
  8
_0-1_LAYER004
  6
CONTINUOUS
 62
    7
 10
1497.8202999999999
 20
1050.7005999999999
 11
1499.7615000000001
 21
1043.4562000000001
  0
LINE
  8
_0-1_LAYER004
  6
CONTINUOUS
 62
    7
 10
1497.8202999999999
 20
1050.7005999999999
 11
1503.1235999999999
 21
1045.3973000000001
  0
LINE
  8
_0-1_LAYER004
  6
CONTINUOUS
 62
    7
 10
1497.8202999999999
 20
1050.7005999999999
 11
1535.2829999999999
 21
985.81349999999998
  0
LINE
  8
_0-1_LAYER004
  6
CONTINUOUS
 62
    7
 10
1698.4177
 20
1089.2769000000001
 11
1698.4177
 21
1081.7769000000001
  0
LINE
  8
_0-1_LAYER004
  6
CONTINUOUS
 62
    7
 10
1698.4177
 20
1089.2769000000001
 11
1702.1677
 21
1082.7818
  0
LINE
  8
_0-1_LAYER004
  6
CONTINUOUS
 62
    7
 10
1698.4177
 20
1089.2769000000001
 11
1789.6794
 21
748.68370000000004
  0
TEXT
  8
_0-2_LAYER005
 62
    7
 10
850.32329084834396
 20
1244.0803500453537
 40
20
 41
1
 50
0
  1
登座：36x45（防腐処理）
  0
TEXT
  8
_0-2_LAYER005
 62
    7
 10
1472.3092114789397
 20
1349.4628633013665
 40
20
 41
1
 50
0
  1
255
  0
TEXT
  8
_0-2_LAYER005
 62
    7
 10
1724.3108736128829
 20
1344.881014898931
 40
20
 41
1
 50
0
  1
255
  0
TEXT
  8
_0-2_LAYER005
 62
    7
 10
1391.7676432787812
 20
958.9560712961943
 40
20
 41
1
 50
0
  1
アンカー
  0
TEXT
  8
_0-2_LAYER005
 62
    7
 10
1138.1201182169696
 20
779.05932118442024
 40
20
 41
1
 50
0
  1
20
  0
TEXT
  8
_0-2_LAYER005
 62
    7
 10
1166.3797609548346
 20
779.74858076339262
 40
20
 41
1
 50
0
  1
15
  0
TEXT
  8
_0-2_LAYER005
 62
    7
 10
805.89700115231403
 20
823.86119381762069
 40
20
 41
1
 50
0
  1
品板：30x90（防腐処理）
  0
TEXT
  8
_0-2_LAYER005
 62
    7
 10
1016.12117273887
 20
955.50977340133284
 40
20
 41
1
 50
90
  1
160
  0
TEXT
  8
_0-2_LAYER005
 62
    7
 10
1014.7426535809254
 20
1086.4690934060725
 40
20
 41
1
 50
90
  1
36
  0
TEXT
  8
_0-2_LAYER005
 62
    7
 10
1014.0533940019531
 20
1049.93833572054
 40
20
 41
1
 50
90
  1
30
  0
TEXT
  8
_0-2_LAYER005
 62
    7
 10
1237.3734975889829
 20
1184.3439536201411
 40
20
 41
1
 50
0
  1
左袖瓦
  0
TEXT
  8
_0-2_LAYER005
 62
    7
 10
1746.0470668705509
 20
1184.3439536201411
 40
20
 41
1
 50
0
  1
桟　瓦
  0
TEXT
  8
_0-2_LAYER005
 62
    7
 10
1791.6511336821391
 20
753.01086619860314
 40
20
 41
1
 50
0
  1
パーライト系モルタルｔ＝40
  0
TEXT
  8
_0-2_LAYER005
 62
    7
 10
1783.8711946112944
 20
782.46349268108725
 40
20
 41
1
 50
0
  1
下葺材：ルーフィング
  0
TEXT
  8
_0-2_LAYER005
 62
    7
 10
1780.5369350095038
 20
815.25037876536203
 40
20
 41
1
 50
0
  1
瓦桟：15x30以上
  0
TEXT
  8
_0-2_LAYER005
 62
    7
 10
1964.4769230416209
 20
1343.1748157155482
 40
20
 41
1
 50
0
  1
255
  0
TEXT
  8
_0-2_LAYER005
 62
    7
 10
1245.5961766091045
 20
1343.860194932754
 40
20
 41
1
 50
0
  1
210
  0
TEXT
  8
_0-2_LAYER005
 62
    7
 10
1536.410767214094
 20
992.17743420113879
 40
20
 41
1
 50
0
  1
溶接金網
  0
ENDSEC
  0
EOF
