  0
SECTION
  2
HEADER
  9
$ACADVER
  1
AC1009
  9
$INSBASE
 10
0
 20
0
 30
0
  9
$EXTMIN
 10
0
 20
0
  9
$EXTMAX
 10
2970
 20
2100
  9
$LIMMIN
 10
0
 20
0
  9
$LIMMAX
 10
2970
 20
2100
  9
$LTSCALE
 40
10
  0
ENDSEC
  0
SECTION
  2
TABLES
  0
TABLE
  2
LTYPE
 70
     9
  0
LTYPE
  2
CONTINUOUS
 70
    64
  3
実線
 72
    65
 73
     0
 40
0.0
  0
LTYPE
  2
DASHED1
 70
    64
  3
--  --  --  --  --  --  --  --  
 72
    65
 73
     2
 40
2.5
 49
1.25
 49
-1.25
  0
LTYPE
  2
DASHED2
 70
    64
  3
----    ----    ----    ----    
 72
    65
 73
     2
 40
5.0
 49
2.5
 49
-2.5
  0
LTYPE
  2
DASHED3
 70
    64
  3
------  ------  ------  ------  
 72
    65
 73
     2
 40
5.0
 49
3.75
 49
-1.25
  0
LTYPE
  2
CENTER1
 70
    64
  3
----- - ----- - ----- - ----- - 
 72
    65
 73
     4
 40
10.0
 49
6.25
 49
-1.25
 49
1.25
 49
-1.25
  0
LTYPE
  2
CENTER2
 70
    64
  3
----------  --  ----------  --  
 72
    65
 73
     4
 40
20.0
 49
12.5
 49
-2.5
 49
2.5
 49
-2.5
  0
LTYPE
  2
PHANTOM1
 70
    64
  3
--- - - --- - - --- - - --- - - 
 72
    65
 73
     6
 40
10.0
 49
3.25
 49
-1.25
 49
1.25
 49
-1.25
 49
1.25
 49
-1.25
  0
LTYPE
  2
PHANTOM2
 70
    64
  3
--------  -  -  --------  -  -  
 72
    65
 73
     6
 40
20.0
 49
10.0
 49
-2.5
 49
1.25
 49
-2.5
 49
1.25
 49
-2.5
  0
LTYPE
  2
DOT
 70
    64
  3
-   -   -   -   -   -   -   -   
 72
    65
 73
     2
 40
2.5
 49
0.625
 49
-1.875
  0
LTYPE
  2
DUMMY
 70
    64
  3
ダミー
 72
    65
 73
     0
 40
0.0
  0
LTYPE
  2
RAND1
 70
    64
  3
ランダム線1
 72
    65
 73
     4
 40
10.0
 49
1.0
 49
-2.0
 49
3.0
 49
-4.0
  0
LTYPE
  2
RAND2
 70
    64
  3
ランダム線2
 72
    65
 73
     4
 40
14.0
 49
2.0
 49
-3.0
 49
4.0
 49
-5.0
  0
LTYPE
  2
RAND3
 70
    64
  3
ランダム線3
 72
    65
 73
     4
 40
18.0
 49
3.0
 49
-4.0
 49
5.0
 49
-6.0
  0
LTYPE
  2
RAND4
 70
    64
  3
ランダム線4
 72
    65
 73
     4
 40
22.0
 49
4.0
 49
-5.0
 49
6.0
 49
-7.0
  0
LTYPE
  2
RAND5
 70
    64
  3
ランダム線5
 72
    65
 73
     4
 40
26.0
 49
5.0
 49
-6.0
 49
7.0
 49
-8.0
  0
LTYPE
  2
LONG1
 70
    64
  3
----------  --  ----------  --  
 72
    65
 73
     4
 40
40.0
 49
32.5
 49
-2.5
 49
2.5
 49
-2.5
  0
LTYPE
  2
LONG2
 70
    64
  3
--------  -  -  --------  -  -  
 72
    65
 73
     6
 40
40.0
 49
30.0
 49
-2.5
 49
1.25
 49
-2.5
 49
1.25
 49
-2.5
  0
LTYPE
  2
LONG3
 70
    64
  3
+++++++++++++++..+++++++++++++++
 72
    65
 73
     2
 40
40.0
 49
37.5
 49
-2.5
  0
LTYPE
  2
LONG4
 70
    64
  3
+++++++++++++++..+++++++++++++++
 72
    65
 73
     2
 40
80.0
 49
75.0
 49
-5.0
  0
LTYPE
  2
LONG5
 70
    64
  3
----------  --  ----------  --  
 72
    65
 73
     4
 40
60.0
 49
37.5
 49
-7.5
 49
7.5
 49
-7.5
  0
LTYPE
  2
dashed
 70
   64
  3
-------   -------------   ------
 72
   65
 73
    2
 40
7.5
 49
6
 49
-1.5
  0
LTYPE
  2
dashed_spaced
 70
   64
  3
----        --------        ----
 72
   65
 73
    2
 40
12
 49
6
 49
-6
  0
LTYPE
  2
long_dashed_dotted
 70
   64
  3
------------- --- --------------
 72
   65
 73
    4
 40
15.25
 49
12
 49
-1.5
 49
0.25
 49
-1.5
  0
LTYPE
  2
long_dashed_double-dotted
 70
   64
  3
----------- --- --- ------------
 72
   65
 73
    6
 40
17
 49
12
 49
-1.5
 49
0.25
 49
-1.5
 49
0.25
 49
-1.5
  0
LTYPE
  2
long_dashed_triplicate-dotted
 70
   64
  3
--------- --- --- --- ----------
 72
   65
 73
    8
 40
18.75
 49
12
 49
-1.5
 49
0.25
 49
-1.5
 49
0.25
 49
-1.5
 49
0.25
 49
-1.5
  0
LTYPE
  2
dotted
 70
   64
  3
   -       -       -       -    
 72
   65
 73
    2
 40
1.75
 49
0.25
 49
-1.5
  0
LTYPE
  2
chain
 70
   64
  3
-------------- -- --------------
 72
   65
 73
    4
 40
18.5
 49
12
 49
-1.5
 49
3.5
 49
-1.5
  0
LTYPE
  2
chain_double_dash
 70
   64
  3
------------ -- -- -------------
 72
   65
 73
    6
 40
23.5
 49
12
 49
-1.5
 49
3.5
 49
-1.5
 49
3.5
 49
-1.5
  0
LTYPE
  2
dashed_dotted
 70
   64
  3
-----------     -     ----------
 72
   65
 73
    4
 40
9.25
 49
6
 49
-1.5
 49
0.25
 49
-1.5
  0
LTYPE
  2
double-dashed_dotted
 70
   64
  3
------   -----------   -   -----
 72
   65
 73
    6
 40
16.75
 49
6
 49
-1.5
 49
6
 49
-1.5
 49
0.25
 49
-1.5
  0
LTYPE
  2
dashed_double-dotted
 70
   64
  3
---------    -    -    ---------
 72
   65
 73
    6
 40
11
 49
6
 49
-1.5
 49
0.25
 49
-1.5
 49
0.25
 49
-1.5
  0
LTYPE
  2
double-dashed_double-dotted
 70
   64
  3
-----   ---------   -   -   ----
 72
   65
 73
    8
 40
18.5
 49
6
 49
-1.5
 49
6
 49
-1.5
 49
0.25
 49
-1.5
 49
0.25
 49
-1.5
  0
LTYPE
  2
dashed_triplicate-dotted
 70
   64
  3
-------    -    -    -    ------
 72
   65
 73
    8
 40
12.75
 49
6
 49
-1.5
 49
0.25
 49
-1.5
 49
0.25
 49
-1.5
 49
0.25
 49
-1.5
  0
LTYPE
  2
double-dashed_triplicate-dotted
 70
   64
  3
-----  ---------  -  -  -  -----
 72
   65
 73
   10
 40
20.25
 49
6
 49
-1.5
 49
6
 49
-1.5
 49
0.25
 49
-1.5
 49
0.25
 49
-1.5
 49
0.25
 49
-1.5
  0
LTYPE
  2
undefined
 70
   64
  3
--------------------------------
 72
   65
 73
    0
 40
0
  0
ENDTAB
  0
TABLE
  2
STYLE
  5
3
100
AcDbSymbolTable
 70
     1
  0
STYLE
  5
10
100
AcDbSymbolTableRecord
100
AcDbTextStyleTableRecord
  2
STANDARD
 70
     0
 40
0.0
 41
1.0
 50
0.0
 71
     0
 42
0.2
  3
txt
  4
bigfont.shx
  0
STYLE
  5
26
100
AcDbSymbolTableRecord
100
AcDbTextStyleTableRecord
  2
TATEGAKI
 70
    68
 40
0.0
 41
1.0
 50
0.0
 71
     0
 42
1.0
  3
txt
  4
bigfont.shx
  0
ENDTAB
  0
TABLE
  2
LAYER
 70
    4
  0
LAYER
  2
_0-0_LAYER001
 70
   64
 62
    7
  6
CONTINUOUS
  0
LAYER
  2
_0-1_LAYER004
 70
   64
 62
    7
  6
CONTINUOUS
  0
LAYER
  2
_0-2_LAYER005
 70
   64
 62
    7
  6
CONTINUOUS
  0
LAYER
  2
ADD_LINE
 70
   64
 62
    7
  6
CONTINUOUS
  0
ENDTAB
  0
ENDSEC
  0
SECTION
  2
BLOCKS
  0
ENDSEC
  0
SECTION
  2
ENTITIES
  0
LINE
  8
_0-0_LAYER001
  6
DASHED1
 62
    2
 10
1769.2197999999999
 20
1049.6592000000001
 11
1684.2197999999999
 21
1049.6592000000001
  0
LINE
  8
_0-0_LAYER001
  6
DASHED1
 62
    2
 10
1684.2197999999999
 20
1089.6293000000001
 11
1684.2197999999999
 21
1049.6592000000001
  0
LINE
  8
_0-0_LAYER001
  6
DASHED1
 62
    2
 10
1759.2197999999999
 20
1049.6592000000001
 11
1759.2197999999999
 21
919.65920000000006
  0
LINE
  8
_0-0_LAYER001
  6
CONTINUOUS
 62
    2
 10
1820.2197999999999
 20
808.57310000000007
 11
1820.2197999999999
 21
861.07310000000007
  0
CIRCLE
  8
_0-0_LAYER001
  6
CONTINUOUS
 62
    2
 10
1820.2197999999999
 20
811.07310000000007
 40
1.6999999999999997
  0
LINE
  8
_0-0_LAYER001
  6
CONTINUOUS
 62
    2
 10
1820.2197999999999
 20
811.07310000000007
 11
1784.2197999999999
 21
811.07310000000007
  0
CIRCLE
  8
_0-0_LAYER001
  6
CONTINUOUS
 62
    2
 10
1784.2197999999999
 20
811.07310000000007
 40
1.6999999999999997
  0
LINE
  8
_0-0_LAYER001
  6
CONTINUOUS
 62
    2
 10
1784.2197999999999
 20
808.57310000000007
 11
1784.2197999999999
 21
861.07310000000007
  0
CIRCLE
  8
_0-0_LAYER001
  6
CONTINUOUS
 62
    2
 10
1784.2197999999999
 20
811.07310000000007
 40
1.6999999999999997
  0
LINE
  8
_0-0_LAYER001
  6
CONTINUOUS
 62
    2
 10
1784.2197999999999
 20
811.07310000000007
 11
1769.2197999999999
 21
811.07310000000007
  0
CIRCLE
  8
_0-0_LAYER001
  6
CONTINUOUS
 62
    2
 10
1769.2197999999999
 20
811.07310000000007
 40
1.6999999999999997
  0
LINE
  8
_0-0_LAYER001
  6
CONTINUOUS
 62
    2
 10
1769.2197999999999
 20
808.57310000000007
 11
1769.2197999999999
 21
861.07310000000007
  0
LINE
  8
_0-0_LAYER001
  6
CONTINUOUS
 62
    2
 10
1958.0077000000001
 20
909.65920000000006
 11
1905.5077000000001
 21
909.65920000000006
  0
CIRCLE
  8
_0-0_LAYER001
  6
CONTINUOUS
 62
    2
 10
1955.5077000000001
 20
909.65920000000006
 40
1.6999999999999997
  0
LINE
  8
_0-0_LAYER001
  6
CONTINUOUS
 62
    2
 10
1955.5077000000001
 20
909.65920000000006
 11
1955.5077000000001
 21
1059.6592000000001
  0
CIRCLE
  8
_0-0_LAYER001
  6
CONTINUOUS
 62
    2
 10
1955.5077000000001
 20
1059.6592000000001
 40
1.6999999999999997
  0
LINE
  8
_0-0_LAYER001
  6
CONTINUOUS
 62
    2
 10
1958.0077000000001
 20
1059.6592000000001
 11
1905.5077000000001
 21
1059.6592000000001
  0
CIRCLE
  8
_0-0_LAYER001
  6
CONTINUOUS
 62
    2
 10
1955.5077000000001
 20
1059.6592000000001
 40
1.6999999999999997
  0
LINE
  8
_0-0_LAYER001
  6
CONTINUOUS
 62
    2
 10
1955.5077000000001
 20
1059.6592000000001
 11
1955.5077000000001
 21
1089.6592000000001
  0
CIRCLE
  8
_0-0_LAYER001
  6
CONTINUOUS
 62
    2
 10
1955.5077000000001
 20
1089.6592000000001
 40
1.6999999999999997
  0
LINE
  8
_0-0_LAYER001
  6
CONTINUOUS
 62
    2
 10
1958.0077000000001
 20
1089.6592000000001
 11
1905.5077000000001
 21
1089.6592000000001
  0
LINE
  8
_0-0_LAYER001
  6
CONTINUOUS
 62
    2
 10
1010.2198000000001
 20
1336.6442999999999
 11
1010.2198000000001
 21
1284.1442999999999
  0
CIRCLE
  8
_0-0_LAYER001
  6
CONTINUOUS
 62
    2
 10
1010.2198000000001
 20
1334.1442999999999
 40
1.6999999999999997
  0
LINE
  8
_0-0_LAYER001
  6
CONTINUOUS
 62
    2
 10
1010.2198000000001
 20
1334.1442999999999
 11
1265.2198000000001
 21
1334.1442999999999
  0
CIRCLE
  8
_0-0_LAYER001
  6
CONTINUOUS
 62
    2
 10
1265.2198000000001
 20
1334.1442999999999
 40
1.6999999999999997
  0
LINE
  8
_0-0_LAYER001
  6
CONTINUOUS
 62
    2
 10
1265.2198000000001
 20
1336.6442999999999
 11
1265.2198000000001
 21
1284.1442999999999
  0
CIRCLE
  8
_0-0_LAYER001
  6
CONTINUOUS
 62
    2
 10
1265.2198000000001
 20
1334.1442999999999
 40
1.6999999999999997
  0
LINE
  8
_0-0_LAYER001
  6
CONTINUOUS
 62
    2
 10
1265.2198000000001
 20
1334.1442999999999
 11
1520.2197999999999
 21
1334.1442999999999
  0
CIRCLE
  8
_0-0_LAYER001
  6
CONTINUOUS
 62
    2
 10
1520.2197999999999
 20
1334.1442999999999
 40
1.6999999999999997
  0
LINE
  8
_0-0_LAYER001
  6
CONTINUOUS
 62
    2
 10
1520.2197999999999
 20
1336.6442999999999
 11
1520.2197999999999
 21
1284.1442999999999
  0
CIRCLE
  8
_0-0_LAYER001
  6
CONTINUOUS
 62
    2
 10
1520.2197999999999
 20
1334.1442999999999
 40
1.6999999999999997
  0
LINE
  8
_0-0_LAYER001
  6
CONTINUOUS
 62
    2
 10
1520.2197999999999
 20
1334.1442999999999
 11
1820.2197999999999
 21
1334.1442999999999
  0
CIRCLE
  8
_0-0_LAYER001
  6
CONTINUOUS
 62
    2
 10
1820.2197999999999
 20
1334.1442999999999
 40
1.6999999999999997
  0
LINE
  8
_0-0_LAYER001
  6
CONTINUOUS
 62
    2
 10
1820.2197999999999
 20
1336.6442999999999
 11
1820.2197999999999
 21
1284.1442999999999
  0
LINE
  8
_0-2_LAYER005
  6
CONTINUOUS
 62
    2
 10
1774.0308
 20
1065.1965
 11
1772.0897
 21
1072.441
  0
LINE
  8
_0-2_LAYER005
  6
CONTINUOUS
 62
    2
 10
1772.0897
 20
1072.441
 11
1777.393
 21
1067.1377
  0
LINE
  8
_0-2_LAYER005
  6
CONTINUOUS
 62
    2
 10
1772.0897
 20
1072.441
 11
1890.6044000000002
 21
867.16750000000002
  0
LINE
  8
_0-2_LAYER005
  6
CONTINUOUS
 62
    2
 10
1890.6044000000002
 20
867.16750000000002
 11
2154.9151000000002
 21
867.16750000000002
  0
LINE
  8
_0-0_LAYER001
  6
CONTINUOUS
 62
    2
 10
1958.0077000000001
 20
1089.6592000000001
 11
1905.5077000000001
 21
1089.6592000000001
  0
LINE
  8
_0-0_LAYER001
  6
CONTINUOUS
 62
    2
 10
1958.0077000000001
 20
1089.6592000000001
 11
1905.5077000000001
 21
1089.6592000000001
  0
CIRCLE
  8
_0-0_LAYER001
  6
CONTINUOUS
 62
    2
 10
1955.5077000000001
 20
1089.6592000000001
 40
1.6999999999999997
  0
LINE
  8
_0-0_LAYER001
  6
CONTINUOUS
 62
    2
 10
1955.5077000000001
 20
1089.6592000000001
 11
1955.5077000000001
 21
1125.6592000000001
  0
CIRCLE
  8
_0-0_LAYER001
  6
CONTINUOUS
 62
    2
 10
1955.5077000000001
 20
1125.6592000000001
 40
1.6999999999999997
  0
LINE
  8
_0-0_LAYER001
  6
CONTINUOUS
 62
    2
 10
1958.0077000000001
 20
1125.6592000000001
 11
1905.5077000000001
 21
1125.6592000000001
  0
LINE
  8
_0-2_LAYER005
  6
CONTINUOUS
 62
    2
 10
1759.0688
 20
1106.7088000000001
 11
1753.7655
 21
1101.4055000000001
  0
LINE
  8
_0-2_LAYER005
  6
CONTINUOUS
 62
    2
 10
1753.7655
 20
1101.4055000000001
 11
1755.7067000000002
 21
1108.6498999999999
  0
LINE
  8
_0-2_LAYER005
  6
CONTINUOUS
 62
    2
 10
1753.7655
 20
1101.4055000000001
 11
1858.8973999999998
 21
1283.4992
  0
LINE
  8
_0-2_LAYER005
  6
CONTINUOUS
 62
    2
 10
1858.8973999999998
 20
1283.4992
 11
2105.3708999999999
 21
1283.4992
  0
LINE
  8
_0-0_LAYER001
  6
CONTINUOUS
 62
    2
 10
1288.1528000000001
 20
780.22209999999995
 11
1492.9755
 21
780.22209999999995
  0
LINE
  8
_0-0_LAYER001
  6
CONTINUOUS
 62
    2
 10
1202.3681999999999
 20
1091.2168999999999
 11
1202.3681999999999
 21
1098.7168999999999
  0
LINE
  8
_0-0_LAYER001
  6
CONTINUOUS
 62
    2
 10
1202.3681999999999
 20
1098.7168999999999
 11
1206.1181999999999
 21
1092.2217000000001
  0
LINE
  8
_0-0_LAYER001
  6
CONTINUOUS
 62
    2
 10
1202.3681999999999
 20
1098.7168999999999
 11
1295.7112999999999
 21
750.35560000000009
  0
LINE
  8
_0-0_LAYER001
  6
CONTINUOUS
 62
    2
 10
1783.3703
 20
1089.6592000000001
 11
1738.3703
 21
1115.2438999999999
  0
LINE
  8
_0-0_LAYER001
  6
CONTINUOUS
 62
    2
 10
1783.3703
 20
1125.6592000000001
 11
1738.3703
 21
1115.2438999999999
  0
LINE
  8
_0-0_LAYER001
  6
CONTINUOUS
 62
    2
 10
1783.3703
 20
1125.6592000000001
 11
1738.3703
 21
1089.6592000000001
  0
LINE
  8
_0-1_LAYER004
  6
CONTINUOUS
 62
    3
 10
1784.2197999999999
 20
1089.6592000000001
 11
1694.2197999999999
 21
1089.6592000000001
  0
LINE
  8
_0-1_LAYER004
  6
DASHED1
 62
    2
 10
1684.2197999999999
 20
1059.6592000000001
 11
815.08480000000009
 21
1059.6592000000001
  0
LINE
  8
_0-1_LAYER004
  6
CONTINUOUS
 62
    3
 10
1694.2197999999999
 20
1059.6592000000001
 11
1784.2197999999999
 21
1059.6592000000001
  0
LINE
  8
_0-1_LAYER004
  6
CONTINUOUS
 62
    3
 10
1784.2197999999999
 20
1089.6592000000001
 11
1784.2197999999999
 21
1059.6592000000001
  0
LINE
  8
_0-1_LAYER004
  6
CONTINUOUS
 62
    3
 10
1694.2197999999999
 20
1089.6592000000001
 11
1694.2197999999999
 21
1059.6592000000001
  0
LINE
  8
_0-1_LAYER004
  6
DASHED1
 62
    2
 10
1759.2197999999999
 20
919.65920000000006
 11
815.08480000000009
 21
919.65920000000006
  0
LINE
  8
_0-1_LAYER004
  6
CONTINUOUS
 62
    2
 10
1759.2197999999999
 20
909.65920000000006
 11
815.08480000000009
 21
909.65920000000006
  0
LINE
  8
_0-1_LAYER004
  6
CONTINUOUS
 62
    2
 10
1759.2197999999999
 20
919.65920000000006
 11
1769.2197999999999
 21
919.65920000000006
  0
LINE
  8
_0-1_LAYER004
  6
CONTINUOUS
 62
    2
 10
1769.2197999999999
 20
1059.6592000000001
 11
1769.2197999999999
 21
919.65920000000006
  0
LINE
  8
_0-1_LAYER004
  6
CONTINUOUS
 62
    2
 10
1759.2197999999999
 20
919.65920000000006
 11
1759.2197999999999
 21
909.65920000000006
  0
LINE
  8
_0-1_LAYER004
  6
CONTINUOUS
 62
    2
 10
1558.3670000000002
 20
1089.6293000000001
 11
1378.3968
 21
909.65920000000006
  0
LINE
  8
_0-1_LAYER004
  6
CONTINUOUS
 62
    2
 10
1569.681
 20
1089.6293000000001
 11
1389.7108000000001
 21
909.65920000000006
  0
LINE
  8
_0-1_LAYER004
  6
CONTINUOUS
 62
    2
 10
1580.9949999999999
 20
1089.6293000000001
 11
1401.0247999999999
 21
909.65920000000006
  0
LINE
  8
_0-1_LAYER004
  6
CONTINUOUS
 62
    2
 10
1018.3658
 20
1089.6592000000001
 11
838.36580000000004
 21
909.65920000000006
  0
LINE
  8
_0-1_LAYER004
  6
CONTINUOUS
 62
    2
 10
1029.6797999999999
 20
1089.6592000000001
 11
849.67979999999989
 21
909.65920000000006
  0
LINE
  8
_0-1_LAYER004
  6
CONTINUOUS
 62
    2
 10
1040.9938
 20
1089.6592000000001
 11
860.99379999999996
 21
909.65920000000006
  0
LINE
  8
_0-1_LAYER004
  6
CONTINUOUS
 62
    2
 10
1773.9728
 20
1059.6592000000001
 11
1784.2197999999999
 21
1069.9061999999999
  0
LINE
  8
_0-1_LAYER004
  6
CONTINUOUS
 62
    2
 10
1762.6597999999999
 20
1059.6592000000001
 11
1784.2197999999999
 21
1081.2192
  0
LINE
  8
_0-1_LAYER004
  6
CONTINUOUS
 62
    2
 10
1751.3458000000001
 20
1059.6592000000001
 11
1781.3458000000001
 21
1089.6592000000001
  0
LINE
  8
_0-1_LAYER004
  6
CONTINUOUS
 62
    2
 10
1740.0318000000002
 20
1059.6592000000001
 11
1770.0318000000002
 21
1089.6592000000001
  0
LINE
  8
_0-1_LAYER004
  6
CONTINUOUS
 62
    2
 10
1728.7188000000001
 20
1059.6592000000001
 11
1758.7188000000001
 21
1089.6592000000001
  0
LINE
  8
_0-1_LAYER004
  6
CONTINUOUS
 62
    2
 10
1717.4047999999998
 20
1059.6592000000001
 11
1747.4047999999998
 21
1089.6592000000001
  0
LINE
  8
_0-1_LAYER004
  6
CONTINUOUS
 62
    2
 10
1706.0907999999999
 20
1059.6592000000001
 11
1736.0907999999999
 21
1089.6592000000001
  0
LINE
  8
_0-1_LAYER004
  6
CONTINUOUS
 62
    2
 10
1694.7777999999998
 20
1059.6592000000001
 11
1724.7777999999998
 21
1089.6592000000001
  0
LINE
  8
_0-1_LAYER004
  6
CONTINUOUS
 62
    2
 10
1694.2197999999999
 20
1070.4151999999999
 11
1713.4638
 21
1089.6592000000001
  0
LINE
  8
_0-1_LAYER004
  6
CONTINUOUS
 62
    2
 10
1694.2197999999999
 20
1081.7292
 11
1702.1498000000001
 21
1089.6592000000001
  0
LINE
  8
_0-1_LAYER004
  6
CONTINUOUS
 62
    2
 10
1738.3703
 20
1115.2438999999999
 11
1738.3703
 21
1089.6592000000001
  0
LINE
  8
_0-1_LAYER004
  6
CONTINUOUS
 62
    2
 10
1783.3703
 20
1125.6592000000001
 11
1783.3703
 21
1089.6592000000001
  0
LINE
  8
_0-1_LAYER004
  6
CONTINUOUS
 62
    2
 10
816.38449999999989
 20
1112.6959999999999
 11
1727.3407999999999
 21
1112.6959999999999
  0
LINE
  8
_0-1_LAYER004
  6
DASHED3
 62
    2
 10
815.08480000000009
 20
1093.1812
 11
1727.3407999999999
 21
1093.1812
  0
LINE
  8
_0-1_LAYER004
  6
CONTINUOUS
 62
    2
 10
816.38449999999989
 20
1097.6959999999999
 11
1727.3407999999999
 21
1097.6959999999999
  0
LINE
  8
_0-1_LAYER004
  6
CONTINUOUS
 62
    2
 10
1727.3407999999999
 20
1112.6959999999999
 11
1727.3407999999999
 21
1097.6959999999999
  0
LINE
  8
_0-0_LAYER001
  6
CONTINUOUS
 62
    4
 10
1731.5135
 20
1122.6532
 11
1763.4801000000002
 21
1128.2483
  0
LINE
  8
_0-0_LAYER001
  6
CONTINUOUS
 62
    4
 10
815.08480000000009
 20
1200.9297999999999
 11
815.1699000000001
 21
1200.9024999999999
  0
LINE
  8
_0-0_LAYER001
  6
CONTINUOUS
 62
    4
 10
815.1699000000001
 20
1200.9024999999999
 11
817.68119999999999
 21
1199.9893
  0
LINE
  8
_0-0_LAYER001
  6
CONTINUOUS
 62
    4
 10
817.68119999999999
 20
1199.9893
 11
821.86670000000004
 21
1198.114
  0
LINE
  8
_0-0_LAYER001
  6
CONTINUOUS
 62
    4
 10
821.86670000000004
 20
1198.114
 11
825.90149999999994
 21
1195.9247
  0
LINE
  8
_0-0_LAYER001
  6
CONTINUOUS
 62
    4
 10
825.90149999999994
 20
1195.9247
 11
829.82259999999997
 21
1193.499
  0
LINE
  8
_0-0_LAYER001
  6
CONTINUOUS
 62
    4
 10
829.82259999999997
 20
1193.499
 11
833.66699999999992
 21
1190.9141999999999
  0
LINE
  8
_0-0_LAYER001
  6
CONTINUOUS
 62
    4
 10
833.66699999999992
 20
1190.9141999999999
 11
837.47190000000001
 21
1188.248
  0
LINE
  8
_0-0_LAYER001
  6
CONTINUOUS
 62
    4
 10
837.47190000000001
 20
1188.248
 11
839.67509999999993
 21
1186.6948
  0
LINE
  8
_0-0_LAYER001
  6
CONTINUOUS
 62
    4
 10
839.67509999999993
 20
1186.6948
 11
843.03970000000004
 21
1184.3547000000001
  0
LINE
  8
_0-0_LAYER001
  6
CONTINUOUS
 62
    4
 10
843.03970000000004
 20
1184.3547000000001
 11
848.88750000000005
 21
1180.4191000000001
  0
LINE
  8
_0-0_LAYER001
  6
CONTINUOUS
 62
    4
 10
848.88750000000005
 20
1180.4191000000001
 11
854.8128999999999
 21
1176.6448
  0
LINE
  8
_0-0_LAYER001
  6
CONTINUOUS
 62
    4
 10
854.8128999999999
 20
1176.6448
 11
860.83750000000009
 21
1173.0741
  0
LINE
  8
_0-0_LAYER001
  6
CONTINUOUS
 62
    4
 10
860.83750000000009
 20
1173.0741
 11
866.98270000000002
 21
1169.749
  0
LINE
  8
_0-0_LAYER001
  6
CONTINUOUS
 62
    4
 10
866.98270000000002
 20
1169.749
 11
873.26999999999998
 21
1166.7117000000001
  0
LINE
  8
_0-0_LAYER001
  6
CONTINUOUS
 62
    4
 10
873.26999999999998
 20
1166.7117000000001
 11
876.99019999999996
 21
1165.0985000000001
  0
LINE
  8
_0-0_LAYER001
  6
CONTINUOUS
 62
    4
 10
876.99019999999996
 20
1165.0985000000001
 11
880.06690000000003
 21
1163.8702000000001
  0
LINE
  8
_0-0_LAYER001
  6
CONTINUOUS
 62
    4
 10
880.06690000000003
 20
1163.8702000000001
 11
885.45479999999998
 21
1161.9431
  0
LINE
  8
_0-0_LAYER001
  6
CONTINUOUS
 62
    4
 10
885.45479999999998
 20
1161.9431
 11
890.93450000000007
 21
1160.2639999999999
  0
LINE
  8
_0-0_LAYER001
  6
CONTINUOUS
 62
    4
 10
890.93450000000007
 20
1160.2639999999999
 11
896.48990000000003
 21
1158.8407
  0
LINE
  8
_0-0_LAYER001
  6
CONTINUOUS
 62
    4
 10
896.48990000000003
 20
1158.8407
 11
902.10500000000002
 21
1157.6809000000001
  0
LINE
  8
_0-0_LAYER001
  6
CONTINUOUS
 62
    4
 10
902.10500000000002
 20
1157.6809000000001
 11
907.7636
 21
1156.7926
  0
LINE
  8
_0-0_LAYER001
  6
CONTINUOUS
 62
    4
 10
907.7636
 20
1156.7926
 11
911.05929999999989
 21
1156.4049
  0
LINE
  8
_0-0_LAYER001
  6
CONTINUOUS
 62
    4
 10
911.05929999999989
 20
1156.4049
 11
913.58210000000008
 21
1156.1722
  0
LINE
  8
_0-0_LAYER001
  6
CONTINUOUS
 62
    4
 10
913.58210000000008
 20
1156.1722
 11
917.93849999999998
 21
1155.893
  0
LINE
  8
_0-0_LAYER001
  6
CONTINUOUS
 62
    4
 10
917.93849999999998
 20
1155.893
 11
922.30109999999991
 21
1155.7545
  0
LINE
  8
_0-0_LAYER001
  6
CONTINUOUS
 62
    4
 10
922.30109999999991
 20
1155.7545
 11
926.66689999999994
 21
1155.7408
  0
LINE
  8
_0-0_LAYER001
  6
CONTINUOUS
 62
    4
 10
926.66689999999994
 20
1155.7408
 11
931.0331000000001
 21
1155.8361
  0
LINE
  8
_0-0_LAYER001
  6
CONTINUOUS
 62
    4
 10
931.0331000000001
 20
1155.8361
 11
935.39679999999998
 21
1156.0246
  0
LINE
  8
_0-0_LAYER001
  6
CONTINUOUS
 62
    4
 10
935.39679999999998
 20
1156.0246
 11
937.92550000000006
 21
1156.1704
  0
LINE
  8
_0-0_LAYER001
  6
CONTINUOUS
 62
    4
 10
937.92550000000006
 20
1156.1704
 11
942.65039999999999
 21
1156.5046
  0
LINE
  8
_0-0_LAYER001
  6
CONTINUOUS
 62
    4
 10
942.65039999999999
 20
1156.5046
 11
950.77890000000002
 21
1157.2492
  0
LINE
  8
_0-0_LAYER001
  6
CONTINUOUS
 62
    4
 10
950.77890000000002
 20
1157.2492
 11
958.88760000000002
 21
1158.1764000000001
  0
LINE
  8
_0-0_LAYER001
  6
CONTINUOUS
 62
    4
 10
958.88760000000002
 20
1158.1764000000001
 11
966.97919999999999
 21
1159.2507000000001
  0
LINE
  8
_0-0_LAYER001
  6
CONTINUOUS
 62
    4
 10
966.97919999999999
 20
1159.2507000000001
 11
975.05690000000004
 21
1160.4367999999999
  0
LINE
  8
_0-0_LAYER001
  6
CONTINUOUS
 62
    4
 10
975.05690000000004
 20
1160.4367999999999
 11
983.1235999999999
 21
1161.6991
  0
LINE
  8
_0-0_LAYER001
  6
CONTINUOUS
 62
    4
 10
983.1235999999999
 20
1161.6991
 11
987.7983999999999
 21
1162.4521999999999
  0
LINE
  8
_0-0_LAYER001
  6
CONTINUOUS
 62
    4
 10
987.7983999999999
 20
1162.4521999999999
 11
990.22810000000004
 21
1162.8471
  0
LINE
  8
_0-0_LAYER001
  6
CONTINUOUS
 62
    4
 10
990.22810000000004
 20
1162.8471
 11
994.41589999999997
 21
1163.5316
  0
LINE
  8
_0-0_LAYER001
  6
CONTINUOUS
 62
    4
 10
994.41589999999997
 20
1163.5316
 11
998.60239999999999
 21
1164.2202
  0
LINE
  8
_0-0_LAYER001
  6
CONTINUOUS
 62
    4
 10
998.60239999999999
 20
1164.2202
 11
1002.788
 21
1164.912
  0
LINE
  8
_0-0_LAYER001
  6
CONTINUOUS
 62
    4
 10
1002.788
 20
1164.912
 11
1006.9729
 21
1165.6061
  0
LINE
  8
_0-0_LAYER001
  6
CONTINUOUS
 62
    4
 10
1006.9729
 20
1165.6061
 11
1011.1574000000001
 21
1166.3016
  0
LINE
  8
_0-0_LAYER001
  6
CONTINUOUS
 62
    4
 10
1011.1574000000001
 20
1166.3016
 11
1013.5842
 21
1166.7052000000001
  0
LINE
  8
_0-0_LAYER001
  6
CONTINUOUS
 62
    4
 10
815.08480000000009
 20
1181.3148000000001
 11
816.86699999999996
 21
1180.3478
  0
LINE
  8
_0-0_LAYER001
  6
CONTINUOUS
 62
    4
 10
816.86699999999996
 20
1180.3478
 11
820.06259999999997
 21
1178.3708999999999
  0
LINE
  8
_0-0_LAYER001
  6
CONTINUOUS
 62
    4
 10
820.06259999999997
 20
1178.3708999999999
 11
823.47970000000009
 21
1176.0734
  0
LINE
  8
_0-0_LAYER001
  6
CONTINUOUS
 62
    4
 10
823.47970000000009
 20
1176.0734
 11
827.12139999999999
 21
1173.5215000000001
  0
LINE
  8
_0-0_LAYER001
  6
CONTINUOUS
 62
    4
 10
827.12139999999999
 20
1173.5215000000001
 11
829.35059999999999
 21
1171.9501
  0
LINE
  8
_0-0_LAYER001
  6
CONTINUOUS
 62
    4
 10
829.35059999999999
 20
1171.9501
 11
832.87509999999997
 21
1169.4988000000001
  0
LINE
  8
_0-0_LAYER001
  6
CONTINUOUS
 62
    4
 10
832.87509999999997
 20
1169.4988000000001
 11
839.02569999999992
 21
1165.3593000000001
  0
LINE
  8
_0-0_LAYER001
  6
CONTINUOUS
 62
    4
 10
839.02569999999992
 20
1165.3593000000001
 11
845.38660000000004
 21
1161.3076000000001
  0
LINE
  8
_0-0_LAYER001
  6
CONTINUOUS
 62
    4
 10
845.38660000000004
 20
1161.3076000000001
 11
851.96239999999989
 21
1157.4103
  0
LINE
  8
_0-0_LAYER001
  6
CONTINUOUS
 62
    4
 10
851.96239999999989
 20
1157.4103
 11
858.78050000000007
 21
1153.7211
  0
LINE
  8
_0-0_LAYER001
  6
CONTINUOUS
 62
    4
 10
858.78050000000007
 20
1153.7211
 11
865.77140000000009
 21
1150.3439000000001
  0
LINE
  8
_0-0_LAYER001
  6
CONTINUOUS
 62
    4
 10
865.77140000000009
 20
1150.3439000000001
 11
870.07130000000006
 21
1148.4793
  0
LINE
  8
_0-0_LAYER001
  6
CONTINUOUS
 62
    4
 10
870.07130000000006
 20
1148.4793
 11
873.69689999999991
 21
1147.0319
  0
LINE
  8
_0-0_LAYER001
  6
CONTINUOUS
 62
    4
 10
873.69689999999991
 20
1147.0319
 11
879.78400000000011
 21
1144.8547000000001
  0
LINE
  8
_0-0_LAYER001
  6
CONTINUOUS
 62
    4
 10
879.78400000000011
 20
1144.8547000000001
 11
886.06130000000007
 21
1142.9312
  0
LINE
  8
_0-0_LAYER001
  6
CONTINUOUS
 62
    4
 10
886.06130000000007
 20
1142.9312
 11
892.43350000000009
 21
1141.2986000000001
  0
LINE
  8
_0-0_LAYER001
  6
CONTINUOUS
 62
    4
 10
892.43350000000009
 20
1141.2986000000001
 11
898.88699999999994
 21
1139.9657
  0
LINE
  8
_0-0_LAYER001
  6
CONTINUOUS
 62
    4
 10
898.88699999999994
 20
1139.9657
 11
905.31539999999995
 21
1138.9565
  0
LINE
  8
_0-0_LAYER001
  6
CONTINUOUS
 62
    4
 10
905.31539999999995
 20
1138.9565
 11
909.18090000000007
 21
1138.5017
  0
LINE
  8
_0-0_LAYER001
  6
CONTINUOUS
 62
    4
 10
909.18090000000007
 20
1138.5017
 11
912.17969999999991
 21
1138.2252000000001
  0
LINE
  8
_0-0_LAYER001
  6
CONTINUOUS
 62
    4
 10
912.17969999999991
 20
1138.2252000000001
 11
917.077
 21
1137.9113
  0
LINE
  8
_0-0_LAYER001
  6
CONTINUOUS
 62
    4
 10
917.077
 20
1137.9113
 11
921.98720000000003
 21
1137.7554
  0
LINE
  8
_0-0_LAYER001
  6
CONTINUOUS
 62
    4
 10
921.98720000000003
 20
1137.7554
 11
926.83519999999999
 21
1137.7402
  0
LINE
  8
_0-0_LAYER001
  6
CONTINUOUS
 62
    4
 10
926.83519999999999
 20
1137.7402
 11
931.61809999999991
 21
1137.8445999999999
  0
LINE
  8
_0-0_LAYER001
  6
CONTINUOUS
 62
    4
 10
931.61809999999991
 20
1137.8445999999999
 11
936.30340000000001
 21
1138.047
  0
LINE
  8
_0-0_LAYER001
  6
CONTINUOUS
 62
    4
 10
936.30340000000001
 20
1138.047
 11
939.07860000000005
 21
1138.2070000000001
  0
LINE
  8
_0-0_LAYER001
  6
CONTINUOUS
 62
    4
 10
939.07860000000005
 20
1138.2070000000001
 11
944.1065000000001
 21
1138.5626
  0
LINE
  8
_0-0_LAYER001
  6
CONTINUOUS
 62
    4
 10
944.1065000000001
 20
1138.5626
 11
952.62259999999992
 21
1139.3426999999999
  0
LINE
  8
_0-0_LAYER001
  6
CONTINUOUS
 62
    4
 10
952.62259999999992
 20
1139.3426999999999
 11
961.0947000000001
 21
1140.3114
  0
LINE
  8
_0-0_LAYER001
  6
CONTINUOUS
 62
    4
 10
961.0947000000001
 20
1140.3114
 11
969.4713999999999
 21
1141.4236000000001
  0
LINE
  8
_0-0_LAYER001
  6
CONTINUOUS
 62
    4
 10
969.4713999999999
 20
1141.4236000000001
 11
977.75590000000011
 21
1142.6401000000001
  0
LINE
  8
_0-0_LAYER001
  6
CONTINUOUS
 62
    4
 10
977.75590000000011
 20
1142.6401000000001
 11
985.94650000000001
 21
1143.9218000000001
  0
LINE
  8
_0-0_LAYER001
  6
CONTINUOUS
 62
    4
 10
985.94650000000001
 20
1143.9218000000001
 11
990.6735000000001
 21
1144.6832999999999
  0
LINE
  8
_0-0_LAYER001
  6
CONTINUOUS
 62
    4
 10
990.6735000000001
 20
1144.6832999999999
 11
993.12349999999992
 21
1145.0815
  0
LINE
  8
_0-0_LAYER001
  6
CONTINUOUS
 62
    4
 10
993.12349999999992
 20
1145.0815
 11
997.3284000000001
 21
1145.7688000000001
  0
LINE
  8
_0-0_LAYER001
  6
CONTINUOUS
 62
    4
 10
997.3284000000001
 20
1145.7688000000001
 11
1001.5307
 21
1146.46
  0
LINE
  8
_0-0_LAYER001
  6
CONTINUOUS
 62
    4
 10
1001.5307
 20
1146.46
 11
1005.7282
 21
1147.1538
  0
LINE
  8
_0-0_LAYER001
  6
CONTINUOUS
 62
    4
 10
1005.7282
 20
1147.1538
 11
1009.9211
 21
1147.8492000000001
  0
LINE
  8
_0-0_LAYER001
  6
CONTINUOUS
 62
    4
 10
1009.9211
 20
1147.8492000000001
 11
1014.1097
 21
1148.5453
  0
LINE
  8
_0-0_LAYER001
  6
CONTINUOUS
 62
    4
 10
1014.1097
 20
1148.5453
 11
1015.7238
 21
1148.8137999999999
  0
LINE
  8
_0-0_LAYER001
  6
CONTINUOUS
 62
    4
 10
1013.7086999999999
 20
1166.7424000000001
 11
1046.9579000000001
 21
1174.4459999999999
  0
LINE
  8
_0-0_LAYER001
  6
CONTINUOUS
 62
    4
 10
882.53269999999998
 20
1107.9449999999999
 11
873.99720000000002
 21
1122.4784
  0
LINE
  8
_0-0_LAYER001
  6
CONTINUOUS
 62
    4
 10
890.70049999999992
 20
1107.2946999999999
 11
899.00669999999991
 21
1117.3602000000001
  0
ARC
  8
_0-0_LAYER001
  6
CONTINUOUS
 62
    4
 10
886.84410000000003
 20
1110.4771000000001
 40
5
 50
210.42578
 51
320.47001
  0
LINE
  8
_0-0_LAYER001
  6
CONTINUOUS
 62
    4
 10
966.64609999999993
 20
1106.8249000000001
 11
959.32079999999996
 21
1118.1309000000001
  0
LINE
  8
_0-0_LAYER001
  6
CONTINUOUS
 62
    4
 10
975.15570000000002
 20
1107.0147999999999
 11
984.09410000000003
 21
1122.2605000000001
  0
ARC
  8
_0-0_LAYER001
  6
CONTINUOUS
 62
    4
 10
970.8424
 20
1109.5436999999999
 40
5
 50
212.93986000000001
 51
329.61716000000001
  0
ARC
  8
_0-0_LAYER001
  6
CONTINUOUS
 62
    4
 10
1049.9594
 20
1174.6110000000001
 40
3
 50
103.0288
 51
179.49999999999997
  0
LINE
  8
_0-0_LAYER001
  6
CONTINUOUS
 62
    4
 10
1054.5234
 20
1178.7464
 11
1049.2831000000001
 21
1177.5337999999999
  0
ARC
  8
_0-0_LAYER001
  6
CONTINUOUS
 62
    4
 10
1054.7488000000001
 20
1177.7720999999999
 40
1
 50
359.50000000000006
 51
103.02880000000002
  0
LINE
  8
_0-0_LAYER001
  6
CONTINUOUS
 62
    4
 10
1016.9084
 20
1147.0759
 11
1047.2221999999999
 21
1154.1699000000001
  0
ARC
  8
_0-0_LAYER001
  6
CONTINUOUS
 62
    4
 10
1054.5630000000001
 20
1156.4792
 40
1
 50
359.50000000000006
 51
103.08296000000006
  0
LINE
  8
_0-0_LAYER001
  6
CONTINUOUS
 62
    4
 10
1048.0032000000001
 20
1155.9813999999999
 11
1054.3366000000001
 21
1157.4532999999999
  0
LINE
  8
_0-0_LAYER001
  6
CONTINUOUS
 62
    4
 10
1047.2295999999999
 20
1155.0161000000001
 11
1047.2221999999999
 21
1154.1699000000001
  0
ARC
  8
_0-0_LAYER001
  6
CONTINUOUS
 62
    4
 10
1048.2294999999999
 20
1155.0074
 40
1
 50
103.08296000000001
 51
179.50000000000003
  0
ARC
  8
_0-0_LAYER001
  6
CONTINUOUS
 62
    4
 10
1054.5829000000001
 20
1158.7624000000001
 40
1
 50
283.04496999999998
 51
359.5
  0
LINE
  8
_0-0_LAYER001
  6
CONTINUOUS
 62
    4
 10
1014.4376999999999
 20
1146.5724
 11
1016.8658
 21
1146.9763
  0
LINE
  8
_0-0_LAYER001
  6
CONTINUOUS
 62
    4
 10
1010.2487000000001
 20
1145.8761999999999
 11
1014.4376999999999
 21
1146.5724
  0
LINE
  8
_0-0_LAYER001
  6
CONTINUOUS
 62
    4
 10
1006.0549000000001
 20
1145.1805999999999
 11
1010.2487000000001
 21
1145.8761999999999
  0
LINE
  8
_0-0_LAYER001
  6
CONTINUOUS
 62
    4
 10
1001.8561
 20
1144.4866
 11
1006.0549000000001
 21
1145.1805999999999
  0
LINE
  8
_0-0_LAYER001
  6
CONTINUOUS
 62
    4
 10
997.65210000000002
 20
1143.7952
 11
1001.8561
 21
1144.4866
  0
LINE
  8
_0-0_LAYER001
  6
CONTINUOUS
 62
    4
 10
993.44520000000011
 20
1143.1075000000001
 11
997.65210000000002
 21
1143.7952
  0
LINE
  8
_0-0_LAYER001
  6
CONTINUOUS
 62
    4
 10
990.99289999999996
 20
1142.7090000000001
 11
993.44520000000011
 21
1143.1075000000001
  0
LINE
  8
_0-0_LAYER001
  6
CONTINUOUS
 62
    4
 10
986.26019999999994
 20
1141.9465
 11
990.99289999999996
 21
1142.7090000000001
  0
LINE
  8
_0-0_LAYER001
  6
CONTINUOUS
 62
    4
 10
978.05569999999989
 20
1140.6627000000001
 11
986.26019999999994
 21
1141.9465
  0
LINE
  8
_0-0_LAYER001
  6
CONTINUOUS
 62
    4
 10
969.74829999999997
 20
1139.4429
 11
978.05569999999989
 21
1140.6627000000001
  0
LINE
  8
_0-0_LAYER001
  6
CONTINUOUS
 62
    4
 10
961.33999999999992
 20
1138.3264999999999
 11
969.74829999999997
 21
1139.4429
  0
LINE
  8
_0-0_LAYER001
  6
CONTINUOUS
 62
    4
 10
952.8273999999999
 20
1137.3531
 11
961.33999999999992
 21
1138.3264999999999
  0
LINE
  8
_0-0_LAYER001
  6
CONTINUOUS
 62
    4
 10
944.26829999999995
 20
1136.5690999999999
 11
952.8273999999999
 21
1137.3531
  0
LINE
  8
_0-0_LAYER001
  6
CONTINUOUS
 62
    4
 10
939.20669999999996
 20
1136.2111
 11
944.26829999999995
 21
1136.5690999999999
  0
LINE
  8
_0-0_LAYER001
  6
CONTINUOUS
 62
    4
 10
936.40419999999995
 20
1136.0495000000001
 11
939.20669999999996
 21
1136.2111
  0
LINE
  8
_0-0_LAYER001
  6
CONTINUOUS
 62
    4
 10
931.68309999999997
 20
1135.8454999999999
 11
936.40419999999995
 21
1136.0495000000001
  0
LINE
  8
_0-0_LAYER001
  6
CONTINUOUS
 62
    4
 10
926.85390000000007
 20
1135.7401
 11
931.68309999999997
 21
1135.8454999999999
  0
LINE
  8
_0-0_LAYER001
  6
CONTINUOUS
 62
    4
 10
921.95229999999992
 20
1135.7555
 11
926.85390000000007
 21
1135.7401
  0
LINE
  8
_0-0_LAYER001
  6
CONTINUOUS
 62
    4
 10
916.98119999999994
 20
1135.9132999999999
 11
921.95229999999992
 21
1135.7555
  0
LINE
  8
_0-0_LAYER001
  6
CONTINUOUS
 62
    4
 10
912.02379999999994
 20
1136.2311
 11
916.98119999999994
 21
1135.9132999999999
  0
LINE
  8
_0-0_LAYER001
  6
CONTINUOUS
 62
    4
 10
908.97219999999993
 20
1136.5125
 11
912.02379999999994
 21
1136.2311
  0
LINE
  8
_0-0_LAYER001
  6
CONTINUOUS
 62
    4
 10
905.04330000000004
 20
1136.9747
 11
908.97219999999993
 21
1136.5125
  0
LINE
  8
_0-0_LAYER001
  6
CONTINUOUS
 62
    4
 10
898.5293999999999
 20
1137.9973
 11
905.04330000000004
 21
1136.9747
  0
LINE
  8
_0-0_LAYER001
  6
CONTINUOUS
 62
    4
 10
891.9828
 20
1139.3494000000001
 11
898.5293999999999
 21
1137.9973
  0
LINE
  8
_0-0_LAYER001
  6
CONTINUOUS
 62
    4
 10
885.51980000000003
 20
1141.0053
 11
891.9828
 21
1139.3494000000001
  0
LINE
  8
_0-0_LAYER001
  6
CONTINUOUS
 62
    4
 10
879.15390000000002
 20
1142.9559999999999
 11
885.51980000000003
 21
1141.0053
  0
LINE
  8
_0-0_LAYER001
  6
CONTINUOUS
 62
    4
 10
872.98910000000001
 20
1145.1610000000001
 11
879.15390000000002
 21
1142.9559999999999
  0
LINE
  8
_0-0_LAYER001
  6
CONTINUOUS
 62
    4
 10
869.30250000000001
 20
1146.6327000000001
 11
872.98910000000001
 21
1145.1610000000001
  0
LINE
  8
_0-0_LAYER001
  6
CONTINUOUS
 62
    4
 10
864.93820000000005
 20
1148.5252
 11
869.30250000000001
 21
1146.6327000000001
  0
LINE
  8
_0-0_LAYER001
  6
CONTINUOUS
 62
    4
 10
857.86920000000009
 20
1151.9402
 11
864.93820000000005
 21
1148.5252
  0
LINE
  8
_0-0_LAYER001
  6
CONTINUOUS
 62
    4
 10
850.97630000000004
 20
1155.6697999999999
 11
857.86920000000009
 21
1151.9402
  0
LINE
  8
_0-0_LAYER001
  6
CONTINUOUS
 62
    4
 10
844.33930000000009
 20
1159.6034999999999
 11
850.97630000000004
 21
1155.6697999999999
  0
LINE
  8
_0-0_LAYER001
  6
CONTINUOUS
 62
    4
 10
837.92990000000009
 20
1163.6859999999999
 11
844.33930000000009
 21
1159.6034999999999
  0
LINE
  8
_0-0_LAYER001
  6
CONTINUOUS
 62
    4
 10
831.74569999999994
 20
1167.8480999999999
 11
837.92990000000009
 21
1163.6859999999999
  0
LINE
  8
_0-0_LAYER001
  6
CONTINUOUS
 62
    4
 10
828.2034000000001
 20
1170.3117999999999
 11
831.74569999999994
 21
1167.8480999999999
  0
LINE
  8
_0-0_LAYER001
  6
CONTINUOUS
 62
    4
 10
825.9713999999999
 20
1171.8852999999999
 11
828.2034000000001
 21
1170.3117999999999
  0
LINE
  8
_0-0_LAYER001
  6
CONTINUOUS
 62
    4
 10
822.34780000000001
 20
1174.4245000000001
 11
825.9713999999999
 21
1171.8852999999999
  0
LINE
  8
_0-0_LAYER001
  6
CONTINUOUS
 62
    4
 10
818.97820000000002
 20
1176.6900000000001
 11
822.34780000000001
 21
1174.4245000000001
  0
LINE
  8
_0-0_LAYER001
  6
CONTINUOUS
 62
    4
 10
815.86320000000001
 20
1178.617
 11
818.97820000000002
 21
1176.6900000000001
  0
LINE
  8
_0-0_LAYER001
  6
CONTINUOUS
 62
    4
 10
815.08480000000009
 20
1179.0393999999999
 11
815.86320000000001
 21
1178.617
  0
LINE
  8
_0-0_LAYER001
  6
CONTINUOUS
 62
    4
 10
1010.4271000000001
 20
1127.3849
 11
1012.0411999999999
 21
1127.6533999999999
  0
LINE
  8
_0-0_LAYER001
  6
CONTINUOUS
 62
    4
 10
1006.2384999999999
 20
1126.6887999999999
 11
1010.4271000000001
 21
1127.3849
  0
LINE
  8
_0-0_LAYER001
  6
CONTINUOUS
 62
    4
 10
1002.0455999999999
 20
1125.9934000000001
 11
1006.2384999999999
 21
1126.6887999999999
  0
LINE
  8
_0-0_LAYER001
  6
CONTINUOUS
 62
    4
 10
997.84819999999991
 20
1125.2996000000001
 11
1002.0455999999999
 21
1125.9934000000001
  0
LINE
  8
_0-0_LAYER001
  6
CONTINUOUS
 62
    4
 10
993.64589999999998
 20
1124.6084000000001
 11
997.84819999999991
 21
1125.2996000000001
  0
LINE
  8
_0-0_LAYER001
  6
CONTINUOUS
 62
    4
 10
989.44090000000006
 20
1123.9211
 11
993.64589999999998
 21
1124.6084000000001
  0
LINE
  8
_0-0_LAYER001
  6
CONTINUOUS
 62
    4
 10
986.99090000000001
 20
1123.5228999999999
 11
989.44090000000006
 21
1123.9211
  0
LINE
  8
_0-0_LAYER001
  6
CONTINUOUS
 62
    4
 10
982.26389999999992
 20
1122.7614000000001
 11
986.99090000000001
 21
1123.5228999999999
  0
LINE
  8
_0-0_LAYER001
  6
CONTINUOUS
 62
    4
 10
974.07330000000002
 20
1121.4797000000001
 11
982.26389999999992
 21
1122.7614000000001
  0
LINE
  8
_0-0_LAYER001
  6
CONTINUOUS
 62
    4
 10
965.78880000000004
 20
1120.2632000000001
 11
974.07330000000002
 21
1121.4797000000001
  0
LINE
  8
_0-0_LAYER001
  6
CONTINUOUS
 62
    4
 10
957.41219999999998
 20
1119.1511
 11
965.78880000000004
 21
1120.2632000000001
  0
LINE
  8
_0-0_LAYER001
  6
CONTINUOUS
 62
    4
 10
948.94000000000005
 20
1118.1822999999999
 11
957.41219999999998
 21
1119.1511
  0
LINE
  8
_0-0_LAYER001
  6
CONTINUOUS
 62
    4
 10
940.4239
 20
1117.4022
 11
948.94000000000005
 21
1118.1822999999999
  0
LINE
  8
_0-0_LAYER001
  6
CONTINUOUS
 62
    4
 10
935.39599999999996
 20
1117.0465999999999
 11
940.4239
 21
1117.4022
  0
LINE
  8
_0-0_LAYER001
  6
CONTINUOUS
 62
    4
 10
932.62079999999992
 20
1116.8866
 11
935.39599999999996
 21
1117.0465999999999
  0
LINE
  8
_0-0_LAYER001
  6
CONTINUOUS
 62
    4
 10
927.93550000000005
 20
1116.6841999999999
 11
932.62079999999992
 21
1116.8866
  0
LINE
  8
_0-0_LAYER001
  6
CONTINUOUS
 62
    4
 10
923.15259999999989
 20
1116.5798
 11
927.93550000000005
 21
1116.6841999999999
  0
LINE
  8
_0-0_LAYER001
  6
CONTINUOUS
 62
    4
 10
918.30459999999994
 20
1116.595
 11
923.15259999999989
 21
1116.5798
  0
LINE
  8
_0-0_LAYER001
  6
CONTINUOUS
 62
    4
 10
913.39439999999991
 20
1116.7509
 11
918.30459999999994
 21
1116.595
  0
LINE
  8
_0-0_LAYER001
  6
CONTINUOUS
 62
    4
 10
908.49710000000005
 20
1117.0648000000001
 11
913.39439999999991
 21
1116.7509
  0
LINE
  8
_0-0_LAYER001
  6
CONTINUOUS
 62
    4
 10
905.49829999999997
 20
1117.3413
 11
908.49710000000005
 21
1117.0648000000001
  0
LINE
  8
_0-0_LAYER001
  6
CONTINUOUS
 62
    4
 10
901.63280000000009
 20
1117.7961
 11
905.49829999999997
 21
1117.3413
  0
LINE
  8
_0-0_LAYER001
  6
CONTINUOUS
 62
    4
 10
895.20440000000008
 20
1118.8053
 11
901.63280000000009
 21
1117.7961
  0
LINE
  8
_0-0_LAYER001
  6
CONTINUOUS
 62
    4
 10
888.7509
 20
1120.1382000000001
 11
895.20440000000008
 21
1118.8053
  0
LINE
  8
_0-0_LAYER001
  6
CONTINUOUS
 62
    4
 10
882.37869999999998
 20
1121.7708
 11
888.7509
 21
1120.1382000000001
  0
LINE
  8
_0-0_LAYER001
  6
CONTINUOUS
 62
    4
 10
876.10140000000001
 20
1123.6943000000001
 11
882.37869999999998
 21
1121.7708
  0
LINE
  8
_0-0_LAYER001
  6
CONTINUOUS
 62
    4
 10
870.01430000000005
 20
1125.8715
 11
876.10140000000001
 21
1123.6943000000001
  0
LINE
  8
_0-0_LAYER001
  6
CONTINUOUS
 62
    4
 10
866.38869999999997
 20
1127.3189
 11
870.01430000000005
 21
1125.8715
  0
LINE
  8
_0-0_LAYER001
  6
CONTINUOUS
 62
    4
 10
862.08879999999999
 20
1129.1835000000001
 11
866.38869999999997
 21
1127.3189
  0
LINE
  8
_0-0_LAYER001
  6
CONTINUOUS
 62
    4
 10
855.09789999999998
 20
1132.5607
 11
862.08879999999999
 21
1129.1835000000001
  0
LINE
  8
_0-0_LAYER001
  6
CONTINUOUS
 62
    4
 10
848.27980000000002
 20
1136.2499
 11
855.09789999999998
 21
1132.5607
  0
LINE
  8
_0-0_LAYER001
  6
CONTINUOUS
 62
    4
 10
841.70399999999995
 20
1140.1472000000001
 11
848.27980000000002
 21
1136.2499
  0
LINE
  8
_0-0_LAYER001
  6
CONTINUOUS
 62
    4
 10
835.34310000000005
 20
1144.1989000000001
 11
841.70399999999995
 21
1140.1472000000001
  0
LINE
  8
_0-0_LAYER001
  6
CONTINUOUS
 62
    4
 10
829.19250000000011
 20
1148.3384000000001
 11
835.34310000000005
 21
1144.1989000000001
  0
LINE
  8
_0-0_LAYER001
  6
CONTINUOUS
 62
    4
 10
825.66799999999989
 20
1150.7897
 11
829.19250000000011
 21
1148.3384000000001
  0
LINE
  8
_0-0_LAYER001
  6
CONTINUOUS
 62
    4
 10
823.4389000000001
 20
1152.3612000000001
 11
825.66799999999989
 21
1150.7897
  0
LINE
  8
_0-0_LAYER001
  6
CONTINUOUS
 62
    4
 10
819.79719999999998
 20
1154.913
 11
823.4389000000001
 21
1152.3612000000001
  0
LINE
  8
_0-0_LAYER001
  6
CONTINUOUS
 62
    4
 10
816.38000000000011
 20
1157.2104999999999
 11
819.79719999999998
 21
1154.913
  0
LINE
  8
_0-0_LAYER001
  6
CONTINUOUS
 62
    4
 10
815.08480000000009
 20
1158.0117
 11
816.38000000000011
 21
1157.2104999999999
  0
LINE
  8
_0-0_LAYER001
  6
CONTINUOUS
 62
    4
 10
1054.6311000000001
 20
1137.4399000000001
 11
1011.8108999999999
 21
1127.5187000000001
  0
ARC
  8
_0-0_LAYER001
  6
CONTINUOUS
 62
    4
 10
1054.4054000000001
 20
1138.4141
 40
1
 50
283.04496999999998
 51
359.5
  0
LINE
  8
_0-0_LAYER001
  6
CONTINUOUS
 62
    4
 10
1007.3199999999999
 20
1117.2052000000001
 11
1005.0745999999999
 21
1125.7786000000001
  0
ARC
  8
_0-0_LAYER001
  6
CONTINUOUS
 62
    4
 10
1010.2221
 20
1117.9652000000001
 40
3
 50
194.67639000000003
 51
270.00000000000006
  0
LINE
  8
_0-0_LAYER001
  6
CONTINUOUS
 62
    4
 10
1013.6398999999999
 20
1114.9652000000001
 11
1010.2221
 21
1114.9652000000001
  0
LINE
  8
_0-0_LAYER001
  6
CONTINUOUS
 62
    4
 10
1016.5990999999999
 20
1117.472
 11
1018.5331000000001
 21
1129.0762
  0
ARC
  8
_0-0_LAYER001
  6
CONTINUOUS
 62
    4
 10
1013.6398999999999
 20
1117.9652000000001
 40
3
 50
270
 51
350.53766999999999
  0
LINE
  8
_0-0_LAYER001
  6
CONTINUOUS
 62
    4
 10
1054.8086000000001
 20
1157.7882
 11
1015.7329999999999
 21
1148.7346
  0
LINE
  8
_0-0_LAYER001
  6
CONTINUOUS
 62
    4
 10
1015.7329999999999
 20
1167.2113999999999
 11
1015.7329999999999
 21
1148.7346
  0
LINE
  8
_0-0_LAYER001
  6
CONTINUOUS
 62
    4
 10
1055.6694
 20
1177.8202000000001
 11
1055.6694
 21
1158.74
  0
LINE
  8
_0-0_LAYER001
  6
CONTINUOUS
 62
    4
 10
1055.7768000000001
 20
1156.7530999999999
 11
1055.7768000000001
 21
1138.5820000000001
  0
LINE
  8
_0-0_LAYER001
  6
DASHED1
 62
    2
 10
863.82120000000009
 20
1153.9929
 11
879.82120000000009
 21
1153.9929
  0
LINE
  8
_0-0_LAYER001
  6
DASHED1
 62
    2
 10
879.82120000000009
 20
1153.9929
 11
879.82120000000009
 21
1150.9929
  0
LINE
  8
_0-0_LAYER001
  6
DASHED1
 62
    2
 10
863.82120000000009
 20
1153.9929
 11
863.82120000000009
 21
1150.9929
  0
LINE
  8
_0-0_LAYER001
  6
DASHED1
 62
    2
 10
863.82120000000009
 20
1150.9929
 11
879.82120000000009
 21
1150.9929
  0
LINE
  8
_0-0_LAYER001
  6
DASHED1
 62
    2
 10
874.82120000000009
 20
1096.0968
 11
871.77099999999996
 21
1081.5879
  0
LINE
  8
_0-0_LAYER001
  6
DASHED1
 62
    2
 10
874.82120000000009
 20
1150.9929
 11
874.82120000000009
 21
1096.0968
  0
LINE
  8
_0-0_LAYER001
  6
DASHED1
 62
    2
 10
871.77099999999996
 20
1081.5879
 11
868.82120000000009
 21
1095.8453999999999
  0
LINE
  8
_0-0_LAYER001
  6
DASHED1
 62
    2
 10
868.82120000000009
 20
1150.9929
 11
868.82120000000009
 21
1095.8453999999999
  0
LINE
  8
_0-0_LAYER001
  6
CONTINUOUS
 62
    4
 10
1273.1166000000001
 20
1187.3680999999999
 11
1273.9260999999999
 21
1187.6860999999999
  0
LINE
  8
_0-0_LAYER001
  6
CONTINUOUS
 62
    4
 10
1273.9260999999999
 20
1187.6860999999999
 11
1277.4563000000001
 21
1189.0751
  0
LINE
  8
_0-0_LAYER001
  6
CONTINUOUS
 62
    4
 10
1277.4563000000001
 20
1189.0751
 11
1280.9938
 21
1190.4735000000001
  0
LINE
  8
_0-0_LAYER001
  6
CONTINUOUS
 62
    4
 10
1280.9938
 20
1190.4735000000001
 11
1284.5429999999999
 21
1191.8873000000001
  0
LINE
  8
_0-0_LAYER001
  6
CONTINUOUS
 62
    4
 10
1284.5429999999999
 20
1191.8873000000001
 11
1288.1087
 21
1193.3223
  0
LINE
  8
_0-0_LAYER001
  6
CONTINUOUS
 62
    4
 10
1288.1087
 20
1193.3223
 11
1291.6953000000001
 21
1194.7845
  0
LINE
  8
_0-0_LAYER001
  6
CONTINUOUS
 62
    4
 10
1291.6953000000001
 20
1194.7845
 11
1293.787
 21
1195.6473000000001
  0
LINE
  8
_0-0_LAYER001
  6
CONTINUOUS
 62
    4
 10
1293.787
 20
1195.6473000000001
 11
1295.8545999999999
 21
1196.5052000000001
  0
LINE
  8
_0-0_LAYER001
  6
CONTINUOUS
 62
    4
 10
1295.8545999999999
 20
1196.5052000000001
 11
1299.4412
 21
1197.9567999999999
  0
LINE
  8
_0-0_LAYER001
  6
CONTINUOUS
 62
    4
 10
1299.4412
 20
1197.9567999999999
 11
1303.0556999999999
 21
1199.2900999999999
  0
LINE
  8
_0-0_LAYER001
  6
CONTINUOUS
 62
    4
 10
1303.0556999999999
 20
1199.2900999999999
 11
1306.6984
 21
1200.4077
  0
LINE
  8
_0-0_LAYER001
  6
CONTINUOUS
 62
    4
 10
1306.6984
 20
1200.4077
 11
1310.3696
 21
1201.2122999999999
  0
LINE
  8
_0-0_LAYER001
  6
CONTINUOUS
 62
    4
 10
1310.3696
 20
1201.2122999999999
 11
1314.0698
 21
1201.6065000000001
  0
LINE
  8
_0-0_LAYER001
  6
CONTINUOUS
 62
    4
 10
1314.0698
 20
1201.6065000000001
 11
1316.2292
 21
1201.6088
  0
LINE
  8
_0-0_LAYER001
  6
CONTINUOUS
 62
    4
 10
1316.2292
 20
1201.6088
 11
1317.0792000000001
 21
1201.5592999999999
  0
LINE
  8
_0-0_LAYER001
  6
CONTINUOUS
 62
    4
 10
1317.0792000000001
 20
1201.5592999999999
 11
1318.5456999999999
 21
1201.4092000000001
  0
LINE
  8
_0-0_LAYER001
  6
CONTINUOUS
 62
    4
 10
1318.5456999999999
 20
1201.4092000000001
 11
1320.0101
 21
1201.1829
  0
LINE
  8
_0-0_LAYER001
  6
CONTINUOUS
 62
    4
 10
1320.0101
 20
1201.1829
 11
1321.4681
 21
1200.8871999999999
  0
LINE
  8
_0-0_LAYER001
  6
CONTINUOUS
 62
    4
 10
1321.4681
 20
1200.8871999999999
 11
1322.9153999999999
 21
1200.5288
  0
LINE
  8
_0-0_LAYER001
  6
CONTINUOUS
 62
    4
 10
1322.9153999999999
 20
1200.5288
 11
1324.3477000000003
 21
1200.1146000000001
  0
LINE
  8
_0-0_LAYER001
  6
CONTINUOUS
 62
    4
 10
1324.3477000000003
 20
1200.1146000000001
 11
1325.1699000000003
 21
1199.8515
  0
LINE
  8
_0-0_LAYER001
  6
CONTINUOUS
 62
    4
 10
1325.1699000000003
 20
1199.8515
 11
1327.6812
 21
1198.9382000000001
  0
LINE
  8
_0-0_LAYER001
  6
CONTINUOUS
 62
    4
 10
1327.6812
 20
1198.9382000000001
 11
1331.8667
 21
1197.0628999999999
  0
LINE
  8
_0-0_LAYER001
  6
CONTINUOUS
 62
    4
 10
1331.8667
 20
1197.0628999999999
 11
1335.9014999999999
 21
1194.8737000000001
  0
LINE
  8
_0-0_LAYER001
  6
CONTINUOUS
 62
    4
 10
1335.9014999999999
 20
1194.8737000000001
 11
1339.8226
 21
1192.4478999999999
  0
LINE
  8
_0-0_LAYER001
  6
CONTINUOUS
 62
    4
 10
1339.8226
 20
1192.4478999999999
 11
1343.6669999999999
 21
1189.8632
  0
LINE
  8
_0-0_LAYER001
  6
CONTINUOUS
 62
    4
 10
1343.6669999999999
 20
1189.8632
 11
1347.4719
 21
1187.1969999999999
  0
LINE
  8
_0-0_LAYER001
  6
CONTINUOUS
 62
    4
 10
1347.4719
 20
1187.1969999999999
 11
1349.6750999999999
 21
1185.6438000000001
  0
LINE
  8
_0-0_LAYER001
  6
CONTINUOUS
 62
    4
 10
1349.6750999999999
 20
1185.6438000000001
 11
1353.0396999999998
 21
1183.3036999999999
  0
LINE
  8
_0-0_LAYER001
  6
CONTINUOUS
 62
    4
 10
1353.0396999999998
 20
1183.3036999999999
 11
1358.8875000000003
 21
1179.3679999999999
  0
LINE
  8
_0-0_LAYER001
  6
CONTINUOUS
 62
    4
 10
1358.8875000000003
 20
1179.3679999999999
 11
1364.8128999999999
 21
1175.5938000000001
  0
LINE
  8
_0-0_LAYER001
  6
CONTINUOUS
 62
    4
 10
1364.8128999999999
 20
1175.5938000000001
 11
1370.8375000000001
 21
1172.0231000000001
  0
LINE
  8
_0-0_LAYER001
  6
CONTINUOUS
 62
    4
 10
1370.8375000000001
 20
1172.0231000000001
 11
1376.9827
 21
1168.6980000000001
  0
LINE
  8
_0-0_LAYER001
  6
CONTINUOUS
 62
    4
 10
1376.9827
 20
1168.6980000000001
 11
1383.27
 21
1165.6606999999999
  0
LINE
  8
_0-0_LAYER001
  6
CONTINUOUS
 62
    4
 10
1383.27
 20
1165.6606999999999
 11
1386.9902
 21
1164.0474999999999
  0
LINE
  8
_0-0_LAYER001
  6
CONTINUOUS
 62
    4
 10
1386.9902
 20
1164.0474999999999
 11
1390.0668999999998
 21
1162.8191999999999
  0
LINE
  8
_0-0_LAYER001
  6
CONTINUOUS
 62
    4
 10
1390.0668999999998
 20
1162.8191999999999
 11
1395.4548
 21
1160.8921
  0
LINE
  8
_0-0_LAYER001
  6
CONTINUOUS
 62
    4
 10
1395.4548
 20
1160.8921
 11
1400.9345000000003
 21
1159.213
  0
LINE
  8
_0-0_LAYER001
  6
CONTINUOUS
 62
    4
 10
1400.9345000000003
 20
1159.213
 11
1406.4899
 21
1157.7896000000001
  0
LINE
  8
_0-0_LAYER001
  6
CONTINUOUS
 62
    4
 10
1406.4899
 20
1157.7896000000001
 11
1412.105
 21
1156.6298999999999
  0
LINE
  8
_0-0_LAYER001
  6
CONTINUOUS
 62
    4
 10
1412.105
 20
1156.6298999999999
 11
1417.7636000000002
 21
1155.7416000000001
  0
LINE
  8
_0-0_LAYER001
  6
CONTINUOUS
 62
    4
 10
1417.7636000000002
 20
1155.7416000000001
 11
1421.0592999999999
 21
1155.3539000000001
  0
LINE
  8
_0-0_LAYER001
  6
CONTINUOUS
 62
    4
 10
1421.0592999999999
 20
1155.3539000000001
 11
1423.5821000000001
 21
1155.1212
  0
LINE
  8
_0-0_LAYER001
  6
CONTINUOUS
 62
    4
 10
1423.5821000000001
 20
1155.1212
 11
1427.9385
 21
1154.8420000000001
  0
LINE
  8
_0-0_LAYER001
  6
CONTINUOUS
 62
    4
 10
1427.9385
 20
1154.8420000000001
 11
1432.3011000000001
 21
1154.7034000000001
  0
LINE
  8
_0-0_LAYER001
  6
CONTINUOUS
 62
    4
 10
1432.3011000000001
 20
1154.7034000000001
 11
1436.6669000000002
 21
1154.6896999999999
  0
LINE
  8
_0-0_LAYER001
  6
CONTINUOUS
 62
    4
 10
1436.6669000000002
 20
1154.6896999999999
 11
1441.0331000000001
 21
1154.7851000000001
  0
LINE
  8
_0-0_LAYER001
  6
CONTINUOUS
 62
    4
 10
1441.0331000000001
 20
1154.7851000000001
 11
1445.3968
 21
1154.9736
  0
LINE
  8
_0-0_LAYER001
  6
CONTINUOUS
 62
    4
 10
1445.3968
 20
1154.9736
 11
1447.9254999999998
 21
1155.1194
  0
LINE
  8
_0-0_LAYER001
  6
CONTINUOUS
 62
    4
 10
1447.9254999999998
 20
1155.1194
 11
1452.6504
 21
1155.4536000000001
  0
LINE
  8
_0-0_LAYER001
  6
CONTINUOUS
 62
    4
 10
1452.6504
 20
1155.4536000000001
 11
1460.7788999999998
 21
1156.1981000000001
  0
LINE
  8
_0-0_LAYER001
  6
CONTINUOUS
 62
    4
 10
1460.7788999999998
 20
1156.1981000000001
 11
1468.8876
 21
1157.1252999999999
  0
LINE
  8
_0-0_LAYER001
  6
CONTINUOUS
 62
    4
 10
1468.8876
 20
1157.1252999999999
 11
1476.9792000000002
 21
1158.1996999999999
  0
LINE
  8
_0-0_LAYER001
  6
CONTINUOUS
 62
    4
 10
1476.9792000000002
 20
1158.1996999999999
 11
1485.0569
 21
1159.3858
  0
LINE
  8
_0-0_LAYER001
  6
CONTINUOUS
 62
    4
 10
1485.0569
 20
1159.3858
 11
1493.1235999999999
 21
1160.6481000000001
  0
LINE
  8
_0-0_LAYER001
  6
CONTINUOUS
 62
    4
 10
1493.1235999999999
 20
1160.6481000000001
 11
1497.7984000000001
 21
1161.4012
  0
LINE
  8
_0-0_LAYER001
  6
CONTINUOUS
 62
    4
 10
1497.7984000000001
 20
1161.4012
 11
1500.2280999999998
 21
1161.796
  0
LINE
  8
_0-0_LAYER001
  6
CONTINUOUS
 62
    4
 10
1500.2280999999998
 20
1161.796
 11
1504.4159
 21
1162.4806000000001
  0
LINE
  8
_0-0_LAYER001
  6
CONTINUOUS
 62
    4
 10
1504.4159
 20
1162.4806000000001
 11
1508.6024000000002
 21
1163.1692
  0
LINE
  8
_0-0_LAYER001
  6
CONTINUOUS
 62
    4
 10
1508.6024000000002
 20
1163.1692
 11
1512.788
 21
1163.8610000000001
  0
LINE
  8
_0-0_LAYER001
  6
CONTINUOUS
 62
    4
 10
1512.788
 20
1163.8610000000001
 11
1516.9729000000002
 21
1164.5551
  0
LINE
  8
_0-0_LAYER001
  6
CONTINUOUS
 62
    4
 10
1516.9729000000002
 20
1164.5551
 11
1521.1574000000001
 21
1165.2505000000001
  0
LINE
  8
_0-0_LAYER001
  6
CONTINUOUS
 62
    4
 10
1521.1574000000001
 20
1165.2505000000001
 11
1523.5841999999998
 21
1165.6541999999999
  0
LINE
  8
_0-0_LAYER001
  6
CONTINUOUS
 62
    4
 10
1278.461
 20
1170.1286
 11
1280.5119
 21
1170.9341999999999
  0
LINE
  8
_0-0_LAYER001
  6
CONTINUOUS
 62
    4
 10
1280.5119
 20
1170.9341999999999
 11
1284.0603000000001
 21
1172.3304000000001
  0
LINE
  8
_0-0_LAYER001
  6
CONTINUOUS
 62
    4
 10
1284.0603000000001
 20
1172.3304000000001
 11
1287.6328000000001
 21
1173.7426
  0
LINE
  8
_0-0_LAYER001
  6
CONTINUOUS
 62
    4
 10
1287.6328000000001
 20
1173.7426
 11
1291.2336
 21
1175.1768
  0
LINE
  8
_0-0_LAYER001
  6
CONTINUOUS
 62
    4
 10
1291.2336
 20
1175.1768
 11
1294.8665000000001
 21
1176.6388999999999
  0
LINE
  8
_0-0_LAYER001
  6
CONTINUOUS
 62
    4
 10
1294.8665000000001
 20
1176.6388999999999
 11
1298.5252
 21
1178.1305
  0
LINE
  8
_0-0_LAYER001
  6
CONTINUOUS
 62
    4
 10
1298.5252
 20
1178.1305
 11
1300.6682000000001
 21
1179.0146
  0
LINE
  8
_0-0_LAYER001
  6
CONTINUOUS
 62
    4
 10
1300.6682000000001
 20
1179.0146
 11
1302.6803999999997
 21
1179.8494000000001
  0
LINE
  8
_0-0_LAYER001
  6
CONTINUOUS
 62
    4
 10
1302.6803999999997
 20
1179.8494000000001
 11
1305.9341999999997
 21
1181.1663000000001
  0
LINE
  8
_0-0_LAYER001
  6
CONTINUOUS
 62
    4
 10
1305.9341999999997
 20
1181.1663000000001
 11
1308.8146999999999
 21
1182.2289000000001
  0
LINE
  8
_0-0_LAYER001
  6
CONTINUOUS
 62
    4
 10
1308.8146999999999
 20
1182.2289000000001
 11
1311.2726
 21
1182.9829999999999
  0
LINE
  8
_0-0_LAYER001
  6
CONTINUOUS
 62
    4
 10
1311.2726
 20
1182.9829999999999
 11
1313.2583999999999
 21
1183.4182000000001
  0
LINE
  8
_0-0_LAYER001
  6
CONTINUOUS
 62
    4
 10
1313.2583999999999
 20
1183.4182000000001
 11
1315.0353
 21
1183.6075000000001
  0
LINE
  8
_0-0_LAYER001
  6
CONTINUOUS
 62
    4
 10
1315.0353
 20
1183.6075000000001
 11
1315.7148999999999
 21
1183.6081999999999
  0
LINE
  8
_0-0_LAYER001
  6
CONTINUOUS
 62
    4
 10
1315.7148999999999
 20
1183.6081999999999
 11
1315.6387
 21
1183.6126999999999
  0
LINE
  8
_0-0_LAYER001
  6
CONTINUOUS
 62
    4
 10
1315.6387
 20
1183.6126999999999
 11
1316.2533000000003
 21
1183.5498
  0
LINE
  8
_0-0_LAYER001
  6
CONTINUOUS
 62
    4
 10
1316.2533000000003
 20
1183.5498
 11
1316.8450000000003
 21
1183.4583
  0
LINE
  8
_0-0_LAYER001
  6
CONTINUOUS
 62
    4
 10
1316.8450000000003
 20
1183.4583
 11
1317.5144
 21
1183.3226
  0
LINE
  8
_0-0_LAYER001
  6
CONTINUOUS
 62
    4
 10
1317.5144
 20
1183.3226
 11
1318.2506000000001
 21
1183.1403
  0
LINE
  8
_0-0_LAYER001
  6
CONTINUOUS
 62
    4
 10
1318.2506000000001
 20
1183.1403
 11
1319.1032999999998
 21
1182.8937000000001
  0
LINE
  8
_0-0_LAYER001
  6
CONTINUOUS
 62
    4
 10
1319.1032999999998
 20
1182.8937000000001
 11
1319.3485000000001
 21
1182.8152
  0
LINE
  8
_0-0_LAYER001
  6
CONTINUOUS
 62
    4
 10
1319.3485000000001
 20
1182.8152
 11
1320.9165000000003
 21
1182.2449999999999
  0
LINE
  8
_0-0_LAYER001
  6
CONTINUOUS
 62
    4
 10
1320.9165000000003
 20
1182.2449999999999
 11
1323.8830000000003
 21
1180.9159
  0
LINE
  8
_0-0_LAYER001
  6
CONTINUOUS
 62
    4
 10
1323.8830000000003
 20
1180.9159
 11
1326.867
 21
1179.2968000000001
  0
LINE
  8
_0-0_LAYER001
  6
CONTINUOUS
 62
    4
 10
1326.867
 20
1179.2968000000001
 11
1330.0626
 21
1177.3198
  0
LINE
  8
_0-0_LAYER001
  6
CONTINUOUS
 62
    4
 10
1330.0626
 20
1177.3198
 11
1333.4797000000001
 21
1175.0224000000001
  0
LINE
  8
_0-0_LAYER001
  6
CONTINUOUS
 62
    4
 10
1333.4797000000001
 20
1175.0224000000001
 11
1337.1214
 21
1172.4704999999999
  0
LINE
  8
_0-0_LAYER001
  6
CONTINUOUS
 62
    4
 10
1337.1214
 20
1172.4704999999999
 11
1339.3506
 21
1170.8991000000001
  0
LINE
  8
_0-0_LAYER001
  6
CONTINUOUS
 62
    4
 10
1339.3506
 20
1170.8991000000001
 11
1342.8751
 21
1168.4476999999999
  0
LINE
  8
_0-0_LAYER001
  6
CONTINUOUS
 62
    4
 10
1342.8751
 20
1168.4476999999999
 11
1349.0256999999999
 21
1164.3081999999999
  0
LINE
  8
_0-0_LAYER001
  6
CONTINUOUS
 62
    4
 10
1349.0256999999999
 20
1164.3081999999999
 11
1355.3865999999998
 21
1160.2565999999999
  0
LINE
  8
_0-0_LAYER001
  6
CONTINUOUS
 62
    4
 10
1355.3865999999998
 20
1160.2565999999999
 11
1361.9623999999999
 21
1156.3592000000001
  0
LINE
  8
_0-0_LAYER001
  6
CONTINUOUS
 62
    4
 10
1361.9623999999999
 20
1156.3592000000001
 11
1368.7805000000001
 21
1152.6701
  0
LINE
  8
_0-0_LAYER001
  6
CONTINUOUS
 62
    4
 10
1368.7805000000001
 20
1152.6701
 11
1375.7714000000001
 21
1149.2928999999999
  0
LINE
  8
_0-0_LAYER001
  6
CONTINUOUS
 62
    4
 10
1375.7714000000001
 20
1149.2928999999999
 11
1380.0713000000001
 21
1147.4283
  0
LINE
  8
_0-0_LAYER001
  6
CONTINUOUS
 62
    4
 10
1380.0713000000001
 20
1147.4283
 11
1383.6968999999999
 21
1145.9809
  0
LINE
  8
_0-0_LAYER001
  6
CONTINUOUS
 62
    4
 10
1383.6968999999999
 20
1145.9809
 11
1389.7840000000001
 21
1143.8036999999999
  0
LINE
  8
_0-0_LAYER001
  6
CONTINUOUS
 62
    4
 10
1389.7840000000001
 20
1143.8036999999999
 11
1396.0613000000001
 21
1141.8801000000001
  0
LINE
  8
_0-0_LAYER001
  6
CONTINUOUS
 62
    4
 10
1396.0613000000001
 20
1141.8801000000001
 11
1402.4335000000001
 21
1140.2474999999999
  0
LINE
  8
_0-0_LAYER001
  6
CONTINUOUS
 62
    4
 10
1402.4335000000001
 20
1140.2474999999999
 11
1408.8869999999999
 21
1138.9146000000001
  0
LINE
  8
_0-0_LAYER001
  6
CONTINUOUS
 62
    4
 10
1408.8869999999999
 20
1138.9146000000001
 11
1415.3154
 21
1137.9055000000001
  0
LINE
  8
_0-0_LAYER001
  6
CONTINUOUS
 62
    4
 10
1415.3154
 20
1137.9055000000001
 11
1419.1809000000001
 21
1137.4507000000001
  0
LINE
  8
_0-0_LAYER001
  6
CONTINUOUS
 62
    4
 10
1419.1809000000001
 20
1137.4507000000001
 11
1422.1796999999997
 21
1137.1741999999999
  0
LINE
  8
_0-0_LAYER001
  6
CONTINUOUS
 62
    4
 10
1422.1796999999997
 20
1137.1741999999999
 11
1427.0769999999998
 21
1136.8603000000001
  0
LINE
  8
_0-0_LAYER001
  6
CONTINUOUS
 62
    4
 10
1427.0769999999998
 20
1136.8603000000001
 11
1431.9872
 21
1136.7043000000001
  0
LINE
  8
_0-0_LAYER001
  6
CONTINUOUS
 62
    4
 10
1431.9872
 20
1136.7043000000001
 11
1436.8352
 21
1136.6891000000001
  0
LINE
  8
_0-0_LAYER001
  6
CONTINUOUS
 62
    4
 10
1436.8352
 20
1136.6891000000001
 11
1441.6181000000001
 21
1136.7936
  0
LINE
  8
_0-0_LAYER001
  6
CONTINUOUS
 62
    4
 10
1441.6181000000001
 20
1136.7936
 11
1446.3033999999998
 21
1136.9960000000001
  0
LINE
  8
_0-0_LAYER001
  6
CONTINUOUS
 62
    4
 10
1446.3033999999998
 20
1136.9960000000001
 11
1449.0785999999998
 21
1137.1559999999999
  0
LINE
  8
_0-0_LAYER001
  6
CONTINUOUS
 62
    4
 10
1449.0785999999998
 20
1137.1559999999999
 11
1454.1064999999999
 21
1137.5116
  0
LINE
  8
_0-0_LAYER001
  6
CONTINUOUS
 62
    4
 10
1454.1064999999999
 20
1137.5116
 11
1462.6226000000001
 21
1138.2917
  0
LINE
  8
_0-0_LAYER001
  6
CONTINUOUS
 62
    4
 10
1462.6226000000001
 20
1138.2917
 11
1471.0947000000001
 21
1139.2603999999999
  0
LINE
  8
_0-0_LAYER001
  6
CONTINUOUS
 62
    4
 10
1471.0947000000001
 20
1139.2603999999999
 11
1479.4713999999999
 21
1140.3725999999999
  0
LINE
  8
_0-0_LAYER001
  6
CONTINUOUS
 62
    4
 10
1479.4713999999999
 20
1140.3725999999999
 11
1487.7559000000001
 21
1141.5889999999999
  0
LINE
  8
_0-0_LAYER001
  6
CONTINUOUS
 62
    4
 10
1487.7559000000001
 20
1141.5889999999999
 11
1495.9465
 21
1142.8707999999999
  0
LINE
  8
_0-0_LAYER001
  6
CONTINUOUS
 62
    4
 10
1495.9465
 20
1142.8707999999999
 11
1500.6734999999999
 21
1143.6323
  0
LINE
  8
_0-0_LAYER001
  6
CONTINUOUS
 62
    4
 10
1500.6734999999999
 20
1143.6323
 11
1503.1235000000001
 21
1144.0304000000001
  0
LINE
  8
_0-0_LAYER001
  6
CONTINUOUS
 62
    4
 10
1503.1235000000001
 20
1144.0304000000001
 11
1507.3283999999999
 21
1144.7177999999999
  0
LINE
  8
_0-0_LAYER001
  6
CONTINUOUS
 62
    4
 10
1507.3283999999999
 20
1144.7177999999999
 11
1511.5306999999998
 21
1145.4090000000001
  0
LINE
  8
_0-0_LAYER001
  6
CONTINUOUS
 62
    4
 10
1511.5306999999998
 20
1145.4090000000001
 11
1515.7282
 21
1146.1026999999999
  0
LINE
  8
_0-0_LAYER001
  6
CONTINUOUS
 62
    4
 10
1515.7282
 20
1146.1026999999999
 11
1519.9211
 21
1146.7981
  0
LINE
  8
_0-0_LAYER001
  6
CONTINUOUS
 62
    4
 10
1519.9211
 20
1146.7981
 11
1524.1097
 21
1147.4943000000001
  0
LINE
  8
_0-0_LAYER001
  6
CONTINUOUS
 62
    4
 10
1524.1097
 20
1147.4943000000001
 11
1525.7238000000002
 21
1147.7628
  0
LINE
  8
_0-0_LAYER001
  6
CONTINUOUS
 62
    4
 10
1523.7087000000001
 20
1165.6913
 11
1556.9578999999999
 21
1173.395
  0
LINE
  8
_0-0_LAYER001
  6
CONTINUOUS
 62
    4
 10
1137.3226
 20
1107.172
 11
1128.7871
 21
1121.7054000000001
  0
LINE
  8
_0-0_LAYER001
  6
CONTINUOUS
 62
    4
 10
1145.4905000000001
 20
1106.5217
 11
1153.7967000000001
 21
1116.5871999999999
  0
ARC
  8
_0-0_LAYER001
  6
CONTINUOUS
 62
    4
 10
1141.634
 20
1109.7040999999999
 40
5
 50
210.42578
 51
320.47001
  0
LINE
  8
_0-0_LAYER001
  6
CONTINUOUS
 62
    4
 10
1221.4360999999999
 20
1106.0518999999999
 11
1214.1107
 21
1117.3579
  0
LINE
  8
_0-0_LAYER001
  6
CONTINUOUS
 62
    4
 10
1229.9456
 20
1106.2418
 11
1238.884
 21
1121.4875
  0
ARC
  8
_0-0_LAYER001
  6
CONTINUOUS
 62
    4
 10
1225.6323
 20
1108.7707
 40
5
 50
212.93986000000001
 51
329.61716000000001
  0
LINE
  8
_0-0_LAYER001
  6
CONTINUOUS
 62
    4
 10
1017.9065000000001
 20
1187.6461999999999
 11
1018.7159999999999
 21
1187.9641999999999
  0
LINE
  8
_0-0_LAYER001
  6
CONTINUOUS
 62
    4
 10
1018.7159999999999
 20
1187.9641999999999
 11
1022.2462
 21
1189.3532
  0
LINE
  8
_0-0_LAYER001
  6
CONTINUOUS
 62
    4
 10
1022.2462
 20
1189.3532
 11
1025.7837
 21
1190.7516000000001
  0
LINE
  8
_0-0_LAYER001
  6
CONTINUOUS
 62
    4
 10
1025.7837
 20
1190.7516000000001
 11
1029.3329000000001
 21
1192.1652999999999
  0
LINE
  8
_0-0_LAYER001
  6
CONTINUOUS
 62
    4
 10
1029.3329000000001
 20
1192.1652999999999
 11
1032.8986
 21
1193.6003000000001
  0
LINE
  8
_0-0_LAYER001
  6
CONTINUOUS
 62
    4
 10
1032.8986
 20
1193.6003000000001
 11
1036.4853000000001
 21
1195.0625
  0
LINE
  8
_0-0_LAYER001
  6
CONTINUOUS
 62
    4
 10
1036.4853000000001
 20
1195.0625
 11
1038.5769
 21
1195.9254000000001
  0
LINE
  8
_0-0_LAYER001
  6
CONTINUOUS
 62
    4
 10
1038.5769
 20
1195.9254000000001
 11
1040.6445000000001
 21
1196.7832000000001
  0
LINE
  8
_0-0_LAYER001
  6
CONTINUOUS
 62
    4
 10
1040.6445000000001
 20
1196.7832000000001
 11
1044.2311
 21
1198.2348999999999
  0
LINE
  8
_0-0_LAYER001
  6
CONTINUOUS
 62
    4
 10
1044.2311
 20
1198.2348999999999
 11
1047.8456000000001
 21
1199.5681999999999
  0
LINE
  8
_0-0_LAYER001
  6
CONTINUOUS
 62
    4
 10
1047.8456000000001
 20
1199.5681999999999
 11
1051.4883
 21
1200.6858
  0
LINE
  8
_0-0_LAYER001
  6
CONTINUOUS
 62
    4
 10
1051.4883
 20
1200.6858
 11
1055.1595
 21
1201.4903999999999
  0
LINE
  8
_0-0_LAYER001
  6
CONTINUOUS
 62
    4
 10
1055.1595
 20
1201.4903999999999
 11
1058.8597
 21
1201.8846000000001
  0
LINE
  8
_0-0_LAYER001
  6
CONTINUOUS
 62
    4
 10
1058.8597
 20
1201.8846000000001
 11
1061.0191
 21
1201.8868
  0
LINE
  8
_0-0_LAYER001
  6
CONTINUOUS
 62
    4
 10
1061.0191
 20
1201.8868
 11
1061.8690999999999
 21
1201.8372999999999
  0
LINE
  8
_0-0_LAYER001
  6
CONTINUOUS
 62
    4
 10
1061.8690999999999
 20
1201.8372999999999
 11
1063.3356000000001
 21
1201.6872000000001
  0
LINE
  8
_0-0_LAYER001
  6
CONTINUOUS
 62
    4
 10
1063.3356000000001
 20
1201.6872000000001
 11
1064.8
 21
1201.4609
  0
LINE
  8
_0-0_LAYER001
  6
CONTINUOUS
 62
    4
 10
1064.8
 20
1201.4609
 11
1066.258
 21
1201.1651999999999
  0
LINE
  8
_0-0_LAYER001
  6
CONTINUOUS
 62
    4
 10
1066.258
 20
1201.1651999999999
 11
1067.7053000000001
 21
1200.8069
  0
LINE
  8
_0-0_LAYER001
  6
CONTINUOUS
 62
    4
 10
1067.7053000000001
 20
1200.8069
 11
1069.1376
 21
1200.3927000000001
  0
LINE
  8
_0-0_LAYER001
  6
CONTINUOUS
 62
    4
 10
1069.1376
 20
1200.3927000000001
 11
1069.9599000000001
 21
1200.1295
  0
LINE
  8
_0-0_LAYER001
  6
CONTINUOUS
 62
    4
 10
1069.9599000000001
 20
1200.1295
 11
1072.4711
 21
1199.2163
  0
LINE
  8
_0-0_LAYER001
  6
CONTINUOUS
 62
    4
 10
1072.4711
 20
1199.2163
 11
1076.6566
 21
1197.3409999999999
  0
LINE
  8
_0-0_LAYER001
  6
CONTINUOUS
 62
    4
 10
1076.6566
 20
1197.3409999999999
 11
1080.6913999999999
 21
1195.1516999999999
  0
LINE
  8
_0-0_LAYER001
  6
CONTINUOUS
 62
    4
 10
1080.6913999999999
 20
1195.1516999999999
 11
1084.6125
 21
1192.7260000000001
  0
LINE
  8
_0-0_LAYER001
  6
CONTINUOUS
 62
    4
 10
1084.6125
 20
1192.7260000000001
 11
1088.4568999999999
 21
1190.1412
  0
LINE
  8
_0-0_LAYER001
  6
CONTINUOUS
 62
    4
 10
1088.4568999999999
 20
1190.1412
 11
1092.2618
 21
1187.4749999999999
  0
LINE
  8
_0-0_LAYER001
  6
CONTINUOUS
 62
    4
 10
1092.2618
 20
1187.4749999999999
 11
1094.4649999999999
 21
1185.9218000000001
  0
LINE
  8
_0-0_LAYER001
  6
CONTINUOUS
 62
    4
 10
1094.4649999999999
 20
1185.9218000000001
 11
1097.8296
 21
1183.5817
  0
LINE
  8
_0-0_LAYER001
  6
CONTINUOUS
 62
    4
 10
1097.8296
 20
1183.5817
 11
1103.6774
 21
1179.6460999999999
  0
LINE
  8
_0-0_LAYER001
  6
CONTINUOUS
 62
    4
 10
1103.6774
 20
1179.6460999999999
 11
1109.6027999999999
 21
1175.8717999999999
  0
LINE
  8
_0-0_LAYER001
  6
CONTINUOUS
 62
    4
 10
1109.6027999999999
 20
1175.8717999999999
 11
1115.6274000000001
 21
1172.3010999999999
  0
LINE
  8
_0-0_LAYER001
  6
CONTINUOUS
 62
    4
 10
1115.6274000000001
 20
1172.3010999999999
 11
1121.7726
 21
1168.9761000000001
  0
LINE
  8
_0-0_LAYER001
  6
CONTINUOUS
 62
    4
 10
1121.7726
 20
1168.9761000000001
 11
1128.0599
 21
1165.9386999999999
  0
LINE
  8
_0-0_LAYER001
  6
CONTINUOUS
 62
    4
 10
1128.0599
 20
1165.9386999999999
 11
1131.7800999999999
 21
1164.3254999999999
  0
LINE
  8
_0-0_LAYER001
  6
CONTINUOUS
 62
    4
 10
1131.7800999999999
 20
1164.3254999999999
 11
1134.8568
 21
1163.0972999999999
  0
LINE
  8
_0-0_LAYER001
  6
CONTINUOUS
 62
    4
 10
1134.8568
 20
1163.0972999999999
 11
1140.2447
 21
1161.1701
  0
LINE
  8
_0-0_LAYER001
  6
CONTINUOUS
 62
    4
 10
1140.2447
 20
1161.1701
 11
1145.7244000000001
 21
1159.491
  0
LINE
  8
_0-0_LAYER001
  6
CONTINUOUS
 62
    4
 10
1145.7244000000001
 20
1159.491
 11
1151.2798
 21
1158.0677000000001
  0
LINE
  8
_0-0_LAYER001
  6
CONTINUOUS
 62
    4
 10
1151.2798
 20
1158.0677000000001
 11
1156.8949
 21
1156.9078999999999
  0
LINE
  8
_0-0_LAYER001
  6
CONTINUOUS
 62
    4
 10
1156.8949
 20
1156.9078999999999
 11
1162.5535
 21
1156.0196000000001
  0
LINE
  8
_0-0_LAYER001
  6
CONTINUOUS
 62
    4
 10
1162.5535
 20
1156.0196000000001
 11
1165.8492000000001
 21
1155.6319000000001
  0
LINE
  8
_0-0_LAYER001
  6
CONTINUOUS
 62
    4
 10
1165.8492000000001
 20
1155.6319000000001
 11
1168.3720000000001
 21
1155.3992000000001
  0
LINE
  8
_0-0_LAYER001
  6
CONTINUOUS
 62
    4
 10
1168.3720000000001
 20
1155.3992000000001
 11
1172.7284999999999
 21
1155.1199999999999
  0
LINE
  8
_0-0_LAYER001
  6
CONTINUOUS
 62
    4
 10
1172.7284999999999
 20
1155.1199999999999
 11
1177.0909999999999
 21
1154.9815000000001
  0
LINE
  8
_0-0_LAYER001
  6
CONTINUOUS
 62
    4
 10
1177.0909999999999
 20
1154.9815000000001
 11
1181.4567999999999
 21
1154.9677999999999
  0
LINE
  8
_0-0_LAYER001
  6
CONTINUOUS
 62
    4
 10
1181.4567999999999
 20
1154.9677999999999
 11
1185.8230000000001
 21
1155.0631000000001
  0
LINE
  8
_0-0_LAYER001
  6
CONTINUOUS
 62
    4
 10
1185.8230000000001
 20
1155.0631000000001
 11
1190.1867
 21
1155.2516000000001
  0
LINE
  8
_0-0_LAYER001
  6
CONTINUOUS
 62
    4
 10
1190.1867
 20
1155.2516000000001
 11
1192.7154
 21
1155.3974000000001
  0
LINE
  8
_0-0_LAYER001
  6
CONTINUOUS
 62
    4
 10
1192.7154
 20
1155.3974000000001
 11
1197.4403
 21
1155.7316000000001
  0
LINE
  8
_0-0_LAYER001
  6
CONTINUOUS
 62
    4
 10
1197.4403
 20
1155.7316000000001
 11
1205.5689
 21
1156.4762000000001
  0
LINE
  8
_0-0_LAYER001
  6
CONTINUOUS
 62
    4
 10
1205.5689
 20
1156.4762000000001
 11
1213.6775
 21
1157.4033999999999
  0
LINE
  8
_0-0_LAYER001
  6
CONTINUOUS
 62
    4
 10
1213.6775
 20
1157.4033999999999
 11
1221.7691
 21
1158.4776999999999
  0
LINE
  8
_0-0_LAYER001
  6
CONTINUOUS
 62
    4
 10
1221.7691
 20
1158.4776999999999
 11
1229.8468
 21
1159.6638
  0
LINE
  8
_0-0_LAYER001
  6
CONTINUOUS
 62
    4
 10
1229.8468
 20
1159.6638
 11
1237.9135000000001
 21
1160.9260999999999
  0
LINE
  8
_0-0_LAYER001
  6
CONTINUOUS
 62
    4
 10
1237.9135000000001
 20
1160.9260999999999
 11
1242.5882999999999
 21
1161.6793
  0
LINE
  8
_0-0_LAYER001
  6
CONTINUOUS
 62
    4
 10
1242.5882999999999
 20
1161.6793
 11
1245.018
 21
1162.0741
  0
LINE
  8
_0-0_LAYER001
  6
CONTINUOUS
 62
    4
 10
1245.018
 20
1162.0741
 11
1249.2058
 21
1162.7585999999999
  0
LINE
  8
_0-0_LAYER001
  6
CONTINUOUS
 62
    4
 10
1249.2058
 20
1162.7585999999999
 11
1253.3923
 21
1163.4472000000001
  0
LINE
  8
_0-0_LAYER001
  6
CONTINUOUS
 62
    4
 10
1253.3923
 20
1163.4472000000001
 11
1257.5779
 21
1164.1389999999999
  0
LINE
  8
_0-0_LAYER001
  6
CONTINUOUS
 62
    4
 10
1257.5779
 20
1164.1389999999999
 11
1261.7628
 21
1164.8331000000001
  0
LINE
  8
_0-0_LAYER001
  6
CONTINUOUS
 62
    4
 10
1261.7628
 20
1164.8331000000001
 11
1265.9473
 21
1165.5286000000001
  0
LINE
  8
_0-0_LAYER001
  6
CONTINUOUS
 62
    4
 10
1265.9473
 20
1165.5286000000001
 11
1268.3741
 21
1165.9322999999999
  0
LINE
  8
_0-0_LAYER001
  6
CONTINUOUS
 62
    4
 10
1023.2509
 20
1170.4066
 11
1025.3018
 21
1171.2121999999999
  0
LINE
  8
_0-0_LAYER001
  6
CONTINUOUS
 62
    4
 10
1025.3018
 20
1171.2121999999999
 11
1028.8502000000001
 21
1172.6084000000001
  0
LINE
  8
_0-0_LAYER001
  6
CONTINUOUS
 62
    4
 10
1028.8502000000001
 20
1172.6084000000001
 11
1032.4227000000001
 21
1174.0207
  0
LINE
  8
_0-0_LAYER001
  6
CONTINUOUS
 62
    4
 10
1032.4227000000001
 20
1174.0207
 11
1036.0235
 21
1175.4549
  0
LINE
  8
_0-0_LAYER001
  6
CONTINUOUS
 62
    4
 10
1036.0235
 20
1175.4549
 11
1039.6564000000001
 21
1176.9168999999999
  0
LINE
  8
_0-0_LAYER001
  6
CONTINUOUS
 62
    4
 10
1039.6564000000001
 20
1176.9168999999999
 11
1043.3151
 21
1178.4085
  0
LINE
  8
_0-0_LAYER001
  6
CONTINUOUS
 62
    4
 10
1043.3151
 20
1178.4085
 11
1045.4581000000001
 21
1179.2926
  0
LINE
  8
_0-0_LAYER001
  6
CONTINUOUS
 62
    4
 10
1045.4581000000001
 20
1179.2926
 11
1047.4703
 21
1180.1274000000001
  0
LINE
  8
_0-0_LAYER001
  6
CONTINUOUS
 62
    4
 10
1047.4703
 20
1180.1274000000001
 11
1050.7240999999999
 21
1181.4444000000001
  0
LINE
  8
_0-0_LAYER001
  6
CONTINUOUS
 62
    4
 10
1050.7240999999999
 20
1181.4444000000001
 11
1053.6045999999999
 21
1182.5070000000001
  0
LINE
  8
_0-0_LAYER001
  6
CONTINUOUS
 62
    4
 10
1053.6045999999999
 20
1182.5070000000001
 11
1056.0625
 21
1183.2610999999999
  0
LINE
  8
_0-0_LAYER001
  6
CONTINUOUS
 62
    4
 10
1056.0625
 20
1183.2610999999999
 11
1058.0482999999999
 21
1183.6963000000001
  0
LINE
  8
_0-0_LAYER001
  6
CONTINUOUS
 62
    4
 10
1058.0482999999999
 20
1183.6963000000001
 11
1059.8252
 21
1183.8856000000001
  0
LINE
  8
_0-0_LAYER001
  6
CONTINUOUS
 62
    4
 10
1059.8252
 20
1183.8856000000001
 11
1060.5047999999999
 21
1183.8862999999999
  0
LINE
  8
_0-0_LAYER001
  6
CONTINUOUS
 62
    4
 10
1060.5047999999999
 20
1183.8862999999999
 11
1060.4286
 21
1183.8906999999999
  0
LINE
  8
_0-0_LAYER001
  6
CONTINUOUS
 62
    4
 10
1060.4286
 20
1183.8906999999999
 11
1061.0432000000001
 21
1183.8278
  0
LINE
  8
_0-0_LAYER001
  6
CONTINUOUS
 62
    4
 10
1061.0432000000001
 20
1183.8278
 11
1061.6349
 21
1183.7364
  0
LINE
  8
_0-0_LAYER001
  6
CONTINUOUS
 62
    4
 10
1061.6349
 20
1183.7364
 11
1062.3043
 21
1183.6006
  0
LINE
  8
_0-0_LAYER001
  6
CONTINUOUS
 62
    4
 10
1062.3043
 20
1183.6006
 11
1063.0405000000001
 21
1183.4183
  0
LINE
  8
_0-0_LAYER001
  6
CONTINUOUS
 62
    4
 10
1063.0405000000001
 20
1183.4183
 11
1063.8932
 21
1183.1718000000001
  0
LINE
  8
_0-0_LAYER001
  6
CONTINUOUS
 62
    4
 10
1063.8932
 20
1183.1718000000001
 11
1064.1384
 21
1183.0933
  0
LINE
  8
_0-0_LAYER001
  6
CONTINUOUS
 62
    4
 10
1064.1384
 20
1183.0933
 11
1065.7064
 21
1182.5229999999999
  0
LINE
  8
_0-0_LAYER001
  6
CONTINUOUS
 62
    4
 10
1065.7064
 20
1182.5229999999999
 11
1068.6729
 21
1181.1939
  0
LINE
  8
_0-0_LAYER001
  6
CONTINUOUS
 62
    4
 10
1068.6729
 20
1181.1939
 11
1071.6569
 21
1179.5748000000001
  0
LINE
  8
_0-0_LAYER001
  6
CONTINUOUS
 62
    4
 10
1071.6569
 20
1179.5748000000001
 11
1074.8525
 21
1177.5979
  0
LINE
  8
_0-0_LAYER001
  6
CONTINUOUS
 62
    4
 10
1074.8525
 20
1177.5979
 11
1078.2696000000001
 21
1175.3004000000001
  0
LINE
  8
_0-0_LAYER001
  6
CONTINUOUS
 62
    4
 10
1078.2696000000001
 20
1175.3004000000001
 11
1081.9113
 21
1172.7485999999999
  0
LINE
  8
_0-0_LAYER001
  6
CONTINUOUS
 62
    4
 10
1081.9113
 20
1172.7485999999999
 11
1084.1405
 21
1171.1771000000001
  0
LINE
  8
_0-0_LAYER001
  6
CONTINUOUS
 62
    4
 10
1084.1405
 20
1171.1771000000001
 11
1087.665
 21
1168.7257999999999
  0
LINE
  8
_0-0_LAYER001
  6
CONTINUOUS
 62
    4
 10
1087.665
 20
1168.7257999999999
 11
1093.8155999999999
 21
1164.5862999999999
  0
LINE
  8
_0-0_LAYER001
  6
CONTINUOUS
 62
    4
 10
1093.8155999999999
 20
1164.5862999999999
 11
1100.1765
 21
1160.5346
  0
LINE
  8
_0-0_LAYER001
  6
CONTINUOUS
 62
    4
 10
1100.1765
 20
1160.5346
 11
1106.7523000000001
 21
1156.6373000000001
  0
LINE
  8
_0-0_LAYER001
  6
CONTINUOUS
 62
    4
 10
1106.7523000000001
 20
1156.6373000000001
 11
1113.5704000000001
 21
1152.9481000000001
  0
LINE
  8
_0-0_LAYER001
  6
CONTINUOUS
 62
    4
 10
1113.5704000000001
 20
1152.9481000000001
 11
1120.5613000000001
 21
1149.5708999999999
  0
LINE
  8
_0-0_LAYER001
  6
CONTINUOUS
 62
    4
 10
1120.5613000000001
 20
1149.5708999999999
 11
1124.8612000000001
 21
1147.7063000000001
  0
LINE
  8
_0-0_LAYER001
  6
CONTINUOUS
 62
    4
 10
1124.8612000000001
 20
1147.7063000000001
 11
1128.4867999999999
 21
1146.2589
  0
LINE
  8
_0-0_LAYER001
  6
CONTINUOUS
 62
    4
 10
1128.4867999999999
 20
1146.2589
 11
1134.5739000000001
 21
1144.0817
  0
LINE
  8
_0-0_LAYER001
  6
CONTINUOUS
 62
    4
 10
1134.5739000000001
 20
1144.0817
 11
1140.8512000000001
 21
1142.1582000000001
  0
LINE
  8
_0-0_LAYER001
  6
CONTINUOUS
 62
    4
 10
1140.8512000000001
 20
1142.1582000000001
 11
1147.2234000000001
 21
1140.5255999999999
  0
LINE
  8
_0-0_LAYER001
  6
CONTINUOUS
 62
    4
 10
1147.2234000000001
 20
1140.5255999999999
 11
1153.6768999999999
 21
1139.1927000000001
  0
LINE
  8
_0-0_LAYER001
  6
CONTINUOUS
 62
    4
 10
1153.6768999999999
 20
1139.1927000000001
 11
1160.1052999999999
 21
1138.1835000000001
  0
LINE
  8
_0-0_LAYER001
  6
CONTINUOUS
 62
    4
 10
1160.1052999999999
 20
1138.1835000000001
 11
1163.9708000000001
 21
1137.7286999999999
  0
LINE
  8
_0-0_LAYER001
  6
CONTINUOUS
 62
    4
 10
1163.9708000000001
 20
1137.7286999999999
 11
1166.9695999999999
 21
1137.4521999999999
  0
LINE
  8
_0-0_LAYER001
  6
CONTINUOUS
 62
    4
 10
1166.9695999999999
 20
1137.4521999999999
 11
1171.8669
 21
1137.1383000000001
  0
LINE
  8
_0-0_LAYER001
  6
CONTINUOUS
 62
    4
 10
1171.8669
 20
1137.1383000000001
 11
1176.7771
 21
1136.9824000000001
  0
LINE
  8
_0-0_LAYER001
  6
CONTINUOUS
 62
    4
 10
1176.7771
 20
1136.9824000000001
 11
1181.6251
 21
1136.9672
  0
LINE
  8
_0-0_LAYER001
  6
CONTINUOUS
 62
    4
 10
1181.6251
 20
1136.9672
 11
1186.4079999999999
 21
1137.0716
  0
LINE
  8
_0-0_LAYER001
  6
CONTINUOUS
 62
    4
 10
1186.4079999999999
 20
1137.0716
 11
1191.0933
 21
1137.2739999999999
  0
LINE
  8
_0-0_LAYER001
  6
CONTINUOUS
 62
    4
 10
1191.0933
 20
1137.2739999999999
 11
1193.8685
 21
1137.434
  0
LINE
  8
_0-0_LAYER001
  6
CONTINUOUS
 62
    4
 10
1193.8685
 20
1137.434
 11
1198.8964000000001
 21
1137.7897
  0
LINE
  8
_0-0_LAYER001
  6
CONTINUOUS
 62
    4
 10
1198.8964000000001
 20
1137.7897
 11
1207.4124999999999
 21
1138.5697
  0
LINE
  8
_0-0_LAYER001
  6
CONTINUOUS
 62
    4
 10
1207.4124999999999
 20
1138.5697
 11
1215.8846000000001
 21
1139.5385000000001
  0
LINE
  8
_0-0_LAYER001
  6
CONTINUOUS
 62
    4
 10
1215.8846000000001
 20
1139.5385000000001
 11
1224.2612999999999
 21
1140.6505999999999
  0
LINE
  8
_0-0_LAYER001
  6
CONTINUOUS
 62
    4
 10
1224.2612999999999
 20
1140.6505999999999
 11
1232.5458000000001
 21
1141.8670999999999
  0
LINE
  8
_0-0_LAYER001
  6
CONTINUOUS
 62
    4
 10
1232.5458000000001
 20
1141.8670999999999
 11
1240.7364
 21
1143.1487999999999
  0
LINE
  8
_0-0_LAYER001
  6
CONTINUOUS
 62
    4
 10
1240.7364
 20
1143.1487999999999
 11
1245.4634000000001
 21
1143.9103
  0
LINE
  8
_0-0_LAYER001
  6
CONTINUOUS
 62
    4
 10
1245.4634000000001
 20
1143.9103
 11
1247.9133999999999
 21
1144.3085000000001
  0
LINE
  8
_0-0_LAYER001
  6
CONTINUOUS
 62
    4
 10
1247.9133999999999
 20
1144.3085000000001
 11
1252.1183000000001
 21
1144.9957999999999
  0
LINE
  8
_0-0_LAYER001
  6
CONTINUOUS
 62
    4
 10
1252.1183000000001
 20
1144.9957999999999
 11
1256.3206
 21
1145.6869999999999
  0
LINE
  8
_0-0_LAYER001
  6
CONTINUOUS
 62
    4
 10
1256.3206
 20
1145.6869999999999
 11
1260.5181
 21
1146.3807999999999
  0
LINE
  8
_0-0_LAYER001
  6
CONTINUOUS
 62
    4
 10
1260.5181
 20
1146.3807999999999
 11
1264.711
 21
1147.0762
  0
LINE
  8
_0-0_LAYER001
  6
CONTINUOUS
 62
    4
 10
1264.711
 20
1147.0762
 11
1268.8996
 21
1147.7724000000001
  0
LINE
  8
_0-0_LAYER001
  6
CONTINUOUS
 62
    4
 10
1268.8996
 20
1147.7724000000001
 11
1270.5137
 21
1148.0408
  0
ARC
  8
_0-0_LAYER001
  6
CONTINUOUS
 62
    4
 10
1304.7492999999999
 20
1173.838
 40
3
 50
103.0288
 51
179.49999999999997
  0
LINE
  8
_0-0_LAYER001
  6
CONTINUOUS
 62
    4
 10
1016.8230000000001
 20
1167.8634
 11
1023.2153000000001
 21
1170.3853999999999
  0
ARC
  8
_0-0_LAYER001
  6
CONTINUOUS
 62
    4
 10
1016.4559999999999
 20
1168.7936
 40
1
 50
179.5
 51
291.53165999999999
  0
LINE
  8
_0-0_LAYER001
  6
CONTINUOUS
 62
    4
 10
1309.3133
 20
1177.9734000000001
 11
1304.0730000000003
 21
1176.7608
  0
ARC
  8
_0-0_LAYER001
  6
CONTINUOUS
 62
    4
 10
1309.5387000000001
 20
1176.9991
 40
1
 50
359.50000000000006
 51
103.02880000000002
  0
LINE
  8
_0-0_LAYER001
  6
CONTINUOUS
 62
    4
 10
1271.6983
 20
1146.3028999999999
 11
1302.0120999999999
 21
1153.3969999999999
  0
ARC
  8
_0-0_LAYER001
  6
CONTINUOUS
 62
    4
 10
1309.3529000000001
 20
1155.7062000000001
 40
1
 50
359.50000000000006
 51
103.08296000000006
  0
LINE
  8
_0-0_LAYER001
  6
CONTINUOUS
 62
    4
 10
1302.7931000000001
 20
1155.2084
 11
1309.1265000000001
 21
1156.6803
  0
LINE
  8
_0-0_LAYER001
  6
CONTINUOUS
 62
    4
 10
1302.0195000000001
 20
1154.2430999999999
 11
1302.0120999999999
 21
1153.3969999999999
  0
ARC
  8
_0-0_LAYER001
  6
CONTINUOUS
 62
    4
 10
1303.0194000000001
 20
1154.2344000000001
 40
1
 50
103.08296000000001
 51
179.50000000000003
  0
ARC
  8
_0-0_LAYER001
  6
CONTINUOUS
 62
    4
 10
1309.3728000000001
 20
1157.9893999999999
 40
1
 50
283.04496999999998
 51
359.5
  0
LINE
  8
_0-0_LAYER001
  6
CONTINUOUS
 62
    4
 10
1269.2275999999999
 20
1145.7994000000001
 11
1271.6558
 21
1146.2032999999999
  0
LINE
  8
_0-0_LAYER001
  6
CONTINUOUS
 62
    4
 10
1265.0386000000001
 20
1145.1032
 11
1269.2275999999999
 21
1145.7994000000001
  0
LINE
  8
_0-0_LAYER001
  6
CONTINUOUS
 62
    4
 10
1260.8448000000001
 20
1144.4076
 11
1265.0386000000001
 21
1145.1032
  0
LINE
  8
_0-0_LAYER001
  6
CONTINUOUS
 62
    4
 10
1256.646
 20
1143.7137
 11
1260.8448000000001
 21
1144.4076
  0
LINE
  8
_0-0_LAYER001
  6
CONTINUOUS
 62
    4
 10
1252.442
 20
1143.0222000000001
 11
1256.646
 21
1143.7137
  0
LINE
  8
_0-0_LAYER001
  6
CONTINUOUS
 62
    4
 10
1248.2351000000001
 20
1142.3344999999999
 11
1252.442
 21
1143.0222000000001
  0
LINE
  8
_0-0_LAYER001
  6
CONTINUOUS
 62
    4
 10
1245.7828
 20
1141.9359999999999
 11
1248.2351000000001
 21
1142.3344999999999
  0
LINE
  8
_0-0_LAYER001
  6
CONTINUOUS
 62
    4
 10
1241.0500999999999
 20
1141.1736000000001
 11
1245.7828
 21
1141.9359999999999
  0
LINE
  8
_0-0_LAYER001
  6
CONTINUOUS
 62
    4
 10
1232.8457000000001
 20
1139.8896999999999
 11
1241.0500999999999
 21
1141.1736000000001
  0
LINE
  8
_0-0_LAYER001
  6
CONTINUOUS
 62
    4
 10
1224.5382
 20
1138.6699000000001
 11
1232.8457000000001
 21
1139.8896999999999
  0
LINE
  8
_0-0_LAYER001
  6
CONTINUOUS
 62
    4
 10
1216.1298999999999
 20
1137.5535
 11
1224.5382
 21
1138.6699000000001
  0
LINE
  8
_0-0_LAYER001
  6
CONTINUOUS
 62
    4
 10
1207.6172999999999
 20
1136.5800999999999
 11
1216.1298999999999
 21
1137.5535
  0
LINE
  8
_0-0_LAYER001
  6
CONTINUOUS
 62
    4
 10
1199.0581999999999
 20
1135.7961
 11
1207.6172999999999
 21
1136.5800999999999
  0
LINE
  8
_0-0_LAYER001
  6
CONTINUOUS
 62
    4
 10
1193.9965999999999
 20
1135.4381000000001
 11
1199.0581999999999
 21
1135.7961
  0
LINE
  8
_0-0_LAYER001
  6
CONTINUOUS
 62
    4
 10
1191.1940999999999
 20
1135.2764999999999
 11
1193.9965999999999
 21
1135.4381000000001
  0
LINE
  8
_0-0_LAYER001
  6
CONTINUOUS
 62
    4
 10
1186.473
 20
1135.0725
 11
1191.1940999999999
 21
1135.2764999999999
  0
LINE
  8
_0-0_LAYER001
  6
CONTINUOUS
 62
    4
 10
1181.6438000000001
 20
1134.9671000000001
 11
1186.473
 21
1135.0725
  0
LINE
  8
_0-0_LAYER001
  6
CONTINUOUS
 62
    4
 10
1176.7421999999999
 20
1134.9825000000001
 11
1181.6438000000001
 21
1134.9671000000001
  0
LINE
  8
_0-0_LAYER001
  6
CONTINUOUS
 62
    4
 10
1171.7710999999999
 20
1135.1403
 11
1176.7421999999999
 21
1134.9825000000001
  0
LINE
  8
_0-0_LAYER001
  6
CONTINUOUS
 62
    4
 10
1166.8137999999999
 20
1135.4581000000001
 11
1171.7710999999999
 21
1135.1403
  0
LINE
  8
_0-0_LAYER001
  6
CONTINUOUS
 62
    4
 10
1163.7620999999999
 20
1135.7394999999999
 11
1166.8137999999999
 21
1135.4581000000001
  0
LINE
  8
_0-0_LAYER001
  6
CONTINUOUS
 62
    4
 10
1159.8332
 20
1136.2018
 11
1163.7620999999999
 21
1135.7394999999999
  0
LINE
  8
_0-0_LAYER001
  6
CONTINUOUS
 62
    4
 10
1153.3193000000001
 20
1137.2243000000001
 11
1159.8332
 21
1136.2018
  0
LINE
  8
_0-0_LAYER001
  6
CONTINUOUS
 62
    4
 10
1146.7727
 20
1138.5763999999999
 11
1153.3193000000001
 21
1137.2243000000001
  0
LINE
  8
_0-0_LAYER001
  6
CONTINUOUS
 62
    4
 10
1140.3097
 20
1140.2322999999999
 11
1146.7727
 21
1138.5763999999999
  0
LINE
  8
_0-0_LAYER001
  6
CONTINUOUS
 62
    4
 10
1133.9438
 20
1142.183
 11
1140.3097
 21
1140.2322999999999
  0
LINE
  8
_0-0_LAYER001
  6
CONTINUOUS
 62
    4
 10
1127.779
 20
1144.3879999999999
 11
1133.9438
 21
1142.183
  0
LINE
  8
_0-0_LAYER001
  6
CONTINUOUS
 62
    4
 10
1124.0924
 20
1145.8597
 11
1127.779
 21
1144.3879999999999
  0
LINE
  8
_0-0_LAYER001
  6
CONTINUOUS
 62
    4
 10
1119.7281
 20
1147.7523000000001
 11
1124.0924
 21
1145.8597
  0
LINE
  8
_0-0_LAYER001
  6
CONTINUOUS
 62
    4
 10
1112.6591000000001
 20
1151.1672000000001
 11
1119.7281
 21
1147.7523000000001
  0
LINE
  8
_0-0_LAYER001
  6
CONTINUOUS
 62
    4
 10
1105.7662
 20
1154.8969
 11
1112.6591000000001
 21
1151.1672000000001
  0
LINE
  8
_0-0_LAYER001
  6
CONTINUOUS
 62
    4
 10
1099.1292000000001
 20
1158.8305
 11
1105.7662
 21
1154.8969
  0
LINE
  8
_0-0_LAYER001
  6
CONTINUOUS
 62
    4
 10
1092.7198000000001
 20
1162.913
 11
1099.1292000000001
 21
1158.8305
  0
LINE
  8
_0-0_LAYER001
  6
CONTINUOUS
 62
    4
 10
1086.5355999999999
 20
1167.0751
 11
1092.7198000000001
 21
1162.913
  0
LINE
  8
_0-0_LAYER001
  6
CONTINUOUS
 62
    4
 10
1082.9933000000001
 20
1169.5388
 11
1086.5355999999999
 21
1167.0751
  0
LINE
  8
_0-0_LAYER001
  6
CONTINUOUS
 62
    4
 10
1080.7612999999999
 20
1171.1123
 11
1082.9933000000001
 21
1169.5388
  0
LINE
  8
_0-0_LAYER001
  6
CONTINUOUS
 62
    4
 10
1077.1377
 20
1173.6514999999999
 11
1080.7612999999999
 21
1171.1123
  0
LINE
  8
_0-0_LAYER001
  6
CONTINUOUS
 62
    4
 10
1073.7681
 20
1175.9169999999999
 11
1077.1377
 21
1173.6514999999999
  0
LINE
  8
_0-0_LAYER001
  6
CONTINUOUS
 62
    4
 10
1070.6531
 20
1177.8440000000001
 11
1073.7681
 21
1175.9169999999999
  0
LINE
  8
_0-0_LAYER001
  6
CONTINUOUS
 62
    4
 10
1067.7859000000001
 20
1179.3997999999999
 11
1070.6531
 21
1177.8440000000001
  0
LINE
  8
_0-0_LAYER001
  6
CONTINUOUS
 62
    4
 10
1064.9548
 20
1180.6682000000001
 11
1067.7859000000001
 21
1179.3997999999999
  0
LINE
  8
_0-0_LAYER001
  6
CONTINUOUS
 62
    4
 10
1063.4915000000001
 20
1181.2003999999999
 11
1064.9548
 21
1180.6682000000001
  0
LINE
  8
_0-0_LAYER001
  6
CONTINUOUS
 62
    4
 10
1063.3104000000001
 20
1181.2583
 11
1063.4915000000001
 21
1181.2003999999999
  0
LINE
  8
_0-0_LAYER001
  6
CONTINUOUS
 62
    4
 10
1062.5222000000001
 20
1181.4863
 11
1063.3104000000001
 21
1181.2583
  0
LINE
  8
_0-0_LAYER001
  6
CONTINUOUS
 62
    4
 10
1061.865
 20
1181.6489999999999
 11
1062.5222000000001
 21
1181.4863
  0
LINE
  8
_0-0_LAYER001
  6
CONTINUOUS
 62
    4
 10
1061.2832000000001
 20
1181.7670000000001
 11
1061.865
 21
1181.6489999999999
  0
LINE
  8
_0-0_LAYER001
  6
CONTINUOUS
 62
    4
 10
1061.2431999999999
 20
1181.7732000000001
 11
1061.2832000000001
 21
1181.7670000000001
  0
LINE
  8
_0-0_LAYER001
  6
CONTINUOUS
 62
    4
 10
1265.2170000000001
 20
1126.6120000000001
 11
1266.8311000000001
 21
1126.8804
  0
LINE
  8
_0-0_LAYER001
  6
CONTINUOUS
 62
    4
 10
1261.0283999999999
 20
1125.9158
 11
1265.2170000000001
 21
1126.6120000000001
  0
LINE
  8
_0-0_LAYER001
  6
CONTINUOUS
 62
    4
 10
1256.8354999999999
 20
1125.2203999999999
 11
1261.0283999999999
 21
1125.9158
  0
LINE
  8
_0-0_LAYER001
  6
CONTINUOUS
 62
    4
 10
1252.6380999999999
 20
1124.5265999999999
 11
1256.8354999999999
 21
1125.2203999999999
  0
LINE
  8
_0-0_LAYER001
  6
CONTINUOUS
 62
    4
 10
1248.4358
 20
1123.8353999999999
 11
1252.6380999999999
 21
1124.5265999999999
  0
LINE
  8
_0-0_LAYER001
  6
CONTINUOUS
 62
    4
 10
1244.2308
 20
1123.1481000000001
 11
1248.4358
 21
1123.8353999999999
  0
LINE
  8
_0-0_LAYER001
  6
CONTINUOUS
 62
    4
 10
1241.7808
 20
1122.7499
 11
1244.2308
 21
1123.1481000000001
  0
LINE
  8
_0-0_LAYER001
  6
CONTINUOUS
 62
    4
 10
1237.0537999999999
 20
1121.9884
 11
1241.7808
 21
1122.7499
  0
LINE
  8
_0-0_LAYER001
  6
CONTINUOUS
 62
    4
 10
1228.8632
 20
1120.7067
 11
1237.0537999999999
 21
1121.9884
  0
LINE
  8
_0-0_LAYER001
  6
CONTINUOUS
 62
    4
 10
1220.5787
 20
1119.4902
 11
1228.8632
 21
1120.7067
  0
LINE
  8
_0-0_LAYER001
  6
CONTINUOUS
 62
    4
 10
1212.2021
 20
1118.3780999999999
 11
1220.5787
 21
1119.4902
  0
LINE
  8
_0-0_LAYER001
  6
CONTINUOUS
 62
    4
 10
1203.7299
 20
1117.4093
 11
1212.2021
 21
1118.3780999999999
  0
LINE
  8
_0-0_LAYER001
  6
CONTINUOUS
 62
    4
 10
1195.2138
 20
1116.6293000000001
 11
1203.7299
 21
1117.4093
  0
LINE
  8
_0-0_LAYER001
  6
CONTINUOUS
 62
    4
 10
1190.1858999999999
 20
1116.2736
 11
1195.2138
 21
1116.6293000000001
  0
LINE
  8
_0-0_LAYER001
  6
CONTINUOUS
 62
    4
 10
1187.4106999999999
 20
1116.1135999999999
 11
1190.1858999999999
 21
1116.2736
  0
LINE
  8
_0-0_LAYER001
  6
CONTINUOUS
 62
    4
 10
1182.7254
 20
1115.9112
 11
1187.4106999999999
 21
1116.1135999999999
  0
LINE
  8
_0-0_LAYER001
  6
CONTINUOUS
 62
    4
 10
1177.9425000000001
 20
1115.8068000000001
 11
1182.7254
 21
1115.9112
  0
LINE
  8
_0-0_LAYER001
  6
CONTINUOUS
 62
    4
 10
1173.0944999999999
 20
1115.8219999999999
 11
1177.9425000000001
 21
1115.8068000000001
  0
LINE
  8
_0-0_LAYER001
  6
CONTINUOUS
 62
    4
 10
1168.1842999999999
 20
1115.9779000000001
 11
1173.0944999999999
 21
1115.8219999999999
  0
LINE
  8
_0-0_LAYER001
  6
CONTINUOUS
 62
    4
 10
1163.287
 20
1116.2918
 11
1168.1842999999999
 21
1115.9779000000001
  0
LINE
  8
_0-0_LAYER001
  6
CONTINUOUS
 62
    4
 10
1160.2882
 20
1116.5682999999999
 11
1163.287
 21
1116.2918
  0
LINE
  8
_0-0_LAYER001
  6
CONTINUOUS
 62
    4
 10
1156.4227000000001
 20
1117.0231000000001
 11
1160.2882
 21
1116.5682999999999
  0
LINE
  8
_0-0_LAYER001
  6
CONTINUOUS
 62
    4
 10
1149.9943000000001
 20
1118.0323000000001
 11
1156.4227000000001
 21
1117.0231000000001
  0
LINE
  8
_0-0_LAYER001
  6
CONTINUOUS
 62
    4
 10
1143.5408
 20
1119.3652
 11
1149.9943000000001
 21
1118.0323000000001
  0
LINE
  8
_0-0_LAYER001
  6
CONTINUOUS
 62
    4
 10
1137.1686
 20
1120.9978000000001
 11
1143.5408
 21
1119.3652
  0
LINE
  8
_0-0_LAYER001
  6
CONTINUOUS
 62
    4
 10
1130.8913
 20
1122.9213
 11
1137.1686
 21
1120.9978000000001
  0
LINE
  8
_0-0_LAYER001
  6
CONTINUOUS
 62
    4
 10
1124.8042
 20
1125.0985000000001
 11
1130.8913
 21
1122.9213
  0
LINE
  8
_0-0_LAYER001
  6
CONTINUOUS
 62
    4
 10
1121.1786
 20
1126.5459000000001
 11
1124.8042
 21
1125.0985000000001
  0
LINE
  8
_0-0_LAYER001
  6
CONTINUOUS
 62
    4
 10
1116.8787
 20
1128.4105
 11
1121.1786
 21
1126.5459000000001
  0
LINE
  8
_0-0_LAYER001
  6
CONTINUOUS
 62
    4
 10
1109.8878
 20
1131.7877000000001
 11
1116.8787
 21
1128.4105
  0
LINE
  8
_0-0_LAYER001
  6
CONTINUOUS
 62
    4
 10
1103.0697
 20
1135.4768999999999
 11
1109.8878
 21
1131.7877000000001
  0
LINE
  8
_0-0_LAYER001
  6
CONTINUOUS
 62
    4
 10
1096.4939999999999
 20
1139.3742
 11
1103.0697
 21
1135.4768999999999
  0
LINE
  8
_0-0_LAYER001
  6
CONTINUOUS
 62
    4
 10
1090.133
 20
1143.4259
 11
1096.4939999999999
 21
1139.3742
  0
LINE
  8
_0-0_LAYER001
  6
CONTINUOUS
 62
    4
 10
1083.9824000000001
 20
1147.5654
 11
1090.133
 21
1143.4259
  0
LINE
  8
_0-0_LAYER001
  6
CONTINUOUS
 62
    4
 10
1080.4579000000001
 20
1150.0166999999999
 11
1083.9824000000001
 21
1147.5654
  0
LINE
  8
_0-0_LAYER001
  6
CONTINUOUS
 62
    4
 10
1078.2288000000001
 20
1151.5881999999999
 11
1080.4579000000001
 21
1150.0166999999999
  0
LINE
  8
_0-0_LAYER001
  6
CONTINUOUS
 62
    4
 10
1074.5871
 20
1154.1400000000001
 11
1078.2288000000001
 21
1151.5881999999999
  0
LINE
  8
_0-0_LAYER001
  6
CONTINUOUS
 62
    4
 10
1071.1699000000001
 20
1156.4375
 11
1074.5871
 21
1154.1400000000001
  0
LINE
  8
_0-0_LAYER001
  6
CONTINUOUS
 62
    4
 10
1067.9743000000001
 20
1158.4143999999999
 11
1071.1699000000001
 21
1156.4375
  0
LINE
  8
_0-0_LAYER001
  6
CONTINUOUS
 62
    4
 10
1064.9903999999999
 20
1160.0335
 11
1067.9743000000001
 21
1158.4143999999999
  0
LINE
  8
_0-0_LAYER001
  6
CONTINUOUS
 62
    4
 10
1062.0237999999999
 20
1161.3625999999999
 11
1064.9903999999999
 21
1160.0335
  0
LINE
  8
_0-0_LAYER001
  6
CONTINUOUS
 62
    4
 10
1061.2737999999999
 20
1161.6353999999999
 11
1062.0237999999999
 21
1161.3625999999999
  0
LINE
  8
_0-0_LAYER001
  6
CONTINUOUS
 62
    4
 10
1061.6069
 20
1181.6785
 11
1061.4309000000001
 21
1161.5051000000001
  0
LINE
  8
_0-0_LAYER001
  6
CONTINUOUS
 62
    4
 10
1309.421
 20
1136.6668999999999
 11
1266.6007999999999
 21
1126.7456999999999
  0
ARC
  8
_0-0_LAYER001
  6
CONTINUOUS
 62
    4
 10
1309.1953000000001
 20
1137.6411000000001
 40
1
 50
283.04496999999998
 51
359.5
  0
LINE
  8
_0-0_LAYER001
  6
CONTINUOUS
 62
    4
 10
1262.1098999999999
 20
1116.4322
 11
1259.8644999999999
 21
1125.0056
  0
ARC
  8
_0-0_LAYER001
  6
CONTINUOUS
 62
    4
 10
1265.0119999999999
 20
1117.1922
 40
3
 50
194.67639000000003
 51
270.00000000000006
  0
LINE
  8
_0-0_LAYER001
  6
CONTINUOUS
 62
    4
 10
1268.4297999999999
 20
1114.1922
 11
1265.0119999999999
 21
1114.1922
  0
LINE
  8
_0-0_LAYER001
  6
CONTINUOUS
 62
    4
 10
1271.3889999999999
 20
1116.6990000000001
 11
1273.3231000000001
 21
1128.3032000000001
  0
ARC
  8
_0-0_LAYER001
  6
CONTINUOUS
 62
    4
 10
1268.4297999999999
 20
1117.1922
 40
3
 50
270
 51
350.53766999999999
  0
LINE
  8
_0-0_LAYER001
  6
CONTINUOUS
 62
    4
 10
1015.5228999999999
 20
1185.3405
 11
1015.5228999999999
 21
1168.808
  0
LINE
  8
_0-0_LAYER001
  6
CONTINUOUS
 62
    4
 10
1016.7818
 20
1187.1981000000001
 11
1017.9068
 21
1187.6469
  0
ARC
  8
_0-0_LAYER001
  6
CONTINUOUS
 62
    4
 10
1017.5228999999999
 20
1185.3405
 40
2
 50
111.74902000000002
 51
180
  0
LINE
  8
_0-0_LAYER001
  6
CONTINUOUS
 62
    4
 10
1309.5985999999998
 20
1157.0152
 11
1270.5228999999999
 21
1147.9616000000001
  0
LINE
  8
_0-0_LAYER001
  6
CONTINUOUS
 62
    4
 10
1270.5228999999999
 20
1166.4384
 11
1270.5228999999999
 21
1147.9616000000001
  0
LINE
  8
_0-0_LAYER001
  6
CONTINUOUS
 62
    4
 10
1268.4985999999999
 20
1165.9694
 11
1301.7478000000001
 21
1173.6731
  0
LINE
  8
_0-0_LAYER001
  6
CONTINUOUS
 62
    4
 10
1310.4593
 20
1177.0472
 11
1310.4593
 21
1157.9671000000001
  0
LINE
  8
_0-0_LAYER001
  6
CONTINUOUS
 62
    4
 10
1310.5666999999999
 20
1155.9802
 11
1310.5666999999999
 21
1137.809
  0
LINE
  8
_0-0_LAYER001
  6
CONTINUOUS
 62
    4
 10
1392.5326999999997
 20
1106.894
 11
1383.9972
 21
1121.4273000000001
  0
LINE
  8
_0-0_LAYER001
  6
CONTINUOUS
 62
    4
 10
1400.7004999999999
 20
1106.2437
 11
1409.0066999999999
 21
1116.3091999999999
  0
ARC
  8
_0-0_LAYER001
  6
CONTINUOUS
 62
    4
 10
1396.8441000000003
 20
1109.4260999999999
 40
5
 50
210.42578
 51
320.47001
  0
LINE
  8
_0-0_LAYER001
  6
CONTINUOUS
 62
    4
 10
1476.6460999999999
 20
1105.7737999999999
 11
1469.3208
 21
1117.0799
  0
LINE
  8
_0-0_LAYER001
  6
CONTINUOUS
 62
    4
 10
1485.1556999999998
 20
1105.9638
 11
1494.0940999999998
 21
1121.2094
  0
ARC
  8
_0-0_LAYER001
  6
CONTINUOUS
 62
    4
 10
1480.8424
 20
1108.4926
 40
5
 50
212.93986000000001
 51
329.61716000000001
  0
ARC
  8
_0-0_LAYER001
  6
CONTINUOUS
 62
    4
 10
1559.9594000000002
 20
1173.5599999999999
 40
3
 50
103.0288
 51
179.49999999999997
  0
LINE
  8
_0-0_LAYER001
  6
CONTINUOUS
 62
    4
 10
1272.0331000000001
 20
1167.5853
 11
1278.4253000000001
 21
1170.1074000000001
  0
ARC
  8
_0-0_LAYER001
  6
CONTINUOUS
 62
    4
 10
1271.6660999999999
 20
1168.5155999999999
 40
1
 50
179.5
 51
291.53165999999999
  0
LINE
  8
_0-0_LAYER001
  6
CONTINUOUS
 62
    4
 10
1564.5234
 20
1177.6953000000001
 11
1559.2831000000001
 21
1176.4827
  0
ARC
  8
_0-0_LAYER001
  6
CONTINUOUS
 62
    4
 10
1564.7487999999998
 20
1176.7211
 40
1
 50
359.50000000000006
 51
103.02880000000002
  0
LINE
  8
_0-0_LAYER001
  6
CONTINUOUS
 62
    4
 10
1526.9083999999998
 20
1146.0248999999999
 11
1557.2222000000002
 21
1153.1188999999999
  0
ARC
  8
_0-0_LAYER001
  6
CONTINUOUS
 62
    4
 10
1564.5630000000001
 20
1155.4282000000001
 40
1
 50
359.50000000000006
 51
103.08296000000006
  0
LINE
  8
_0-0_LAYER001
  6
CONTINUOUS
 62
    4
 10
1558.0032000000001
 20
1154.9304
 11
1564.3366000000001
 21
1156.4022
  0
LINE
  8
_0-0_LAYER001
  6
CONTINUOUS
 62
    4
 10
1557.2296000000001
 20
1153.9650999999999
 11
1557.2222000000002
 21
1153.1188999999999
  0
ARC
  8
_0-0_LAYER001
  6
CONTINUOUS
 62
    4
 10
1558.2294999999999
 20
1153.9563000000001
 40
1
 50
103.08296000000001
 51
179.50000000000003
  0
ARC
  8
_0-0_LAYER001
  6
CONTINUOUS
 62
    4
 10
1564.5828999999999
 20
1157.7113999999999
 40
1
 50
283.04496999999998
 51
359.5
  0
LINE
  8
_0-0_LAYER001
  6
CONTINUOUS
 62
    4
 10
1524.4376999999999
 20
1145.5214000000001
 11
1526.8658
 21
1145.9253000000001
  0
LINE
  8
_0-0_LAYER001
  6
CONTINUOUS
 62
    4
 10
1520.2487000000001
 20
1144.8251
 11
1524.4376999999999
 21
1145.5214000000001
  0
LINE
  8
_0-0_LAYER001
  6
CONTINUOUS
 62
    4
 10
1516.0549000000001
 20
1144.1296
 11
1520.2487000000001
 21
1144.8251
  0
LINE
  8
_0-0_LAYER001
  6
CONTINUOUS
 62
    4
 10
1511.8561
 20
1143.4356
 11
1516.0549000000001
 21
1144.1296
  0
LINE
  8
_0-0_LAYER001
  6
CONTINUOUS
 62
    4
 10
1507.6520999999998
 20
1142.7440999999999
 11
1511.8561
 21
1143.4356
  0
LINE
  8
_0-0_LAYER001
  6
CONTINUOUS
 62
    4
 10
1503.4452000000001
 20
1142.0564999999999
 11
1507.6520999999998
 21
1142.7440999999999
  0
LINE
  8
_0-0_LAYER001
  6
CONTINUOUS
 62
    4
 10
1500.9929000000002
 20
1141.6579999999999
 11
1503.4452000000001
 21
1142.0564999999999
  0
LINE
  8
_0-0_LAYER001
  6
CONTINUOUS
 62
    4
 10
1496.2602000000002
 20
1140.8955000000001
 11
1500.9929000000002
 21
1141.6579999999999
  0
LINE
  8
_0-0_LAYER001
  6
CONTINUOUS
 62
    4
 10
1488.0556999999999
 20
1139.6116
 11
1496.2602000000002
 21
1140.8955000000001
  0
LINE
  8
_0-0_LAYER001
  6
CONTINUOUS
 62
    4
 10
1479.7483000000002
 20
1138.3918000000001
 11
1488.0556999999999
 21
1139.6116
  0
LINE
  8
_0-0_LAYER001
  6
CONTINUOUS
 62
    4
 10
1471.3400000000001
 20
1137.2754
 11
1479.7483000000002
 21
1138.3918000000001
  0
LINE
  8
_0-0_LAYER001
  6
CONTINUOUS
 62
    4
 10
1462.8274000000001
 20
1136.3021000000001
 11
1471.3400000000001
 21
1137.2754
  0
LINE
  8
_0-0_LAYER001
  6
CONTINUOUS
 62
    4
 10
1454.2683000000002
 20
1135.5181
 11
1462.8274000000001
 21
1136.3021000000001
  0
LINE
  8
_0-0_LAYER001
  6
CONTINUOUS
 62
    4
 10
1449.2067000000002
 20
1135.1601000000001
 11
1454.2683000000002
 21
1135.5181
  0
LINE
  8
_0-0_LAYER001
  6
CONTINUOUS
 62
    4
 10
1446.4041999999999
 20
1134.9984999999999
 11
1449.2067000000002
 21
1135.1601000000001
  0
LINE
  8
_0-0_LAYER001
  6
CONTINUOUS
 62
    4
 10
1441.6831000000002
 20
1134.7945
 11
1446.4041999999999
 21
1134.9984999999999
  0
LINE
  8
_0-0_LAYER001
  6
CONTINUOUS
 62
    4
 10
1436.8539000000001
 20
1134.6891000000001
 11
1441.6831000000002
 21
1134.7945
  0
LINE
  8
_0-0_LAYER001
  6
CONTINUOUS
 62
    4
 10
1431.9522999999999
 20
1134.7044000000001
 11
1436.8539000000001
 21
1134.6891000000001
  0
LINE
  8
_0-0_LAYER001
  6
CONTINUOUS
 62
    4
 10
1426.9811999999999
 20
1134.8623
 11
1431.9522999999999
 21
1134.7044000000001
  0
LINE
  8
_0-0_LAYER001
  6
CONTINUOUS
 62
    4
 10
1422.0237999999999
 20
1135.1800000000001
 11
1426.9811999999999
 21
1134.8623
  0
LINE
  8
_0-0_LAYER001
  6
CONTINUOUS
 62
    4
 10
1418.9722000000002
 20
1135.4614999999999
 11
1422.0237999999999
 21
1135.1800000000001
  0
LINE
  8
_0-0_LAYER001
  6
CONTINUOUS
 62
    4
 10
1415.0433
 20
1135.9237000000001
 11
1418.9722000000002
 21
1135.4614999999999
  0
LINE
  8
_0-0_LAYER001
  6
CONTINUOUS
 62
    4
 10
1408.5293999999999
 20
1136.9463000000001
 11
1415.0433
 21
1135.9237000000001
  0
LINE
  8
_0-0_LAYER001
  6
CONTINUOUS
 62
    4
 10
1401.9828000000002
 20
1138.2983999999999
 11
1408.5293999999999
 21
1136.9463000000001
  0
LINE
  8
_0-0_LAYER001
  6
CONTINUOUS
 62
    4
 10
1395.5198
 20
1139.9543000000001
 11
1401.9828000000002
 21
1138.2983999999999
  0
LINE
  8
_0-0_LAYER001
  6
CONTINUOUS
 62
    4
 10
1389.1539
 20
1141.905
 11
1395.5198
 21
1139.9543000000001
  0
LINE
  8
_0-0_LAYER001
  6
CONTINUOUS
 62
    4
 10
1382.9891
 20
1144.1098999999999
 11
1389.1539
 21
1141.905
  0
LINE
  8
_0-0_LAYER001
  6
CONTINUOUS
 62
    4
 10
1379.3025
 20
1145.5817
 11
1382.9891
 21
1144.1098999999999
  0
LINE
  8
_0-0_LAYER001
  6
CONTINUOUS
 62
    4
 10
1374.9382000000001
 20
1147.4742000000001
 11
1379.3025
 21
1145.5817
  0
LINE
  8
_0-0_LAYER001
  6
CONTINUOUS
 62
    4
 10
1367.8692000000001
 20
1150.8892000000001
 11
1374.9382000000001
 21
1147.4742000000001
  0
LINE
  8
_0-0_LAYER001
  6
CONTINUOUS
 62
    4
 10
1360.9763
 20
1154.6188
 11
1367.8692000000001
 21
1150.8892000000001
  0
LINE
  8
_0-0_LAYER001
  6
CONTINUOUS
 62
    4
 10
1354.3393000000001
 20
1158.5525
 11
1360.9763
 21
1154.6188
  0
LINE
  8
_0-0_LAYER001
  6
CONTINUOUS
 62
    4
 10
1347.9299000000001
 20
1162.6349
 11
1354.3393000000001
 21
1158.5525
  0
LINE
  8
_0-0_LAYER001
  6
CONTINUOUS
 62
    4
 10
1341.7456999999999
 20
1166.7971
 11
1347.9299000000001
 21
1162.6349
  0
LINE
  8
_0-0_LAYER001
  6
CONTINUOUS
 62
    4
 10
1338.2034000000001
 20
1169.2608
 11
1341.7456999999999
 21
1166.7971
  0
LINE
  8
_0-0_LAYER001
  6
CONTINUOUS
 62
    4
 10
1335.9713999999999
 20
1170.8342
 11
1338.2034000000001
 21
1169.2608
  0
LINE
  8
_0-0_LAYER001
  6
CONTINUOUS
 62
    4
 10
1332.3478
 20
1173.3733999999999
 11
1335.9713999999999
 21
1170.8342
  0
LINE
  8
_0-0_LAYER001
  6
CONTINUOUS
 62
    4
 10
1328.9782
 20
1175.6388999999999
 11
1332.3478
 21
1173.3733999999999
  0
LINE
  8
_0-0_LAYER001
  6
CONTINUOUS
 62
    4
 10
1325.8632
 20
1177.566
 11
1328.9782
 21
1175.6388999999999
  0
LINE
  8
_0-0_LAYER001
  6
CONTINUOUS
 62
    4
 10
1322.9960000000001
 20
1179.1216999999999
 11
1325.8632
 21
1177.566
  0
LINE
  8
_0-0_LAYER001
  6
CONTINUOUS
 62
    4
 10
1320.1648
 20
1180.3902
 11
1322.9960000000001
 21
1179.1216999999999
  0
LINE
  8
_0-0_LAYER001
  6
CONTINUOUS
 62
    4
 10
1318.7015999999999
 20
1180.9223
 11
1320.1648
 21
1180.3902
  0
LINE
  8
_0-0_LAYER001
  6
CONTINUOUS
 62
    4
 10
1318.5205000000001
 20
1180.9802999999999
 11
1318.7015999999999
 21
1180.9223
  0
LINE
  8
_0-0_LAYER001
  6
CONTINUOUS
 62
    4
 10
1317.7322999999999
 20
1181.2082
 11
1318.5205000000001
 21
1180.9802999999999
  0
LINE
  8
_0-0_LAYER001
  6
CONTINUOUS
 62
    4
 10
1317.0751
 20
1181.3708999999999
 11
1317.7322999999999
 21
1181.2082
  0
LINE
  8
_0-0_LAYER001
  6
CONTINUOUS
 62
    4
 10
1316.4933000000001
 20
1181.4889000000001
 11
1317.0751
 21
1181.3708999999999
  0
LINE
  8
_0-0_LAYER001
  6
CONTINUOUS
 62
    4
 10
1316.4533000000001
 20
1181.4951000000001
 11
1316.4933000000001
 21
1181.4889000000001
  0
LINE
  8
_0-0_LAYER001
  6
CONTINUOUS
 62
    4
 10
1520.4270999999999
 20
1126.3339000000001
 11
1522.0412000000001
 21
1126.6024
  0
LINE
  8
_0-0_LAYER001
  6
CONTINUOUS
 62
    4
 10
1516.2384999999999
 20
1125.6377
 11
1520.4270999999999
 21
1126.3339000000001
  0
LINE
  8
_0-0_LAYER001
  6
CONTINUOUS
 62
    4
 10
1512.0455999999999
 20
1124.9422999999999
 11
1516.2384999999999
 21
1125.6377
  0
LINE
  8
_0-0_LAYER001
  6
CONTINUOUS
 62
    4
 10
1507.8481999999999
 20
1124.2485999999999
 11
1512.0455999999999
 21
1124.9422999999999
  0
LINE
  8
_0-0_LAYER001
  6
CONTINUOUS
 62
    4
 10
1503.6459
 20
1123.5573999999999
 11
1507.8481999999999
 21
1124.2485999999999
  0
LINE
  8
_0-0_LAYER001
  6
CONTINUOUS
 62
    4
 10
1499.4409000000001
 20
1122.8699999999999
 11
1503.6459
 21
1123.5573999999999
  0
LINE
  8
_0-0_LAYER001
  6
CONTINUOUS
 62
    4
 10
1496.9908999999998
 20
1122.4719
 11
1499.4409000000001
 21
1122.8699999999999
  0
LINE
  8
_0-0_LAYER001
  6
CONTINUOUS
 62
    4
 10
1492.2638999999999
 20
1121.7103999999999
 11
1496.9908999999998
 21
1122.4719
  0
LINE
  8
_0-0_LAYER001
  6
CONTINUOUS
 62
    4
 10
1484.0733
 20
1120.4286
 11
1492.2638999999999
 21
1121.7103999999999
  0
LINE
  8
_0-0_LAYER001
  6
CONTINUOUS
 62
    4
 10
1475.7887999999998
 20
1119.2121999999999
 11
1484.0733
 21
1120.4286
  0
LINE
  8
_0-0_LAYER001
  6
CONTINUOUS
 62
    4
 10
1467.4122000000002
 20
1118.0999999999999
 11
1475.7887999999998
 21
1119.2121999999999
  0
LINE
  8
_0-0_LAYER001
  6
CONTINUOUS
 62
    4
 10
1458.9400000000001
 20
1117.1313
 11
1467.4122000000002
 21
1118.0999999999999
  0
LINE
  8
_0-0_LAYER001
  6
CONTINUOUS
 62
    4
 10
1450.4238999999998
 20
1116.3512000000001
 11
1458.9400000000001
 21
1117.1313
  0
LINE
  8
_0-0_LAYER001
  6
CONTINUOUS
 62
    4
 10
1445.3960000000002
 20
1115.9956
 11
1450.4238999999998
 21
1116.3512000000001
  0
LINE
  8
_0-0_LAYER001
  6
CONTINUOUS
 62
    4
 10
1442.6208000000001
 20
1115.8356000000001
 11
1445.3960000000002
 21
1115.9956
  0
LINE
  8
_0-0_LAYER001
  6
CONTINUOUS
 62
    4
 10
1437.9355
 20
1115.6332
 11
1442.6208000000001
 21
1115.8356000000001
  0
LINE
  8
_0-0_LAYER001
  6
CONTINUOUS
 62
    4
 10
1433.1525999999999
 20
1115.5287000000001
 11
1437.9355
 21
1115.6332
  0
LINE
  8
_0-0_LAYER001
  6
CONTINUOUS
 62
    4
 10
1428.3045999999999
 20
1115.5438999999999
 11
1433.1525999999999
 21
1115.5287000000001
  0
LINE
  8
_0-0_LAYER001
  6
CONTINUOUS
 62
    4
 10
1423.3943999999999
 20
1115.6999000000001
 11
1428.3045999999999
 21
1115.5438999999999
  0
LINE
  8
_0-0_LAYER001
  6
CONTINUOUS
 62
    4
 10
1418.4971
 20
1116.0137999999999
 11
1423.3943999999999
 21
1115.6999000000001
  0
LINE
  8
_0-0_LAYER001
  6
CONTINUOUS
 62
    4
 10
1415.4982999999997
 20
1116.2902999999999
 11
1418.4971
 21
1116.0137999999999
  0
LINE
  8
_0-0_LAYER001
  6
CONTINUOUS
 62
    4
 10
1411.6328000000001
 20
1116.7451000000001
 11
1415.4982999999997
 21
1116.2902999999999
  0
LINE
  8
_0-0_LAYER001
  6
CONTINUOUS
 62
    4
 10
1405.2044000000001
 20
1117.7542000000001
 11
1411.6328000000001
 21
1116.7451000000001
  0
LINE
  8
_0-0_LAYER001
  6
CONTINUOUS
 62
    4
 10
1398.7509
 20
1119.0871
 11
1405.2044000000001
 21
1117.7542000000001
  0
LINE
  8
_0-0_LAYER001
  6
CONTINUOUS
 62
    4
 10
1392.3786999999998
 20
1120.7197000000001
 11
1398.7509
 21
1119.0871
  0
LINE
  8
_0-0_LAYER001
  6
CONTINUOUS
 62
    4
 10
1386.1014
 20
1122.6433
 11
1392.3786999999998
 21
1120.7197000000001
  0
LINE
  8
_0-0_LAYER001
  6
CONTINUOUS
 62
    4
 10
1380.0143
 20
1124.8205
 11
1386.1014
 21
1122.6433
  0
LINE
  8
_0-0_LAYER001
  6
CONTINUOUS
 62
    4
 10
1376.3887
 20
1126.2679000000001
 11
1380.0143
 21
1124.8205
  0
LINE
  8
_0-0_LAYER001
  6
CONTINUOUS
 62
    4
 10
1372.0888
 20
1128.1324999999999
 11
1376.3887
 21
1126.2679000000001
  0
LINE
  8
_0-0_LAYER001
  6
CONTINUOUS
 62
    4
 10
1365.0979000000002
 20
1131.5097000000001
 11
1372.0888
 21
1128.1324999999999
  0
LINE
  8
_0-0_LAYER001
  6
CONTINUOUS
 62
    4
 10
1358.2798
 20
1135.1987999999999
 11
1365.0979000000002
 21
1131.5097000000001
  0
LINE
  8
_0-0_LAYER001
  6
CONTINUOUS
 62
    4
 10
1351.704
 20
1139.0962
 11
1358.2798
 21
1135.1987999999999
  0
LINE
  8
_0-0_LAYER001
  6
CONTINUOUS
 62
    4
 10
1345.3431
 20
1143.1478
 11
1351.704
 21
1139.0962
  0
LINE
  8
_0-0_LAYER001
  6
CONTINUOUS
 62
    4
 10
1339.1925000000001
 20
1147.2873
 11
1345.3431
 21
1143.1478
  0
LINE
  8
_0-0_LAYER001
  6
CONTINUOUS
 62
    4
 10
1335.6680000000001
 20
1149.7387000000001
 11
1339.1925000000001
 21
1147.2873
  0
LINE
  8
_0-0_LAYER001
  6
CONTINUOUS
 62
    4
 10
1333.4389000000001
 20
1151.3100999999999
 11
1335.6680000000001
 21
1149.7387000000001
  0
LINE
  8
_0-0_LAYER001
  6
CONTINUOUS
 62
    4
 10
1329.7972
 20
1153.8620000000001
 11
1333.4389000000001
 21
1151.3100999999999
  0
LINE
  8
_0-0_LAYER001
  6
CONTINUOUS
 62
    4
 10
1326.3800000000001
 20
1156.1594
 11
1329.7972
 21
1153.8620000000001
  0
LINE
  8
_0-0_LAYER001
  6
CONTINUOUS
 62
    4
 10
1323.1844000000001
 20
1158.1364000000001
 11
1326.3800000000001
 21
1156.1594
  0
LINE
  8
_0-0_LAYER001
  6
CONTINUOUS
 62
    4
 10
1320.2004999999999
 20
1159.7555
 11
1323.1844000000001
 21
1158.1364000000001
  0
LINE
  8
_0-0_LAYER001
  6
CONTINUOUS
 62
    4
 10
1317.2338999999999
 20
1161.0845999999999
 11
1320.2004999999999
 21
1159.7555
  0
LINE
  8
_0-0_LAYER001
  6
CONTINUOUS
 62
    4
 10
1316.4839000000002
 20
1161.3572999999999
 11
1317.2338999999999
 21
1161.0845999999999
  0
LINE
  8
_0-0_LAYER001
  6
CONTINUOUS
 62
    4
 10
1316.817
 20
1181.4005
 11
1316.6410000000001
 21
1161.2270000000001
  0
LINE
  8
_0-0_LAYER001
  6
CONTINUOUS
 62
    4
 10
1564.6311000000001
 20
1136.3888999999999
 11
1521.8108999999999
 21
1126.4675999999999
  0
ARC
  8
_0-0_LAYER001
  6
CONTINUOUS
 62
    4
 10
1564.4054000000001
 20
1137.3631
 40
1
 50
283.04496999999998
 51
359.5
  0
LINE
  8
_0-0_LAYER001
  6
CONTINUOUS
 62
    4
 10
1517.3200000000002
 20
1116.1541
 11
1515.0745999999999
 21
1124.7275999999999
  0
ARC
  8
_0-0_LAYER001
  6
CONTINUOUS
 62
    4
 10
1520.2221
 20
1116.9141999999999
 40
3
 50
194.67639000000003
 51
270.00000000000006
  0
LINE
  8
_0-0_LAYER001
  6
CONTINUOUS
 62
    4
 10
1523.6399000000001
 20
1113.9141999999999
 11
1520.2221
 21
1113.9141999999999
  0
LINE
  8
_0-0_LAYER001
  6
CONTINUOUS
 62
    4
 10
1526.5990999999999
 20
1116.421
 11
1528.5331000000001
 21
1128.0252
  0
ARC
  8
_0-0_LAYER001
  6
CONTINUOUS
 62
    4
 10
1523.6399000000001
 20
1116.9141999999999
 40
3
 50
270
 51
350.53766999999999
  0
LINE
  8
_0-0_LAYER001
  6
CONTINUOUS
 62
    4
 10
1270.7329999999999
 20
1185.0624
 11
1270.7329999999999
 21
1168.53
  0
LINE
  8
_0-0_LAYER001
  6
CONTINUOUS
 62
    4
 10
1271.9919
 20
1186.9201
 11
1273.1169
 21
1187.3688999999999
  0
ARC
  8
_0-0_LAYER001
  6
CONTINUOUS
 62
    4
 10
1272.7329999999999
 20
1185.0624
 40
2
 50
111.74902000000002
 51
180
  0
LINE
  8
_0-0_LAYER001
  6
CONTINUOUS
 62
    4
 10
1564.8085999999998
 20
1156.7372
 11
1525.7330000000002
 21
1147.6835000000001
  0
LINE
  8
_0-0_LAYER001
  6
CONTINUOUS
 62
    4
 10
1525.7330000000002
 20
1166.1604
 11
1525.7330000000002
 21
1147.6835000000001
  0
LINE
  8
_0-0_LAYER001
  6
CONTINUOUS
 62
    4
 10
1565.6694000000002
 20
1176.7691
 11
1565.6694000000002
 21
1157.6890000000001
  0
LINE
  8
_0-0_LAYER001
  6
CONTINUOUS
 62
    4
 10
1565.7768000000001
 20
1155.7021
 11
1565.7768000000001
 21
1137.5309999999999
  0
LINE
  8
_0-0_LAYER001
  6
CONTINUOUS
 62
    4
 10
1527.6828
 20
1187.2616
 11
1528.4866000000002
 21
1187.5936999999999
  0
LINE
  8
_0-0_LAYER001
  6
CONTINUOUS
 62
    4
 10
1528.4866000000002
 20
1187.5936999999999
 11
1531.9920999999999
 21
1189.0441000000001
  0
LINE
  8
_0-0_LAYER001
  6
CONTINUOUS
 62
    4
 10
1531.9920999999999
 20
1189.0441000000001
 11
1535.5046000000002
 21
1190.5041000000001
  0
LINE
  8
_0-0_LAYER001
  6
CONTINUOUS
 62
    4
 10
1535.5046000000002
 20
1190.5041000000001
 11
1539.0286000000001
 21
1191.9794999999999
  0
LINE
  8
_0-0_LAYER001
  6
CONTINUOUS
 62
    4
 10
1539.0286000000001
 20
1191.9794999999999
 11
1542.5686999999998
 21
1193.4765
  0
LINE
  8
_0-0_LAYER001
  6
CONTINUOUS
 62
    4
 10
1542.5686999999998
 20
1193.4765
 11
1546.1293000000001
 21
1195.0011
  0
LINE
  8
_0-0_LAYER001
  6
CONTINUOUS
 62
    4
 10
1546.1293000000001
 20
1195.0011
 11
1548.2055999999998
 21
1195.9003
  0
LINE
  8
_0-0_LAYER001
  6
CONTINUOUS
 62
    4
 10
1548.2055999999998
 20
1195.9003
 11
1550.2579000000001
 21
1196.7941000000001
  0
LINE
  8
_0-0_LAYER001
  6
CONTINUOUS
 62
    4
 10
1550.2579000000001
 20
1196.7941000000001
 11
1553.8186000000001
 21
1198.3081999999999
  0
LINE
  8
_0-0_LAYER001
  6
CONTINUOUS
 62
    4
 10
1553.8186000000001
 20
1198.3081999999999
 11
1557.4092000000001
 21
1199.7044000000001
  0
LINE
  8
_0-0_LAYER001
  6
CONTINUOUS
 62
    4
 10
1557.4092000000001
 20
1199.7044000000001
 11
1561.0319
 21
1200.8853999999999
  0
LINE
  8
_0-0_LAYER001
  6
CONTINUOUS
 62
    4
 10
1561.0319
 20
1200.8853999999999
 11
1564.6885000000002
 21
1201.7538999999999
  0
LINE
  8
_0-0_LAYER001
  6
CONTINUOUS
 62
    4
 10
1564.6885000000002
 20
1201.7538999999999
 11
1568.3811999999998
 21
1202.2126000000001
  0
LINE
  8
_0-0_LAYER001
  6
CONTINUOUS
 62
    4
 10
1568.3811999999998
 20
1202.2126000000001
 11
1570.5403000000001
 21
1202.2526
  0
LINE
  8
_0-0_LAYER001
  6
CONTINUOUS
 62
    4
 10
1570.5403000000001
 20
1202.2526
 11
1571.3910000000001
 21
1202.2179000000001
  0
LINE
  8
_0-0_LAYER001
  6
CONTINUOUS
 62
    4
 10
1571.3910000000001
 20
1202.2179000000001
 11
1572.8600000000001
 21
1202.0934
  0
LINE
  8
_0-0_LAYER001
  6
CONTINUOUS
 62
    4
 10
1572.8600000000001
 20
1202.0934
 11
1574.3281000000002
 21
1201.8927000000001
  0
LINE
  8
_0-0_LAYER001
  6
CONTINUOUS
 62
    4
 10
1574.3281000000002
 20
1201.8927000000001
 11
1575.7910000000002
 21
1201.6224999999999
  0
LINE
  8
_0-0_LAYER001
  6
CONTINUOUS
 62
    4
 10
1575.7910000000002
 20
1201.6224999999999
 11
1577.2442999999998
 21
1201.2895000000001
  0
LINE
  8
_0-0_LAYER001
  6
CONTINUOUS
 62
    4
 10
1577.2442999999998
 20
1201.2895000000001
 11
1578.6835999999998
 21
1200.9003
  0
LINE
  8
_0-0_LAYER001
  6
CONTINUOUS
 62
    4
 10
1578.6835999999998
 20
1200.9003
 11
1579.5102999999999
 21
1200.6515999999999
  0
LINE
  8
_0-0_LAYER001
  6
CONTINUOUS
 62
    4
 10
1579.5102999999999
 20
1200.6515999999999
 11
1582.0371
 21
1199.7823000000001
  0
LINE
  8
_0-0_LAYER001
  6
CONTINUOUS
 62
    4
 10
1582.0371
 20
1199.7823000000001
 11
1586.2547
 21
1197.9802999999999
  0
LINE
  8
_0-0_LAYER001
  6
CONTINUOUS
 62
    4
 10
1586.2547
 20
1197.9802999999999
 11
1590.3271
 21
1195.8617999999999
  0
LINE
  8
_0-0_LAYER001
  6
CONTINUOUS
 62
    4
 10
1590.3271
 20
1195.8617999999999
 11
1594.29
 21
1193.5048999999999
  0
LINE
  8
_0-0_LAYER001
  6
CONTINUOUS
 62
    4
 10
1594.29
 20
1193.5048999999999
 11
1598.1788999999999
 21
1190.9875999999999
  0
LINE
  8
_0-0_LAYER001
  6
CONTINUOUS
 62
    4
 10
1598.1788999999999
 20
1190.9875999999999
 11
1602.0297
 21
1188.3882000000001
  0
LINE
  8
_0-0_LAYER001
  6
CONTINUOUS
 62
    4
 10
1602.0297
 20
1188.3882000000001
 11
1604.2597999999998
 21
1186.8737000000001
  0
LINE
  8
_0-0_LAYER001
  6
CONTINUOUS
 62
    4
 10
1604.2597999999998
 20
1186.8737000000001
 11
1607.6646000000001
 21
1184.5926999999999
  0
LINE
  8
_0-0_LAYER001
  6
CONTINUOUS
 62
    4
 10
1607.6646000000001
 20
1184.5926999999999
 11
1613.5801999999999
 21
1180.7597000000001
  0
LINE
  8
_0-0_LAYER001
  6
CONTINUOUS
 62
    4
 10
1613.5801999999999
 20
1180.7597000000001
 11
1619.5706
 21
1177.0894000000001
  0
LINE
  8
_0-0_LAYER001
  6
CONTINUOUS
 62
    4
 10
1619.5706
 20
1177.0894000000001
 11
1625.6565999999998
 21
1173.6243999999999
  0
LINE
  8
_0-0_LAYER001
  6
CONTINUOUS
 62
    4
 10
1625.6565999999998
 20
1173.6243999999999
 11
1631.8589000000002
 21
1170.4070999999999
  0
LINE
  8
_0-0_LAYER001
  6
CONTINUOUS
 62
    4
 10
1631.8589000000002
 20
1170.4070999999999
 11
1638.1983
 21
1167.48
  0
LINE
  8
_0-0_LAYER001
  6
CONTINUOUS
 62
    4
 10
1638.1983
 20
1167.48
 11
1641.9459999999999
 21
1165.9319
  0
LINE
  8
_0-0_LAYER001
  6
CONTINUOUS
 62
    4
 10
1641.9459999999999
 20
1165.9319
 11
1645.0437000000002
 21
1164.7574999999999
  0
LINE
  8
_0-0_LAYER001
  6
CONTINUOUS
 62
    4
 10
1645.0437000000002
 20
1164.7574999999999
 11
1650.4645
 21
1162.9248
  0
LINE
  8
_0-0_LAYER001
  6
CONTINUOUS
 62
    4
 10
1650.4645
 20
1162.9248
 11
1655.9726000000001
 21
1161.3415
  0
LINE
  8
_0-0_LAYER001
  6
CONTINUOUS
 62
    4
 10
1655.9726000000001
 20
1161.3415
 11
1661.5520000000001
 21
1160.0153
  0
LINE
  8
_0-0_LAYER001
  6
CONTINUOUS
 62
    4
 10
1661.5520000000001
 20
1160.0153
 11
1667.1864
 21
1158.9538
  0
LINE
  8
_0-0_LAYER001
  6
CONTINUOUS
 62
    4
 10
1667.1864
 20
1158.9538
 11
1672.8597
 21
1158.1643999999999
  0
LINE
  8
_0-0_LAYER001
  6
CONTINUOUS
 62
    4
 10
1672.8597
 20
1158.1643999999999
 11
1676.1617000000001
 21
1157.8342
  0
LINE
  8
_0-0_LAYER001
  6
CONTINUOUS
 62
    4
 10
1676.1617000000001
 20
1157.8342
 11
1678.6882000000001
 21
1157.6456000000001
  0
LINE
  8
_0-0_LAYER001
  6
CONTINUOUS
 62
    4
 10
1678.6882000000001
 20
1157.6456000000001
 11
1683.0488
 21
1157.4425000000001
  0
LINE
  8
_0-0_LAYER001
  6
CONTINUOUS
 62
    4
 10
1683.0488
 20
1157.4425000000001
 11
1687.4131000000002
 21
1157.3801000000001
  0
LINE
  8
_0-0_LAYER001
  6
CONTINUOUS
 62
    4
 10
1687.4131000000002
 20
1157.3801000000001
 11
1691.7784999999999
 21
1157.4426000000001
  0
LINE
  8
_0-0_LAYER001
  6
CONTINUOUS
 62
    4
 10
1691.7784999999999
 20
1157.4426000000001
 11
1696.1424000000002
 21
1157.6141
  0
LINE
  8
_0-0_LAYER001
  6
CONTINUOUS
 62
    4
 10
1696.1424000000002
 20
1157.6141
 11
1700.5021000000002
 21
1157.8788
  0
LINE
  8
_0-0_LAYER001
  6
CONTINUOUS
 62
    4
 10
1700.5021000000002
 20
1157.8788
 11
1703.0279
 21
1158.0687
  0
LINE
  8
_0-0_LAYER001
  6
CONTINUOUS
 62
    4
 10
1703.0279
 20
1158.0687
 11
1707.7462
 21
1158.4853000000001
  0
LINE
  8
_0-0_LAYER001
  6
CONTINUOUS
 62
    4
 10
1707.7462
 20
1158.4853000000001
 11
1715.8604999999998
 21
1159.3715999999999
  0
LINE
  8
_0-0_LAYER001
  6
CONTINUOUS
 62
    4
 10
1715.8604999999998
 20
1159.3715999999999
 11
1723.9517000000001
 21
1160.4401
  0
LINE
  8
_0-0_LAYER001
  6
CONTINUOUS
 62
    4
 10
1723.9517000000001
 20
1160.4401
 11
1732.0232999999998
 21
1161.6555000000001
  0
LINE
  8
_0-0_LAYER001
  6
CONTINUOUS
 62
    4
 10
1732.0232999999998
 20
1161.6555000000001
 11
1740.0790999999999
 21
1162.9824000000001
  0
LINE
  8
_0-0_LAYER001
  6
CONTINUOUS
 62
    4
 10
1740.0790999999999
 20
1162.9824000000001
 11
1748.1224999999999
 21
1164.3852999999999
  0
LINE
  8
_0-0_LAYER001
  6
CONTINUOUS
 62
    4
 10
1748.1224999999999
 20
1164.3852999999999
 11
1752.7835
 21
1165.2199000000001
  0
LINE
  8
_0-0_LAYER001
  6
CONTINUOUS
 62
    4
 10
1752.7835
 20
1165.2199000000001
 11
1755.2058999999999
 21
1165.6570999999999
  0
LINE
  8
_0-0_LAYER001
  6
CONTINUOUS
 62
    4
 10
1755.2058999999999
 20
1165.6570999999999
 11
1759.3811000000001
 21
1166.4146000000001
  0
LINE
  8
_0-0_LAYER001
  6
CONTINUOUS
 62
    4
 10
1759.3811000000001
 20
1166.4146000000001
 11
1763.5549999999998
 21
1167.1762000000001
  0
LINE
  8
_0-0_LAYER001
  6
CONTINUOUS
 62
    4
 10
1763.5549999999998
 20
1167.1762000000001
 11
1767.7278999999999
 21
1167.9409000000001
  0
LINE
  8
_0-0_LAYER001
  6
CONTINUOUS
 62
    4
 10
1767.7278999999999
 20
1167.9409000000001
 11
1771.9000000000001
 21
1168.7079000000001
  0
LINE
  8
_0-0_LAYER001
  6
CONTINUOUS
 62
    4
 10
1771.9000000000001
 20
1168.7079000000001
 11
1776.0717
 21
1169.4763
  0
LINE
  8
_0-0_LAYER001
  6
CONTINUOUS
 62
    4
 10
1776.0717
 20
1169.4763
 11
1778.4911999999999
 21
1169.9223
  0
LINE
  8
_0-0_LAYER001
  6
CONTINUOUS
 62
    4
 10
1533.3272999999999
 20
1170.1179999999999
 11
1535.3638000000001
 21
1170.9593
  0
LINE
  8
_0-0_LAYER001
  6
CONTINUOUS
 62
    4
 10
1535.3638000000001
 20
1170.9593
 11
1538.8872999999999
 21
1172.4172000000001
  0
LINE
  8
_0-0_LAYER001
  6
CONTINUOUS
 62
    4
 10
1538.8872999999999
 20
1172.4172000000001
 11
1542.4346
 21
1173.8915999999999
  0
LINE
  8
_0-0_LAYER001
  6
CONTINUOUS
 62
    4
 10
1542.4346
 20
1173.8915999999999
 11
1546.0097000000001
 21
1175.3884
  0
LINE
  8
_0-0_LAYER001
  6
CONTINUOUS
 62
    4
 10
1546.0097000000001
 20
1175.3884
 11
1549.6165999999998
 21
1176.9136000000001
  0
LINE
  8
_0-0_LAYER001
  6
CONTINUOUS
 62
    4
 10
1549.6165999999998
 20
1176.9136000000001
 11
1553.2487000000001
 21
1178.4689000000001
  0
LINE
  8
_0-0_LAYER001
  6
CONTINUOUS
 62
    4
 10
1553.2487000000001
 20
1178.4689000000001
 11
1555.3760000000002
 21
1179.3902
  0
LINE
  8
_0-0_LAYER001
  6
CONTINUOUS
 62
    4
 10
1555.3760000000002
 20
1179.3902
 11
1557.3733000000002
 21
1180.26
  0
LINE
  8
_0-0_LAYER001
  6
CONTINUOUS
 62
    4
 10
1557.3733000000002
 20
1180.26
 11
1560.6035999999999
 21
1181.6335999999999
  0
LINE
  8
_0-0_LAYER001
  6
CONTINUOUS
 62
    4
 10
1560.6035999999999
 20
1181.6335999999999
 11
1563.4652000000001
 21
1182.7463
  0
LINE
  8
_0-0_LAYER001
  6
CONTINUOUS
 62
    4
 10
1563.4652000000001
 20
1182.7463
 11
1565.9095000000002
 21
1183.5431000000001
  0
LINE
  8
_0-0_LAYER001
  6
CONTINUOUS
 62
    4
 10
1565.9095000000002
 20
1183.5431000000001
 11
1567.8874000000001
 21
1184.0128999999999
  0
LINE
  8
_0-0_LAYER001
  6
CONTINUOUS
 62
    4
 10
1567.8874000000001
 20
1184.0128999999999
 11
1569.6606999999999
 21
1184.2331999999999
  0
LINE
  8
_0-0_LAYER001
  6
CONTINUOUS
 62
    4
 10
1569.6606999999999
 20
1184.2331999999999
 11
1570.3402000000001
 21
1184.2457999999999
  0
LINE
  8
_0-0_LAYER001
  6
CONTINUOUS
 62
    4
 10
1570.3402000000001
 20
1184.2457999999999
 11
1570.2638999999999
 21
1184.2489
  0
LINE
  8
_0-0_LAYER001
  6
CONTINUOUS
 62
    4
 10
1570.2638999999999
 20
1184.2489
 11
1570.8795
 21
1184.1967
  0
LINE
  8
_0-0_LAYER001
  6
CONTINUOUS
 62
    4
 10
1570.8795
 20
1184.1967
 11
1571.4728
 21
1184.1156000000001
  0
LINE
  8
_0-0_LAYER001
  6
CONTINUOUS
 62
    4
 10
1571.4728
 20
1184.1156000000001
 11
1572.1444000000001
 21
1183.9915000000001
  0
LINE
  8
_0-0_LAYER001
  6
CONTINUOUS
 62
    4
 10
1572.1444000000001
 20
1183.9915000000001
 11
1572.8836999999999
 21
1183.8222000000001
  0
LINE
  8
_0-0_LAYER001
  6
CONTINUOUS
 62
    4
 10
1572.8836999999999
 20
1183.8222000000001
 11
1573.7404999999999
 21
1183.5905
  0
LINE
  8
_0-0_LAYER001
  6
CONTINUOUS
 62
    4
 10
1573.7404999999999
 20
1183.5905
 11
1573.9870999999998
 21
1183.5163
  0
LINE
  8
_0-0_LAYER001
  6
CONTINUOUS
 62
    4
 10
1573.9870999999998
 20
1183.5163
 11
1575.5648000000001
 21
1182.9735000000001
  0
LINE
  8
_0-0_LAYER001
  6
CONTINUOUS
 62
    4
 10
1575.5648000000001
 20
1182.9735000000001
 11
1578.5540999999998
 21
1181.6964
  0
LINE
  8
_0-0_LAYER001
  6
CONTINUOUS
 62
    4
 10
1578.5540999999998
 20
1181.6964
 11
1581.5659000000001
 21
1180.1296
  0
LINE
  8
_0-0_LAYER001
  6
CONTINUOUS
 62
    4
 10
1581.5659000000001
 20
1180.1296
 11
1584.7955000000002
 21
1178.2086999999999
  0
LINE
  8
_0-0_LAYER001
  6
CONTINUOUS
 62
    4
 10
1584.7955000000002
 20
1178.2086999999999
 11
1588.2521999999999
 21
1175.9712999999999
  0
LINE
  8
_0-0_LAYER001
  6
CONTINUOUS
 62
    4
 10
1588.2521999999999
 20
1175.9712999999999
 11
1591.9378999999999
 21
1173.4833000000001
  0
LINE
  8
_0-0_LAYER001
  6
CONTINUOUS
 62
    4
 10
1591.9378999999999
 20
1173.4833000000001
 11
1594.1941000000002
 21
1171.951
  0
LINE
  8
_0-0_LAYER001
  6
CONTINUOUS
 62
    4
 10
1594.1941000000002
 20
1171.951
 11
1597.7609000000002
 21
1169.5616
  0
LINE
  8
_0-0_LAYER001
  6
CONTINUOUS
 62
    4
 10
1597.7609000000002
 20
1169.5616
 11
1603.9828000000002
 21
1165.5300999999999
  0
LINE
  8
_0-0_LAYER001
  6
CONTINUOUS
 62
    4
 10
1603.9828000000002
 20
1165.5300999999999
 11
1610.4133999999999
 21
1161.5900999999999
  0
LINE
  8
_0-0_LAYER001
  6
CONTINUOUS
 62
    4
 10
1610.4133999999999
 20
1161.5900999999999
 11
1617.0562
 21
1157.8081
  0
LINE
  8
_0-0_LAYER001
  6
CONTINUOUS
 62
    4
 10
1617.0562
 20
1157.8081
 11
1623.9376999999999
 21
1154.2384999999999
  0
LINE
  8
_0-0_LAYER001
  6
CONTINUOUS
 62
    4
 10
1623.9376999999999
 20
1154.2384999999999
 11
1630.9865
 21
1150.9838
  0
LINE
  8
_0-0_LAYER001
  6
CONTINUOUS
 62
    4
 10
1630.9865
 20
1150.9838
 11
1635.3182000000002
 21
1149.1945000000001
  0
LINE
  8
_0-0_LAYER001
  6
CONTINUOUS
 62
    4
 10
1635.3182000000002
 20
1149.1945000000001
 11
1638.9686000000002
 21
1147.8106
  0
LINE
  8
_0-0_LAYER001
  6
CONTINUOUS
 62
    4
 10
1638.9686000000002
 20
1147.8106
 11
1645.0927000000001
 21
1145.74
  0
LINE
  8
_0-0_LAYER001
  6
CONTINUOUS
 62
    4
 10
1645.0927000000001
 20
1145.74
 11
1651.4025999999999
 21
1143.9263000000001
  0
LINE
  8
_0-0_LAYER001
  6
CONTINUOUS
 62
    4
 10
1651.4025999999999
 20
1143.9263000000001
 11
1657.8022999999998
 21
1142.4050999999999
  0
LINE
  8
_0-0_LAYER001
  6
CONTINUOUS
 62
    4
 10
1657.8022999999998
 20
1142.4050999999999
 11
1664.2781
 21
1141.1849999999999
  0
LINE
  8
_0-0_LAYER001
  6
CONTINUOUS
 62
    4
 10
1664.2781
 20
1141.1849999999999
 11
1670.7231000000002
 21
1140.2882999999999
  0
LINE
  8
_0-0_LAYER001
  6
CONTINUOUS
 62
    4
 10
1670.7231000000002
 20
1140.2882999999999
 11
1674.596
 21
1139.9010000000001
  0
LINE
  8
_0-0_LAYER001
  6
CONTINUOUS
 62
    4
 10
1674.596
 20
1139.9010000000001
 11
1677.5992000000001
 21
1139.6768
  0
LINE
  8
_0-0_LAYER001
  6
CONTINUOUS
 62
    4
 10
1677.5992000000001
 20
1139.6768
 11
1682.5012000000002
 21
1139.4485
  0
LINE
  8
_0-0_LAYER001
  6
CONTINUOUS
 62
    4
 10
1682.5012000000002
 20
1139.4485
 11
1687.4133999999999
 21
1139.3782000000001
  0
LINE
  8
_0-0_LAYER001
  6
CONTINUOUS
 62
    4
 10
1687.4133999999999
 20
1139.3782000000001
 11
1692.2609000000002
 21
1139.4476
  0
LINE
  8
_0-0_LAYER001
  6
CONTINUOUS
 62
    4
 10
1692.2609000000002
 20
1139.4476
 11
1697.0412999999999
 21
1139.6355000000001
  0
LINE
  8
_0-0_LAYER001
  6
CONTINUOUS
 62
    4
 10
1697.0412999999999
 20
1139.6355000000001
 11
1701.7222999999999
 21
1139.9196999999999
  0
LINE
  8
_0-0_LAYER001
  6
CONTINUOUS
 62
    4
 10
1701.7222999999999
 20
1139.9196999999999
 11
1704.4942999999998
 21
1140.1280999999999
  0
LINE
  8
_0-0_LAYER001
  6
CONTINUOUS
 62
    4
 10
1704.4942999999998
 20
1140.1280999999999
 11
1709.5151999999998
 21
1140.5714
  0
LINE
  8
_0-0_LAYER001
  6
CONTINUOUS
 62
    4
 10
1709.5151999999998
 20
1140.5714
 11
1718.0162999999998
 21
1141.5
  0
LINE
  8
_0-0_LAYER001
  6
CONTINUOUS
 62
    4
 10
1718.0162999999998
 20
1141.5
 11
1726.4703
 21
1142.6165000000001
  0
LINE
  8
_0-0_LAYER001
  6
CONTINUOUS
 62
    4
 10
1726.4703
 20
1142.6165000000001
 11
1734.8262
 21
1143.8747000000001
  0
LINE
  8
_0-0_LAYER001
  6
CONTINUOUS
 62
    4
 10
1734.8262
 20
1143.8747000000001
 11
1743.0882999999999
 21
1145.2355
  0
LINE
  8
_0-0_LAYER001
  6
CONTINUOUS
 62
    4
 10
1743.0882999999999
 20
1145.2355
 11
1751.2552999999998
 21
1146.6600000000001
  0
LINE
  8
_0-0_LAYER001
  6
CONTINUOUS
 62
    4
 10
1751.2552999999998
 20
1146.6600000000001
 11
1755.9683
 21
1147.5038999999999
  0
LINE
  8
_0-0_LAYER001
  6
CONTINUOUS
 62
    4
 10
1755.9683
 20
1147.5038999999999
 11
1758.4110000000001
 21
1147.9447
  0
LINE
  8
_0-0_LAYER001
  6
CONTINUOUS
 62
    4
 10
1758.4110000000001
 20
1147.9447
 11
1762.6033000000002
 21
1148.7054000000001
  0
LINE
  8
_0-0_LAYER001
  6
CONTINUOUS
 62
    4
 10
1762.6033000000002
 20
1148.7054000000001
 11
1766.7928999999999
 21
1149.4698000000001
  0
LINE
  8
_0-0_LAYER001
  6
CONTINUOUS
 62
    4
 10
1766.7928999999999
 20
1149.4698000000001
 11
1770.9776000000002
 21
1150.2366999999999
  0
LINE
  8
_0-0_LAYER001
  6
CONTINUOUS
 62
    4
 10
1770.9776000000002
 20
1150.2366999999999
 11
1775.1577000000002
 21
1151.0052000000001
  0
LINE
  8
_0-0_LAYER001
  6
CONTINUOUS
 62
    4
 10
1775.1577000000002
 20
1151.0052000000001
 11
1779.3335000000002
 21
1151.7743
  0
LINE
  8
_0-0_LAYER001
  6
CONTINUOUS
 62
    4
 10
1779.3335000000002
 20
1151.7743
 11
1780.9427000000001
 21
1152.0709999999999
  0
LINE
  8
_0-0_LAYER001
  6
CONTINUOUS
 62
    4
 10
1779.6959000000002
 20
1149.8074999999999
 11
1782.1165999999998
 21
1150.2536
  0
LINE
  8
_0-0_LAYER001
  6
CONTINUOUS
 62
    4
 10
1775.5196999999998
 20
1149.0382
 11
1779.6959000000002
 21
1149.8074999999999
  0
LINE
  8
_0-0_LAYER001
  6
CONTINUOUS
 62
    4
 10
1771.3386
 20
1148.2696000000001
 11
1775.5196999999998
 21
1149.0382
  0
LINE
  8
_0-0_LAYER001
  6
CONTINUOUS
 62
    4
 10
1767.1525999999999
 20
1147.5024000000001
 11
1771.3386
 21
1148.2696000000001
  0
LINE
  8
_0-0_LAYER001
  6
CONTINUOUS
 62
    4
 10
1762.9612999999999
 20
1146.7376999999999
 11
1767.1525999999999
 21
1147.5024000000001
  0
LINE
  8
_0-0_LAYER001
  6
CONTINUOUS
 62
    4
 10
1758.7671
 20
1145.9766999999999
 11
1762.9612999999999
 21
1146.7376999999999
  0
LINE
  8
_0-0_LAYER001
  6
CONTINUOUS
 62
    4
 10
1756.3220999999999
 20
1145.5355
 11
1758.7671
 21
1145.9766999999999
  0
LINE
  8
_0-0_LAYER001
  6
CONTINUOUS
 62
    4
 10
1751.6034
 20
1144.6904999999999
 11
1756.3220999999999
 21
1145.5355
  0
LINE
  8
_0-0_LAYER001
  6
CONTINUOUS
 62
    4
 10
1743.4225999999999
 20
1143.2636
 11
1751.6034
 21
1144.6904999999999
  0
LINE
  8
_0-0_LAYER001
  6
CONTINUOUS
 62
    4
 10
1735.1377000000002
 20
1141.8989999999999
 11
1743.4225999999999
 21
1143.2636
  0
LINE
  8
_0-0_LAYER001
  6
CONTINUOUS
 62
    4
 10
1726.7501999999999
 20
1140.6360999999999
 11
1735.1377000000002
 21
1141.8989999999999
  0
LINE
  8
_0-0_LAYER001
  6
CONTINUOUS
 62
    4
 10
1718.2559000000001
 20
1139.5143
 11
1726.7501999999999
 21
1140.6360999999999
  0
LINE
  8
_0-0_LAYER001
  6
CONTINUOUS
 62
    4
 10
1709.7118
 20
1138.5809999999999
 11
1718.2559000000001
 21
1139.5143
  0
LINE
  8
_0-0_LAYER001
  6
CONTINUOUS
 62
    4
 10
1704.6572999999999
 20
1138.1347000000001
 11
1709.7118
 21
1138.5809999999999
  0
LINE
  8
_0-0_LAYER001
  6
CONTINUOUS
 62
    4
 10
1701.8579
 20
1137.9241999999999
 11
1704.6572999999999
 21
1138.1347000000001
  0
LINE
  8
_0-0_LAYER001
  6
CONTINUOUS
 62
    4
 10
1697.1412
 20
1137.6378999999999
 11
1701.8579
 21
1137.9241999999999
  0
LINE
  8
_0-0_LAYER001
  6
CONTINUOUS
 62
    4
 10
1692.3145
 20
1137.4482
 11
1697.1412
 21
1137.6378999999999
  0
LINE
  8
_0-0_LAYER001
  6
CONTINUOUS
 62
    4
 10
1687.4133999999999
 20
1137.3779999999999
 11
1692.3145
 21
1137.4482
  0
LINE
  8
_0-0_LAYER001
  6
CONTINUOUS
 62
    4
 10
1682.4403000000002
 20
1137.4491
 11
1687.4133999999999
 21
1137.3779999999999
  0
LINE
  8
_0-0_LAYER001
  6
CONTINUOUS
 62
    4
 10
1677.4782
 20
1137.6803
 11
1682.4403000000002
 21
1137.4491
  0
LINE
  8
_0-0_LAYER001
  6
CONTINUOUS
 62
    4
 10
1674.4220999999998
 20
1137.9084
 11
1677.4782
 21
1137.6803
  0
LINE
  8
_0-0_LAYER001
  6
CONTINUOUS
 62
    4
 10
1670.4857000000002
 20
1138.3019999999999
 11
1674.4220999999998
 21
1137.9084
  0
LINE
  8
_0-0_LAYER001
  6
CONTINUOUS
 62
    4
 10
1663.9549000000002
 20
1139.2107000000001
 11
1670.4857000000002
 21
1138.3019999999999
  0
LINE
  8
_0-0_LAYER001
  6
CONTINUOUS
 62
    4
 10
1657.3856999999998
 20
1140.4484
 11
1663.9549000000002
 21
1139.2107000000001
  0
LINE
  8
_0-0_LAYER001
  6
CONTINUOUS
 62
    4
 10
1650.8948999999998
 20
1141.9911999999999
 11
1657.3856999999998
 21
1140.4484
  0
LINE
  8
_0-0_LAYER001
  6
CONTINUOUS
 62
    4
 10
1644.4958999999999
 20
1143.8306
 11
1650.8948999999998
 21
1141.9911999999999
  0
LINE
  8
_0-0_LAYER001
  6
CONTINUOUS
 62
    4
 10
1638.2935000000002
 20
1145.9276
 11
1644.4958999999999
 21
1143.8306
  0
LINE
  8
_0-0_LAYER001
  6
CONTINUOUS
 62
    4
 10
1634.5817999999999
 20
1147.3348000000001
 11
1638.2935000000002
 21
1145.9276
  0
LINE
  8
_0-0_LAYER001
  6
CONTINUOUS
 62
    4
 10
1630.1851000000001
 20
1149.1507999999999
 11
1634.5817999999999
 21
1147.3348000000001
  0
LINE
  8
_0-0_LAYER001
  6
CONTINUOUS
 62
    4
 10
1623.0576000000001
 20
1152.4419
 11
1630.1851000000001
 21
1149.1507999999999
  0
LINE
  8
_0-0_LAYER001
  6
CONTINUOUS
 62
    4
 10
1616.1006000000002
 20
1156.0507
 11
1623.0576000000001
 21
1152.4419
  0
LINE
  8
_0-0_LAYER001
  6
CONTINUOUS
 62
    4
 10
1609.3960000000002
 20
1159.8679
 11
1616.1006000000002
 21
1156.0507
  0
LINE
  8
_0-0_LAYER001
  6
CONTINUOUS
 62
    4
 10
1602.9164000000001
 20
1163.8379
 11
1609.3960000000002
 21
1159.8679
  0
LINE
  8
_0-0_LAYER001
  6
CONTINUOUS
 62
    4
 10
1596.6605
 20
1167.8915
 11
1602.9164000000001
 21
1163.8379
  0
LINE
  8
_0-0_LAYER001
  6
CONTINUOUS
 62
    4
 10
1593.0756999999999
 20
1170.2929999999999
 11
1596.6605
 21
1167.8915
  0
LINE
  8
_0-0_LAYER001
  6
CONTINUOUS
 62
    4
 10
1590.8166000000001
 20
1171.8272999999999
 11
1593.0756999999999
 21
1170.2929999999999
  0
LINE
  8
_0-0_LAYER001
  6
CONTINUOUS
 62
    4
 10
1587.1491999999998
 20
1174.3027999999999
 11
1590.8166000000001
 21
1171.8272999999999
  0
LINE
  8
_0-0_LAYER001
  6
CONTINUOUS
 62
    4
 10
1583.7406000000001
 20
1176.5092
 11
1587.1491999999998
 21
1174.3027999999999
  0
LINE
  8
_0-0_LAYER001
  6
CONTINUOUS
 62
    4
 10
1580.5924
 20
1178.3815999999999
 11
1583.7406000000001
 21
1176.5092
  0
LINE
  8
_0-0_LAYER001
  6
CONTINUOUS
 62
    4
 10
1577.6985
 20
1179.8869999999999
 11
1580.5924
 21
1178.3815999999999
  0
LINE
  8
_0-0_LAYER001
  6
CONTINUOUS
 62
    4
 10
1574.8456999999999
 20
1181.1059
 11
1577.6985
 21
1179.8869999999999
  0
LINE
  8
_0-0_LAYER001
  6
CONTINUOUS
 62
    4
 10
1573.3733999999999
 20
1181.6124
 11
1574.8456999999999
 21
1181.1059
  0
LINE
  8
_0-0_LAYER001
  6
CONTINUOUS
 62
    4
 10
1573.1913
 20
1181.6672000000001
 11
1573.3733999999999
 21
1181.6124
  0
LINE
  8
_0-0_LAYER001
  6
CONTINUOUS
 62
    4
 10
1572.3991000000001
 20
1181.8813
 11
1573.1913
 21
1181.6672000000001
  0
LINE
  8
_0-0_LAYER001
  6
CONTINUOUS
 62
    4
 10
1571.7393000000002
 20
1182.0325
 11
1572.3991000000001
 21
1181.8813
  0
LINE
  8
_0-0_LAYER001
  6
CONTINUOUS
 62
    4
 10
1571.1554999999998
 20
1182.1404
 11
1571.7393000000002
 21
1182.0325
  0
LINE
  8
_0-0_LAYER001
  6
CONTINUOUS
 62
    4
 10
1571.1152999999999
 20
1182.1459
 11
1571.1554999999998
 21
1182.1404
  0
LINE
  8
_0-0_LAYER001
  6
CONTINUOUS
 62
    4
 10
1776.0207999999998
 20
1130.5528999999999
 11
1777.6300000000001
 21
1130.8495
  0
LINE
  8
_0-0_LAYER001
  6
CONTINUOUS
 62
    4
 10
1771.8449999999998
 20
1129.7837
 11
1776.0207999999998
 21
1130.5528999999999
  0
LINE
  8
_0-0_LAYER001
  6
CONTINUOUS
 62
    4
 10
1767.6649000000002
 20
1129.0152
 11
1771.8449999999998
 21
1129.7837
  0
LINE
  8
_0-0_LAYER001
  6
CONTINUOUS
 62
    4
 10
1763.4801000000002
 20
1128.2483
 11
1767.6649000000002
 21
1129.0152
  0
LINE
  8
_0-0_LAYER001
  6
CONTINUOUS
 62
    4
 10
1723.1576
 20
1121.395
 11
1731.5135
 21
1122.6532
  0
LINE
  8
_0-0_LAYER001
  6
CONTINUOUS
 62
    4
 10
1714.7037
 20
1120.2786000000001
 11
1723.1576
 21
1121.395
  0
LINE
  8
_0-0_LAYER001
  6
CONTINUOUS
 62
    4
 10
1706.2024999999999
 20
1119.3499999999999
 11
1714.7037
 21
1120.2786000000001
  0
LINE
  8
_0-0_LAYER001
  6
CONTINUOUS
 62
    4
 10
1701.1815999999999
 20
1118.9067
 11
1706.2024999999999
 21
1119.3499999999999
  0
LINE
  8
_0-0_LAYER001
  6
CONTINUOUS
 62
    4
 10
1698.4096
 20
1118.6982
 11
1701.1815999999999
 21
1118.9067
  0
LINE
  8
_0-0_LAYER001
  6
CONTINUOUS
 62
    4
 10
1693.7285999999999
 20
1118.4141
 11
1698.4096
 21
1118.6982
  0
LINE
  8
_0-0_LAYER001
  6
CONTINUOUS
 62
    4
 10
1688.9481999999998
 20
1118.2262000000001
 11
1693.7285999999999
 21
1118.4141
  0
LINE
  8
_0-0_LAYER001
  6
CONTINUOUS
 62
    4
 10
1684.1006000000002
 20
1118.1568
 11
1688.9481999999998
 21
1118.2262000000001
  0
LINE
  8
_0-0_LAYER001
  6
CONTINUOUS
 62
    4
 10
1679.1885000000002
 20
1118.2270000000001
 11
1684.1006000000002
 21
1118.1568
  0
LINE
  8
_0-0_LAYER001
  6
CONTINUOUS
 62
    4
 10
1674.2864
 20
1118.4554000000001
 11
1679.1885000000002
 21
1118.2270000000001
  0
LINE
  8
_0-0_LAYER001
  6
CONTINUOUS
 62
    4
 10
1671.2833000000001
 20
1118.6795999999999
 11
1674.2864
 21
1118.4554000000001
  0
LINE
  8
_0-0_LAYER001
  6
CONTINUOUS
 62
    4
 10
1667.4104000000002
 20
1119.0668000000001
 11
1671.2833000000001
 21
1118.6795999999999
  0
LINE
  8
_0-0_LAYER001
  6
CONTINUOUS
 62
    4
 10
1660.9654
 20
1119.9636
 11
1667.4104000000002
 21
1119.0668000000001
  0
LINE
  8
_0-0_LAYER001
  6
CONTINUOUS
 62
    4
 10
1654.4895999999999
 20
1121.1837
 11
1660.9654
 21
1119.9636
  0
LINE
  8
_0-0_LAYER001
  6
CONTINUOUS
 62
    4
 10
1648.0898999999999
 20
1122.7048
 11
1654.4895999999999
 21
1121.1837
  0
LINE
  8
_0-0_LAYER001
  6
CONTINUOUS
 62
    4
 10
1641.7800000000002
 20
1124.5184999999999
 11
1648.0898999999999
 21
1122.7048
  0
LINE
  8
_0-0_LAYER001
  6
CONTINUOUS
 62
    4
 10
1635.6558
 20
1126.5890999999999
 11
1641.7800000000002
 21
1124.5184999999999
  0
LINE
  8
_0-0_LAYER001
  6
CONTINUOUS
 62
    4
 10
1632.0055000000002
 20
1127.9730999999999
 11
1635.6558
 21
1126.5890999999999
  0
LINE
  8
_0-0_LAYER001
  6
CONTINUOUS
 62
    4
 10
1627.6736999999998
 20
1129.7623000000001
 11
1632.0055000000002
 21
1127.9730999999999
  0
LINE
  8
_0-0_LAYER001
  6
CONTINUOUS
 62
    4
 10
1620.625
 20
1133.0170000000001
 11
1627.6736999999998
 21
1129.7623000000001
  0
LINE
  8
_0-0_LAYER001
  6
CONTINUOUS
 62
    4
 10
1613.7435
 20
1136.5866000000001
 11
1620.625
 21
1133.0170000000001
  0
LINE
  8
_0-0_LAYER001
  6
CONTINUOUS
 62
    4
 10
1607.1007
 20
1140.3686
 11
1613.7435
 21
1136.5866000000001
  0
LINE
  8
_0-0_LAYER001
  6
CONTINUOUS
 62
    4
 10
1600.6700000000001
 20
1144.3086000000001
 11
1607.1007
 21
1140.3686
  0
LINE
  8
_0-0_LAYER001
  6
CONTINUOUS
 62
    4
 10
1594.4481999999998
 20
1148.3400999999999
 11
1600.6700000000001
 21
1144.3086000000001
  0
LINE
  8
_0-0_LAYER001
  6
CONTINUOUS
 62
    4
 10
1590.8814000000002
 20
1150.7295999999999
 11
1594.4481999999998
 21
1148.3400999999999
  0
LINE
  8
_0-0_LAYER001
  6
CONTINUOUS
 62
    4
 10
1588.6251999999999
 20
1152.2619
 11
1590.8814000000002
 21
1150.7295999999999
  0
LINE
  8
_0-0_LAYER001
  6
CONTINUOUS
 62
    4
 10
1584.9395
 20
1154.7498000000001
 11
1588.6251999999999
 21
1152.2619
  0
LINE
  8
_0-0_LAYER001
  6
CONTINUOUS
 62
    4
 10
1581.4828000000002
 20
1156.9873
 11
1584.9395
 21
1154.7498000000001
  0
LINE
  8
_0-0_LAYER001
  6
CONTINUOUS
 62
    4
 10
1578.2530999999999
 20
1158.9081000000001
 11
1581.4828000000002
 21
1156.9873
  0
LINE
  8
_0-0_LAYER001
  6
CONTINUOUS
 62
    4
 10
1575.2413999999999
 20
1160.4748999999999
 11
1578.2530999999999
 21
1158.9081000000001
  0
LINE
  8
_0-0_LAYER001
  6
CONTINUOUS
 62
    4
 10
1572.2521000000002
 20
1161.7520999999999
 11
1575.2413999999999
 21
1160.4748999999999
  0
LINE
  8
_0-0_LAYER001
  6
CONTINUOUS
 62
    4
 10
1571.4974999999999
 20
1162.0117
 11
1572.2521000000002
 21
1161.7520999999999
  0
LINE
  8
_0-0_LAYER001
  6
CONTINUOUS
 62
    4
 10
1571.4807000000001
 20
1182.0576000000001
 11
1571.6567
 21
1161.8841
  0
LINE
  8
_0-0_LAYER001
  6
CONTINUOUS
 62
    4
 10
1526.5661
 20
1186.7940000000001
 11
1527.6831000000002
 21
1187.2624000000001
  0
ARC
  8
_0-0_LAYER001
  6
CONTINUOUS
 62
    4
 10
1527.3395
 20
1184.9495999999999
 40
2
 50
112.74902000000002
 51
181
  0
LINE
  8
_0-0_LAYER001
  6
CONTINUOUS
 62
    4
 10
1778.6149
 20
1169.9616000000001
 11
1820.3996000000002
 21
1180.4145000000001
  0
LINE
  8
_0-0_LAYER001
  6
CONTINUOUS
 62
    4
 10
1525.3634000000002
 20
1168.3045
 11
1525.3634000000002
 21
1185.0984000000001
  0
LINE
  8
_0-0_LAYER001
  6
CONTINUOUS
 62
    4
 10
1526.7465999999999
 20
1167.3807999999999
 11
1533.2919999999999
 21
1170.0962
  0
ARC
  8
_0-0_LAYER001
  6
CONTINUOUS
 62
    4
 10
1526.3634000000002
 20
1168.3045
 40
1
 50
180
 51
292.53166000000004
  0
LINE
  8
_0-0_LAYER001
  6
CONTINUOUS
 62
    4
 10
1802.2197999999999
 20
1136.9192
 11
1777.402
 21
1130.7108000000001
  0
LINE
  8
_0-0_LAYER001
  6
CONTINUOUS
 62
    4
 10
1814.7487000000001
 20
1160.4462000000001
 11
1780.9533000000001
 21
1151.9919
  0
ARC
  8
_0-0_LAYER001
  6
CONTINUOUS
 62
    4
 10
1816.5720999999999
 20
1143.9881
 40
16.544874
 50
77.324888000000001
 51
96.274505000000005
  0
LINE
  8
_0-0_LAYER001
  6
CONTINUOUS
 62
    4
 10
1823.6006000000002
 20
1160.8186000000001
 11
1820.5536999999999
 21
1101.1857
  0
LINE
  8
_0-0_LAYER001
  6
CONTINUOUS
 62
    4
 10
1782.1574999999998
 20
1150.354
 11
1802.2197999999999
 21
1155.4199000000001
  0
LINE
  8
_0-0_LAYER001
  6
CONTINUOUS
 62
    4
 10
1802.2197999999999
 20
1157.0648000000001
 11
1802.2197999999999
 21
1100.6351
  0
LINE
  8
_0-0_LAYER001
  6
CONTINUOUS
 62
    4
 10
1820.2197999999999
 20
1159.9649999999999
 11
1823.6006000000002
 21
1160.8186000000001
  0
LINE
  8
_0-0_LAYER001
  6
CONTINUOUS
 62
    4
 10
1820.2197999999999
 20
1180.3369
 11
1820.2197999999999
 21
1100.6351
  0
LINE
  8
_0-0_LAYER001
  6
CONTINUOUS
 62
    4
 10
1820.2197999999999
 20
1100.6351
 11
1802.2197999999999
 21
1100.6351
  0
LINE
  8
_0-0_LAYER001
  6
DASHED1
 62
    2
 10
1767.0945000000002
 20
1154.5148999999999
 11
1783.0945000000002
 21
1154.5148999999999
  0
LINE
  8
_0-0_LAYER001
  6
DASHED1
 62
    2
 10
1783.0945000000002
 20
1154.5148999999999
 11
1783.0945000000002
 21
1151.5148999999999
  0
LINE
  8
_0-0_LAYER001
  6
DASHED1
 62
    2
 10
1767.0945000000002
 20
1154.5148999999999
 11
1767.0945000000002
 21
1151.5148999999999
  0
LINE
  8
_0-0_LAYER001
  6
DASHED1
 62
    2
 10
1767.0945000000002
 20
1151.5148999999999
 11
1783.0945000000002
 21
1151.5148999999999
  0
LINE
  8
_0-0_LAYER001
  6
DASHED1
 62
    2
 10
1778.0945000000002
 20
1096.6188
 11
1775.0443
 21
1082.1098999999999
  0
LINE
  8
_0-0_LAYER001
  6
DASHED1
 62
    2
 10
1778.0945000000002
 20
1151.5148999999999
 11
1778.0945000000002
 21
1096.6188
  0
LINE
  8
_0-0_LAYER001
  6
DASHED1
 62
    2
 10
1775.0443
 20
1082.1098999999999
 11
1772.0945000000002
 21
1096.3674000000001
  0
LINE
  8
_0-0_LAYER001
  6
DASHED1
 62
    2
 10
1772.0945000000002
 20
1151.5148999999999
 11
1772.0945000000002
 21
1096.3674000000001
  0
LINE
  8
_0-0_LAYER001
  6
DASHED1
 62
    2
 10
1623.9430000000002
 20
1151.3687
 11
1639.9430000000002
 21
1151.3687
  0
LINE
  8
_0-0_LAYER001
  6
DASHED1
 62
    2
 10
1639.9430000000002
 20
1151.3687
 11
1639.9430000000002
 21
1148.3687
  0
LINE
  8
_0-0_LAYER001
  6
DASHED1
 62
    2
 10
1623.9430000000002
 20
1151.3687
 11
1623.9430000000002
 21
1148.3687
  0
LINE
  8
_0-0_LAYER001
  6
DASHED1
 62
    2
 10
1623.9430000000002
 20
1148.3687
 11
1639.9430000000002
 21
1148.3687
  0
LINE
  8
_0-0_LAYER001
  6
DASHED1
 62
    2
 10
1634.9430000000002
 20
1093.4727
 11
1631.8928000000001
 21
1078.9637
  0
LINE
  8
_0-0_LAYER001
  6
DASHED1
 62
    2
 10
1634.9430000000002
 20
1148.3687
 11
1634.9430000000002
 21
1093.4727
  0
LINE
  8
_0-0_LAYER001
  6
DASHED1
 62
    2
 10
1631.8928000000001
 20
1078.9637
 11
1628.9430000000002
 21
1093.2212
  0
LINE
  8
_0-0_LAYER001
  6
DASHED1
 62
    2
 10
1628.9430000000002
 20
1148.3687
 11
1628.9430000000002
 21
1093.2212
  0
LINE
  8
_0-0_LAYER001
  6
DASHED1
 62
    2
 10
1373.8212000000001
 20
1152.9418000000001
 11
1389.8212000000001
 21
1152.9418000000001
  0
LINE
  8
_0-0_LAYER001
  6
DASHED1
 62
    2
 10
1389.8212000000001
 20
1152.9418000000001
 11
1389.8212000000001
 21
1149.9418000000001
  0
LINE
  8
_0-0_LAYER001
  6
DASHED1
 62
    2
 10
1373.8212000000001
 20
1152.9418000000001
 11
1373.8212000000001
 21
1149.9418000000001
  0
LINE
  8
_0-0_LAYER001
  6
DASHED1
 62
    2
 10
1373.8212000000001
 20
1149.9418000000001
 11
1389.8212000000001
 21
1149.9418000000001
  0
LINE
  8
_0-0_LAYER001
  6
DASHED1
 62
    2
 10
1384.8212000000001
 20
1095.0458000000001
 11
1381.771
 21
1080.5368000000001
  0
LINE
  8
_0-0_LAYER001
  6
DASHED1
 62
    2
 10
1384.8212000000001
 20
1149.9418000000001
 11
1384.8212000000001
 21
1095.0458000000001
  0
LINE
  8
_0-0_LAYER001
  6
DASHED1
 62
    2
 10
1381.771
 20
1080.5368000000001
 11
1378.8212000000001
 21
1094.7943
  0
LINE
  8
_0-0_LAYER001
  6
DASHED1
 62
    2
 10
1378.8212000000001
 20
1149.9418000000001
 11
1378.8212000000001
 21
1094.7943
  0
LINE
  8
_0-0_LAYER001
  6
DASHED1
 62
    2
 10
1114.2608
 20
1151.3687
 11
1130.2608
 21
1151.3687
  0
LINE
  8
_0-0_LAYER001
  6
DASHED1
 62
    2
 10
1130.2608
 20
1151.3687
 11
1130.2608
 21
1148.3687
  0
LINE
  8
_0-0_LAYER001
  6
DASHED1
 62
    2
 10
1114.2608
 20
1151.3687
 11
1114.2608
 21
1148.3687
  0
LINE
  8
_0-0_LAYER001
  6
DASHED1
 62
    2
 10
1114.2608
 20
1148.3687
 11
1130.2608
 21
1148.3687
  0
LINE
  8
_0-0_LAYER001
  6
DASHED1
 62
    2
 10
1125.2608
 20
1093.4727
 11
1122.2106000000001
 21
1078.9637
  0
LINE
  8
_0-0_LAYER001
  6
DASHED1
 62
    2
 10
1125.2608
 20
1148.3687
 11
1125.2608
 21
1093.4727
  0
LINE
  8
_0-0_LAYER001
  6
DASHED1
 62
    2
 10
1122.2106000000001
 20
1078.9637
 11
1119.2608
 21
1093.2212
  0
LINE
  8
_0-0_LAYER001
  6
DASHED1
 62
    2
 10
1119.2608
 20
1148.3687
 11
1119.2608
 21
1093.2212
  0
LINE
  8
_0-1_LAYER004
  6
CONTINUOUS
 62
    7
 10
1011.9198
 20
1334.1442999999999
 11
1818.5197999999996
 21
1334.1442999999999
  0
LINE
  8
_0-1_LAYER004
  6
CONTINUOUS
 62
    7
 10
1820.2197999999999
 20
1336.6442999999999
 11
1820.2197999999999
 21
1284.1442999999999
  0
LINE
  8
_0-1_LAYER004
  6
CONTINUOUS
 62
    7
 10
1520.2197999999999
 20
1336.6442999999999
 11
1520.2197999999999
 21
1284.1442999999999
  0
LINE
  8
_0-1_LAYER004
  6
CONTINUOUS
 62
    7
 10
1266.9198000000001
 20
1334.1442999999999
 11
1266.9198000000001
 21
1336.6442999999999
  0
LINE
  8
_0-1_LAYER004
  6
CONTINUOUS
 62
    7
 10
1266.9198000000001
 20
1334.1442999999999
 11
1266.9198000000001
 21
1284.1442999999999
  0
LINE
  8
_0-1_LAYER004
  6
CONTINUOUS
 62
    7
 10
1010.2198000000001
 20
1336.6442999999999
 11
1010.2198000000001
 21
1284.1442999999999
  0
LINE
  8
_0-1_LAYER004
  6
CONTINUOUS
 62
    7
 10
1011.9198
 20
1334.1442999999999
 11
1010.2198000000001
 21
1334.1442999999999
  0
LINE
  8
_0-1_LAYER004
  6
CONTINUOUS
 62
    7
 10
816.38449999999989
 20
1112.6959999999999
 11
1727.3407999999999
 21
1112.6959999999999
  0
LINE
  8
_0-1_LAYER004
  6
CONTINUOUS
 62
    7
 10
1727.3407999999999
 20
1112.6959999999999
 11
1727.3407999999999
 21
1097.6959999999999
  0
LINE
  8
_0-1_LAYER004
  6
CONTINUOUS
 62
    7
 10
1727.3407999999999
 20
1097.6959999999999
 11
816.38449999999989
 21
1097.6959999999999
  0
LINE
  8
_0-1_LAYER004
  6
CONTINUOUS
 62
    7
 10
815.08480000000009
 20
1093.1812
 11
1727.3407999999999
 21
1093.1812
  0
LINE
  8
_0-1_LAYER004
  6
CONTINUOUS
 62
    7
 10
1694.2197999999999
 20
1089.6592000000001
 11
816.38449999999989
 21
1089.6592000000001
  0
LINE
  8
_0-1_LAYER004
  6
CONTINUOUS
 62
    7
 10
815.08480000000009
 20
1059.6592000000001
 11
1769.2197999999999
 21
1059.6592000000001
  0
LINE
  8
_0-1_LAYER004
  6
CONTINUOUS
 62
    7
 10
1769.2197999999999
 20
1059.6592000000001
 11
1769.2197999999999
 21
919.65920000000006
  0
LINE
  8
_0-1_LAYER004
  6
CONTINUOUS
 62
    7
 10
1759.2197999999999
 20
909.65920000000006
 11
1759.2197999999999
 21
1049.6592000000001
  0
LINE
  8
_0-1_LAYER004
  6
CONTINUOUS
 62
    7
 10
1769.2197999999999
 20
1049.6592000000001
 11
1684.2197999999999
 21
1049.6592000000001
  0
LINE
  8
_0-1_LAYER004
  6
CONTINUOUS
 62
    7
 10
1684.2197999999999
 20
1049.6592000000001
 11
1684.2197999999999
 21
1089.6293000000001
  0
LINE
  8
_0-1_LAYER004
  6
CONTINUOUS
 62
    7
 10
1694.2197999999999
 20
1089.6592000000001
 11
1694.1790999999998
 21
1089.6592000000001
  0
LINE
  8
_0-1_LAYER004
  6
CONTINUOUS
 62
    7
 10
815.08480000000009
 20
919.65920000000006
 11
1769.2197999999999
 21
919.65920000000006
  0
LINE
  8
_0-1_LAYER004
  6
CONTINUOUS
 62
    7
 10
1759.2197999999999
 20
909.65920000000006
 11
815.08480000000009
 21
909.65920000000006
  0
LINE
  8
_0-1_LAYER004
  6
CONTINUOUS
 62
    7
 10
1288.1528000000001
 20
780.22209999999995
 11
1492.9755
 21
780.22209999999995
  0
LINE
  8
_0-1_LAYER004
  6
CONTINUOUS
 62
    7
 10
1890.6044000000002
 20
867.16750000000002
 11
2154.9151000000002
 21
867.16750000000002
  0
LINE
  8
_0-1_LAYER004
  6
CONTINUOUS
 62
    7
 10
1858.8973999999998
 20
1283.4992
 11
2105.3708999999999
 21
1283.4992
  0
LINE
  8
_0-1_LAYER004
  6
CONTINUOUS
 62
    7
 10
1905.5077000000001
 20
1125.6592000000001
 11
1957.2077000000002
 21
1125.6592000000001
  0
LINE
  8
_0-1_LAYER004
  6
CONTINUOUS
 62
    7
 10
1955.5077000000001
 20
1125.6592000000001
 11
1955.5077000000001
 21
909.65920000000006
  0
LINE
  8
_0-1_LAYER004
  6
CONTINUOUS
 62
    7
 10
1905.5077000000001
 20
909.65920000000006
 11
1957.2077000000002
 21
909.65920000000006
  0
LINE
  8
_0-1_LAYER004
  6
CONTINUOUS
 62
    7
 10
1905.5077000000001
 20
1059.6592000000001
 11
1957.2077000000002
 21
1059.6592000000001
  0
LINE
  8
_0-1_LAYER004
  6
CONTINUOUS
 62
    7
 10
1905.5077000000001
 20
1089.6592000000001
 11
1957.2077000000002
 21
1089.6592000000001
  0
LINE
  8
_0-1_LAYER004
  6
CONTINUOUS
 62
    7
 10
1738.3703
 20
1115.2438999999999
 11
1738.3703
 21
1089.6592000000001
  0
LINE
  8
_0-1_LAYER004
  6
CONTINUOUS
 62
    7
 10
1738.3703
 20
1089.6592000000001
 11
1784.2197999999999
 21
1089.6592000000001
  0
LINE
  8
_0-1_LAYER004
  6
CONTINUOUS
 62
    7
 10
1769.2197999999999
 20
809.37310000000002
 11
1769.2197999999999
 21
861.07310000000007
  0
LINE
  8
_0-1_LAYER004
  6
CONTINUOUS
 62
    7
 10
1784.2197999999999
 20
809.37310000000002
 11
1784.2197999999999
 21
861.07310000000007
  0
LINE
  8
_0-1_LAYER004
  6
CONTINUOUS
 62
    7
 10
1820.2197999999999
 20
809.37310000000002
 11
1820.2197999999999
 21
861.07310000000007
  0
LINE
  8
_0-1_LAYER004
  6
CONTINUOUS
 62
    7
 10
1820.2197999999999
 20
811.07310000000007
 11
1769.2197999999999
 21
811.07310000000007
  0
LINE
  8
_0-1_LAYER004
  6
CONTINUOUS
 62
    7
 10
1772.0897
 20
1072.441
 11
1774.0308
 21
1065.1965
  0
LINE
  8
_0-1_LAYER004
  6
CONTINUOUS
 62
    7
 10
1774.0308
 20
1065.1965
 11
1772.0897
 21
1072.441
  0
LINE
  8
_0-1_LAYER004
  6
CONTINUOUS
 62
    7
 10
1772.0897
 20
1072.441
 11
1777.393
 21
1067.1377
  0
LINE
  8
_0-1_LAYER004
  6
CONTINUOUS
 62
    7
 10
1772.0897
 20
1072.441
 11
1890.6044000000002
 21
867.16750000000002
  0
LINE
  8
_0-1_LAYER004
  6
CONTINUOUS
 62
    7
 10
1738.3703
 20
1115.2438999999999
 11
1783.3703
 21
1125.6592000000001
  0
LINE
  8
_0-1_LAYER004
  6
CONTINUOUS
 62
    7
 10
1783.3703
 20
1089.6592000000001
 11
1783.3703
 21
1125.6592000000001
  0
LINE
  8
_0-1_LAYER004
  6
CONTINUOUS
 62
    7
 10
1738.3703
 20
1089.6592000000001
 11
1783.3703
 21
1125.6592000000001
  0
LINE
  8
_0-1_LAYER004
  6
CONTINUOUS
 62
    7
 10
1783.3703
 20
1089.6592000000001
 11
1738.3703
 21
1115.2438999999999
  0
LINE
  8
_0-1_LAYER004
  6
CONTINUOUS
 62
    7
 10
1755.7067000000002
 20
1108.6498999999999
 11
1753.7655
 21
1101.4055000000001
  0
LINE
  8
_0-1_LAYER004
  6
CONTINUOUS
 62
    7
 10
1753.7655
 20
1101.4055000000001
 11
1759.0688
 21
1106.7088000000001
  0
LINE
  8
_0-1_LAYER004
  6
CONTINUOUS
 62
    7
 10
1753.7655
 20
1101.4055000000001
 11
1858.8973999999998
 21
1283.4992
  0
LINE
  8
_0-1_LAYER004
  6
CONTINUOUS
 62
    7
 10
1295.7112999999999
 20
750.35560000000009
 11
1202.3681999999999
 21
1098.7168999999999
  0
LINE
  8
_0-1_LAYER004
  6
CONTINUOUS
 62
    7
 10
1202.3681999999999
 20
1098.7168999999999
 11
1202.3681999999999
 21
1091.2168999999999
  0
LINE
  8
_0-1_LAYER004
  6
CONTINUOUS
 62
    7
 10
1202.3681999999999
 20
1098.7168999999999
 11
1206.1181999999999
 21
1092.2217000000001
  0
LINE
  8
_0-1_LAYER004
  6
CONTINUOUS
 62
    7
 10
1018.3658
 20
1089.6592000000001
 11
838.36580000000004
 21
909.65920000000006
  0
LINE
  8
_0-1_LAYER004
  6
CONTINUOUS
 62
    7
 10
849.67979999999989
 20
909.65920000000006
 11
1029.6797999999999
 21
1089.6592000000001
  0
LINE
  8
_0-1_LAYER004
  6
CONTINUOUS
 62
    7
 10
1040.9938
 20
1089.6592000000001
 11
860.99380000000019
 21
909.65920000000006
  0
LINE
  8
_0-1_LAYER004
  6
CONTINUOUS
 62
    7
 10
1378.3968000000002
 20
909.65920000000006
 11
1558.3670000000002
 21
1089.6293000000001
  0
LINE
  8
_0-1_LAYER004
  6
CONTINUOUS
 62
    7
 10
1569.681
 20
1089.6293000000001
 11
1389.7108000000001
 21
909.65920000000006
  0
LINE
  8
_0-1_LAYER004
  6
CONTINUOUS
 62
    7
 10
1401.0247999999999
 20
909.65920000000006
 11
1580.9949999999999
 21
1089.6293000000001
  0
TEXT
  8
_0-2_LAYER005
 62
    7
 10
1869.8606391729595
 20
1295.1855216394938
 40
20
 41
1
 50
0
  1
登座：36x45（防腐処理）
  0
TEXT
  8
_0-2_LAYER005
 62
    7
 10
1669.621514723422
 20
1201.8307947001827
 40
20
 41
1
 50
0
  1
右袖瓦
  0
TEXT
  8
_0-2_LAYER005
 62
    7
 10
1141.96436245775
 20
1191.007058243451
 40
20
 41
1
 50
0
  1
桟　瓦
  0
TEXT
  8
_0-2_LAYER005
 62
    7
 10
1669.621514723422
 20
1338.480467466421
 40
20
 41
1
 50
0
  1
300
  0
TEXT
  8
_0-2_LAYER005
 62
    7
 10
1404.4399715334948
 20
1347.9512368660612
 40
20
 41
1
 50
0
  1
255
  0
TEXT
  8
_0-2_LAYER005
 62
    7
 10
1139.2584283435669
 20
1343.8923356947867
 40
20
 41
1
 50
0
  1
255
  0
TEXT
  8
_0-2_LAYER005
 62
    7
 10
1982.156904911551
 20
966.41452676626739
 40
20
 41
1
 50
90
  1
150
  0
TEXT
  8
_0-2_LAYER005
 62
    7
 10
1984.862839025734
 20
1062.4751878197615
 40
20
 41
1
 50
90
  1
30
  0
TEXT
  8
_0-2_LAYER005
 62
    7
 10
1983.5098719686425
 20
1096.2993642470483
 40
20
 41
1
 50
90
  1
36
  0
TEXT
  8
_0-2_LAYER005
 62
    7
 10
1765.6821757769167
 20
776.99913877346205
 40
20
 41
1
 50
0
  1
15
  0
TEXT
  8
_0-2_LAYER005
 62
    7
 10
1795.4474510329287
 20
776.99913877346205
 40
20
 41
1
 50
0
  1
35
  0
TEXT
  8
_0-0_LAYER001
 62
    7
 10
1768.2755092517575
 20
863.07704939530845
 40
15
 41
0.5
 50
0
  1
１５
  0
TEXT
  8
_0-2_LAYER005
 62
    7
 10
1898.9204010480958
 20
876.52578825669616
 40
20
 41
1
 50
0
  1
品板：30x90（防腐処理）
  0
TEXT
  8
_0-2_LAYER005
 62
    7
 10
1299.4908975119563
 20
791.99085827083059
 40
20
 41
1
 50
0
  1
瓦桟：15x30以上
  0
TEXT
  8
_0-2_LAYER005
 62
    7
 10
1299.4908975119563
 20
753.565890095437
 40
20
 41
1
 50
0
  1
下葺材：ルーフィング
  0
LINE
  8
_0-2_LAYER005
  6
CONTINUOUS
 62
    7
 10
1295.7112999999999
 20
750.35560000000009
 11
1522.355712929239
 21
750.35560000000009
  0
ENDSEC
  0
EOF
