  0
SECTION
  2
HEADER
  9
$ACADVER
  1
AC1009
  9
$INSBASE
 10
0
 20
0
 30
0
  9
$EXTMIN
 10
0
 20
0
  9
$EXTMAX
 10
2970
 20
2100
  9
$LIMMIN
 10
0
 20
0
  9
$LIMMAX
 10
2970
 20
2100
  9
$LTSCALE
 40
10
  0
ENDSEC
  0
SECTION
  2
TABLES
  0
TABLE
  2
LTYPE
 70
     9
  0
LTYPE
  2
CONTINUOUS
 70
    64
  3
実線
 72
    65
 73
     0
 40
0.0
  0
LTYPE
  2
DASHED1
 70
    64
  3
--  --  --  --  --  --  --  --  
 72
    65
 73
     2
 40
2.5
 49
1.25
 49
-1.25
  0
LTYPE
  2
DASHED2
 70
    64
  3
----    ----    ----    ----    
 72
    65
 73
     2
 40
5.0
 49
2.5
 49
-2.5
  0
LTYPE
  2
DASHED3
 70
    64
  3
------  ------  ------  ------  
 72
    65
 73
     2
 40
5.0
 49
3.75
 49
-1.25
  0
LTYPE
  2
CENTER1
 70
    64
  3
----- - ----- - ----- - ----- - 
 72
    65
 73
     4
 40
10.0
 49
6.25
 49
-1.25
 49
1.25
 49
-1.25
  0
LTYPE
  2
CENTER2
 70
    64
  3
----------  --  ----------  --  
 72
    65
 73
     4
 40
20.0
 49
12.5
 49
-2.5
 49
2.5
 49
-2.5
  0
LTYPE
  2
PHANTOM1
 70
    64
  3
--- - - --- - - --- - - --- - - 
 72
    65
 73
     6
 40
10.0
 49
3.25
 49
-1.25
 49
1.25
 49
-1.25
 49
1.25
 49
-1.25
  0
LTYPE
  2
PHANTOM2
 70
    64
  3
--------  -  -  --------  -  -  
 72
    65
 73
     6
 40
20.0
 49
10.0
 49
-2.5
 49
1.25
 49
-2.5
 49
1.25
 49
-2.5
  0
LTYPE
  2
DOT
 70
    64
  3
-   -   -   -   -   -   -   -   
 72
    65
 73
     2
 40
2.5
 49
0.625
 49
-1.875
  0
LTYPE
  2
DUMMY
 70
    64
  3
ダミー
 72
    65
 73
     0
 40
0.0
  0
LTYPE
  2
RAND1
 70
    64
  3
ランダム線1
 72
    65
 73
     4
 40
10.0
 49
1.0
 49
-2.0
 49
3.0
 49
-4.0
  0
LTYPE
  2
RAND2
 70
    64
  3
ランダム線2
 72
    65
 73
     4
 40
14.0
 49
2.0
 49
-3.0
 49
4.0
 49
-5.0
  0
LTYPE
  2
RAND3
 70
    64
  3
ランダム線3
 72
    65
 73
     4
 40
18.0
 49
3.0
 49
-4.0
 49
5.0
 49
-6.0
  0
LTYPE
  2
RAND4
 70
    64
  3
ランダム線4
 72
    65
 73
     4
 40
22.0
 49
4.0
 49
-5.0
 49
6.0
 49
-7.0
  0
LTYPE
  2
RAND5
 70
    64
  3
ランダム線5
 72
    65
 73
     4
 40
26.0
 49
5.0
 49
-6.0
 49
7.0
 49
-8.0
  0
LTYPE
  2
LONG1
 70
    64
  3
----------  --  ----------  --  
 72
    65
 73
     4
 40
40.0
 49
32.5
 49
-2.5
 49
2.5
 49
-2.5
  0
LTYPE
  2
LONG2
 70
    64
  3
--------  -  -  --------  -  -  
 72
    65
 73
     6
 40
40.0
 49
30.0
 49
-2.5
 49
1.25
 49
-2.5
 49
1.25
 49
-2.5
  0
LTYPE
  2
LONG3
 70
    64
  3
+++++++++++++++..+++++++++++++++
 72
    65
 73
     2
 40
40.0
 49
37.5
 49
-2.5
  0
LTYPE
  2
LONG4
 70
    64
  3
+++++++++++++++..+++++++++++++++
 72
    65
 73
     2
 40
80.0
 49
75.0
 49
-5.0
  0
LTYPE
  2
LONG5
 70
    64
  3
----------  --  ----------  --  
 72
    65
 73
     4
 40
60.0
 49
37.5
 49
-7.5
 49
7.5
 49
-7.5
  0
LTYPE
  2
dashed
 70
   64
  3
-------   -------------   ------
 72
   65
 73
    2
 40
7.5
 49
6
 49
-1.5
  0
LTYPE
  2
dashed_spaced
 70
   64
  3
----        --------        ----
 72
   65
 73
    2
 40
12
 49
6
 49
-6
  0
LTYPE
  2
long_dashed_dotted
 70
   64
  3
------------- --- --------------
 72
   65
 73
    4
 40
15.25
 49
12
 49
-1.5
 49
0.25
 49
-1.5
  0
LTYPE
  2
long_dashed_double-dotted
 70
   64
  3
----------- --- --- ------------
 72
   65
 73
    6
 40
17
 49
12
 49
-1.5
 49
0.25
 49
-1.5
 49
0.25
 49
-1.5
  0
LTYPE
  2
long_dashed_triplicate-dotted
 70
   64
  3
--------- --- --- --- ----------
 72
   65
 73
    8
 40
18.75
 49
12
 49
-1.5
 49
0.25
 49
-1.5
 49
0.25
 49
-1.5
 49
0.25
 49
-1.5
  0
LTYPE
  2
dotted
 70
   64
  3
   -       -       -       -    
 72
   65
 73
    2
 40
1.75
 49
0.25
 49
-1.5
  0
LTYPE
  2
chain
 70
   64
  3
-------------- -- --------------
 72
   65
 73
    4
 40
18.5
 49
12
 49
-1.5
 49
3.5
 49
-1.5
  0
LTYPE
  2
chain_double_dash
 70
   64
  3
------------ -- -- -------------
 72
   65
 73
    6
 40
23.5
 49
12
 49
-1.5
 49
3.5
 49
-1.5
 49
3.5
 49
-1.5
  0
LTYPE
  2
dashed_dotted
 70
   64
  3
-----------     -     ----------
 72
   65
 73
    4
 40
9.25
 49
6
 49
-1.5
 49
0.25
 49
-1.5
  0
LTYPE
  2
double-dashed_dotted
 70
   64
  3
------   -----------   -   -----
 72
   65
 73
    6
 40
16.75
 49
6
 49
-1.5
 49
6
 49
-1.5
 49
0.25
 49
-1.5
  0
LTYPE
  2
dashed_double-dotted
 70
   64
  3
---------    -    -    ---------
 72
   65
 73
    6
 40
11
 49
6
 49
-1.5
 49
0.25
 49
-1.5
 49
0.25
 49
-1.5
  0
LTYPE
  2
double-dashed_double-dotted
 70
   64
  3
-----   ---------   -   -   ----
 72
   65
 73
    8
 40
18.5
 49
6
 49
-1.5
 49
6
 49
-1.5
 49
0.25
 49
-1.5
 49
0.25
 49
-1.5
  0
LTYPE
  2
dashed_triplicate-dotted
 70
   64
  3
-------    -    -    -    ------
 72
   65
 73
    8
 40
12.75
 49
6
 49
-1.5
 49
0.25
 49
-1.5
 49
0.25
 49
-1.5
 49
0.25
 49
-1.5
  0
LTYPE
  2
double-dashed_triplicate-dotted
 70
   64
  3
-----  ---------  -  -  -  -----
 72
   65
 73
   10
 40
20.25
 49
6
 49
-1.5
 49
6
 49
-1.5
 49
0.25
 49
-1.5
 49
0.25
 49
-1.5
 49
0.25
 49
-1.5
  0
LTYPE
  2
undefined
 70
   64
  3
--------------------------------
 72
   65
 73
    0
 40
0
  0
ENDTAB
  0
TABLE
  2
STYLE
  5
3
100
AcDbSymbolTable
 70
     1
  0
STYLE
  5
10
100
AcDbSymbolTableRecord
100
AcDbTextStyleTableRecord
  2
STANDARD
 70
     0
 40
0.0
 41
1.0
 50
0.0
 71
     0
 42
0.2
  3
txt
  4
bigfont.shx
  0
STYLE
  5
26
100
AcDbSymbolTableRecord
100
AcDbTextStyleTableRecord
  2
TATEGAKI
 70
    68
 40
0.0
 41
1.0
 50
0.0
 71
     0
 42
1.0
  3
txt
  4
bigfont.shx
  0
ENDTAB
  0
TABLE
  2
LAYER
 70
    6
  0
LAYER
  2
_0-0_LAYER001
 70
   64
 62
    7
  6
CONTINUOUS
  0
LAYER
  2
_0-1_LAYER003
 70
   64
 62
    7
  6
CONTINUOUS
  0
LAYER
  2
_0-2_LAYER004
 70
   64
 62
    7
  6
CONTINUOUS
  0
LAYER
  2
_0-3_LAYER005
 70
   64
 62
    7
  6
CONTINUOUS
  0
LAYER
  2
_0-4_LAYER009
 70
   64
 62
    7
  6
CONTINUOUS
  0
LAYER
  2
ADD_LINE
 70
   64
 62
    7
  6
CONTINUOUS
  0
ENDTAB
  0
ENDSEC
  0
SECTION
  2
BLOCKS
  0
ENDSEC
  0
SECTION
  2
ENTITIES
  0
LINE
  8
_0-1_LAYER003
  6
DASHED1
 62
    2
 10
1131.5559000000001
 20
690.89750000000004
 11
2197.2402999999999
 21
1170.4559999999999
  0
LINE
  8
_0-1_LAYER003
  6
CONTINUOUS
 62
    2
 10
1131.5616
 20
690.90010000000007
 11
1122.4363000000001
 21
686.79369999999994
  0
LINE
  8
_0-1_LAYER003
  6
CONTINUOUS
 62
    2
 10
1135.579
 20
681.74209999999994
 11
2201.3440000000001
 21
1161.3368
  0
LINE
  8
_0-1_LAYER003
  6
CONTINUOUS
 62
    2
 10
1131.5559000000001
 20
690.89750000000004
 11
1135.579
 21
681.74209999999994
  0
LINE
  8
_0-0_LAYER001
  6
CONTINUOUS
 62
    2
 10
1092.1642999999999
 20
581.67930000000001
 11
1071.0443
 21
629.74379999999996
  0
CIRCLE
  8
_0-0_LAYER001
  6
CONTINUOUS
 62
    2
 10
1091.1586
 20
583.96810000000005
 40
1.6999999999999997
  0
LINE
  8
_0-0_LAYER001
  6
CONTINUOUS
 62
    2
 10
1091.1586
 20
583.96810000000005
 11
1155.2449999999999
 21
612.12830000000008
  0
CIRCLE
  8
_0-0_LAYER001
  6
CONTINUOUS
 62
    2
 10
1155.2449999999999
 20
612.12830000000008
 40
1.6999999999999997
  0
LINE
  8
_0-0_LAYER001
  6
CONTINUOUS
 62
    2
 10
1156.2507000000001
 20
609.83950000000004
 11
1135.1306999999999
 21
657.904
  0
LINE
  8
_0-0_LAYER001
  6
CONTINUOUS
 62
    2
 10
1127.1116
 20
638.86650000000009
 11
1116.0487000000001
 21
664.04310000000009
  0
CIRCLE
  8
_0-0_LAYER001
  6
CONTINUOUS
 62
    2
 10
1126.1059
 20
641.15519999999992
 40
1.6999999999999997
  0
LINE
  8
_0-0_LAYER001
  6
CONTINUOUS
 62
    2
 10
1126.1059
 20
641.15519999999992
 11
1139.8387
 21
647.18959999999993
  0
CIRCLE
  8
_0-0_LAYER001
  6
CONTINUOUS
 62
    2
 10
1139.8387
 20
647.18959999999993
 40
1.6999999999999997
  0
LINE
  8
_0-0_LAYER001
  6
CONTINUOUS
 62
    2
 10
1140.8444
 20
644.90079999999989
 11
1129.7815000000001
 21
670.0773999999999
  0
LINE
  8
_0-3_LAYER005
  6
CONTINUOUS
 62
    2
 10
1050.1495
 20
874.8418999999999
 11
1052.0906
 21
867.59740000000011
  0
LINE
  8
_0-3_LAYER005
  6
CONTINUOUS
 62
    2
 10
1052.0906
 20
867.59740000000011
 11
1046.7873
 21
872.90069999999992
  0
LINE
  8
_0-3_LAYER005
  6
CONTINUOUS
 62
    2
 10
1052.0906
 20
867.59740000000011
 11
1000.4472000000001
 21
957.04649999999992
  0
LINE
  8
_0-3_LAYER005
  6
CONTINUOUS
 62
    2
 10
1000.4472000000001
 20
957.04649999999992
 11
959.94720000000007
 21
957.04649999999992
  0
LINE
  8
_0-4_LAYER009
  6
CONTINUOUS
 62
    2
 10
1059.2493999999999
 20
821.19250000000011
 11
1062.9993999999999
 21
827.68769999999995
  0
LINE
  8
_0-4_LAYER009
  6
CONTINUOUS
 62
    2
 10
1062.9993999999999
 20
827.68769999999995
 11
1062.9993999999999
 21
820.18769999999995
  0
LINE
  8
_0-4_LAYER009
  6
CONTINUOUS
 62
    2
 10
1062.9993999999999
 20
827.68769999999995
 11
1043.1052999999999
 21
753.44190000000003
  0
LINE
  8
_0-4_LAYER009
  6
CONTINUOUS
 62
    2
 10
1043.1052999999999
 20
753.44190000000003
 11
896.10529999999994
 21
753.44190000000003
  0
LINE
  8
_0-0_LAYER001
  6
CONTINUOUS
 62
    2
 10
2047.2658000000001
 20
1298.2358999999999
 11
2074.6233999999999
 21
1310.5468999999998
  0
LINE
  8
_0-0_LAYER001
  6
CONTINUOUS
 62
    2
 10
2068.4679000000001
 20
1324.2257
 11
2041.1102999999998
 21
1311.9147
  0
LINE
  8
_0-0_LAYER001
  6
CONTINUOUS
 62
    2
 10
2074.6233999999999
 20
1310.5468999999998
 11
2068.4679000000001
 21
1324.2257
  0
LINE
  8
_0-0_LAYER001
  6
CONTINUOUS
 62
    2
 10
2041.1102999999998
 20
1311.9147
 11
2047.2658000000001
 21
1298.2358999999999
  0
LINE
  8
_0-0_LAYER001
  6
CONTINUOUS
 62
    2
 10
2068.4679000000001
 20
1324.2257
 11
2047.2658000000001
 21
1298.2358999999999
  0
LINE
  8
_0-0_LAYER001
  6
CONTINUOUS
 62
    2
 10
1841.5882000000001
 20
1205.6809000000001
 11
1868.9355
 21
1218.0148999999999
  0
LINE
  8
_0-0_LAYER001
  6
CONTINUOUS
 62
    2
 10
1862.7683999999999
 20
1231.6885
 11
1835.4212000000002
 21
1219.3544999999999
  0
LINE
  8
_0-0_LAYER001
  6
CONTINUOUS
 62
    2
 10
1868.9355
 20
1218.0148999999999
 11
1862.7683999999999
 21
1231.6885
  0
LINE
  8
_0-0_LAYER001
  6
CONTINUOUS
 62
    2
 10
1835.4212000000002
 20
1219.3544999999999
 11
1841.5882000000001
 21
1205.6809000000001
  0
LINE
  8
_0-0_LAYER001
  6
CONTINUOUS
 62
    2
 10
1862.7683999999999
 20
1231.6885
 11
1841.5882000000001
 21
1205.6809000000001
  0
LINE
  8
_0-0_LAYER001
  6
CONTINUOUS
 62
    2
 10
1635.8208
 20
1113.0853999999999
 11
1663.1783999999998
 21
1125.3964000000001
  0
LINE
  8
_0-0_LAYER001
  6
CONTINUOUS
 62
    2
 10
1657.0228999999999
 20
1139.0752
 11
1629.6653000000001
 21
1126.7643
  0
LINE
  8
_0-0_LAYER001
  6
CONTINUOUS
 62
    2
 10
1663.1783999999998
 20
1125.3964000000001
 11
1657.0228999999999
 21
1139.0752
  0
LINE
  8
_0-0_LAYER001
  6
CONTINUOUS
 62
    2
 10
1629.6653000000001
 20
1126.7643
 11
1635.8208
 21
1113.0853999999999
  0
LINE
  8
_0-0_LAYER001
  6
CONTINUOUS
 62
    2
 10
1657.0228999999999
 20
1139.0752
 11
1635.8208
 21
1113.0853999999999
  0
LINE
  8
_0-0_LAYER001
  6
CONTINUOUS
 62
    2
 10
1430.0532000000001
 20
1020.49
 11
1457.4108999999999
 21
1032.8009
  0
LINE
  8
_0-0_LAYER001
  6
CONTINUOUS
 62
    2
 10
1451.2554
 20
1046.4797000000001
 11
1423.8977
 21
1034.1687999999999
  0
LINE
  8
_0-0_LAYER001
  6
CONTINUOUS
 62
    2
 10
1457.4108999999999
 20
1032.8009
 11
1451.2554
 21
1046.4797000000001
  0
LINE
  8
_0-0_LAYER001
  6
CONTINUOUS
 62
    2
 10
1423.8977
 20
1034.1687999999999
 11
1430.0532000000001
 21
1020.49
  0
LINE
  8
_0-0_LAYER001
  6
CONTINUOUS
 62
    2
 10
1451.2554
 20
1046.4797000000001
 11
1430.0532000000001
 21
1020.49
  0
LINE
  8
_0-0_LAYER001
  6
CONTINUOUS
 62
    2
 10
1224.2856999999999
 20
927.89450000000011
 11
1251.6427000000001
 21
940.20679999999993
  0
LINE
  8
_0-0_LAYER001
  6
CONTINUOUS
 62
    2
 10
1245.4865
 20
953.88529999999992
 11
1218.1295
 21
941.57300000000009
  0
LINE
  8
_0-0_LAYER001
  6
CONTINUOUS
 62
    2
 10
1251.6427000000001
 20
940.20679999999993
 11
1245.4865
 21
953.88529999999992
  0
LINE
  8
_0-0_LAYER001
  6
CONTINUOUS
 62
    2
 10
1218.1295
 20
941.57300000000009
 11
1224.2856999999999
 21
927.89450000000011
  0
LINE
  8
_0-0_LAYER001
  6
CONTINUOUS
 62
    2
 10
1245.4865
 20
953.88529999999992
 11
1224.2856999999999
 21
927.89450000000011
  0
LINE
  8
_0-0_LAYER001
  6
CONTINUOUS
 62
    4
 10
2069.6727999999998
 20
1325.5827999999999
 11
2073.7654000000002
 21
1314.3022000000001
  0
LINE
  8
_0-0_LAYER001
  6
CONTINUOUS
 62
    4
 10
1804.4225999999999
 20
1247.4335000000001
 11
2112.3308999999999
 21
1359.1434999999999
  0
LINE
  8
_0-0_LAYER001
  6
CONTINUOUS
 62
    4
 10
1787.7687999999998
 20
1293.3364999999999
 11
1989.8784000000001
 21
1366.6623999999999
  0
LINE
  8
_0-0_LAYER001
  6
CONTINUOUS
 62
    4
 10
1987.4911000000002
 20
1373.2427000000002
 11
2006.5322000000001
 21
1320.7593999999999
  0
ARC
  8
_0-0_LAYER001
  6
CONTINUOUS
 62
    4
 10
1996.8915000000002
 20
1376.6532999999999
 40
10
 50
109.94091000000002
 51
199.94091
  0
LINE
  8
_0-0_LAYER001
  6
CONTINUOUS
 62
    4
 10
1010.5271
 20
868.98469999999998
 11
1246.8239000000001
 21
954.71389999999997
  0
LINE
  8
_0-0_LAYER001
  6
CONTINUOUS
 62
    4
 10
1259.3769
 20
946.50279999999998
 11
1250.9165
 21
943.43329999999992
  0
LINE
  8
_0-0_LAYER001
  6
CONTINUOUS
 62
    4
 10
1249.4865
 20
973.7641000000001
 11
1259.3769
 21
946.50279999999998
  0
LINE
  8
_0-0_LAYER001
  6
CONTINUOUS
 62
    4
 10
1246.8239000000001
 20
954.71389999999997
 11
1250.9165
 21
943.43329999999992
  0
ARC
  8
_0-0_LAYER001
  6
CONTINUOUS
 62
    4
 10
1396.4086
 20
1052.5986
 40
10
 50
109.94091000000002
 51
199.94091
  0
ARC
  8
_0-0_LAYER001
  6
CONTINUOUS
 62
    4
 10
1602.1208999999999
 20
1145.3158000000001
 40
10
 50
109.94091000000002
 51
199.94091
  0
ARC
  8
_0-0_LAYER001
  6
CONTINUOUS
 62
    4
 10
1807.8330999999998
 20
1238.0329999999999
 40
10
 50
109.94091000000002
 51
199.94091
  0
ARC
  8
_0-0_LAYER001
  6
CONTINUOUS
 62
    4
 10
2013.5453000000002
 20
1330.7501999999999
 40
10
 50
109.94091000000002
 51
199.94091
  0
ARC
  8
_0-0_LAYER001
  6
CONTINUOUS
 62
    4
 10
1190.6964
 20
959.88130000000001
 40
10
 50
109.94091000000002
 51
199.94091
  0
ARC
  8
_0-0_LAYER001
  6
CONTINUOUS
 62
    4
 10
946.97170000000006
 20
1026.9691
 40
104.21281
 50
268.69240000000002
 51
288.42793999999998
  0
LINE
  8
_0-0_LAYER001
  6
CONTINUOUS
 62
    4
 10
997.91709999999989
 20
845.44740000000002
 11
1003.1998000000001
 21
823.77520000000004
  0
ARC
  8
_0-0_LAYER001
  6
CONTINUOUS
 62
    4
 10
1017.3480999999999
 20
850.18380000000002
 40
20
 50
109.94091000000002
 51
193.69899000000001
  0
LINE
  8
_0-0_LAYER001
  6
CONTINUOUS
 62
    4
 10
1168.0527
 20
992.97340000000008
 11
1183.6832999999999
 21
949.89049999999997
  0
ARC
  8
_0-0_LAYER001
  6
CONTINUOUS
 62
    4
 10
1186.8535999999999
 20
999.7944
 40
20
 50
109.94091000000002
 51
199.94091
  0
LINE
  8
_0-0_LAYER001
  6
CONTINUOUS
 62
    4
 10
2010.1347999999998
 20
1340.1506999999997
 11
2105.3350999999998
 21
1374.6895999999997
  0
LINE
  8
_0-0_LAYER001
  6
CONTINUOUS
 62
    4
 10
2073.7654000000002
 20
1314.3022000000001
 11
2082.2258000000002
 21
1317.3716999999999
  0
LINE
  8
_0-0_LAYER001
  6
CONTINUOUS
 62
    4
 10
2072.3353000000002
 20
1344.633
 11
2082.2258000000002
 21
1317.3716999999999
  0
LINE
  8
_0-0_LAYER001
  6
CONTINUOUS
 62
    4
 10
1987.4911000000002
 20
1373.2427000000002
 11
2000.7343000000001
 21
1336.7401999999997
  0
LINE
  8
_0-0_LAYER001
  6
CONTINUOUS
 62
    4
 10
1604.5082000000002
 20
1138.7355
 11
1863.9605999999999
 21
1232.8655000000001
  0
LINE
  8
_0-0_LAYER001
  6
CONTINUOUS
 62
    4
 10
1863.9605999999999
 20
1232.8655000000001
 11
1868.0531999999998
 21
1221.585
  0
LINE
  8
_0-0_LAYER001
  6
CONTINUOUS
 62
    4
 10
1868.0531999999998
 20
1221.585
 11
1876.5136000000002
 21
1224.6545000000001
  0
LINE
  8
_0-0_LAYER001
  6
CONTINUOUS
 62
    4
 10
1670.8013999999998
 20
1131.9372000000001
 11
1662.3409999999999
 21
1128.8678
  0
LINE
  8
_0-0_LAYER001
  6
CONTINUOUS
 62
    4
 10
1452.5360999999998
 20
1047.4311
 11
1456.6288
 21
1036.1505
  0
LINE
  8
_0-0_LAYER001
  6
CONTINUOUS
 62
    4
 10
1465.0891999999999
 20
1039.22
 11
1456.6288
 21
1036.1505
  0
LINE
  8
_0-0_LAYER001
  6
CONTINUOUS
 62
    4
 10
980.7971
 20
928.21810000000005
 11
1167.0327
 21
995.78490000000011
  0
LINE
  8
_0-0_LAYER001
  6
CONTINUOUS
 62
    4
 10
1180.0326
 20
1018.5953
 11
1372.7418
 21
1088.5108
  0
ARC
  8
_0-0_LAYER001
  6
CONTINUOUS
 62
    4
 10
1379.7548999999999
 20
1098.5016000000001
 40
10
 50
109.94091000000002
 51
199.94091
  0
LINE
  8
_0-0_LAYER001
  6
CONTINUOUS
 62
    4
 10
1370.3543999999999
 20
1095.0911000000001
 11
1389.3955000000001
 21
1042.6077
  0
LINE
  8
_0-0_LAYER001
  6
CONTINUOUS
 62
    4
 10
1379.5627999999999
 20
1069.7099000000001
 11
1389.3955000000001
 21
1042.6077
  0
LINE
  8
_0-0_LAYER001
  6
CONTINUOUS
 62
    4
 10
1455.1986999999999
 20
1066.4812999999999
 11
1465.0891999999999
 21
1039.22
  0
LINE
  8
_0-0_LAYER001
  6
CONTINUOUS
 62
    4
 10
1187.2859000000001
 20
969.28179999999998
 11
1658.2483999999999
 21
1140.1483000000001
  0
LINE
  8
_0-0_LAYER001
  6
CONTINUOUS
 62
    4
 10
1658.2483999999999
 20
1140.1483000000001
 11
1662.3409999999999
 21
1128.8678
  0
LINE
  8
_0-0_LAYER001
  6
CONTINUOUS
 62
    4
 10
1376.3444
 20
1107.902
 11
1578.4540000000002
 21
1181.2280000000001
  0
ARC
  8
_0-0_LAYER001
  6
CONTINUOUS
 62
    4
 10
1585.4670999999998
 20
1191.2188000000001
 40
10
 50
109.94091000000002
 51
199.94091
  0
LINE
  8
_0-0_LAYER001
  6
CONTINUOUS
 62
    4
 10
1576.0666999999999
 20
1187.8082999999999
 11
1595.1078000000002
 21
1135.325
  0
LINE
  8
_0-0_LAYER001
  6
CONTINUOUS
 62
    4
 10
1576.0666999999999
 20
1187.8082999999999
 11
1595.1078000000002
 21
1135.325
  0
LINE
  8
_0-0_LAYER001
  6
CONTINUOUS
 62
    4
 10
1392.9981
 20
1061.999
 11
1660.9108999999999
 21
1159.1985
  0
LINE
  8
_0-0_LAYER001
  6
CONTINUOUS
 62
    4
 10
1660.9108999999999
 20
1159.1985
 11
1670.8013999999998
 21
1131.9372000000001
  0
LINE
  8
_0-0_LAYER001
  6
CONTINUOUS
 62
    4
 10
1582.0565999999999
 20
1200.6193000000001
 11
1784.1662000000001
 21
1273.9452000000001
  0
LINE
  8
_0-0_LAYER001
  6
CONTINUOUS
 62
    4
 10
1787.5767000000001
 20
1264.5447999999999
 11
1800.8200000000002
 21
1228.0422000000001
  0
LINE
  8
_0-0_LAYER001
  6
CONTINUOUS
 62
    4
 10
1866.6230999999998
 20
1251.9158
 11
1876.5136000000002
 21
1224.6545000000001
  0
LINE
  8
_0-0_LAYER001
  6
CONTINUOUS
 62
    4
 10
1598.7103000000002
 20
1154.7162000000001
 11
2069.6727999999998
 21
1325.5827999999999
  0
LINE
  8
_0-0_LAYER001
  6
CONTINUOUS
 62
    4
 10
1993.4810000000002
 20
1386.0536999999999
 11
2085.2404999999999
 21
1419.3443
  0
LINE
  8
_0-0_LAYER001
  6
CONTINUOUS
 62
    4
 10
1781.7788999999998
 20
1280.5255
 11
1800.8200000000002
 21
1228.0422000000001
  0
ARC
  8
_0-0_LAYER001
  6
CONTINUOUS
 62
    4
 10
1791.1792999999998
 20
1283.9359999999999
 40
10
 50
109.94091000000002
 51
199.94091
  0
LINE
  8
_0-0_LAYER001
  6
CONTINUOUS
 62
    4
 10
944.77179999999998
 20
922.61159999999995
 11
973.68579999999997
 21
829.90769999999998
  0
ARC
  8
_0-0_LAYER001
  6
CONTINUOUS
 62
    4
 10
1125.2336
 20
928.78359999999998
 40
181.02933999999999
 50
181.81043
 51
212.85045999999997
  0
LINE
  8
_0-0_LAYER001
  6
CONTINUOUS
 62
    4
 10
972.31570000000011
 20
873.26829999999995
 11
972.24050000000011
 21
872.62040000000002
  0
LINE
  8
_0-0_LAYER001
  6
CONTINUOUS
 62
    4
 10
1452.5360999999998
 20
1047.4311
 11
972.10979999999995
 21
873.13100000000009
  0
LINE
  8
_0-0_LAYER001
  6
CONTINUOUS
 62
    4
 10
973.68579999999997
 20
829.90769999999998
 11
983.7192
 21
833.54790000000003
  0
LINE
  8
_0-0_LAYER001
  6
CONTINUOUS
 62
    4
 10
972.10979999999995
 20
873.13100000000009
 11
988.18329999999992
 21
818.32709999999997
  0
LINE
  8
_0-0_LAYER001
  6
CONTINUOUS
 62
    4
 10
1003.1998000000001
 20
823.77520000000004
 11
988.18329999999992
 21
818.32709999999997
  0
CIRCLE
  8
_0-0_LAYER001
  6
CONTINUOUS
 62
    2
 10
873.36799999999994
 20
1143.6257000000001
 40
1.6999999999999997
  0
LINE
  8
_0-0_LAYER001
  6
CONTINUOUS
 62
    2
 10
873.36799999999994
 20
1143.6257000000001
 11
1084.7175
 21
1220.8035
  0
CIRCLE
  8
_0-0_LAYER001
  6
CONTINUOUS
 62
    2
 10
1084.7175
 20
1220.8035
 40
1.6999999999999997
  0
LINE
  8
_0-0_LAYER001
  6
CONTINUOUS
 62
    2
 10
872.51050000000009
 20
1145.9739999999999
 11
890.51860000000011
 21
1096.6591000000001
  0
LINE
  8
_0-0_LAYER001
  6
CONTINUOUS
 62
    2
 10
1083.8598999999999
 20
1223.1518000000001
 11
1101.8680999999999
 21
1173.8369
  0
CIRCLE
  8
_0-0_LAYER001
  6
CONTINUOUS
 62
    2
 10
1075.4772
 20
1246.1077
 40
1.6999999999999997
  0
LINE
  8
_0-0_LAYER001
  6
CONTINUOUS
 62
    2
 10
1075.4772
 20
1246.1077
 11
1286.8265999999999
 21
1323.2855
  0
CIRCLE
  8
_0-0_LAYER001
  6
CONTINUOUS
 62
    2
 10
1286.8265999999999
 20
1323.2855
 40
1.6999999999999997
  0
LINE
  8
_0-0_LAYER001
  6
CONTINUOUS
 62
    2
 10
1074.6197
 20
1248.4561000000001
 11
1092.6278
 21
1199.1412
  0
LINE
  8
_0-0_LAYER001
  6
CONTINUOUS
 62
    2
 10
1285.9691
 20
1325.6338000000001
 11
1303.9773
 21
1276.319
  0
CIRCLE
  8
_0-0_LAYER001
  6
CONTINUOUS
 62
    2
 10
1278.2188000000001
 20
1346.8578
 40
1.6999999999999997
  0
LINE
  8
_0-0_LAYER001
  6
CONTINUOUS
 62
    2
 10
1278.2188000000001
 20
1346.8578
 11
1489.5682999999999
 21
1424.0355
  0
CIRCLE
  8
_0-0_LAYER001
  6
CONTINUOUS
 62
    2
 10
1489.5682999999999
 20
1424.0355
 40
1.6999999999999997
  0
LINE
  8
_0-0_LAYER001
  6
CONTINUOUS
 62
    2
 10
1277.3613
 20
1349.2061000000001
 11
1295.3694999999998
 21
1299.8912
  0
LINE
  8
_0-0_LAYER001
  6
CONTINUOUS
 62
    2
 10
1488.7107999999998
 20
1426.3839000000003
 11
1506.7188999999998
 21
1377.069
  0
LINE
  8
_0-0_LAYER001
  6
CONTINUOUS
 62
    2
 10
884.39989999999989
 20
572.86599999999999
 11
932.46440000000007
 21
593.9860000000001
  0
CIRCLE
  8
_0-0_LAYER001
  6
CONTINUOUS
 62
    2
 10
886.68869999999993
 20
573.87170000000003
 40
1.6999999999999997
  0
LINE
  8
_0-0_LAYER001
  6
CONTINUOUS
 62
    2
 10
886.68869999999993
 20
573.87170000000003
 11
826.40969999999993
 21
711.05349999999999
  0
CIRCLE
  8
_0-0_LAYER001
  6
CONTINUOUS
 62
    2
 10
826.40969999999993
 20
711.05349999999999
 40
1.6999999999999997
  0
LINE
  8
_0-0_LAYER001
  6
CONTINUOUS
 62
    2
 10
824.12089999999989
 20
710.04780000000005
 11
872.18540000000007
 21
731.16779999999994
  0
CIRCLE
  8
_0-0_LAYER001
  6
CONTINUOUS
 62
    2
 10
826.40969999999993
 20
711.05349999999999
 40
1.6999999999999997
  0
LINE
  8
_0-0_LAYER001
  6
CONTINUOUS
 62
    2
 10
826.40969999999993
 20
711.05349999999999
 11
814.48199999999997
 21
738.19839999999999
  0
CIRCLE
  8
_0-0_LAYER001
  6
CONTINUOUS
 62
    2
 10
814.48199999999997
 20
738.19839999999999
 40
1.6999999999999997
  0
LINE
  8
_0-0_LAYER001
  6
CONTINUOUS
 62
    2
 10
812.19319999999993
 20
737.19260000000008
 11
860.25770000000011
 21
758.31259999999997
  0
LINE
  8
_0-0_LAYER001
  6
DASHED1
 62
    2
 10
1070.1348
 20
805.8146999999999
 11
1147.6516999999999
 21
840.69730000000004
  0
LINE
  8
_0-0_LAYER001
  6
DASHED1
 62
    2
 10
1079.2544
 20
809.91849999999999
 11
1131.5914
 21
690.81670000000008
  0
LINE
  8
_0-0_LAYER001
  6
CONTINUOUS
 62
    2
 10
1103.2458999999999
 20
899.52099999999996
 11
1075.2859000000001
 21
851.99600000000009
  0
LINE
  8
_0-0_LAYER001
  6
CONTINUOUS
 62
    2
 10
1060.0617
 20
885.8279
 11
1116.3228999999999
 21
870.46250000000009
  0
LINE
  8
_0-3_LAYER005
  6
CONTINUOUS
 62
    2
 10
1087.2270000000001
 20
888.63850000000002
 11
1089.1681000000001
 21
881.39409999999998
  0
LINE
  8
_0-3_LAYER005
  6
CONTINUOUS
 62
    2
 10
1089.1681000000001
 20
881.39409999999998
 11
1083.8648000000001
 21
886.69740000000002
  0
LINE
  8
_0-3_LAYER005
  6
CONTINUOUS
 62
    2
 10
1089.1681000000001
 20
881.39409999999998
 11
1007.1559
 21
1023.4434000000001
  0
LINE
  8
_0-3_LAYER005
  6
CONTINUOUS
 62
    2
 10
1007.1559
 20
1023.4434000000001
 11
768.65589999999997
 21
1023.4434000000001
  0
LINE
  8
_0-0_LAYER001
  6
CONTINUOUS
 62
    2
 10
1374.1371999999999
 20
661.48379999999997
 11
1353.0171999999998
 21
709.54829999999993
  0
CIRCLE
  8
_0-0_LAYER001
  6
CONTINUOUS
 62
    2
 10
1373.1315
 20
663.77260000000001
 40
1.6999999999999997
  0
LINE
  8
_0-0_LAYER001
  6
CONTINUOUS
 62
    2
 10
1373.1315
 20
663.77260000000001
 11
1579.7001
 21
754.54079999999999
  0
CIRCLE
  8
_0-0_LAYER001
  6
CONTINUOUS
 62
    2
 10
1579.7001
 20
754.54079999999999
 40
1.6999999999999997
  0
LINE
  8
_0-0_LAYER001
  6
CONTINUOUS
 62
    2
 10
1580.7058000000002
 20
752.25199999999995
 11
1559.5857999999998
 21
800.31649999999991
  0
CIRCLE
  8
_0-0_LAYER001
  6
CONTINUOUS
 62
    2
 10
1579.7001
 20
754.54079999999999
 40
1.6999999999999997
  0
LINE
  8
_0-0_LAYER001
  6
CONTINUOUS
 62
    2
 10
1579.7001
 20
754.54079999999999
 11
1786.2687000000001
 21
845.30899999999997
  0
CIRCLE
  8
_0-0_LAYER001
  6
CONTINUOUS
 62
    2
 10
1786.2687000000001
 20
845.30899999999997
 40
1.6999999999999997
  0
LINE
  8
_0-0_LAYER001
  6
CONTINUOUS
 62
    2
 10
1787.2745
 20
843.02029999999991
 11
1766.1545000000001
 21
891.08480000000009
  0
CIRCLE
  8
_0-0_LAYER001
  6
CONTINUOUS
 62
    2
 10
1786.2687000000001
 20
845.30899999999997
 40
1.6999999999999997
  0
LINE
  8
_0-0_LAYER001
  6
CONTINUOUS
 62
    2
 10
1786.2687000000001
 20
845.30899999999997
 11
1992.8373999999999
 21
936.07729999999992
  0
CIRCLE
  8
_0-0_LAYER001
  6
CONTINUOUS
 62
    2
 10
1992.8373999999999
 20
936.07729999999992
 40
1.6999999999999997
  0
LINE
  8
_0-0_LAYER001
  6
CONTINUOUS
 62
    2
 10
1993.8431
 20
933.78850000000011
 11
1972.7231000000002
 21
981.85300000000007
  0
LINE
  8
_0-0_LAYER001
  6
CONTINUOUS
 62
    2
 10
1374.1371999999999
 20
661.48379999999997
 11
1353.0171999999998
 21
709.54829999999993
  0
CIRCLE
  8
_0-0_LAYER001
  6
CONTINUOUS
 62
    2
 10
1373.1315
 20
663.77260000000001
 40
1.6999999999999997
  0
LINE
  8
_0-0_LAYER001
  6
CONTINUOUS
 62
    2
 10
1373.1315
 20
663.77260000000001
 11
1171.4857999999999
 21
575.16759999999999
  0
CIRCLE
  8
_0-0_LAYER001
  6
CONTINUOUS
 62
    2
 10
1171.4857999999999
 20
575.16759999999999
 40
1.6999999999999997
  0
LINE
  8
_0-0_LAYER001
  6
CONTINUOUS
 62
    2
 10
1172.4916000000001
 20
572.87879999999996
 11
1151.3715999999999
 21
620.94329999999991
  0
LINE
  8
_0-3_LAYER005
  6
CONTINUOUS
 62
    2
 10
1166.7426
 20
951.00990000000002
 11
1168.6837
 21
943.7654
  0
LINE
  8
_0-3_LAYER005
  6
CONTINUOUS
 62
    2
 10
1168.6837
 20
943.7654
 11
1163.3804
 21
949.06870000000004
  0
LINE
  8
_0-3_LAYER005
  6
CONTINUOUS
 62
    2
 10
1168.6837
 20
943.7654
 11
1077.3901000000001
 21
1101.8905999999999
  0
LINE
  8
_0-3_LAYER005
  6
CONTINUOUS
 62
    2
 10
1077.3901000000001
 20
1101.8905999999999
 11
1012.8901000000001
 21
1101.8905999999999
  0
CIRCLE
  8
_0-0_LAYER001
  6
CONTINUOUS
 62
    2
 10
1480.9605000000001
 20
1447.6078000000002
 40
1.6999999999999997
  0
LINE
  8
_0-0_LAYER001
  6
CONTINUOUS
 62
    2
 10
1480.9605000000001
 20
1447.6078000000002
 11
1692.3099000000002
 21
1524.7855
  0
CIRCLE
  8
_0-0_LAYER001
  6
CONTINUOUS
 62
    2
 10
1692.3099000000002
 20
1524.7855
 40
1.6999999999999997
  0
LINE
  8
_0-0_LAYER001
  6
CONTINUOUS
 62
    2
 10
1480.1030000000001
 20
1449.9560999999999
 11
1498.1111000000001
 21
1400.6412
  0
LINE
  8
_0-0_LAYER001
  6
CONTINUOUS
 62
    2
 10
1691.4524000000001
 20
1527.1339
 11
1709.4605999999999
 21
1477.819
  0
LINE
  8
_0-0_LAYER001
  6
DASHED1
 62
    2
 10
1131.5583999999999
 20
877.31860000000006
 11
1147.6516999999999
 21
840.69730000000004
  0
LINE
  8
_0-1_LAYER003
  6
CONTINUOUS
 62
    2
 10
1122.4387999999999
 20
873.21479999999997
 11
2127.4780999999998
 21
1325.4829999999997
  0
LINE
  8
_0-2_LAYER004
  6
DASHED3
 62
    2
 10
1114.6813
 20
874.11040000000003
 11
2125.837
 21
1329.1300000000001
  0
LINE
  8
_0-1_LAYER003
  6
CONTINUOUS
 62
    3
 10
1040.3629000000001
 20
836.28070000000002
 11
1052.4329
 21
808.8146999999999
  0
LINE
  8
_0-1_LAYER003
  6
CONTINUOUS
 62
    3
 10
1122.4389000000001
 20
873.21469999999999
 11
1040.3629000000001
 21
836.28070000000002
  0
LINE
  8
_0-1_LAYER003
  6
CONTINUOUS
 62
    3
 10
1122.4387999999999
 20
873.21479999999997
 11
1134.509
 21
845.74839999999995
  0
LINE
  8
_0-1_LAYER003
  6
CONTINUOUS
 62
    2
 10
1066.1119000000001
 20
814.9697000000001
 11
1122.4363000000001
 21
686.79369999999994
  0
LINE
  8
_0-1_LAYER003
  6
CONTINUOUS
 62
    2
 10
1060.0617
 20
885.8279
 11
1103.2458999999999
 21
899.52099999999996
  0
LINE
  8
_0-1_LAYER003
  6
CONTINUOUS
 62
    2
 10
1060.0617
 20
885.8279
 11
1075.2860000000001
 21
851.99579999999992
  0
LINE
  8
_0-1_LAYER003
  6
CONTINUOUS
 62
    2
 10
1103.2458999999999
 20
899.52099999999996
 11
1116.3228999999999
 21
870.46239999999989
  0
LINE
  8
_0-3_LAYER005
  6
CONTINUOUS
 62
    2
 10
1034.0889999999999
 20
877.5329999999999
 11
1050.5829000000001
 21
840.87969999999996
  0
LINE
  8
_0-1_LAYER003
  6
DASHED1
 62
    2
 10
1034.0889999999999
 20
877.5329999999999
 11
1017.5248999999999
 21
914.34269999999992
  0
LINE
  8
_0-1_LAYER003
  6
CONTINUOUS
 62
    2
 10
1304.6053000000002
 20
955.1898000000001
 11
1218.6909000000001
 21
719.14249999999993
  0
LINE
  8
_0-1_LAYER003
  6
CONTINUOUS
 62
    2
 10
1279.1519000000001
 20
943.73569999999995
 11
1193.2375999999999
 21
707.6884
  0
LINE
  8
_0-1_LAYER003
  6
CONTINUOUS
 62
    2
 10
1291.8788999999997
 20
949.46289999999999
 11
1205.9646
 21
713.41560000000004
  0
LINE
  8
_0-1_LAYER003
  6
CONTINUOUS
 62
    2
 10
1702.1860999999999
 20
1134.1014
 11
1616.2718
 21
898.05400000000009
  0
LINE
  8
_0-1_LAYER003
  6
CONTINUOUS
 62
    2
 10
1714.9119999999998
 20
1139.828
 11
1628.9976999999999
 21
903.78070000000002
  0
LINE
  8
_0-1_LAYER003
  6
CONTINUOUS
 62
    2
 10
1727.6383000000001
 20
1145.5547999999999
 11
1641.7240000000002
 21
909.50749999999994
  0
LINE
  8
_0-1_LAYER003
  6
CONTINUOUS
 62
    2
 10
2099.6588000000002
 20
1312.9643000000001
 11
2013.7462
 21
1076.9177
  0
LINE
  8
_0-1_LAYER003
  6
CONTINUOUS
 62
    2
 10
2112.3861999999999
 20
1318.6916000000001
 11
2026.4719
 21
1082.6442999999999
  0
LINE
  8
_0-1_LAYER003
  6
CONTINUOUS
 62
    2
 10
2125.1120999999998
 20
1324.4182000000001
 11
2039.1977999999999
 21
1088.3708999999999
  0
LINE
  8
_0-1_LAYER003
  6
CONTINUOUS
 62
    2
 10
1047.6159
 20
819.77569999999992
 11
1056.6699000000001
 21
810.72170000000006
  0
LINE
  8
_0-1_LAYER003
  6
CONTINUOUS
 62
    2
 10
1041.7849000000001
 20
836.9206999999999
 11
1064.4729
 21
814.23270000000002
  0
LINE
  8
_0-1_LAYER003
  6
CONTINUOUS
 62
    2
 10
1049.5869
 20
840.43170000000009
 11
1072.2748999999999
 21
817.74369999999999
  0
LINE
  8
_0-1_LAYER003
  6
CONTINUOUS
 62
    2
 10
1057.3898999999999
 20
843.94270000000006
 11
1080.0779
 21
821.25469999999996
  0
LINE
  8
_0-1_LAYER003
  6
CONTINUOUS
 62
    2
 10
1065.1919
 20
847.45370000000003
 11
1087.8798999999999
 21
824.76569999999992
  0
LINE
  8
_0-1_LAYER003
  6
CONTINUOUS
 62
    2
 10
1072.9948999999999
 20
850.96469999999999
 11
1095.6829
 21
828.27669999999989
  0
LINE
  8
_0-1_LAYER003
  6
CONTINUOUS
 62
    2
 10
1080.7969000000001
 20
854.47569999999996
 11
1103.4848999999999
 21
831.78770000000009
  0
LINE
  8
_0-1_LAYER003
  6
CONTINUOUS
 62
    2
 10
1088.5998999999999
 20
857.98669999999993
 11
1111.2879
 21
835.29970000000003
  0
LINE
  8
_0-1_LAYER003
  6
CONTINUOUS
 62
    2
 10
1096.4029
 20
861.4987000000001
 11
1119.0908999999999
 21
838.8107
  0
LINE
  8
_0-1_LAYER003
  6
CONTINUOUS
 62
    2
 10
1104.2049
 20
865.00970000000007
 11
1126.8929000000001
 21
842.32169999999996
  0
LINE
  8
_0-1_LAYER003
  6
CONTINUOUS
 62
    2
 10
1112.0079000000001
 20
868.52070000000003
 11
1134.2959000000001
 21
846.23170000000005
  0
LINE
  8
_0-1_LAYER003
  6
CONTINUOUS
 62
    2
 10
1119.8099
 20
872.0317
 11
1125.4268999999999
 21
866.41470000000004
  0
LINE
  8
_0-1_LAYER003
  6
CONTINUOUS
 62
    3
 10
1052.4329
 20
808.8146999999999
 11
1134.5128999999999
 21
845.75070000000005
  0
ARC
  8
_0-1_LAYER003
  6
DASHED1
 62
    2
 10
1032.3809000000001
 20
881.2337
 40
36.289999999999999
 50
25.317412999999998
 51
114.16601
  0
CIRCLE
  8
_0-3_LAYER005
  6
CONTINUOUS
 62
    2
 10
1054.0418999999999
 20
855.22769999999991
 40
0.3049999999999999
  0
CIRCLE
  8
_0-3_LAYER005
  6
CONTINUOUS
 62
    2
 10
1056.4119000000001
 20
857.16669999999999
 40
0.3049999999999999
  0
CIRCLE
  8
_0-3_LAYER005
  6
CONTINUOUS
 62
    2
 10
1054.2579000000001
 20
857.16669999999999
 40
0.3049999999999999
  0
CIRCLE
  8
_0-3_LAYER005
  6
CONTINUOUS
 62
    2
 10
1052.9648999999999
 20
859.10570000000007
 40
0.3049999999999999
  0
CIRCLE
  8
_0-3_LAYER005
  6
CONTINUOUS
 62
    2
 10
1052.5338999999999
 20
860.61370000000011
 40
0.3049999999999999
  0
CIRCLE
  8
_0-3_LAYER005
  6
CONTINUOUS
 62
    2
 10
1050.8108999999999
 20
861.47569999999996
 40
0.3049999999999999
  0
CIRCLE
  8
_0-3_LAYER005
  6
CONTINUOUS
 62
    2
 10
1054.4729
 20
862.9837
 40
0.3049999999999999
  0
CIRCLE
  8
_0-3_LAYER005
  6
CONTINUOUS
 62
    2
 10
1051.4568999999999
 20
862.76870000000008
 40
0.3049999999999999
  0
CIRCLE
  8
_0-3_LAYER005
  6
CONTINUOUS
 62
    2
 10
1054.9039
 20
862.55269999999996
 40
0.3049999999999999
  0
CIRCLE
  8
_0-3_LAYER005
  6
CONTINUOUS
 62
    2
 10
1061.3669
 20
855.87470000000008
 40
0.3049999999999999
  0
CIRCLE
  8
_0-3_LAYER005
  6
CONTINUOUS
 62
    2
 10
1061.5829000000001
 20
856.95170000000007
 40
0.3049999999999999
  0
CIRCLE
  8
_0-3_LAYER005
  6
CONTINUOUS
 62
    2
 10
1063.9519
 20
859.75170000000003
 40
0.3049999999999999
  0
CIRCLE
  8
_0-3_LAYER005
  6
CONTINUOUS
 62
    2
 10
1057.4889000000001
 20
859.53670000000011
 40
0.3049999999999999
  0
CIRCLE
  8
_0-3_LAYER005
  6
CONTINUOUS
 62
    2
 10
1057.2738999999999
 20
852.8587
 40
0.3049999999999999
  0
CIRCLE
  8
_0-3_LAYER005
  6
CONTINUOUS
 62
    2
 10
1062.2289000000001
 20
853.7197000000001
 40
0.3049999999999999
  0
CIRCLE
  8
_0-3_LAYER005
  6
CONTINUOUS
 62
    2
 10
1067.1839
 20
853.07369999999992
 40
0.3049999999999999
  0
CIRCLE
  8
_0-3_LAYER005
  6
CONTINUOUS
 62
    2
 10
1065.2448999999999
 20
850.91969999999992
 40
0.3049999999999999
  0
CIRCLE
  8
_0-3_LAYER005
  6
CONTINUOUS
 62
    2
 10
1059.2129
 20
848.76469999999995
 40
0.3049999999999999
  0
CIRCLE
  8
_0-3_LAYER005
  6
CONTINUOUS
 62
    2
 10
1052.3189
 20
847.04169999999999
 40
0.3049999999999999
  0
CIRCLE
  8
_0-3_LAYER005
  6
CONTINUOUS
 62
    2
 10
1050.5949000000001
 20
847.68769999999995
 40
0.3049999999999999
  0
CIRCLE
  8
_0-3_LAYER005
  6
CONTINUOUS
 62
    2
 10
1048.0099
 20
849.84169999999995
 40
0.3049999999999999
  0
CIRCLE
  8
_0-3_LAYER005
  6
CONTINUOUS
 62
    2
 10
1047.3639000000001
 20
853.9357
 40
0.3049999999999999
  0
CIRCLE
  8
_0-3_LAYER005
  6
CONTINUOUS
 62
    2
 10
1046.5019
 20
857.59770000000003
 40
0.3049999999999999
  0
CIRCLE
  8
_0-3_LAYER005
  6
CONTINUOUS
 62
    2
 10
1046.0708999999999
 20
859.96769999999992
 40
0.3049999999999999
  0
CIRCLE
  8
_0-3_LAYER005
  6
CONTINUOUS
 62
    2
 10
1044.3479
 20
865.1377
 40
0.3049999999999999
  0
CIRCLE
  8
_0-3_LAYER005
  6
CONTINUOUS
 62
    2
 10
1042.6239
 20
871.1706999999999
 40
0.3049999999999999
  0
CIRCLE
  8
_0-3_LAYER005
  6
CONTINUOUS
 62
    2
 10
1040.9009000000001
 20
876.77170000000001
 40
0.3049999999999999
  0
CIRCLE
  8
_0-3_LAYER005
  6
CONTINUOUS
 62
    2
 10
1038.0998999999999
 20
881.2956999999999
 40
0.3049999999999999
  0
CIRCLE
  8
_0-3_LAYER005
  6
CONTINUOUS
 62
    2
 10
1038.0998999999999
 20
883.44969999999989
 40
0.3049999999999999
  0
CIRCLE
  8
_0-3_LAYER005
  6
CONTINUOUS
 62
    2
 10
1043.4858999999999
 20
880.86470000000008
 40
0.3049999999999999
  0
CIRCLE
  8
_0-3_LAYER005
  6
CONTINUOUS
 62
    2
 10
1046.2869000000001
 20
872.89370000000008
 40
0.3049999999999999
  0
CIRCLE
  8
_0-3_LAYER005
  6
CONTINUOUS
 62
    2
 10
1049.3028999999999
 20
869.66270000000009
 40
0.3049999999999999
  0
CIRCLE
  8
_0-3_LAYER005
  6
CONTINUOUS
 62
    2
 10
1055.3349000000001
 20
871.81670000000008
 40
0.3049999999999999
  0
CIRCLE
  8
_0-3_LAYER005
  6
CONTINUOUS
 62
    2
 10
1052.1029000000001
 20
874.40169999999989
 40
0.3049999999999999
  0
CIRCLE
  8
_0-3_LAYER005
  6
CONTINUOUS
 62
    2
 10
1055.3349000000001
 20
867.72370000000001
 40
0.3049999999999999
  0
CIRCLE
  8
_0-3_LAYER005
  6
CONTINUOUS
 62
    2
 10
1055.1188999999999
 20
869.23170000000005
 40
0.3049999999999999
  0
CIRCLE
  8
_0-3_LAYER005
  6
CONTINUOUS
 62
    2
 10
1058.1359
 20
871.1706999999999
 40
0.3049999999999999
  0
CIRCLE
  8
_0-3_LAYER005
  6
CONTINUOUS
 62
    2
 10
1052.5338999999999
 20
877.41769999999997
 40
0.3049999999999999
  0
CIRCLE
  8
_0-3_LAYER005
  6
CONTINUOUS
 62
    2
 10
1051.4568999999999
 20
880.43370000000004
 40
0.3049999999999999
  0
CIRCLE
  8
_0-3_LAYER005
  6
CONTINUOUS
 62
    2
 10
1049.3028999999999
 20
883.01970000000006
 40
0.3049999999999999
  0
CIRCLE
  8
_0-3_LAYER005
  6
CONTINUOUS
 62
    2
 10
1050.8108999999999
 20
885.81970000000001
 40
0.3049999999999999
  0
CIRCLE
  8
_0-3_LAYER005
  6
CONTINUOUS
 62
    2
 10
1052.9648999999999
 20
884.5277000000001
 40
0.3049999999999999
  0
CIRCLE
  8
_0-3_LAYER005
  6
CONTINUOUS
 62
    2
 10
1058.7819
 20
878.71070000000009
 40
0.3049999999999999
  0
CIRCLE
  8
_0-3_LAYER005
  6
CONTINUOUS
 62
    2
 10
1061.7979
 20
874.83269999999993
 40
0.3049999999999999
  0
CIRCLE
  8
_0-3_LAYER005
  6
CONTINUOUS
 62
    2
 10
1061.1519000000001
 20
869.66270000000009
 40
0.3049999999999999
  0
CIRCLE
  8
_0-3_LAYER005
  6
CONTINUOUS
 62
    2
 10
1059.8588999999999
 20
867.93869999999993
 40
0.3049999999999999
  0
CIRCLE
  8
_0-3_LAYER005
  6
CONTINUOUS
 62
    2
 10
1060.5048999999999
 20
863.62969999999996
 40
0.3049999999999999
  0
CIRCLE
  8
_0-3_LAYER005
  6
CONTINUOUS
 62
    2
 10
1058.7819
 20
861.9067
 40
0.3049999999999999
  0
CIRCLE
  8
_0-3_LAYER005
  6
CONTINUOUS
 62
    2
 10
1062.4439
 20
862.76870000000008
 40
0.3049999999999999
  0
CIRCLE
  8
_0-3_LAYER005
  6
CONTINUOUS
 62
    2
 10
1063.3059000000001
 20
864.92270000000008
 40
0.3049999999999999
  0
CIRCLE
  8
_0-3_LAYER005
  6
CONTINUOUS
 62
    2
 10
1064.8139000000001
 20
859.32169999999996
 40
0.3049999999999999
  0
CIRCLE
  8
_0-3_LAYER005
  6
CONTINUOUS
 62
    2
 10
1067.8299
 20
857.59770000000003
 40
0.3049999999999999
  0
CIRCLE
  8
_0-3_LAYER005
  6
CONTINUOUS
 62
    2
 10
1069.5539000000001
 20
856.95170000000007
 40
0.3049999999999999
  0
CIRCLE
  8
_0-3_LAYER005
  6
CONTINUOUS
 62
    2
 10
1067.1839
 20
861.04469999999992
 40
0.3049999999999999
  0
CIRCLE
  8
_0-3_LAYER005
  6
CONTINUOUS
 62
    2
 10
1062.6599000000001
 20
859.53670000000011
 40
0.3049999999999999
  0
CIRCLE
  8
_0-3_LAYER005
  6
CONTINUOUS
 62
    2
 10
1049.7338999999999
 20
853.28870000000006
 40
0.3049999999999999
  0
CIRCLE
  8
_0-3_LAYER005
  6
CONTINUOUS
 62
    2
 10
1049.5179000000001
 20
852.21170000000006
 40
0.3049999999999999
  0
CIRCLE
  8
_0-3_LAYER005
  6
CONTINUOUS
 62
    2
 10
1054.0418999999999
 20
850.27269999999999
 40
0.3049999999999999
  0
CIRCLE
  8
_0-3_LAYER005
  6
CONTINUOUS
 62
    2
 10
1054.2579000000001
 20
852.42769999999996
 40
0.3049999999999999
  0
CIRCLE
  8
_0-3_LAYER005
  6
CONTINUOUS
 62
    2
 10
1060.9358999999999
 20
851.13470000000007
 40
0.3049999999999999
  0
CIRCLE
  8
_0-3_LAYER005
  6
CONTINUOUS
 62
    2
 10
1051.2419
 20
859.75170000000003
 40
0.3049999999999999
  0
CIRCLE
  8
_0-3_LAYER005
  6
CONTINUOUS
 62
    2
 10
1047.3639000000001
 20
863.19869999999992
 40
0.3049999999999999
  0
CIRCLE
  8
_0-3_LAYER005
  6
CONTINUOUS
 62
    2
 10
1046.7168999999999
 20
865.78469999999993
 40
0.3049999999999999
  0
CIRCLE
  8
_0-3_LAYER005
  6
CONTINUOUS
 62
    2
 10
1040.9009000000001
 20
866.21569999999997
 40
0.3049999999999999
  0
CIRCLE
  8
_0-3_LAYER005
  6
CONTINUOUS
 62
    2
 10
1040.2538999999999
 20
869.44669999999996
 40
0.3049999999999999
  0
CIRCLE
  8
_0-3_LAYER005
  6
CONTINUOUS
 62
    2
 10
1040.6849
 20
873.97070000000008
 40
0.3049999999999999
  0
CIRCLE
  8
_0-3_LAYER005
  6
CONTINUOUS
 62
    2
 10
1039.1768999999999
 20
873.97070000000008
 40
0.3049999999999999
  0
CIRCLE
  8
_0-3_LAYER005
  6
CONTINUOUS
 62
    2
 10
1042.1929
 20
876.55670000000009
 40
0.3049999999999999
  0
CIRCLE
  8
_0-3_LAYER005
  6
CONTINUOUS
 62
    2
 10
1038.9619
 20
878.92570000000001
 40
0.3049999999999999
  0
CIRCLE
  8
_0-3_LAYER005
  6
CONTINUOUS
 62
    2
 10
1033.7909
 20
884.09670000000006
 40
0.3049999999999999
  0
CIRCLE
  8
_0-3_LAYER005
  6
CONTINUOUS
 62
    2
 10
1044.9938999999999
 20
886.25070000000005
 40
0.3049999999999999
  0
CIRCLE
  8
_0-3_LAYER005
  6
CONTINUOUS
 62
    2
 10
1048.4409000000001
 20
889.2666999999999
 40
0.3049999999999999
  0
CIRCLE
  8
_0-3_LAYER005
  6
CONTINUOUS
 62
    2
 10
1045.2089000000001
 20
882.80369999999994
 40
0.3049999999999999
  0
CIRCLE
  8
_0-3_LAYER005
  6
CONTINUOUS
 62
    2
 10
1051.2419
 20
876.34069999999997
 40
0.3049999999999999
  0
CIRCLE
  8
_0-3_LAYER005
  6
CONTINUOUS
 62
    2
 10
1048.8719000000001
 20
875.47869999999989
 40
0.3049999999999999
  0
CIRCLE
  8
_0-3_LAYER005
  6
CONTINUOUS
 62
    2
 10
1048.0099
 20
868.58470000000011
 40
0.3049999999999999
  0
CIRCLE
  8
_0-3_LAYER005
  6
CONTINUOUS
 62
    2
 10
1049.0869
 20
866.64570000000003
 40
0.3049999999999999
  0
CIRCLE
  8
_0-3_LAYER005
  6
CONTINUOUS
 62
    2
 10
1055.5499
 20
883.44969999999989
 40
0.3049999999999999
  0
CIRCLE
  8
_0-3_LAYER005
  6
CONTINUOUS
 62
    2
 10
1055.3349000000001
 20
887.1126999999999
 40
0.3049999999999999
  0
CIRCLE
  8
_0-3_LAYER005
  6
CONTINUOUS
 62
    2
 10
1051.6719000000001
 20
890.12869999999998
 40
0.3049999999999999
  0
CIRCLE
  8
_0-3_LAYER005
  6
CONTINUOUS
 62
    2
 10
1048.6559
 20
890.12869999999998
 40
0.3049999999999999
  0
CIRCLE
  8
_0-3_LAYER005
  6
CONTINUOUS
 62
    2
 10
1035.2989
 20
886.89670000000001
 40
0.3049999999999999
  0
CIRCLE
  8
_0-3_LAYER005
  6
CONTINUOUS
 62
    2
 10
1032.4989
 20
882.15769999999998
 40
0.3049999999999999
  0
CIRCLE
  8
_0-3_LAYER005
  6
CONTINUOUS
 62
    2
 10
1034.6529
 20
879.35670000000005
 40
0.3049999999999999
  0
CIRCLE
  8
_0-3_LAYER005
  6
CONTINUOUS
 62
    2
 10
1036.1609000000001
 20
875.69470000000001
 40
0.3049999999999999
  0
CIRCLE
  8
_0-3_LAYER005
  6
CONTINUOUS
 62
    2
 10
1043.2699
 20
863.19869999999992
 40
0.3049999999999999
  0
CIRCLE
  8
_0-3_LAYER005
  6
CONTINUOUS
 62
    2
 10
1044.9938999999999
 20
859.75170000000003
 40
0.3049999999999999
  0
CIRCLE
  8
_0-3_LAYER005
  6
CONTINUOUS
 62
    2
 10
1048.4409000000001
 20
859.32169999999996
 40
0.3049999999999999
  0
CIRCLE
  8
_0-3_LAYER005
  6
CONTINUOUS
 62
    2
 10
1048.8719000000001
 20
857.16669999999999
 40
0.3049999999999999
  0
CIRCLE
  8
_0-3_LAYER005
  6
CONTINUOUS
 62
    2
 10
1050.5949000000001
 20
866.21569999999997
 40
0.3049999999999999
  0
CIRCLE
  8
_0-3_LAYER005
  6
CONTINUOUS
 62
    2
 10
1052.1029000000001
 20
867.29269999999997
 40
0.3049999999999999
  0
CIRCLE
  8
_0-3_LAYER005
  6
CONTINUOUS
 62
    2
 10
1045.8559
 20
868.58470000000011
 40
0.3049999999999999
  0
CIRCLE
  8
_0-3_LAYER005
  6
CONTINUOUS
 62
    2
 10
1044.9938999999999
 20
873.32469999999989
 40
0.3049999999999999
  0
CIRCLE
  8
_0-3_LAYER005
  6
CONTINUOUS
 62
    2
 10
1060.5048999999999
 20
864.49170000000004
 40
0.3049999999999999
  0
CIRCLE
  8
_0-3_LAYER005
  6
CONTINUOUS
 62
    2
 10
1058.7819
 20
865.35369999999989
 40
0.3049999999999999
  0
CIRCLE
  8
_0-3_LAYER005
  6
CONTINUOUS
 62
    2
 10
1062.4439
 20
866.86169999999993
 40
0.3049999999999999
  0
CIRCLE
  8
_0-3_LAYER005
  6
CONTINUOUS
 62
    2
 10
1059.4278999999999
 20
866.64570000000003
 40
0.3049999999999999
  0
CIRCLE
  8
_0-3_LAYER005
  6
CONTINUOUS
 62
    2
 10
1059.2129
 20
863.62969999999996
 40
0.3049999999999999
  0
CIRCLE
  8
_0-3_LAYER005
  6
CONTINUOUS
 62
    2
 10
1063.7369000000001
 20
860.18270000000007
 40
0.3049999999999999
  0
CIRCLE
  8
_0-3_LAYER005
  6
CONTINUOUS
 62
    2
 10
1062.0128999999999
 20
861.04469999999992
 40
0.3049999999999999
  0
CIRCLE
  8
_0-3_LAYER005
  6
CONTINUOUS
 62
    2
 10
1065.6759
 20
862.55269999999996
 40
0.3049999999999999
  0
CIRCLE
  8
_0-3_LAYER005
  6
CONTINUOUS
 62
    2
 10
1062.6599000000001
 20
862.33770000000004
 40
0.3049999999999999
  0
CIRCLE
  8
_0-3_LAYER005
  6
CONTINUOUS
 62
    2
 10
1062.4439
 20
859.32169999999996
 40
0.3049999999999999
  0
CIRCLE
  8
_0-3_LAYER005
  6
CONTINUOUS
 62
    2
 10
1064.3829000000001
 20
853.50469999999996
 40
0.3049999999999999
  0
CIRCLE
  8
_0-3_LAYER005
  6
CONTINUOUS
 62
    2
 10
1062.6599000000001
 20
854.36670000000004
 40
0.3049999999999999
  0
CIRCLE
  8
_0-3_LAYER005
  6
CONTINUOUS
 62
    2
 10
1066.3218999999999
 20
855.87470000000008
 40
0.3049999999999999
  0
CIRCLE
  8
_0-3_LAYER005
  6
CONTINUOUS
 62
    2
 10
1063.3059000000001
 20
855.65869999999995
 40
0.3049999999999999
  0
CIRCLE
  8
_0-3_LAYER005
  6
CONTINUOUS
 62
    2
 10
1063.0908999999999
 20
852.6427000000001
 40
0.3049999999999999
  0
CIRCLE
  8
_0-3_LAYER005
  6
CONTINUOUS
 62
    2
 10
1058.3508999999999
 20
846.39470000000006
 40
0.3049999999999999
  0
CIRCLE
  8
_0-3_LAYER005
  6
CONTINUOUS
 62
    2
 10
1056.6279
 20
847.25669999999991
 40
0.3049999999999999
  0
CIRCLE
  8
_0-3_LAYER005
  6
CONTINUOUS
 62
    2
 10
1060.2899
 20
848.76469999999995
 40
0.3049999999999999
  0
CIRCLE
  8
_0-3_LAYER005
  6
CONTINUOUS
 62
    2
 10
1057.2738999999999
 20
848.54970000000003
 40
0.3049999999999999
  0
CIRCLE
  8
_0-3_LAYER005
  6
CONTINUOUS
 62
    2
 10
1057.0579
 20
845.53369999999995
 40
0.3049999999999999
  0
CIRCLE
  8
_0-3_LAYER005
  6
CONTINUOUS
 62
    2
 10
1055.9809
 20
866.86169999999993
 40
0.3049999999999999
  0
CIRCLE
  8
_0-3_LAYER005
  6
CONTINUOUS
 62
    2
 10
1054.2579000000001
 20
867.72370000000001
 40
0.3049999999999999
  0
CIRCLE
  8
_0-3_LAYER005
  6
CONTINUOUS
 62
    2
 10
1057.9199000000001
 20
869.23170000000005
 40
0.3049999999999999
  0
CIRCLE
  8
_0-3_LAYER005
  6
CONTINUOUS
 62
    2
 10
1054.9039
 20
869.01569999999992
 40
0.3049999999999999
  0
CIRCLE
  8
_0-3_LAYER005
  6
CONTINUOUS
 62
    2
 10
1054.6889000000001
 20
865.99970000000008
 40
0.3049999999999999
  0
CIRCLE
  8
_0-3_LAYER005
  6
CONTINUOUS
 62
    2
 10
1057.9199000000001
 20
876.55569999999989
 40
0.3049999999999999
  0
CIRCLE
  8
_0-3_LAYER005
  6
CONTINUOUS
 62
    2
 10
1056.1968999999999
 20
877.41769999999997
 40
0.3049999999999999
  0
CIRCLE
  8
_0-3_LAYER005
  6
CONTINUOUS
 62
    2
 10
1059.8588999999999
 20
878.92570000000001
 40
0.3049999999999999
  0
CIRCLE
  8
_0-3_LAYER005
  6
CONTINUOUS
 62
    2
 10
1056.8429000000001
 20
878.71070000000009
 40
0.3049999999999999
  0
CIRCLE
  8
_0-3_LAYER005
  6
CONTINUOUS
 62
    2
 10
1056.6279
 20
875.69470000000001
 40
0.3049999999999999
  0
CIRCLE
  8
_0-3_LAYER005
  6
CONTINUOUS
 62
    2
 10
1055.9809
 20
874.83269999999993
 40
0.3049999999999999
  0
CIRCLE
  8
_0-3_LAYER005
  6
CONTINUOUS
 62
    2
 10
1054.2579000000001
 20
875.69470000000001
 40
0.3049999999999999
  0
CIRCLE
  8
_0-3_LAYER005
  6
CONTINUOUS
 62
    2
 10
1057.9199000000001
 20
877.20270000000005
 40
0.3049999999999999
  0
CIRCLE
  8
_0-3_LAYER005
  6
CONTINUOUS
 62
    2
 10
1054.9039
 20
876.98669999999993
 40
0.3049999999999999
  0
CIRCLE
  8
_0-3_LAYER005
  6
CONTINUOUS
 62
    2
 10
1054.6889000000001
 20
873.97070000000008
 40
0.3049999999999999
  0
CIRCLE
  8
_0-3_LAYER005
  6
CONTINUOUS
 62
    2
 10
1050.5949000000001
 20
877.84870000000001
 40
0.3049999999999999
  0
CIRCLE
  8
_0-3_LAYER005
  6
CONTINUOUS
 62
    2
 10
1048.8719000000001
 20
878.71070000000009
 40
0.3049999999999999
  0
CIRCLE
  8
_0-3_LAYER005
  6
CONTINUOUS
 62
    2
 10
1052.5338999999999
 20
880.2186999999999
 40
0.3049999999999999
  0
CIRCLE
  8
_0-3_LAYER005
  6
CONTINUOUS
 62
    2
 10
1049.5179000000001
 20
880.00369999999998
 40
0.3049999999999999
  0
CIRCLE
  8
_0-3_LAYER005
  6
CONTINUOUS
 62
    2
 10
1049.3028999999999
 20
876.98669999999993
 40
0.3049999999999999
  0
CIRCLE
  8
_0-3_LAYER005
  6
CONTINUOUS
 62
    2
 10
1048.2248999999999
 20
877.84870000000001
 40
0.3049999999999999
  0
CIRCLE
  8
_0-3_LAYER005
  6
CONTINUOUS
 62
    2
 10
1046.5019
 20
878.71070000000009
 40
0.3049999999999999
  0
CIRCLE
  8
_0-3_LAYER005
  6
CONTINUOUS
 62
    2
 10
1050.1639
 20
880.2186999999999
 40
0.3049999999999999
  0
CIRCLE
  8
_0-3_LAYER005
  6
CONTINUOUS
 62
    2
 10
1047.1478999999999
 20
880.00369999999998
 40
0.3049999999999999
  0
CIRCLE
  8
_0-3_LAYER005
  6
CONTINUOUS
 62
    2
 10
1046.9329
 20
876.98669999999993
 40
0.3049999999999999
  0
CIRCLE
  8
_0-3_LAYER005
  6
CONTINUOUS
 62
    2
 10
1045.6398999999999
 20
878.0646999999999
 40
0.3049999999999999
  0
CIRCLE
  8
_0-3_LAYER005
  6
CONTINUOUS
 62
    2
 10
1043.9168999999999
 20
878.92570000000001
 40
0.3049999999999999
  0
CIRCLE
  8
_0-3_LAYER005
  6
CONTINUOUS
 62
    2
 10
1047.5789
 20
880.43370000000004
 40
0.3049999999999999
  0
CIRCLE
  8
_0-3_LAYER005
  6
CONTINUOUS
 62
    2
 10
1044.5628999999999
 20
880.2186999999999
 40
0.3049999999999999
  0
CIRCLE
  8
_0-3_LAYER005
  6
CONTINUOUS
 62
    2
 10
1044.3479
 20
877.20270000000005
 40
0.3049999999999999
  0
CIRCLE
  8
_0-3_LAYER005
  6
CONTINUOUS
 62
    2
 10
1043.9168999999999
 20
883.44969999999989
 40
0.3049999999999999
  0
CIRCLE
  8
_0-3_LAYER005
  6
CONTINUOUS
 62
    2
 10
1042.1929
 20
884.31169999999997
 40
0.3049999999999999
  0
CIRCLE
  8
_0-3_LAYER005
  6
CONTINUOUS
 62
    2
 10
1045.8559
 20
885.81970000000001
 40
0.3049999999999999
  0
CIRCLE
  8
_0-3_LAYER005
  6
CONTINUOUS
 62
    2
 10
1042.8398999999999
 20
885.60470000000009
 40
0.3049999999999999
  0
CIRCLE
  8
_0-3_LAYER005
  6
CONTINUOUS
 62
    2
 10
1042.6239
 20
882.58870000000002
 40
0.3049999999999999
  0
CIRCLE
  8
_0-3_LAYER005
  6
CONTINUOUS
 62
    2
 10
1045.4249
 20
885.17370000000005
 40
0.3049999999999999
  0
CIRCLE
  8
_0-3_LAYER005
  6
CONTINUOUS
 62
    2
 10
1043.7009
 20
886.03569999999991
 40
0.3049999999999999
  0
CIRCLE
  8
_0-3_LAYER005
  6
CONTINUOUS
 62
    2
 10
1047.3639000000001
 20
887.54369999999994
 40
0.3049999999999999
  0
CIRCLE
  8
_0-3_LAYER005
  6
CONTINUOUS
 62
    2
 10
1044.3479
 20
887.32770000000005
 40
0.3049999999999999
  0
CIRCLE
  8
_0-3_LAYER005
  6
CONTINUOUS
 62
    2
 10
1044.1319000000001
 20
884.31169999999997
 40
0.3049999999999999
  0
CIRCLE
  8
_0-3_LAYER005
  6
CONTINUOUS
 62
    2
 10
1042.1929
 20
882.58870000000002
 40
0.3049999999999999
  0
CIRCLE
  8
_0-3_LAYER005
  6
CONTINUOUS
 62
    2
 10
1040.4699000000001
 20
883.44969999999989
 40
0.3049999999999999
  0
CIRCLE
  8
_0-3_LAYER005
  6
CONTINUOUS
 62
    2
 10
1044.1319000000001
 20
884.95769999999993
 40
0.3049999999999999
  0
CIRCLE
  8
_0-3_LAYER005
  6
CONTINUOUS
 62
    2
 10
1041.1159
 20
884.74270000000001
 40
0.3049999999999999
  0
CIRCLE
  8
_0-3_LAYER005
  6
CONTINUOUS
 62
    2
 10
1040.9009000000001
 20
881.72669999999994
 40
0.3049999999999999
  0
CIRCLE
  8
_0-3_LAYER005
  6
CONTINUOUS
 62
    2
 10
1043.0549000000001
 20
878.27970000000005
 40
0.3049999999999999
  0
CIRCLE
  8
_0-3_LAYER005
  6
CONTINUOUS
 62
    2
 10
1041.3318999999999
 20
879.1416999999999
 40
0.3049999999999999
  0
CIRCLE
  8
_0-3_LAYER005
  6
CONTINUOUS
 62
    2
 10
1044.9938999999999
 20
880.64969999999994
 40
0.3049999999999999
  0
CIRCLE
  8
_0-3_LAYER005
  6
CONTINUOUS
 62
    2
 10
1041.9779000000001
 20
880.43370000000004
 40
0.3049999999999999
  0
CIRCLE
  8
_0-3_LAYER005
  6
CONTINUOUS
 62
    2
 10
1041.7619
 20
877.41769999999997
 40
0.3049999999999999
  0
CIRCLE
  8
_0-3_LAYER005
  6
CONTINUOUS
 62
    2
 10
1044.1319000000001
 20
870.73970000000008
 40
0.3049999999999999
  0
CIRCLE
  8
_0-3_LAYER005
  6
CONTINUOUS
 62
    2
 10
1042.4088999999999
 20
871.60069999999996
 40
0.3049999999999999
  0
CIRCLE
  8
_0-3_LAYER005
  6
CONTINUOUS
 62
    2
 10
1046.0708999999999
 20
873.10969999999998
 40
0.3049999999999999
  0
CIRCLE
  8
_0-3_LAYER005
  6
CONTINUOUS
 62
    2
 10
1043.0549000000001
 20
872.89370000000008
 40
0.3049999999999999
  0
CIRCLE
  8
_0-3_LAYER005
  6
CONTINUOUS
 62
    2
 10
1042.8398999999999
 20
869.8777
 40
0.3049999999999999
  0
CIRCLE
  8
_0-3_LAYER005
  6
CONTINUOUS
 62
    2
 10
1048.2248999999999
 20
863.84570000000008
 40
0.3049999999999999
  0
CIRCLE
  8
_0-3_LAYER005
  6
CONTINUOUS
 62
    2
 10
1046.5019
 20
864.70669999999996
 40
0.3049999999999999
  0
CIRCLE
  8
_0-3_LAYER005
  6
CONTINUOUS
 62
    2
 10
1050.1639
 20
866.21569999999997
 40
0.3049999999999999
  0
CIRCLE
  8
_0-3_LAYER005
  6
CONTINUOUS
 62
    2
 10
1047.1478999999999
 20
865.99970000000008
 40
0.3049999999999999
  0
CIRCLE
  8
_0-3_LAYER005
  6
CONTINUOUS
 62
    2
 10
1046.9329
 20
862.9837
 40
0.3049999999999999
  0
CIRCLE
  8
_0-3_LAYER005
  6
CONTINUOUS
 62
    2
 10
1041.9779000000001
 20
869.01569999999992
 40
0.3049999999999999
  0
CIRCLE
  8
_0-3_LAYER005
  6
CONTINUOUS
 62
    2
 10
1040.2538999999999
 20
869.8777
 40
0.3049999999999999
  0
CIRCLE
  8
_0-3_LAYER005
  6
CONTINUOUS
 62
    2
 10
1043.9168999999999
 20
871.38570000000004
 40
0.3049999999999999
  0
CIRCLE
  8
_0-3_LAYER005
  6
CONTINUOUS
 62
    2
 10
1040.9009000000001
 20
871.1706999999999
 40
0.3049999999999999
  0
CIRCLE
  8
_0-3_LAYER005
  6
CONTINUOUS
 62
    2
 10
1040.6849
 20
868.15370000000007
 40
0.3049999999999999
  0
LINE
  8
_0-3_LAYER005
  6
CONTINUOUS
 62
    2
 10
1538.9394000000002
 20
1115.7418
 11
1540.8805000000002
 21
1108.4974
  0
LINE
  8
_0-3_LAYER005
  6
CONTINUOUS
 62
    2
 10
1540.8805000000002
 20
1108.4974
 11
1535.5772000000002
 21
1113.8007
  0
LINE
  8
_0-3_LAYER005
  6
CONTINUOUS
 62
    2
 10
1540.8805000000002
 20
1108.4974
 11
1485.3227000000002
 21
1204.7263
  0
LINE
  8
_0-3_LAYER005
  6
CONTINUOUS
 62
    2
 10
1485.3227000000002
 20
1204.7263
 11
1444.8227000000002
 21
1204.7263
  0
LINE
  8
_0-0_LAYER001
  6
CONTINUOUS
 62
    2
 10
1736.4375
 20
768.23990000000003
 11
1941.2602000000002
 21
768.23990000000003
  0
LINE
  8
_0-0_LAYER001
  6
CONTINUOUS
 62
    2
 10
1641.8164999999999
 20
1115.3086000000001
 11
1641.8164999999999
 21
1122.8086000000001
  0
LINE
  8
_0-0_LAYER001
  6
CONTINUOUS
 62
    2
 10
1641.8164999999999
 20
1122.8086000000001
 11
1645.5664999999999
 21
1116.3134
  0
LINE
  8
_0-0_LAYER001
  6
CONTINUOUS
 62
    2
 10
1641.8164999999999
 20
1122.8086000000001
 11
1744.77
 21
738.58079999999995
  0
LINE
  8
_0-1_LAYER003
  6
CONTINUOUS
 62
    7
 10
768.65589999999997
 20
1023.4434000000001
 11
1007.1559
 21
1023.4434000000001
  0
LINE
  8
_0-1_LAYER003
  6
CONTINUOUS
 62
    7
 10
959.94720000000007
 20
957.04649999999992
 11
1000.4472000000001
 21
957.04649999999992
  0
LINE
  8
_0-1_LAYER003
  6
CONTINUOUS
 62
    7
 10
1736.4375
 20
768.23990000000003
 11
1941.2602000000002
 21
768.23990000000003
  0
LINE
  8
_0-1_LAYER003
  6
CONTINUOUS
 62
    7
 10
896.10529999999994
 20
753.44190000000003
 11
1043.1052999999999
 21
753.44190000000003
  0
LINE
  8
_0-1_LAYER003
  6
CONTINUOUS
 62
    7
 10
1444.8227000000002
 20
1204.7263
 11
1485.3227000000002
 21
1204.7263
  0
LINE
  8
_0-1_LAYER003
  6
CONTINUOUS
 62
    7
 10
1012.8901000000001
 20
1101.8905999999999
 11
1077.3901000000001
 21
1101.8905999999999
  0
LINE
  8
_0-1_LAYER003
  6
CONTINUOUS
 62
    7
 10
814.48202925645217
 20
738.19833341855781
 11
860.25770000000011
 21
758.31259999999997
  0
LINE
  8
_0-1_LAYER003
  6
CONTINUOUS
 62
    7
 10
826.40969999999993
 20
711.05349999999999
 11
872.18540000000007
 21
731.16779999999994
  0
LINE
  8
_0-1_LAYER003
  6
CONTINUOUS
 62
    7
 10
824.85331829924519
 20
710.3696315904682
 11
827.96606655412597
 21
711.73740287994542
  0
LINE
  8
_0-1_LAYER003
  6
CONTINUOUS
 62
    7
 10
886.68869999999993
 20
573.87170000000003
 11
932.46440000000007
 21
593.9860000000001
  0
LINE
  8
_0-1_LAYER003
  6
CONTINUOUS
 62
    7
 10
885.13231829924507
 20
573.18783159046825
 11
886.68869242668484
 21
573.87171723520646
  0
LINE
  8
_0-1_LAYER003
  6
CONTINUOUS
 62
    7
 10
886.68869242668484
 20
573.87171723520646
 11
814.48199999999997
 21
738.19839999999999
  0
LINE
  8
_0-1_LAYER003
  6
CONTINUOUS
 62
    7
 10
814.48202925645217
 20
738.19833341855781
 11
812.92565513039813
 21
737.51444777442839
  0
LINE
  8
_0-1_LAYER003
  6
CONTINUOUS
 62
    7
 10
872.78489668421548
 20
1145.2225689749384
 11
890.51860000000011
 21
1096.6591000000001
  0
LINE
  8
_0-1_LAYER003
  6
CONTINUOUS
 62
    7
 10
873.3680160040484
 20
1143.6257058441456
 11
1083.1206374890444
 21
1220.2203789824532
  0
LINE
  8
_0-1_LAYER003
  6
CONTINUOUS
 62
    7
 10
1074.8941289045815
 20
1247.70458073997
 11
1101.8680999999999
 21
1173.8369
  0
LINE
  8
_0-1_LAYER003
  6
CONTINUOUS
 62
    7
 10
1083.1206374890444
 20
1220.2203789824532
 11
1084.7174319713881
 21
1220.8034751582161
  0
LINE
  8
_0-1_LAYER003
  6
CONTINUOUS
 62
    7
 10
1075.4772490385976
 20
1246.1077179072713
 11
1286.8265999999999
 21
1323.2855
  0
LINE
  8
_0-1_LAYER003
  6
CONTINUOUS
 62
    7
 10
1303.9773
 20
1276.319
 11
1277.6356980286816
 21
1348.4546694658752
  0
LINE
  8
_0-1_LAYER003
  6
CONTINUOUS
 62
    7
 10
1278.21882020562
 20
1346.8578073784099
 11
1489.5682999999999
 21
1424.0355
  0
LINE
  8
_0-1_LAYER003
  6
CONTINUOUS
 62
    7
 10
1506.7188999999998
 20
1377.069
 11
1480.3773966842155
 21
1449.2046689749384
  0
LINE
  8
_0-1_LAYER003
  6
CONTINUOUS
 62
    7
 10
1480.9605000000001
 20
1447.6078000000002
 11
1692.3099000000002
 21
1524.7855
  0
LINE
  8
_0-1_LAYER003
  6
CONTINUOUS
 62
    7
 10
1691.7268302492155
 20
1526.3823812309374
 11
1709.4605999999999
 21
1477.819
  0
LINE
  8
_0-1_LAYER003
  6
CONTINUOUS
 62
    7
 10
1168.6837
 20
943.7654
 11
1166.7426
 21
951.00990000000002
  0
LINE
  8
_0-1_LAYER003
  6
CONTINUOUS
 62
    7
 10
1168.1823806967459
 20
944.26671930325415
 11
1163.3804
 21
949.06870000000004
  0
LINE
  8
_0-1_LAYER003
  6
CONTINUOUS
 62
    7
 10
1168.1823806967459
 20
944.26671930325415
 11
1168.6837
 21
943.7654
  0
LINE
  8
_0-1_LAYER003
  6
CONTINUOUS
 62
    7
 10
1168.6837
 20
943.7654
 11
1077.3901000000001
 21
1101.8905999999999
  0
LINE
  8
_0-1_LAYER003
  6
CONTINUOUS
 62
    7
 10
1087.2270000000001
 20
888.63850000000002
 11
1089.1681000000001
 21
881.39409999999998
  0
LINE
  8
_0-1_LAYER003
  6
CONTINUOUS
 62
    7
 10
1089.1681000000001
 20
881.39409999999998
 11
1083.8648000000001
 21
886.69740000000002
  0
LINE
  8
_0-1_LAYER003
  6
CONTINUOUS
 62
    7
 10
1089.1681000000001
 20
881.39409999999998
 11
1007.1559
 21
1023.4434000000001
  0
LINE
  8
_0-1_LAYER003
  6
CONTINUOUS
 62
    7
 10
1052.0905862473003
 20
867.59745132730541
 11
1050.1495
 21
874.8418999999999
  0
LINE
  8
_0-1_LAYER003
  6
CONTINUOUS
 62
    7
 10
1052.0905862473003
 20
867.59745132730541
 11
1046.7873
 21
872.90069999999992
  0
LINE
  8
_0-1_LAYER003
  6
CONTINUOUS
 62
    7
 10
1052.0905862473003
 20
867.59745132730541
 11
1000.4472000000001
 21
957.04649999999992
  0
LINE
  8
_0-1_LAYER003
  6
CONTINUOUS
 62
    7
 10
1075.2859000000001
 20
851.99600000000009
 11
1060.0617
 21
885.8279
  0
LINE
  8
_0-1_LAYER003
  6
CONTINUOUS
 62
    7
 10
1060.0617
 20
885.8279
 11
1103.2458999999999
 21
899.52099999999996
  0
LINE
  8
_0-1_LAYER003
  6
CONTINUOUS
 62
    7
 10
1103.2458999999999
 20
899.52099999999996
 11
1116.3228999999999
 21
870.46250000000009
  0
LINE
  8
_0-1_LAYER003
  6
CONTINUOUS
 62
    7
 10
1116.3228999999999
 20
870.46250000000009
 11
1060.0617
 21
885.8279
  0
LINE
  8
_0-1_LAYER003
  6
CONTINUOUS
 62
    7
 10
1075.2860000000001
 20
851.99579999999992
 11
1103.2458999999999
 21
899.52099999999996
  0
LINE
  8
_0-1_LAYER003
  6
CONTINUOUS
 62
    7
 10
1034.0889887007695
 20
877.53302510980257
 11
1050.5829000000001
 21
840.87969999999996
  0
LINE
  8
_0-1_LAYER003
  6
CONTINUOUS
 62
    7
 10
1114.6813
 20
874.11040000000003
 11
2125.837
 21
1329.1300000000001
  0
LINE
  8
_0-1_LAYER003
  6
CONTINUOUS
 62
    7
 10
2125.1120999999998
 20
1324.4182000000001
 11
1122.4389000000001
 21
873.21469999999999
  0
LINE
  8
_0-1_LAYER003
  6
CONTINUOUS
 62
    7
 10
1066.1119000000001
 20
814.9697000000001
 11
1122.4363000000001
 21
686.79369999999994
  0
LINE
  8
_0-1_LAYER003
  6
CONTINUOUS
 62
    7
 10
1122.4363000000001
 20
686.79369999999994
 11
1131.5558821455206
 21
690.89752695608558
  0
LINE
  8
_0-1_LAYER003
  6
CONTINUOUS
 62
    7
 10
1131.5558821455206
 20
690.89752695608558
 11
1135.579
 21
681.74209999999994
  0
LINE
  8
_0-1_LAYER003
  6
CONTINUOUS
 62
    7
 10
1135.579
 20
681.74209999999994
 11
2201.3440000000001
 21
1161.3368
  0
LINE
  8
_0-1_LAYER003
  6
CONTINUOUS
 62
    7
 10
2197.2402999999999
 20
1170.4559999999999
 11
1131.4361561329097
 21
690.84903483546384
  0
LINE
  8
_0-1_LAYER003
  6
CONTINUOUS
 62
    7
 10
1193.2376410648046
 20
707.68851282448065
 11
1279.1519000000001
 21
943.73569999999995
  0
LINE
  8
_0-1_LAYER003
  6
CONTINUOUS
 62
    7
 10
1205.9646216407486
 20
713.41565945739285
 11
1291.878854138065
 21
949.46277399552969
  0
LINE
  8
_0-1_LAYER003
  6
CONTINUOUS
 62
    7
 10
1304.6052485265177
 20
955.18965857811349
 11
1218.6909000000001
 21
719.14249999999993
  0
LINE
  8
_0-1_LAYER003
  6
CONTINUOUS
 62
    7
 10
1070.1348
 20
805.8146999999999
 11
1147.6516999999999
 21
840.69730000000004
  0
LINE
  8
_0-1_LAYER003
  6
CONTINUOUS
 62
    7
 10
1147.6516999999999
 20
840.69730000000004
 11
1131.5584439933768
 21
877.31849989034856
  0
LINE
  8
_0-1_LAYER003
  6
CONTINUOUS
 62
    7
 10
1218.1295
 20
941.57300000000009
 11
1245.4865
 21
953.88529999999992
  0
LINE
  8
_0-1_LAYER003
  6
CONTINUOUS
 62
    7
 10
1245.4865
 20
953.88529999999992
 11
1251.6427000000001
 21
940.20679999999993
  0
LINE
  8
_0-1_LAYER003
  6
CONTINUOUS
 62
    7
 10
1251.6427000000001
 20
940.20679999999993
 11
1224.2856999999999
 21
927.89450000000011
  0
LINE
  8
_0-1_LAYER003
  6
CONTINUOUS
 62
    7
 10
1224.2856999999999
 20
927.89450000000011
 11
1218.1295
 21
941.57300000000009
  0
LINE
  8
_0-1_LAYER003
  6
CONTINUOUS
 62
    7
 10
1224.2856999999999
 20
927.89450000000011
 11
1245.4865
 21
953.88529999999992
  0
LINE
  8
_0-1_LAYER003
  6
CONTINUOUS
 62
    7
 10
1423.8977
 20
1034.1687999999999
 11
1451.2554
 21
1046.4797000000001
  0
LINE
  8
_0-1_LAYER003
  6
CONTINUOUS
 62
    7
 10
1451.2554
 20
1046.4797000000001
 11
1457.4108999999999
 21
1032.8009
  0
LINE
  8
_0-1_LAYER003
  6
CONTINUOUS
 62
    7
 10
1457.4108999999999
 20
1032.8009
 11
1430.0532000000001
 21
1020.49
  0
LINE
  8
_0-1_LAYER003
  6
CONTINUOUS
 62
    7
 10
1430.0532000000001
 20
1020.49
 11
1423.8977
 21
1034.1687999999999
  0
LINE
  8
_0-1_LAYER003
  6
CONTINUOUS
 62
    7
 10
1451.2554
 20
1046.4797000000001
 11
1430.0532000000001
 21
1020.49
  0
LINE
  8
_0-1_LAYER003
  6
CONTINUOUS
 62
    7
 10
1535.5772000000002
 20
1113.8007
 11
1540.8805000000002
 21
1108.4974
  0
LINE
  8
_0-1_LAYER003
  6
CONTINUOUS
 62
    7
 10
1540.8805000000002
 20
1108.4974
 11
1538.9394000000002
 21
1115.7418
  0
LINE
  8
_0-1_LAYER003
  6
CONTINUOUS
 62
    7
 10
1629.6653000000001
 20
1126.7643
 11
1635.8208
 21
1113.0853999999999
  0
LINE
  8
_0-1_LAYER003
  6
CONTINUOUS
 62
    7
 10
1540.8805000000002
 20
1108.4974
 11
1485.3227000000002
 21
1204.7263
  0
LINE
  8
_0-1_LAYER003
  6
CONTINUOUS
 62
    7
 10
1629.6653000000001
 20
1126.7643
 11
1657.0228999999999
 21
1139.0752
  0
LINE
  8
_0-1_LAYER003
  6
CONTINUOUS
 62
    7
 10
1657.0228999999999
 20
1139.0752
 11
1663.1783999999998
 21
1125.3964000000001
  0
LINE
  8
_0-1_LAYER003
  6
CONTINUOUS
 62
    7
 10
1663.1783999999998
 20
1125.3964000000001
 11
1635.8208
 21
1113.0853999999999
  0
LINE
  8
_0-1_LAYER003
  6
CONTINUOUS
 62
    7
 10
1635.8208
 20
1113.0853999999999
 11
1657.0228999999999
 21
1139.0752
  0
LINE
  8
_0-1_LAYER003
  6
CONTINUOUS
 62
    7
 10
1641.8164999999999
 20
1122.8086000000001
 11
1641.8164999999999
 21
1115.7834825328243
  0
LINE
  8
_0-1_LAYER003
  6
CONTINUOUS
 62
    7
 10
1641.8164999999999
 20
1122.8086000000001
 11
1645.0359942008554
 21
1117.2322643377611
  0
LINE
  8
_0-1_LAYER003
  6
CONTINUOUS
 62
    7
 10
1641.8164999999999
 20
1122.8086000000001
 11
1744.77
 21
738.58079999999995
  0
LINE
  8
_0-1_LAYER003
  6
CONTINUOUS
 62
    7
 10
1972.7231000000002
 20
981.85300000000007
 11
1993.5212684095318
 21
934.5209182992453
  0
LINE
  8
_0-1_LAYER003
  6
CONTINUOUS
 62
    7
 10
1992.8373827647945
 20
936.07729242668267
 11
1171.4858665814224
 21
575.16762925649755
  0
LINE
  8
_0-1_LAYER003
  6
CONTINUOUS
 62
    7
 10
1172.1697522255718
 20
573.61125513039826
 11
1129.7815000000001
 21
670.0773999999999
  0
LINE
  8
_0-1_LAYER003
  6
CONTINUOUS
 62
    7
 10
1116.0487000000001
 20
664.04310000000009
 11
1126.7898037353452
 21
639.59883382175622
  0
LINE
  8
_0-1_LAYER003
  6
CONTINUOUS
 62
    7
 10
1126.1059
 20
641.15519999999992
 11
1139.8387
 21
647.18959999999993
  0
LINE
  8
_0-1_LAYER003
  6
CONTINUOUS
 62
    7
 10
1091.8424684095316
 20
582.41171829924519
 11
1071.0443
 21
629.74379999999996
  0
LINE
  8
_0-1_LAYER003
  6
CONTINUOUS
 62
    7
 10
1091.1586
 20
583.96810000000005
 11
1155.2449599203794
 21
612.12828238861721
  0
LINE
  8
_0-1_LAYER003
  6
CONTINUOUS
 62
    7
 10
1374.1371999999999
 20
661.48379999999997
 11
1353.0171999999998
 21
709.54829999999993
  0
LINE
  8
_0-1_LAYER003
  6
CONTINUOUS
 62
    7
 10
1580.3839684095319
 20
752.98441829924514
 11
1559.5857999999998
 21
800.31649999999991
  0
LINE
  8
_0-1_LAYER003
  6
CONTINUOUS
 62
    7
 10
1786.9526890545123
 20
843.75267131578585
 11
1766.1545000000001
 21
891.08480000000009
  0
LINE
  8
_0-1_LAYER003
  6
CONTINUOUS
 62
    7
 10
1616.2718
 20
898.05400000000009
 11
1702.1860407144113
 21
1134.1012371143208
  0
LINE
  8
_0-1_LAYER003
  6
CONTINUOUS
 62
    7
 10
1714.9119999999998
 20
1139.828
 11
1628.9977101577335
 21
903.78072790810847
  0
LINE
  8
_0-1_LAYER003
  6
CONTINUOUS
 62
    7
 10
1641.7240000000002
 20
909.50749999999994
 11
1727.6382860751819
 21
1145.5547617419249
  0
LINE
  8
_0-1_LAYER003
  6
CONTINUOUS
 62
    7
 10
1835.4212000000002
 20
1219.3544999999999
 11
1862.7683999999999
 21
1231.6885
  0
LINE
  8
_0-1_LAYER003
  6
CONTINUOUS
 62
    7
 10
1862.7683999999999
 20
1231.6885
 11
1868.9355
 21
1218.0148999999999
  0
LINE
  8
_0-1_LAYER003
  6
CONTINUOUS
 62
    7
 10
1868.9355
 20
1218.0148999999999
 11
1841.5882000000001
 21
1205.6809000000001
  0
LINE
  8
_0-1_LAYER003
  6
CONTINUOUS
 62
    7
 10
1841.5882000000001
 20
1205.6809000000001
 11
1835.4212000000002
 21
1219.3544999999999
  0
LINE
  8
_0-1_LAYER003
  6
CONTINUOUS
 62
    7
 10
1841.5882000000001
 20
1205.6809000000001
 11
1862.7683999999999
 21
1231.6885
  0
LINE
  8
_0-1_LAYER003
  6
CONTINUOUS
 62
    7
 10
2047.2658000000001
 20
1298.2358999999999
 11
2074.6233999999999
 21
1310.5468999999998
  0
LINE
  8
_0-1_LAYER003
  6
CONTINUOUS
 62
    7
 10
2074.6233999999999
 20
1310.5468999999998
 11
2068.4679000000001
 21
1324.2257
  0
LINE
  8
_0-1_LAYER003
  6
CONTINUOUS
 62
    7
 10
2068.4679000000001
 20
1324.2257
 11
2041.1102999999998
 21
1311.9147
  0
LINE
  8
_0-1_LAYER003
  6
CONTINUOUS
 62
    7
 10
2041.1102999999998
 20
1311.9147
 11
2047.2658000000001
 21
1298.2358999999999
  0
LINE
  8
_0-1_LAYER003
  6
CONTINUOUS
 62
    7
 10
2047.2658000000001
 20
1298.2358999999999
 11
2068.4679000000001
 21
1324.2257
  0
LINE
  8
_0-1_LAYER003
  6
CONTINUOUS
 62
    7
 10
2013.7462046964652
 20
1076.9177129036323
 11
2099.6587568161049
 21
1312.9641813513767
  0
LINE
  8
_0-1_LAYER003
  6
CONTINUOUS
 62
    7
 10
2112.3861729670407
 20
1318.6915257276492
 11
2026.4719
 21
1082.6442999999999
  0
LINE
  8
_0-1_LAYER003
  6
CONTINUOUS
 62
    7
 10
2039.1978180792939
 20
1088.3709496723891
 11
2125.1120999999998
 21
1324.4182000000001
  0
LINE
  8
_0-1_LAYER003
  6
CONTINUOUS
 62
    7
 10
1043.1052999999999
 20
753.44190000000003
 11
1062.9993999999999
 21
827.68769999999995
  0
LINE
  8
_0-1_LAYER003
  6
CONTINUOUS
 62
    7
 10
1062.9993999999999
 20
827.68769999999995
 11
1062.9993999999999
 21
820.18769999999995
  0
LINE
  8
_0-1_LAYER003
  6
CONTINUOUS
 62
    7
 10
1062.9993999999999
 20
827.68769999999995
 11
1059.2493999999999
 21
821.19250000000011
  0
TEXT
  8
_0-0_LAYER001
 62
    7
 10
964.40882746739885
 20
1189.1551289305248
 40
20
 41
1
 50
20.060507000000005
  1
225
  0
TEXT
  8
_0-0_LAYER001
 62
    7
 10
1171.8642512467229
 20
1290.7873314890826
 40
20
 41
1
 50
20.060506999999973
  1
225
  0
TEXT
  8
_0-0_LAYER001
 62
    7
 10
1358.3645817150043
 20
1387.1807607198798
 40
20
 41
1
 50
20.060507000000037
  1
225
  0
TEXT
  8
_0-0_LAYER001
 62
    7
 10
1567.9155148254326
 20
1485.669699281781
 40
20
 41
1
 50
20.060507000000037
  1
225
  0
TEXT
  8
_0-0_LAYER001
 62
    7
 10
1419.1343523170285
 20
1208.0147129104635
 40
20
 41
1
 50
0
  1
桟　瓦
  0
TEXT
  8
_0-0_LAYER001
 62
    7
 10
987.45943010954591
 20
1108.4780196830097
 40
20
 41
1
 50
0
  1
万十軒瓦
  0
TEXT
  8
_0-0_LAYER001
 62
    7
 10
738.09381970813604
 20
1028.8486651010471
 40
20
 41
1
 50
0
  1
瓦　座：36x45（防腐処理）
  0
TEXT
  8
_0-0_LAYER001
 62
    7
 10
936.1194514974909
 20
959.69685717460584
 40
20
 41
1
 50
0
  1
面　戸
  0
TEXT
  8
_0-0_LAYER001
 62
    7
 10
851.2513235877675
 20
616.03332687350303
 40
15
 41
1.3333333333333333
 50
113.72109999999991
  1
150
  0
TEXT
  8
_0-0_LAYER001
 62
    7
 10
814.57991029344259
 20
705.09247344543508
 40
15
 41
1.3333333333333333
 50
113.72110000000006
  1
30
  0
TEXT
  8
_0-0_LAYER001
 62
    7
 10
918.30762218310451
 20
723.95205742537371
 40
20
 41
1
 50
0
  1
（防腐処理）
  0
TEXT
  8
_0-0_LAYER001
 62
    7
 10
894.20926487540532
 20
757.48020672304222
 40
20
 41
1
 50
0
  1
広小舞：30x90
  0
TEXT
  8
_0-0_LAYER001
 62
    7
 10
1128.9063099590851
 20
612.89006287684663
 40
20
 41
1
 50
20.060507000000015
  1
15
  0
TEXT
  8
_0-0_LAYER001
 62
    7
 10
1125.7630459624286
 20
563.64559359589589
 40
20
 41
1
 50
20.060507000000015
  1
70
  0
TEXT
  8
_0-0_LAYER001
 62
    7
 10
1287.4578072464342
 20
590.64126733043599
 40
20
 41
1
 50
20.060507000000037
  1
226
  0
TEXT
  8
_0-0_LAYER001
 62
    7
 10
1476.8140124264958
 20
674.24001748971841
 40
20
 41
1
 50
20.06050700000003
  1
226
  0
TEXT
  8
_0-0_LAYER001
 62
    7
 10
1682.285639324009
 20
763.88205079304521
 40
20
 41
1
 50
20.060506999999973
  1
226
  0
TEXT
  8
_0-0_LAYER001
 62
    7
 10
1889.7716939362042
 20
863.59622266977976
 40
20
 41
1
 50
20.060506999999973
  1
226
  0
TEXT
  8
_0-0_LAYER001
 62
    7
 10
1754.8050370525434
 20
743.73777364623027
 40
20
 41
1
 50
0
  1
下葺材：ルーフィング
  0
TEXT
  8
_0-0_LAYER001
 62
    7
 10
1750.7761816231803
 20
773.95418936645285
 40
20
 41
1
 50
0
  1
瓦桟：15x30以上
  0
LINE
  8
_0-0_LAYER001
  6
CONTINUOUS
 62
    7
 10
1444.8227000000002
 20
1204.7263
 11
1409.3306839846653
 21
1204.7263
  0
LINE
  8
_0-0_LAYER001
  6
CONTINUOUS
 62
    7
 10
1012.8901000000001
 20
1101.8905999999999
 11
992.3441470455939
 21
1101.8905999999999
  0
LINE
  8
_0-0_LAYER001
  6
CONTINUOUS
 62
    7
 10
768.65589999999997
 20
1023.4434000000001
 11
744.56953813976884
 21
1023.4434000000001
  0
LINE
  8
_0-0_LAYER001
  6
CONTINUOUS
 62
    7
 10
959.94720000000007
 20
957.04649999999992
 11
935.94017103451176
 21
957.04649999999992
  0
LINE
  8
_0-0_LAYER001
  6
CONTINUOUS
 62
    7
 10
1744.77
 20
738.58079999999995
 11
1974.2479906291908
 21
738.58079999999995
  0
ENDSEC
  0
EOF
