  0
SECTION
  2
HEADER
  9
$ACADVER
  1
AC1009
  9
$INSBASE
 10
0
 20
0
 30
0
  9
$EXTMIN
 10
0
 20
0
  9
$EXTMAX
 10
2970
 20
2100
  9
$LIMMIN
 10
0
 20
0
  9
$LIMMAX
 10
2970
 20
2100
  9
$LTSCALE
 40
10
  0
ENDSEC
  0
SECTION
  2
TABLES
  0
TABLE
  2
LTYPE
 70
     9
  0
LTYPE
  2
CONTINUOUS
 70
    64
  3
実線
 72
    65
 73
     0
 40
0.0
  0
LTYPE
  2
DASHED1
 70
    64
  3
--  --  --  --  --  --  --  --  
 72
    65
 73
     2
 40
2.5
 49
1.25
 49
-1.25
  0
LTYPE
  2
DASHED2
 70
    64
  3
----    ----    ----    ----    
 72
    65
 73
     2
 40
5.0
 49
2.5
 49
-2.5
  0
LTYPE
  2
DASHED3
 70
    64
  3
------  ------  ------  ------  
 72
    65
 73
     2
 40
5.0
 49
3.75
 49
-1.25
  0
LTYPE
  2
CENTER1
 70
    64
  3
----- - ----- - ----- - ----- - 
 72
    65
 73
     4
 40
10.0
 49
6.25
 49
-1.25
 49
1.25
 49
-1.25
  0
LTYPE
  2
CENTER2
 70
    64
  3
----------  --  ----------  --  
 72
    65
 73
     4
 40
20.0
 49
12.5
 49
-2.5
 49
2.5
 49
-2.5
  0
LTYPE
  2
PHANTOM1
 70
    64
  3
--- - - --- - - --- - - --- - - 
 72
    65
 73
     6
 40
10.0
 49
3.25
 49
-1.25
 49
1.25
 49
-1.25
 49
1.25
 49
-1.25
  0
LTYPE
  2
PHANTOM2
 70
    64
  3
--------  -  -  --------  -  -  
 72
    65
 73
     6
 40
20.0
 49
10.0
 49
-2.5
 49
1.25
 49
-2.5
 49
1.25
 49
-2.5
  0
LTYPE
  2
DOT
 70
    64
  3
-   -   -   -   -   -   -   -   
 72
    65
 73
     2
 40
2.5
 49
0.625
 49
-1.875
  0
LTYPE
  2
DUMMY
 70
    64
  3
ダミー
 72
    65
 73
     0
 40
0.0
  0
LTYPE
  2
RAND1
 70
    64
  3
ランダム線1
 72
    65
 73
     4
 40
10.0
 49
1.0
 49
-2.0
 49
3.0
 49
-4.0
  0
LTYPE
  2
RAND2
 70
    64
  3
ランダム線2
 72
    65
 73
     4
 40
14.0
 49
2.0
 49
-3.0
 49
4.0
 49
-5.0
  0
LTYPE
  2
RAND3
 70
    64
  3
ランダム線3
 72
    65
 73
     4
 40
18.0
 49
3.0
 49
-4.0
 49
5.0
 49
-6.0
  0
LTYPE
  2
RAND4
 70
    64
  3
ランダム線4
 72
    65
 73
     4
 40
22.0
 49
4.0
 49
-5.0
 49
6.0
 49
-7.0
  0
LTYPE
  2
RAND5
 70
    64
  3
ランダム線5
 72
    65
 73
     4
 40
26.0
 49
5.0
 49
-6.0
 49
7.0
 49
-8.0
  0
LTYPE
  2
LONG1
 70
    64
  3
----------  --  ----------  --  
 72
    65
 73
     4
 40
40.0
 49
32.5
 49
-2.5
 49
2.5
 49
-2.5
  0
LTYPE
  2
LONG2
 70
    64
  3
--------  -  -  --------  -  -  
 72
    65
 73
     6
 40
40.0
 49
30.0
 49
-2.5
 49
1.25
 49
-2.5
 49
1.25
 49
-2.5
  0
LTYPE
  2
LONG3
 70
    64
  3
+++++++++++++++..+++++++++++++++
 72
    65
 73
     2
 40
40.0
 49
37.5
 49
-2.5
  0
LTYPE
  2
LONG4
 70
    64
  3
+++++++++++++++..+++++++++++++++
 72
    65
 73
     2
 40
80.0
 49
75.0
 49
-5.0
  0
LTYPE
  2
LONG5
 70
    64
  3
----------  --  ----------  --  
 72
    65
 73
     4
 40
60.0
 49
37.5
 49
-7.5
 49
7.5
 49
-7.5
  0
LTYPE
  2
dashed
 70
   64
  3
-------   -------------   ------
 72
   65
 73
    2
 40
7.5
 49
6
 49
-1.5
  0
LTYPE
  2
dashed_spaced
 70
   64
  3
----        --------        ----
 72
   65
 73
    2
 40
12
 49
6
 49
-6
  0
LTYPE
  2
long_dashed_dotted
 70
   64
  3
------------- --- --------------
 72
   65
 73
    4
 40
15.25
 49
12
 49
-1.5
 49
0.25
 49
-1.5
  0
LTYPE
  2
long_dashed_double-dotted
 70
   64
  3
----------- --- --- ------------
 72
   65
 73
    6
 40
17
 49
12
 49
-1.5
 49
0.25
 49
-1.5
 49
0.25
 49
-1.5
  0
LTYPE
  2
long_dashed_triplicate-dotted
 70
   64
  3
--------- --- --- --- ----------
 72
   65
 73
    8
 40
18.75
 49
12
 49
-1.5
 49
0.25
 49
-1.5
 49
0.25
 49
-1.5
 49
0.25
 49
-1.5
  0
LTYPE
  2
dotted
 70
   64
  3
   -       -       -       -    
 72
   65
 73
    2
 40
1.75
 49
0.25
 49
-1.5
  0
LTYPE
  2
chain
 70
   64
  3
-------------- -- --------------
 72
   65
 73
    4
 40
18.5
 49
12
 49
-1.5
 49
3.5
 49
-1.5
  0
LTYPE
  2
chain_double_dash
 70
   64
  3
------------ -- -- -------------
 72
   65
 73
    6
 40
23.5
 49
12
 49
-1.5
 49
3.5
 49
-1.5
 49
3.5
 49
-1.5
  0
LTYPE
  2
dashed_dotted
 70
   64
  3
-----------     -     ----------
 72
   65
 73
    4
 40
9.25
 49
6
 49
-1.5
 49
0.25
 49
-1.5
  0
LTYPE
  2
double-dashed_dotted
 70
   64
  3
------   -----------   -   -----
 72
   65
 73
    6
 40
16.75
 49
6
 49
-1.5
 49
6
 49
-1.5
 49
0.25
 49
-1.5
  0
LTYPE
  2
dashed_double-dotted
 70
   64
  3
---------    -    -    ---------
 72
   65
 73
    6
 40
11
 49
6
 49
-1.5
 49
0.25
 49
-1.5
 49
0.25
 49
-1.5
  0
LTYPE
  2
double-dashed_double-dotted
 70
   64
  3
-----   ---------   -   -   ----
 72
   65
 73
    8
 40
18.5
 49
6
 49
-1.5
 49
6
 49
-1.5
 49
0.25
 49
-1.5
 49
0.25
 49
-1.5
  0
LTYPE
  2
dashed_triplicate-dotted
 70
   64
  3
-------    -    -    -    ------
 72
   65
 73
    8
 40
12.75
 49
6
 49
-1.5
 49
0.25
 49
-1.5
 49
0.25
 49
-1.5
 49
0.25
 49
-1.5
  0
LTYPE
  2
double-dashed_triplicate-dotted
 70
   64
  3
-----  ---------  -  -  -  -----
 72
   65
 73
   10
 40
20.25
 49
6
 49
-1.5
 49
6
 49
-1.5
 49
0.25
 49
-1.5
 49
0.25
 49
-1.5
 49
0.25
 49
-1.5
  0
LTYPE
  2
undefined
 70
   64
  3
--------------------------------
 72
   65
 73
    0
 40
0
  0
ENDTAB
  0
TABLE
  2
STYLE
  5
3
100
AcDbSymbolTable
 70
     1
  0
STYLE
  5
10
100
AcDbSymbolTableRecord
100
AcDbTextStyleTableRecord
  2
STANDARD
 70
     0
 40
0.0
 41
1.0
 50
0.0
 71
     0
 42
0.2
  3
txt
  4
bigfont.shx
  0
STYLE
  5
26
100
AcDbSymbolTableRecord
100
AcDbTextStyleTableRecord
  2
TATEGAKI
 70
    68
 40
0.0
 41
1.0
 50
0.0
 71
     0
 42
1.0
  3
txt
  4
bigfont.shx
  0
ENDTAB
  0
TABLE
  2
LAYER
 70
    7
  0
LAYER
  2
_0-0_LAYER001
 70
   64
 62
    7
  6
CONTINUOUS
  0
LAYER
  2
_0-1_LAYER003
 70
   64
 62
    7
  6
CONTINUOUS
  0
LAYER
  2
_0-2_LAYER004
 70
   64
 62
    7
  6
CONTINUOUS
  0
LAYER
  2
_0-3_LAYER005
 70
   64
 62
    7
  6
CONTINUOUS
  0
LAYER
  2
_0-4_LAYER006
 70
   64
 62
    7
  6
CONTINUOUS
  0
LAYER
  2
_0-5_LAYER009
 70
   64
 62
    7
  6
CONTINUOUS
  0
LAYER
  2
ADD_LINE
 70
   64
 62
    7
  6
CONTINUOUS
  0
ENDTAB
  0
ENDSEC
  0
SECTION
  2
BLOCKS
  0
ENDSEC
  0
SECTION
  2
ENTITIES
  0
LINE
  8
_0-0_LAYER001
  6
CONTINUOUS
 62
    2
 10
1176.152
 20
576.90560000000005
 11
1155.0319999999999
 21
624.9701
  0
LINE
  8
_0-0_LAYER001
  6
CONTINUOUS
 62
    2
 10
1484.8892000000001
 20
1451.4572000000001
 11
1502.8973999999998
 21
1402.1424
  0
LINE
  8
_0-5_LAYER009
  6
CONTINUOUS
 62
    2
 10
1055.9915000000001
 20
877.94000000000005
 11
1057.9327000000001
 21
870.69560000000001
  0
LINE
  8
_0-5_LAYER009
  6
CONTINUOUS
 62
    2
 10
1057.9327000000001
 20
870.69560000000001
 11
1052.6294
 21
875.99890000000005
  0
LINE
  8
_0-5_LAYER009
  6
CONTINUOUS
 62
    2
 10
1057.9327000000001
 20
870.69560000000001
 11
1008.511
 21
956.29639999999995
  0
LINE
  8
_0-5_LAYER009
  6
CONTINUOUS
 62
    2
 10
1008.511
 20
956.29639999999995
 11
968.01099999999997
 21
956.29639999999995
  0
LINE
  8
_0-5_LAYER009
  6
DASHED1
 62
    2
 10
1127.2751000000001
 20
688.13959999999997
 11
2186.8247000000001
 21
1164.9374
  0
LINE
  8
_0-5_LAYER009
  6
CONTINUOUS
 62
    2
 10
1140.4170999999999
 20
683.08760000000007
 11
2190.9283
 21
1155.8181999999999
  0
LINE
  8
_0-5_LAYER009
  6
CONTINUOUS
 62
    2
 10
1150.0440000000001
 20
636.32159999999999
 11
1133.442
 21
674.10429999999997
  0
CIRCLE
  8
_0-5_LAYER009
  6
CONTINUOUS
 62
    2
 10
1149.0382999999999
 20
638.61040000000003
 40
1.6999999999999997
  0
LINE
  8
_0-5_LAYER009
  6
CONTINUOUS
 62
    2
 10
1149.0382999999999
 20
638.61040000000003
 11
1135.3033
 21
632.57510000000002
  0
CIRCLE
  8
_0-5_LAYER009
  6
CONTINUOUS
 62
    2
 10
1135.3033
 20
632.57510000000002
 40
1.6999999999999997
  0
LINE
  8
_0-5_LAYER009
  6
CONTINUOUS
 62
    2
 10
1136.309
 20
630.28629999999998
 11
1119.7068999999999
 21
668.06899999999996
  0
LINE
  8
_0-5_LAYER009
  6
CONTINUOUS
 62
    2
 10
1097.3705
 20
582.1893
 11
1069.3559
 21
645.94419999999991
  0
CIRCLE
  8
_0-5_LAYER009
  6
CONTINUOUS
 62
    2
 10
1096.3647000000001
 20
584.47799999999995
 40
1.6999999999999997
  0
LINE
  8
_0-5_LAYER009
  6
CONTINUOUS
 62
    2
 10
1096.3647000000001
 20
584.47799999999995
 11
1160.4508000000001
 21
612.63809999999989
  0
CIRCLE
  8
_0-5_LAYER009
  6
CONTINUOUS
 62
    2
 10
1160.4508000000001
 20
612.63809999999989
 40
1.6999999999999997
  0
LINE
  8
_0-5_LAYER009
  6
CONTINUOUS
 62
    2
 10
1161.4565
 20
610.34930000000008
 11
1133.442
 21
674.10429999999997
  0
LINE
  8
_0-5_LAYER009
  6
CONTINUOUS
 62
    2
 10
1057.3019999999999
 20
822.0800999999999
 11
1061.0519999999999
 21
828.57529999999997
  0
LINE
  8
_0-5_LAYER009
  6
CONTINUOUS
 62
    2
 10
1061.0519999999999
 20
828.57529999999997
 11
1061.0519999999999
 21
821.07529999999997
  0
LINE
  8
_0-5_LAYER009
  6
CONTINUOUS
 62
    2
 10
1061.0519999999999
 20
828.57529999999997
 11
1041.1578999999999
 21
754.32950000000005
  0
LINE
  8
_0-5_LAYER009
  6
CONTINUOUS
 62
    2
 10
1041.1578999999999
 20
754.32950000000005
 11
894.15789999999993
 21
754.32950000000005
  0
LINE
  8
_0-4_LAYER006
  6
CONTINUOUS
 62
    2
 10
1074.9739
 20
807.16010000000006
 11
2133.4771999999998
 21
1283.4872
  0
LINE
  8
_0-0_LAYER001
  6
DASHED1
 62
    2
 10
1084.0934
 20
811.26389999999992
 11
1136.4302
 21
692.16260000000011
  0
LINE
  8
_0-4_LAYER006
  6
CONTINUOUS
 62
    1
 10
2122.0911000000001
 20
1278.3634
 11
2131.5337
 21
1287.806
  0
LINE
  8
_0-4_LAYER006
  6
CONTINUOUS
 62
    1
 10
2096.3780999999999
 20
1266.7926
 11
2127.1448
 21
1297.5592000000001
  0
LINE
  8
_0-4_LAYER006
  6
CONTINUOUS
 62
    1
 10
2070.6651000000002
 20
1255.2217000000001
 11
2122.7559000000001
 21
1307.3124000000003
  0
LINE
  8
_0-4_LAYER006
  6
CONTINUOUS
 62
    1
 10
2044.9521
 20
1243.6507999999999
 11
2118.3669
 21
1317.0655999999999
  0
LINE
  8
_0-4_LAYER006
  6
CONTINUOUS
 62
    1
 10
2019.2390999999998
 20
1232.0799999999999
 11
2098.9915999999998
 21
1311.8324000000002
  0
LINE
  8
_0-4_LAYER006
  6
CONTINUOUS
 62
    1
 10
1993.5261
 20
1220.5091
 11
2073.2786000000001
 21
1300.2615000000001
  0
LINE
  8
_0-4_LAYER006
  6
CONTINUOUS
 62
    1
 10
1967.8130999999998
 20
1208.9383
 11
2047.5655000000002
 21
1288.6907000000001
  0
LINE
  8
_0-4_LAYER006
  6
CONTINUOUS
 62
    1
 10
1942.1001000000001
 20
1197.3674000000001
 11
2021.8525
 21
1277.1197999999999
  0
LINE
  8
_0-4_LAYER006
  6
CONTINUOUS
 62
    1
 10
1916.3870999999999
 20
1185.7964999999999
 11
1996.1395000000002
 21
1265.5489
  0
LINE
  8
_0-4_LAYER006
  6
CONTINUOUS
 62
    1
 10
1890.6741000000002
 20
1174.2257
 11
1970.4265
 21
1253.9781
  0
LINE
  8
_0-4_LAYER006
  6
CONTINUOUS
 62
    1
 10
1864.9611
 20
1162.6548
 11
1944.7134999999998
 21
1242.4072000000001
  0
LINE
  8
_0-4_LAYER006
  6
CONTINUOUS
 62
    1
 10
1839.2480999999998
 20
1151.0839000000001
 11
1919.0005000000001
 21
1230.8362999999999
  0
LINE
  8
_0-4_LAYER006
  6
CONTINUOUS
 62
    1
 10
1813.5351999999998
 20
1139.5130999999999
 11
1893.2874999999999
 21
1219.2655
  0
LINE
  8
_0-4_LAYER006
  6
CONTINUOUS
 62
    1
 10
1787.8222000000001
 20
1127.9422
 11
1867.5745000000002
 21
1207.6946
  0
LINE
  8
_0-4_LAYER006
  6
CONTINUOUS
 62
    1
 10
1762.1091999999999
 20
1116.3714
 11
1841.8615
 21
1196.1237000000001
  0
LINE
  8
_0-4_LAYER006
  6
CONTINUOUS
 62
    1
 10
1736.3962000000001
 20
1104.8005000000001
 11
1816.1484999999998
 21
1184.5528999999999
  0
LINE
  8
_0-4_LAYER006
  6
CONTINUOUS
 62
    1
 10
1710.6831999999999
 20
1093.2295999999999
 11
1790.4355
 21
1172.982
  0
LINE
  8
_0-4_LAYER006
  6
CONTINUOUS
 62
    1
 10
1684.9702000000002
 20
1081.6587999999999
 11
1764.7224999999999
 21
1161.4111
  0
LINE
  8
_0-4_LAYER006
  6
CONTINUOUS
 62
    1
 10
1659.2572
 20
1070.0879
 11
1739.0095000000001
 21
1149.8403000000001
  0
LINE
  8
_0-4_LAYER006
  6
CONTINUOUS
 62
    1
 10
1633.5441999999998
 20
1058.5171
 11
1713.2964999999999
 21
1138.2693999999999
  0
LINE
  8
_0-4_LAYER006
  6
CONTINUOUS
 62
    1
 10
1607.8312000000001
 20
1046.9462000000001
 11
1687.5835000000002
 21
1126.6985
  0
LINE
  8
_0-4_LAYER006
  6
CONTINUOUS
 62
    1
 10
1582.1181999999999
 20
1035.3752999999999
 11
1661.8705
 21
1115.1277
  0
LINE
  8
_0-4_LAYER006
  6
CONTINUOUS
 62
    1
 10
1556.4052000000001
 20
1023.8045
 11
1636.1574999999998
 21
1103.5568000000001
  0
LINE
  8
_0-4_LAYER006
  6
CONTINUOUS
 62
    1
 10
1530.6922
 20
1012.2336
 11
1610.4445000000001
 21
1091.9858999999999
  0
LINE
  8
_0-4_LAYER006
  6
CONTINUOUS
 62
    1
 10
1504.9792000000002
 20
1000.6627000000001
 11
1584.7314999999999
 21
1080.4150999999999
  0
LINE
  8
_0-4_LAYER006
  6
CONTINUOUS
 62
    1
 10
1479.2662
 20
989.0918999999999
 11
1559.0185000000001
 21
1068.8442
  0
LINE
  8
_0-4_LAYER006
  6
CONTINUOUS
 62
    1
 10
1453.5531999999998
 20
977.52099999999996
 11
1533.3054999999999
 21
1057.2733000000001
  0
LINE
  8
_0-4_LAYER006
  6
CONTINUOUS
 62
    1
 10
1427.8402000000001
 20
965.9502
 11
1507.5925000000002
 21
1045.7025000000001
  0
LINE
  8
_0-4_LAYER006
  6
CONTINUOUS
 62
    1
 10
1402.1271999999999
 20
954.37930000000006
 11
1481.8795
 21
1034.1315999999999
  0
LINE
  8
_0-4_LAYER006
  6
CONTINUOUS
 62
    1
 10
1376.4141999999997
 20
942.80839999999989
 11
1456.1664999999998
 21
1022.5607
  0
LINE
  8
_0-4_LAYER006
  6
CONTINUOUS
 62
    1
 10
1350.7012
 20
931.23759999999993
 11
1430.4535000000001
 21
1010.9898000000001
  0
LINE
  8
_0-4_LAYER006
  6
CONTINUOUS
 62
    1
 10
1324.9882
 20
919.66669999999999
 11
1404.7405000000001
 21
999.4190000000001
  0
LINE
  8
_0-4_LAYER006
  6
CONTINUOUS
 62
    1
 10
1299.2752
 20
908.09590000000003
 11
1379.0274999999999
 21
987.84809999999993
  0
LINE
  8
_0-4_LAYER006
  6
CONTINUOUS
 62
    1
 10
1273.5622000000001
 20
896.52500000000009
 11
1353.3145
 21
976.27719999999999
  0
LINE
  8
_0-4_LAYER006
  6
CONTINUOUS
 62
    1
 10
1247.8492000000001
 20
884.95409999999993
 11
1327.6015000000002
 21
964.70640000000003
  0
LINE
  8
_0-4_LAYER006
  6
CONTINUOUS
 62
    1
 10
1222.1361999999999
 20
873.38329999999996
 11
1301.8885
 21
953.13550000000009
  0
LINE
  8
_0-4_LAYER006
  6
CONTINUOUS
 62
    1
 10
1196.4232
 20
861.81240000000003
 11
1276.1755000000001
 21
941.56459999999993
  0
LINE
  8
_0-4_LAYER006
  6
CONTINUOUS
 62
    1
 10
1170.7102
 20
850.24150000000009
 11
1250.4625000000001
 21
929.99379999999996
  0
LINE
  8
_0-4_LAYER006
  6
CONTINUOUS
 62
    1
 10
1144.9972
 20
838.6706999999999
 11
1224.7494999999999
 21
918.42290000000003
  0
LINE
  8
_0-4_LAYER006
  6
CONTINUOUS
 62
    1
 10
1119.2842000000001
 20
827.09979999999996
 11
1139.2222999999999
 21
847.03790000000004
  0
LINE
  8
_0-4_LAYER006
  6
CONTINUOUS
 62
    1
 10
1139.3267000000001
 20
847.14229999999998
 11
1199.0364
 21
906.85200000000009
  0
LINE
  8
_0-4_LAYER006
  6
CONTINUOUS
 62
    1
 10
1093.5712000000001
 20
815.529
 11
1113.5092999999999
 21
835.4670000000001
  0
LINE
  8
_0-4_LAYER006
  6
CONTINUOUS
 62
    1
 10
1135.0092
 20
856.9670000000001
 11
1173.3234
 21
895.2811999999999
  0
LINE
  8
_0-4_LAYER006
  6
CONTINUOUS
 62
    1
 10
1073.7791
 20
809.87899999999991
 11
1087.7962
 21
823.89609999999993
  0
LINE
  8
_0-4_LAYER006
  6
CONTINUOUS
 62
    1
 10
1130.6918000000001
 20
866.79160000000002
 11
1147.6104
 21
883.71029999999996
  0
LINE
  8
_0-4_LAYER006
  6
CONTINUOUS
 62
    1
 10
1072.1476
 20
816.85419999999999
 11
1079.7103
 21
809.29150000000004
  0
LINE
  8
_0-4_LAYER006
  6
CONTINUOUS
 62
    1
 10
1081.9007999999999
 20
821.24309999999991
 11
1089.4635000000001
 21
813.68049999999994
  0
LINE
  8
_0-4_LAYER006
  6
CONTINUOUS
 62
    1
 10
1091.654
 20
825.63210000000004
 11
1099.2166999999999
 21
818.06940000000009
  0
LINE
  8
_0-4_LAYER006
  6
CONTINUOUS
 62
    1
 10
1101.4072000000001
 20
830.02099999999996
 11
1108.9699000000001
 21
822.45839999999998
  0
LINE
  8
_0-4_LAYER006
  6
CONTINUOUS
 62
    1
 10
1111.1604
 20
834.41000000000008
 11
1118.7230999999999
 21
826.8472999999999
  0
LINE
  8
_0-4_LAYER006
  6
CONTINUOUS
 62
    1
 10
1120.9136000000001
 20
838.7989
 11
1128.4763
 21
831.23620000000005
  0
LINE
  8
_0-4_LAYER006
  6
CONTINUOUS
 62
    1
 10
1130.6667
 20
843.1878999999999
 11
1138.2293999999999
 21
835.62519999999995
  0
LINE
  8
_0-4_LAYER006
  6
CONTINUOUS
 62
    1
 10
1138.1289999999999
 20
849.86779999999999
 11
1147.9826
 21
840.0141000000001
  0
LINE
  8
_0-4_LAYER006
  6
CONTINUOUS
 62
    1
 10
1127.4849999999999
 20
874.65390000000002
 11
1157.7357999999999
 21
844.40309999999999
  0
LINE
  8
_0-4_LAYER006
  6
CONTINUOUS
 62
    1
 10
1137.2382
 20
879.04279999999994
 11
1167.489
 21
848.79199999999992
  0
LINE
  8
_0-4_LAYER006
  6
CONTINUOUS
 62
    1
 10
1146.9914000000001
 20
883.43170000000009
 11
1177.2421999999999
 21
853.18090000000007
  0
LINE
  8
_0-4_LAYER006
  6
CONTINUOUS
 62
    1
 10
1156.7446
 20
887.82069999999999
 11
1186.9954
 21
857.56989999999996
  0
LINE
  8
_0-4_LAYER006
  6
CONTINUOUS
 62
    1
 10
1166.4978000000001
 20
892.20959999999991
 11
1196.7485999999999
 21
861.95880000000011
  0
LINE
  8
_0-4_LAYER006
  6
CONTINUOUS
 62
    1
 10
1176.251
 20
896.59860000000003
 11
1206.5018
 21
866.34780000000001
  0
LINE
  8
_0-4_LAYER006
  6
CONTINUOUS
 62
    1
 10
1186.0042000000001
 20
900.98749999999995
 11
1216.2550000000001
 21
870.73669999999993
  0
LINE
  8
_0-4_LAYER006
  6
CONTINUOUS
 62
    1
 10
1195.7574
 20
905.37650000000008
 11
1226.0082
 21
875.12570000000005
  0
LINE
  8
_0-4_LAYER006
  6
CONTINUOUS
 62
    1
 10
1205.5106000000001
 20
909.7654
 11
1235.7614000000001
 21
879.51459999999997
  0
LINE
  8
_0-4_LAYER006
  6
CONTINUOUS
 62
    1
 10
1215.2637999999999
 20
914.15429999999992
 11
1245.5146
 21
883.90349999999989
  0
LINE
  8
_0-4_LAYER006
  6
CONTINUOUS
 62
    1
 10
1225.0170000000001
 20
918.54330000000004
 11
1255.2678000000001
 21
888.29250000000002
  0
LINE
  8
_0-4_LAYER006
  6
CONTINUOUS
 62
    1
 10
1234.7701999999999
 20
922.93219999999997
 11
1265.021
 21
892.68139999999994
  0
LINE
  8
_0-4_LAYER006
  6
CONTINUOUS
 62
    1
 10
1244.5233000000001
 20
927.32120000000009
 11
1274.7742000000001
 21
897.07040000000006
  0
LINE
  8
_0-4_LAYER006
  6
CONTINUOUS
 62
    1
 10
1254.2764999999999
 20
931.71010000000001
 11
1284.5273
 21
901.45929999999998
  0
LINE
  8
_0-4_LAYER006
  6
CONTINUOUS
 62
    1
 10
1264.0297
 20
936.09909999999991
 11
1294.2805000000001
 21
905.84830000000011
  0
LINE
  8
_0-4_LAYER006
  6
CONTINUOUS
 62
    1
 10
1273.7828999999999
 20
940.48800000000006
 11
1304.0337
 21
910.23720000000003
  0
LINE
  8
_0-4_LAYER006
  6
CONTINUOUS
 62
    1
 10
1283.5361
 20
944.87689999999998
 11
1313.7869000000001
 21
914.62609999999995
  0
LINE
  8
_0-4_LAYER006
  6
CONTINUOUS
 62
    1
 10
1293.2892999999999
 20
949.2659000000001
 11
1323.5400999999999
 21
919.01510000000007
  0
LINE
  8
_0-4_LAYER006
  6
CONTINUOUS
 62
    1
 10
1303.0425
 20
953.65480000000002
 11
1333.2933
 21
923.404
  0
LINE
  8
_0-4_LAYER006
  6
CONTINUOUS
 62
    1
 10
1312.7956999999997
 20
958.04379999999992
 11
1343.0464999999999
 21
927.79299999999989
  0
LINE
  8
_0-4_LAYER006
  6
CONTINUOUS
 62
    1
 10
1322.5488999999998
 20
962.43270000000007
 11
1352.7997
 21
932.18190000000004
  0
LINE
  8
_0-4_LAYER006
  6
CONTINUOUS
 62
    1
 10
1332.3020999999999
 20
966.82169999999996
 11
1362.5529000000001
 21
936.57079999999996
  0
LINE
  8
_0-4_LAYER006
  6
CONTINUOUS
 62
    1
 10
1342.0553
 20
971.21060000000011
 11
1372.3061000000002
 21
940.95980000000009
  0
LINE
  8
_0-4_LAYER006
  6
CONTINUOUS
 62
    1
 10
1351.8085000000001
 20
975.59950000000003
 11
1382.0592999999999
 21
945.34870000000001
  0
LINE
  8
_0-4_LAYER006
  6
CONTINUOUS
 62
    1
 10
1361.5617
 20
979.98849999999993
 11
1391.8125
 21
949.7376999999999
  0
LINE
  8
_0-4_LAYER006
  6
CONTINUOUS
 62
    1
 10
1371.3149000000001
 20
984.37740000000008
 11
1401.5657000000001
 21
954.12660000000005
  0
LINE
  8
_0-4_LAYER006
  6
CONTINUOUS
 62
    1
 10
1381.068
 20
988.76639999999998
 11
1411.3189
 21
958.51559999999995
  0
LINE
  8
_0-4_LAYER006
  6
CONTINUOUS
 62
    1
 10
1390.8212000000001
 20
993.1552999999999
 11
1421.0721000000001
 21
962.9045000000001
  0
LINE
  8
_0-4_LAYER006
  6
CONTINUOUS
 62
    1
 10
1400.5744
 20
997.54430000000002
 11
1430.8253
 21
967.29340000000002
  0
LINE
  8
_0-4_LAYER006
  6
CONTINUOUS
 62
    1
 10
1410.3276000000001
 20
1001.9331999999999
 11
1440.5783999999999
 21
971.68239999999992
  0
LINE
  8
_0-4_LAYER006
  6
CONTINUOUS
 62
    1
 10
1420.0808000000002
 20
1006.3221000000001
 11
1450.3316
 21
976.07130000000006
  0
LINE
  8
_0-4_LAYER006
  6
CONTINUOUS
 62
    1
 10
1429.8340000000003
 20
1010.7111
 11
1460.0848000000001
 21
980.46029999999996
  0
LINE
  8
_0-4_LAYER006
  6
CONTINUOUS
 62
    1
 10
1439.5871999999999
 20
1015.0999999999999
 11
1469.8380000000002
 21
984.84920000000011
  0
LINE
  8
_0-4_LAYER006
  6
CONTINUOUS
 62
    1
 10
1449.3404
 20
1019.489
 11
1479.5911999999998
 21
989.23820000000001
  0
LINE
  8
_0-4_LAYER006
  6
CONTINUOUS
 62
    1
 10
1459.0936000000002
 20
1023.8779
 11
1489.3444
 21
993.62709999999993
  0
LINE
  8
_0-4_LAYER006
  6
CONTINUOUS
 62
    1
 10
1468.8467999999998
 20
1028.2669000000001
 11
1499.0976000000001
 21
998.01600000000008
  0
LINE
  8
_0-4_LAYER006
  6
CONTINUOUS
 62
    1
 10
1478.5999999999999
 20
1032.6558
 11
1508.8508000000002
 21
1002.405
  0
LINE
  8
_0-4_LAYER006
  6
CONTINUOUS
 62
    1
 10
1488.3532
 20
1037.0446999999999
 11
1518.6039999999998
 21
1006.7938999999999
  0
LINE
  8
_0-4_LAYER006
  6
CONTINUOUS
 62
    1
 10
1498.1064000000001
 20
1041.4337
 11
1528.3571999999999
 21
1011.1829
  0
LINE
  8
_0-4_LAYER006
  6
CONTINUOUS
 62
    1
 10
1507.8595999999998
 20
1045.8226
 11
1538.1104
 21
1015.5717999999999
  0
LINE
  8
_0-4_LAYER006
  6
CONTINUOUS
 62
    1
 10
1517.6127000000001
 20
1050.2116000000001
 11
1547.8636000000001
 21
1019.9607000000001
  0
LINE
  8
_0-4_LAYER006
  6
CONTINUOUS
 62
    1
 10
1527.3658999999998
 20
1054.6005
 11
1557.6167999999998
 21
1024.3497
  0
LINE
  8
_0-4_LAYER006
  6
CONTINUOUS
 62
    1
 10
1537.1190999999999
 20
1058.9894999999999
 11
1567.3699999999999
 21
1028.7385999999999
  0
LINE
  8
_0-4_LAYER006
  6
CONTINUOUS
 62
    1
 10
1546.8723
 20
1063.3784000000001
 11
1577.1232
 21
1033.1276
  0
LINE
  8
_0-4_LAYER006
  6
CONTINUOUS
 62
    1
 10
1556.6255000000001
 20
1067.7673
 11
1586.8764000000001
 21
1037.5165
  0
LINE
  8
_0-4_LAYER006
  6
CONTINUOUS
 62
    1
 10
1566.3787000000002
 20
1072.1563000000001
 11
1596.6295
 21
1041.9055000000001
  0
LINE
  8
_0-4_LAYER006
  6
CONTINUOUS
 62
    1
 10
1576.1318999999999
 20
1076.5452
 11
1606.3827000000001
 21
1046.2944
  0
LINE
  8
_0-4_LAYER006
  6
CONTINUOUS
 62
    1
 10
1585.8851
 20
1080.9341999999999
 11
1616.1359000000002
 21
1050.6832999999999
  0
LINE
  8
_0-4_LAYER006
  6
CONTINUOUS
 62
    1
 10
1595.6383000000001
 20
1085.3231000000001
 11
1625.8890999999999
 21
1055.0723
  0
LINE
  8
_0-4_LAYER006
  6
CONTINUOUS
 62
    1
 10
1605.3915000000002
 20
1089.7121
 11
1635.6423
 21
1059.4612
  0
LINE
  8
_0-4_LAYER006
  6
CONTINUOUS
 62
    1
 10
1615.1446999999998
 20
1094.1010000000001
 11
1645.3955000000001
 21
1063.8502000000001
  0
LINE
  8
_0-4_LAYER006
  6
CONTINUOUS
 62
    1
 10
1624.8978999999999
 20
1098.4899
 11
1655.1487000000002
 21
1068.2391
  0
LINE
  8
_0-4_LAYER006
  6
CONTINUOUS
 62
    1
 10
1634.6511
 20
1102.8788999999999
 11
1664.9018999999998
 21
1072.6279999999999
  0
LINE
  8
_0-4_LAYER006
  6
CONTINUOUS
 62
    1
 10
1644.4043000000001
 20
1107.2678000000001
 11
1674.6550999999999
 21
1077.0170000000001
  0
LINE
  8
_0-4_LAYER006
  6
CONTINUOUS
 62
    1
 10
1654.1574000000001
 20
1111.6568
 11
1684.4083000000001
 21
1081.4059
  0
LINE
  8
_0-4_LAYER006
  6
CONTINUOUS
 62
    1
 10
1663.9106000000002
 20
1116.0456999999999
 11
1694.1615000000002
 21
1085.7949000000001
  0
LINE
  8
_0-4_LAYER006
  6
CONTINUOUS
 62
    1
 10
1673.6637999999998
 20
1120.4347
 11
1703.9146999999998
 21
1090.1838
  0
LINE
  8
_0-4_LAYER006
  6
CONTINUOUS
 62
    1
 10
1683.4169999999999
 20
1124.8235999999999
 11
1713.6678999999999
 21
1094.5727999999999
  0
LINE
  8
_0-4_LAYER006
  6
CONTINUOUS
 62
    1
 10
1693.1702
 20
1129.2125000000001
 11
1723.4211
 21
1098.9617000000001
  0
LINE
  8
_0-4_LAYER006
  6
CONTINUOUS
 62
    1
 10
1702.9234000000001
 20
1133.6015
 11
1733.1743000000001
 21
1103.3506
  0
LINE
  8
_0-4_LAYER006
  6
CONTINUOUS
 62
    1
 10
1712.6765999999998
 20
1137.9903999999999
 11
1742.9274999999998
 21
1107.7396000000001
  0
LINE
  8
_0-4_LAYER006
  6
CONTINUOUS
 62
    1
 10
1722.4297999999999
 20
1142.3794
 11
1752.6806000000001
 21
1112.1285
  0
LINE
  8
_0-4_LAYER006
  6
CONTINUOUS
 62
    1
 10
1732.183
 20
1146.7683
 11
1762.4337999999998
 21
1116.5174999999999
  0
LINE
  8
_0-4_LAYER006
  6
CONTINUOUS
 62
    1
 10
1741.9362000000001
 20
1151.1573000000001
 11
1772.1869999999999
 21
1120.9064000000001
  0
LINE
  8
_0-4_LAYER006
  6
CONTINUOUS
 62
    1
 10
1751.6894000000002
 20
1155.5462
 11
1781.9402
 21
1125.2954
  0
LINE
  8
_0-4_LAYER006
  6
CONTINUOUS
 62
    1
 10
1761.4425999999999
 20
1159.9350999999999
 11
1791.6934000000001
 21
1129.6842999999999
  0
LINE
  8
_0-4_LAYER006
  6
CONTINUOUS
 62
    1
 10
1771.1958
 20
1164.3241
 11
1801.4466000000002
 21
1134.0732
  0
LINE
  8
_0-4_LAYER006
  6
CONTINUOUS
 62
    1
 10
1780.9490000000001
 20
1168.713
 11
1811.1997999999999
 21
1138.4621999999999
  0
LINE
  8
_0-4_LAYER006
  6
CONTINUOUS
 62
    1
 10
1790.7021
 20
1173.1020000000001
 11
1820.953
 21
1142.8511000000001
  0
LINE
  8
_0-4_LAYER006
  6
CONTINUOUS
 62
    1
 10
1800.4553000000001
 20
1177.4909
 11
1830.7062000000001
 21
1147.2401
  0
LINE
  8
_0-4_LAYER006
  6
CONTINUOUS
 62
    1
 10
1810.2085000000002
 20
1181.8798999999999
 11
1840.4594000000002
 21
1151.6289999999999
  0
LINE
  8
_0-4_LAYER006
  6
CONTINUOUS
 62
    1
 10
1819.9616999999998
 20
1186.2688000000001
 11
1850.2125999999998
 21
1156.0179000000001
  0
LINE
  8
_0-4_LAYER006
  6
CONTINUOUS
 62
    1
 10
1829.7148999999999
 20
1190.6577
 11
1859.9657999999999
 21
1160.4069
  0
LINE
  8
_0-4_LAYER006
  6
CONTINUOUS
 62
    1
 10
1839.4681
 20
1195.0467000000001
 11
1869.7190000000001
 21
1164.7958000000001
  0
LINE
  8
_0-4_LAYER006
  6
CONTINUOUS
 62
    1
 10
1849.2213000000002
 20
1199.4356
 11
1879.4722000000002
 21
1169.1848
  0
LINE
  8
_0-4_LAYER006
  6
CONTINUOUS
 62
    1
 10
1858.9744999999998
 20
1203.8245999999999
 11
1889.2253999999998
 21
1173.5736999999999
  0
LINE
  8
_0-4_LAYER006
  6
CONTINUOUS
 62
    1
 10
1868.7276999999999
 20
1208.2135000000001
 11
1898.9785000000002
 21
1177.9627
  0
LINE
  8
_0-4_LAYER006
  6
CONTINUOUS
 62
    1
 10
1878.4809
 20
1212.6025
 11
1908.7316999999998
 21
1182.3516
  0
LINE
  8
_0-4_LAYER006
  6
CONTINUOUS
 62
    1
 10
1888.2341000000001
 20
1216.9914000000001
 11
1918.4848999999999
 21
1186.7405000000001
  0
LINE
  8
_0-4_LAYER006
  6
CONTINUOUS
 62
    1
 10
1897.9872999999998
 20
1221.3803
 11
1928.2381
 21
1191.1295
  0
LINE
  8
_0-4_LAYER006
  6
CONTINUOUS
 62
    1
 10
1907.7404999999999
 20
1225.7692999999999
 11
1937.9913000000001
 21
1195.5183999999999
  0
LINE
  8
_0-4_LAYER006
  6
CONTINUOUS
 62
    1
 10
1917.4937
 20
1230.1582000000001
 11
1947.7444999999998
 21
1199.9074000000001
  0
LINE
  8
_0-4_LAYER006
  6
CONTINUOUS
 62
    1
 10
1927.2467999999999
 20
1234.5472
 11
1957.4976999999999
 21
1204.2963
  0
LINE
  8
_0-4_LAYER006
  6
CONTINUOUS
 62
    1
 10
1937
 20
1238.9360999999999
 11
1967.2509
 21
1208.6851999999999
  0
LINE
  8
_0-4_LAYER006
  6
CONTINUOUS
 62
    1
 10
1946.7532000000001
 20
1243.3251
 11
1977.0041000000001
 21
1213.0742
  0
LINE
  8
_0-4_LAYER006
  6
CONTINUOUS
 62
    1
 10
1956.5064000000002
 20
1247.7139999999999
 11
1986.7573000000002
 21
1217.4630999999999
  0
LINE
  8
_0-4_LAYER006
  6
CONTINUOUS
 62
    1
 10
1966.2595999999999
 20
1252.1029000000001
 11
1996.5104999999999
 21
1221.8521000000001
  0
LINE
  8
_0-4_LAYER006
  6
CONTINUOUS
 62
    1
 10
1976.0128
 20
1256.4919
 11
2006.2637
 21
1226.241
  0
LINE
  8
_0-4_LAYER006
  6
CONTINUOUS
 62
    1
 10
1985.7660000000001
 20
1260.8807999999999
 11
2016.0169000000001
 21
1230.6300000000001
  0
LINE
  8
_0-4_LAYER006
  6
CONTINUOUS
 62
    1
 10
1995.5192000000002
 20
1265.2698
 11
2025.7701000000002
 21
1235.0189
  0
LINE
  8
_0-4_LAYER006
  6
CONTINUOUS
 62
    1
 10
2005.2723999999998
 20
1269.6587
 11
2035.5232999999998
 21
1239.4078
  0
LINE
  8
_0-4_LAYER006
  6
CONTINUOUS
 62
    1
 10
2015.0255999999999
 20
1274.0477000000001
 11
2045.2764999999999
 21
1243.7968000000001
  0
LINE
  8
_0-4_LAYER006
  6
CONTINUOUS
 62
    1
 10
2024.7788
 20
1278.4366
 11
2055.0295999999998
 21
1248.1857
  0
LINE
  8
_0-4_LAYER006
  6
CONTINUOUS
 62
    1
 10
2034.5320000000002
 20
1282.8254999999999
 11
2064.7828
 21
1252.5746999999999
  0
LINE
  8
_0-4_LAYER006
  6
CONTINUOUS
 62
    1
 10
2044.2851999999998
 20
1287.2145
 11
2074.5360000000001
 21
1256.9636
  0
LINE
  8
_0-4_LAYER006
  6
CONTINUOUS
 62
    1
 10
2054.0383999999999
 20
1291.6034
 11
2084.2892000000002
 21
1261.3525999999999
  0
LINE
  8
_0-4_LAYER006
  6
CONTINUOUS
 62
    1
 10
2063.7914999999998
 20
1295.9924000000001
 11
2094.0423999999998
 21
1265.7415000000001
  0
LINE
  8
_0-4_LAYER006
  6
CONTINUOUS
 62
    1
 10
2073.5446999999999
 20
1300.3813
 11
2103.7955999999999
 21
1270.1304
  0
LINE
  8
_0-4_LAYER006
  6
CONTINUOUS
 62
    1
 10
2083.2979
 20
1304.7702999999999
 11
2113.5488
 21
1274.5193999999999
  0
LINE
  8
_0-4_LAYER006
  6
CONTINUOUS
 62
    1
 10
2093.0511000000001
 20
1309.1592000000001
 11
2123.3020000000001
 21
1278.9083000000001
  0
LINE
  8
_0-4_LAYER006
  6
CONTINUOUS
 62
    1
 10
2102.8042999999998
 20
1313.5481
 11
2133.0551999999998
 21
1283.2972999999997
  0
LINE
  8
_0-4_LAYER006
  6
CONTINUOUS
 62
    1
 10
2112.5574999999999
 20
1317.9371000000001
 11
2122.4070000000002
 21
1308.0875000000001
  0
LINE
  8
_0-0_LAYER001
  6
CONTINUOUS
 62
    2
 10
2052.0520999999999
 20
1299.7371000000001
 11
2079.4097000000002
 21
1312.048
  0
LINE
  8
_0-0_LAYER001
  6
CONTINUOUS
 62
    2
 10
2073.2541999999999
 20
1325.7267999999999
 11
2045.8966
 21
1313.4159
  0
LINE
  8
_0-0_LAYER001
  6
CONTINUOUS
 62
    2
 10
2079.4097000000002
 20
1312.048
 11
2073.2541999999999
 21
1325.7267999999999
  0
LINE
  8
_0-0_LAYER001
  6
CONTINUOUS
 62
    2
 10
2045.8966
 20
1313.4159
 11
2052.0520999999999
 21
1299.7371000000001
  0
LINE
  8
_0-0_LAYER001
  6
CONTINUOUS
 62
    2
 10
2073.2541999999999
 20
1325.7267999999999
 11
2052.0520999999999
 21
1299.7371000000001
  0
LINE
  8
_0-0_LAYER001
  6
CONTINUOUS
 62
    2
 10
1846.3744999999999
 20
1207.182
 11
1873.7217000000001
 21
1219.5160000000001
  0
LINE
  8
_0-0_LAYER001
  6
CONTINUOUS
 62
    2
 10
1867.5547000000001
 20
1233.1896999999999
 11
1840.2075
 21
1220.8557000000001
  0
LINE
  8
_0-0_LAYER001
  6
CONTINUOUS
 62
    2
 10
1873.7217000000001
 20
1219.5160000000001
 11
1867.5547000000001
 21
1233.1896999999999
  0
LINE
  8
_0-0_LAYER001
  6
CONTINUOUS
 62
    2
 10
1840.2075
 20
1220.8557000000001
 11
1846.3744999999999
 21
1207.182
  0
LINE
  8
_0-0_LAYER001
  6
CONTINUOUS
 62
    2
 10
1867.5547000000001
 20
1233.1896999999999
 11
1846.3744999999999
 21
1207.182
  0
LINE
  8
_0-0_LAYER001
  6
CONTINUOUS
 62
    2
 10
1640.607
 20
1114.5866000000001
 11
1667.9647
 21
1126.8975
  0
LINE
  8
_0-0_LAYER001
  6
CONTINUOUS
 62
    2
 10
1661.8092000000001
 20
1140.5762999999999
 11
1634.4515000000001
 21
1128.2654
  0
LINE
  8
_0-0_LAYER001
  6
CONTINUOUS
 62
    2
 10
1667.9647
 20
1126.8975
 11
1661.8092000000001
 21
1140.5762999999999
  0
LINE
  8
_0-0_LAYER001
  6
CONTINUOUS
 62
    2
 10
1634.4515000000001
 20
1128.2654
 11
1640.607
 21
1114.5866000000001
  0
LINE
  8
_0-0_LAYER001
  6
CONTINUOUS
 62
    2
 10
1661.8092000000001
 20
1140.5762999999999
 11
1640.607
 21
1114.5866000000001
  0
LINE
  8
_0-0_LAYER001
  6
CONTINUOUS
 62
    2
 10
1434.8395
 20
1021.9911
 11
1462.1970999999999
 21
1034.3019999999999
  0
LINE
  8
_0-0_LAYER001
  6
CONTINUOUS
 62
    2
 10
1456.0416
 20
1047.9808
 11
1428.6840000000002
 21
1035.6699000000001
  0
LINE
  8
_0-0_LAYER001
  6
CONTINUOUS
 62
    2
 10
1462.1970999999999
 20
1034.3019999999999
 11
1456.0416
 21
1047.9808
  0
LINE
  8
_0-0_LAYER001
  6
CONTINUOUS
 62
    2
 10
1428.6840000000002
 20
1035.6699000000001
 11
1434.8395
 21
1021.9911
  0
LINE
  8
_0-0_LAYER001
  6
CONTINUOUS
 62
    2
 10
1456.0416
 20
1047.9808
 11
1434.8395
 21
1021.9911
  0
LINE
  8
_0-0_LAYER001
  6
CONTINUOUS
 62
    2
 10
1229.0719999999999
 20
929.39560000000006
 11
1256.4289000000001
 21
941.70800000000008
  0
LINE
  8
_0-0_LAYER001
  6
CONTINUOUS
 62
    2
 10
1250.2727
 20
955.38650000000007
 11
1222.9158
 21
943.07410000000004
  0
LINE
  8
_0-0_LAYER001
  6
CONTINUOUS
 62
    2
 10
1256.4289000000001
 20
941.70800000000008
 11
1250.2727
 21
955.38650000000007
  0
LINE
  8
_0-0_LAYER001
  6
CONTINUOUS
 62
    2
 10
1222.9158
 20
943.07410000000004
 11
1229.0719999999999
 21
929.39560000000006
  0
LINE
  8
_0-0_LAYER001
  6
CONTINUOUS
 62
    2
 10
1250.2727
 20
955.38650000000007
 11
1229.0719999999999
 21
929.39560000000006
  0
LINE
  8
_0-0_LAYER001
  6
CONTINUOUS
 62
    4
 10
2074.4591
 20
1327.0839000000001
 11
2078.5517
 21
1315.8034
  0
LINE
  8
_0-0_LAYER001
  6
CONTINUOUS
 62
    4
 10
1809.2087999999999
 20
1248.9346
 11
2101.3332
 21
1354.9182000000001
  0
LINE
  8
_0-0_LAYER001
  6
CONTINUOUS
 62
    4
 10
1792.5551
 20
1294.8376000000003
 11
1994.6646999999998
 21
1368.1636000000001
  0
LINE
  8
_0-0_LAYER001
  6
CONTINUOUS
 62
    4
 10
1992.2773999999999
 20
1374.7438999999999
 11
2011.3184999999999
 21
1322.2605000000001
  0
ARC
  8
_0-0_LAYER001
  6
CONTINUOUS
 62
    4
 10
2001.6777999999999
 20
1378.1543999999999
 40
10
 50
109.94091000000002
 51
199.94091
  0
LINE
  8
_0-0_LAYER001
  6
CONTINUOUS
 62
    4
 10
1015.3134
 20
870.48579999999993
 11
1251.6102000000001
 21
956.21499999999992
  0
LINE
  8
_0-0_LAYER001
  6
CONTINUOUS
 62
    4
 10
1264.1632
 20
948.00389999999993
 11
1255.7028
 21
944.93450000000007
  0
LINE
  8
_0-0_LAYER001
  6
CONTINUOUS
 62
    4
 10
1254.2727
 20
975.26520000000005
 11
1264.1632
 21
948.00389999999993
  0
LINE
  8
_0-0_LAYER001
  6
CONTINUOUS
 62
    4
 10
1251.6102000000001
 20
956.21499999999992
 11
1255.7028
 21
944.93450000000007
  0
ARC
  8
_0-0_LAYER001
  6
CONTINUOUS
 62
    4
 10
1401.1949
 20
1054.0997
 40
10
 50
109.94091000000002
 51
199.94091
  0
ARC
  8
_0-0_LAYER001
  6
CONTINUOUS
 62
    4
 10
1606.9070999999999
 20
1146.8169
 40
10
 50
109.94091000000002
 51
199.94091
  0
ARC
  8
_0-0_LAYER001
  6
CONTINUOUS
 62
    4
 10
1812.6192999999998
 20
1239.5341000000001
 40
10
 50
109.94091000000002
 51
199.94091
  0
ARC
  8
_0-0_LAYER001
  6
CONTINUOUS
 62
    4
 10
2018.3314999999998
 20
1332.2514000000001
 40
10
 50
109.94091000000002
 51
199.94091
  0
ARC
  8
_0-0_LAYER001
  6
CONTINUOUS
 62
    4
 10
1195.4827
 20
961.38249999999994
 40
10
 50
109.94091000000002
 51
199.94091
  0
ARC
  8
_0-0_LAYER001
  6
CONTINUOUS
 62
    4
 10
951.75800000000004
 20
1028.4702
 40
104.21281
 50
268.69240000000002
 51
288.42793999999998
  0
LINE
  8
_0-0_LAYER001
  6
CONTINUOUS
 62
    4
 10
1002.7034000000001
 20
846.94849999999997
 11
1007.9861000000001
 21
825.27629999999999
  0
ARC
  8
_0-0_LAYER001
  6
CONTINUOUS
 62
    4
 10
1022.1343999999999
 20
851.68489999999997
 40
20
 50
109.94091000000002
 51
193.69899000000001
  0
LINE
  8
_0-0_LAYER001
  6
CONTINUOUS
 62
    4
 10
1172.8389999999999
 20
994.47450000000003
 11
1188.4695999999999
 21
951.39159999999993
  0
ARC
  8
_0-0_LAYER001
  6
CONTINUOUS
 62
    4
 10
1191.6398999999999
 20
1001.2954999999999
 40
20
 50
109.94091000000002
 51
199.94091
  0
LINE
  8
_0-0_LAYER001
  6
CONTINUOUS
 62
    4
 10
2014.9209999999998
 20
1341.6518000000001
 11
2094.3375000000001
 21
1370.4643000000001
  0
LINE
  8
_0-0_LAYER001
  6
CONTINUOUS
 62
    4
 10
2078.5517
 20
1315.8034
 11
2087.0120999999999
 21
1318.8728000000001
  0
LINE
  8
_0-0_LAYER001
  6
CONTINUOUS
 62
    4
 10
2077.1215999999999
 20
1346.1340999999998
 11
2087.0120999999999
 21
1318.8728000000001
  0
LINE
  8
_0-0_LAYER001
  6
CONTINUOUS
 62
    4
 10
1992.2773999999999
 20
1374.7438999999999
 11
2005.5205999999998
 21
1338.2412999999999
  0
LINE
  8
_0-0_LAYER001
  6
CONTINUOUS
 62
    4
 10
1609.2945
 20
1140.2366
 11
1868.7467999999999
 21
1234.3667
  0
LINE
  8
_0-0_LAYER001
  6
CONTINUOUS
 62
    4
 10
1868.7467999999999
 20
1234.3667
 11
1872.8393999999998
 21
1223.0861
  0
LINE
  8
_0-0_LAYER001
  6
CONTINUOUS
 62
    4
 10
1872.8393999999998
 20
1223.0861
 11
1881.2999
 21
1226.1556
  0
LINE
  8
_0-0_LAYER001
  6
CONTINUOUS
 62
    4
 10
1675.5875999999998
 20
1133.4384
 11
1667.1271999999999
 21
1130.3688999999999
  0
LINE
  8
_0-0_LAYER001
  6
CONTINUOUS
 62
    4
 10
1457.3224
 20
1048.9322
 11
1461.415
 21
1037.6516999999999
  0
LINE
  8
_0-0_LAYER001
  6
CONTINUOUS
 62
    4
 10
1469.8753999999999
 20
1040.7211
 11
1461.415
 21
1037.6516999999999
  0
LINE
  8
_0-0_LAYER001
  6
CONTINUOUS
 62
    4
 10
985.58339999999998
 20
929.7192
 11
1171.819
 21
997.28600000000006
  0
LINE
  8
_0-0_LAYER001
  6
CONTINUOUS
 62
    4
 10
1184.8189
 20
1020.0963999999999
 11
1377.5281
 21
1090.0119
  0
ARC
  8
_0-0_LAYER001
  6
CONTINUOUS
 62
    4
 10
1384.5411999999999
 20
1100.0027
 40
10
 50
109.94091000000002
 51
199.94091
  0
LINE
  8
_0-0_LAYER001
  6
CONTINUOUS
 62
    4
 10
1375.1406999999999
 20
1096.5922
 11
1394.1818000000001
 21
1044.1088999999999
  0
LINE
  8
_0-0_LAYER001
  6
CONTINUOUS
 62
    4
 10
1384.3490999999999
 20
1071.211
 11
1394.1818000000001
 21
1044.1088999999999
  0
LINE
  8
_0-0_LAYER001
  6
CONTINUOUS
 62
    4
 10
1459.9850000000001
 20
1067.9824000000001
 11
1469.8753999999999
 21
1040.7211
  0
LINE
  8
_0-0_LAYER001
  6
CONTINUOUS
 62
    4
 10
1192.0722000000001
 20
970.78289999999993
 11
1663.0346
 21
1141.6494
  0
LINE
  8
_0-0_LAYER001
  6
CONTINUOUS
 62
    4
 10
1663.0346
 20
1141.6494
 11
1667.1271999999999
 21
1130.3688999999999
  0
LINE
  8
_0-0_LAYER001
  6
CONTINUOUS
 62
    4
 10
1381.1306
 20
1109.4032
 11
1583.2402999999999
 21
1182.7291
  0
ARC
  8
_0-0_LAYER001
  6
CONTINUOUS
 62
    4
 10
1590.2534000000001
 20
1192.7199000000001
 40
10
 50
109.94091000000002
 51
199.94091
  0
LINE
  8
_0-0_LAYER001
  6
CONTINUOUS
 62
    4
 10
1580.8528999999999
 20
1189.3094000000001
 11
1599.8939999999998
 21
1136.8261
  0
LINE
  8
_0-0_LAYER001
  6
CONTINUOUS
 62
    4
 10
1580.8528999999999
 20
1189.3094000000001
 11
1599.8939999999998
 21
1136.8261
  0
LINE
  8
_0-0_LAYER001
  6
CONTINUOUS
 62
    4
 10
1397.7844
 20
1063.5001
 11
1665.6972000000001
 21
1160.6996999999999
  0
LINE
  8
_0-0_LAYER001
  6
CONTINUOUS
 62
    4
 10
1665.6972000000001
 20
1160.6996999999999
 11
1675.5875999999998
 21
1133.4384
  0
LINE
  8
_0-0_LAYER001
  6
CONTINUOUS
 62
    4
 10
1586.8429000000001
 20
1202.1204
 11
1788.9524999999999
 21
1275.4463000000001
  0
LINE
  8
_0-0_LAYER001
  6
CONTINUOUS
 62
    4
 10
1792.3629999999998
 20
1266.0459000000001
 11
1805.6062000000002
 21
1229.5433
  0
LINE
  8
_0-0_LAYER001
  6
CONTINUOUS
 62
    4
 10
1871.4094
 20
1253.4168999999999
 11
1881.2999
 21
1226.1556
  0
LINE
  8
_0-0_LAYER001
  6
CONTINUOUS
 62
    4
 10
1603.4965999999999
 20
1156.2174
 11
2074.4591
 21
1327.0839000000001
  0
LINE
  8
_0-0_LAYER001
  6
CONTINUOUS
 62
    4
 10
1998.2673
 20
1387.5547999999999
 11
2074.2428
 21
1415.1189999999999
  0
LINE
  8
_0-0_LAYER001
  6
CONTINUOUS
 62
    4
 10
1786.5650999999998
 20
1282.0265999999997
 11
1805.6062000000002
 21
1229.5433
  0
ARC
  8
_0-0_LAYER001
  6
CONTINUOUS
 62
    4
 10
1795.9656
 20
1285.4372000000001
 40
10
 50
109.94091000000002
 51
199.94091
  0
LINE
  8
_0-0_LAYER001
  6
CONTINUOUS
 62
    4
 10
949.55809999999997
 20
924.11280000000011
 11
978.47209999999995
 21
831.4088999999999
  0
ARC
  8
_0-0_LAYER001
  6
CONTINUOUS
 62
    4
 10
1130.0199
 20
930.28469999999993
 40
181.02933999999999
 50
181.81043
 51
212.85045999999997
  0
LINE
  8
_0-0_LAYER001
  6
CONTINUOUS
 62
    4
 10
977.10200000000009
 20
874.76939999999991
 11
977.02680000000009
 21
874.12159999999994
  0
LINE
  8
_0-0_LAYER001
  6
CONTINUOUS
 62
    4
 10
1457.3224
 20
1048.9322
 11
976.89609999999993
 21
874.63220000000001
  0
LINE
  8
_0-0_LAYER001
  6
CONTINUOUS
 62
    4
 10
978.47209999999995
 20
831.4088999999999
 11
988.50540000000001
 21
835.04899999999998
  0
LINE
  8
_0-0_LAYER001
  6
CONTINUOUS
 62
    4
 10
976.89609999999993
 20
874.63220000000001
 11
992.96949999999993
 21
819.8282999999999
  0
LINE
  8
_0-0_LAYER001
  6
CONTINUOUS
 62
    4
 10
1007.9861000000001
 20
825.27629999999999
 11
992.96949999999993
 21
819.8282999999999
  0
CIRCLE
  8
_0-0_LAYER001
  6
CONTINUOUS
 62
    2
 10
878.15429999999992
 20
1145.1268
 40
1.6999999999999997
  0
LINE
  8
_0-0_LAYER001
  6
CONTINUOUS
 62
    2
 10
878.15429999999992
 20
1145.1268
 11
1089.5037
 21
1222.3045999999999
  0
CIRCLE
  8
_0-0_LAYER001
  6
CONTINUOUS
 62
    2
 10
1089.5037
 20
1222.3045999999999
 40
1.6999999999999997
  0
LINE
  8
_0-0_LAYER001
  6
CONTINUOUS
 62
    2
 10
877.2967000000001
 20
1147.4752000000001
 11
895.30490000000009
 21
1098.1603
  0
LINE
  8
_0-0_LAYER001
  6
CONTINUOUS
 62
    2
 10
1088.6461999999999
 20
1224.6529
 11
1106.6542999999999
 21
1175.3380999999999
  0
CIRCLE
  8
_0-0_LAYER001
  6
CONTINUOUS
 62
    2
 10
1080.2635
 20
1247.6088999999999
 40
1.6999999999999997
  0
LINE
  8
_0-0_LAYER001
  6
CONTINUOUS
 62
    2
 10
1080.2635
 20
1247.6088999999999
 11
1291.6129000000001
 21
1324.7865999999999
  0
CIRCLE
  8
_0-0_LAYER001
  6
CONTINUOUS
 62
    2
 10
1291.6129000000001
 20
1324.7865999999999
 40
1.6999999999999997
  0
LINE
  8
_0-0_LAYER001
  6
CONTINUOUS
 62
    2
 10
1079.4059
 20
1249.9572000000001
 11
1097.4141
 21
1200.6423
  0
LINE
  8
_0-0_LAYER001
  6
CONTINUOUS
 62
    2
 10
1290.7554
 20
1327.1350000000002
 11
1308.7635
 21
1277.8200999999999
  0
CIRCLE
  8
_0-0_LAYER001
  6
CONTINUOUS
 62
    2
 10
1283.0051000000001
 20
1348.3589000000002
 40
1.6999999999999997
  0
LINE
  8
_0-0_LAYER001
  6
CONTINUOUS
 62
    2
 10
1283.0051000000001
 20
1348.3589000000002
 11
1494.3546000000001
 21
1425.5367000000001
  0
CIRCLE
  8
_0-0_LAYER001
  6
CONTINUOUS
 62
    2
 10
1494.3546000000001
 20
1425.5367000000001
 40
1.6999999999999997
  0
LINE
  8
_0-0_LAYER001
  6
CONTINUOUS
 62
    2
 10
1282.1476000000002
 20
1350.7071999999998
 11
1300.1557
 21
1301.3923
  0
LINE
  8
_0-0_LAYER001
  6
CONTINUOUS
 62
    2
 10
1493.4969999999998
 20
1427.885
 11
1511.5052000000001
 21
1378.5700999999999
  0
LINE
  8
_0-5_LAYER009
  6
CONTINUOUS
 62
    2
 10
1563.8009999999999
 20
1124.7447999999999
 11
1565.7422000000001
 21
1117.5003999999999
  0
LINE
  8
_0-5_LAYER009
  6
CONTINUOUS
 62
    2
 10
1565.7422000000001
 20
1117.5003999999999
 11
1560.4389000000001
 21
1122.8036999999999
  0
LINE
  8
_0-5_LAYER009
  6
CONTINUOUS
 62
    2
 10
1565.7422000000001
 20
1117.5003999999999
 11
1513.6332000000002
 21
1207.7556999999999
  0
LINE
  8
_0-5_LAYER009
  6
CONTINUOUS
 62
    2
 10
1513.6332000000002
 20
1207.7556999999999
 11
1473.1332000000002
 21
1207.7556999999999
  0
LINE
  8
_0-5_LAYER009
  6
CONTINUOUS
 62
    2
 10
813.83420000000001
 20
735.96199999999999
 11
861.89869999999996
 21
757.08189999999991
  0
CIRCLE
  8
_0-5_LAYER009
  6
CONTINUOUS
 62
    2
 10
816.12290000000007
 20
736.96769999999992
 40
1.6999999999999997
  0
LINE
  8
_0-5_LAYER009
  6
CONTINUOUS
 62
    2
 10
816.12290000000007
 20
736.96769999999992
 11
828.13869999999997
 21
709.6223
  0
CIRCLE
  8
_0-5_LAYER009
  6
CONTINUOUS
 62
    2
 10
828.13869999999997
 20
709.6223
 40
1.6999999999999997
  0
LINE
  8
_0-5_LAYER009
  6
CONTINUOUS
 62
    2
 10
825.84989999999993
 20
708.61660000000006
 11
873.91450000000009
 21
729.73649999999998
  0
CIRCLE
  8
_0-5_LAYER009
  6
CONTINUOUS
 62
    2
 10
828.13869999999997
 20
709.6223
 40
1.6999999999999997
  0
LINE
  8
_0-5_LAYER009
  6
CONTINUOUS
 62
    2
 10
828.13869999999997
 20
709.6223
 11
888.44810000000007
 21
572.37059999999997
  0
CIRCLE
  8
_0-5_LAYER009
  6
CONTINUOUS
 62
    2
 10
888.44810000000007
 20
572.37059999999997
 40
1.6999999999999997
  0
LINE
  8
_0-5_LAYER009
  6
CONTINUOUS
 62
    2
 10
886.15930000000003
 20
571.36490000000003
 11
934.22379999999998
 21
592.48479999999995
  0
LINE
  8
_0-3_LAYER005
  6
CONTINUOUS
 62
    2
 10
1091.8860999999999
 20
890.25649999999996
 11
1093.8271999999999
 21
883.01199999999994
  0
LINE
  8
_0-3_LAYER005
  6
CONTINUOUS
 62
    2
 10
1093.8271999999999
 20
883.01199999999994
 11
1088.5238999999999
 21
888.31529999999998
  0
LINE
  8
_0-3_LAYER005
  6
CONTINUOUS
 62
    2
 10
1093.8271999999999
 20
883.01199999999994
 11
1017.5716
 21
1015.0907
  0
LINE
  8
_0-3_LAYER005
  6
CONTINUOUS
 62
    2
 10
1017.5716
 20
1015.0907
 11
779.07159999999999
 21
1015.0907
  0
LINE
  8
_0-0_LAYER001
  6
CONTINUOUS
 62
    2
 10
1107.8231000000001
 20
901.44830000000002
 11
1080.1247000000001
 21
853.34179999999992
  0
LINE
  8
_0-0_LAYER001
  6
CONTINUOUS
 62
    2
 10
1064.6388999999999
 20
887.75520000000006
 11
1121.1617000000001
 21
871.80819999999994
  0
LINE
  8
_0-0_LAYER001
  6
CONTINUOUS
 62
    2
 10
1377.7976000000001
 20
665.51060000000007
 11
1356.6776
 21
713.57510000000002
  0
CIRCLE
  8
_0-0_LAYER001
  6
CONTINUOUS
 62
    2
 10
1376.7919000000002
 20
667.79940000000011
 40
1.6999999999999997
  0
LINE
  8
_0-0_LAYER001
  6
CONTINUOUS
 62
    2
 10
1376.7919000000002
 20
667.79940000000011
 11
1583.3604999999998
 21
758.56770000000006
  0
CIRCLE
  8
_0-0_LAYER001
  6
CONTINUOUS
 62
    2
 10
1583.3604999999998
 20
758.56770000000006
 40
1.6999999999999997
  0
LINE
  8
_0-0_LAYER001
  6
CONTINUOUS
 62
    2
 10
1584.3663000000001
 20
756.27890000000002
 11
1563.2462999999998
 21
804.34339999999997
  0
CIRCLE
  8
_0-0_LAYER001
  6
CONTINUOUS
 62
    2
 10
1583.3604999999998
 20
758.56770000000006
 40
1.6999999999999997
  0
LINE
  8
_0-0_LAYER001
  6
CONTINUOUS
 62
    2
 10
1583.3604999999998
 20
758.56770000000006
 11
1789.9292
 21
849.33590000000004
  0
CIRCLE
  8
_0-0_LAYER001
  6
CONTINUOUS
 62
    2
 10
1789.9292
 20
849.33590000000004
 40
1.6999999999999997
  0
LINE
  8
_0-0_LAYER001
  6
CONTINUOUS
 62
    2
 10
1790.9349000000002
 20
847.0471
 11
1769.8148999999999
 21
895.11159999999995
  0
CIRCLE
  8
_0-0_LAYER001
  6
CONTINUOUS
 62
    2
 10
1789.9292
 20
849.33590000000004
 40
1.6999999999999997
  0
LINE
  8
_0-0_LAYER001
  6
CONTINUOUS
 62
    2
 10
1789.9292
 20
849.33590000000004
 11
1996.4978000000001
 21
940.10410000000002
  0
CIRCLE
  8
_0-0_LAYER001
  6
CONTINUOUS
 62
    2
 10
1996.4978000000001
 20
940.10410000000002
 40
1.6999999999999997
  0
LINE
  8
_0-0_LAYER001
  6
CONTINUOUS
 62
    2
 10
1997.5034999999998
 20
937.81529999999998
 11
1976.3834999999999
 21
985.87979999999993
  0
LINE
  8
_0-0_LAYER001
  6
CONTINUOUS
 62
    2
 10
1377.7976000000001
 20
665.51060000000007
 11
1356.6776
 21
713.57510000000002
  0
CIRCLE
  8
_0-0_LAYER001
  6
CONTINUOUS
 62
    2
 10
1376.7919000000002
 20
667.79940000000011
 40
1.6999999999999997
  0
LINE
  8
_0-0_LAYER001
  6
CONTINUOUS
 62
    2
 10
1376.7919000000002
 20
667.79940000000011
 11
1175.1463000000001
 21
579.19439999999997
  0
CIRCLE
  8
_0-0_LAYER001
  6
CONTINUOUS
 62
    2
 10
1175.1463000000001
 20
579.19439999999997
 40
1.6999999999999997
  0
LINE
  8
_0-3_LAYER005
  6
CONTINUOUS
 62
    2
 10
1157.8380999999999
 20
944.95569999999998
 11
1159.7791999999999
 21
937.71119999999996
  0
LINE
  8
_0-3_LAYER005
  6
CONTINUOUS
 62
    2
 10
1159.7791999999999
 20
937.71119999999996
 11
1154.4758999999999
 21
943.0145
  0
LINE
  8
_0-3_LAYER005
  6
CONTINUOUS
 62
    2
 10
1159.7791999999999
 20
937.71119999999996
 11
1066.6817000000001
 21
1098.9608000000001
  0
LINE
  8
_0-3_LAYER005
  6
CONTINUOUS
 62
    2
 10
1066.6817000000001
 20
1098.9608000000001
 11
1002.1817000000001
 21
1098.9608000000001
  0
CIRCLE
  8
_0-0_LAYER001
  6
CONTINUOUS
 62
    2
 10
1485.7467999999999
 20
1449.1088999999999
 40
1.6999999999999997
  0
LINE
  8
_0-0_LAYER001
  6
CONTINUOUS
 62
    2
 10
1485.7467999999999
 20
1449.1088999999999
 11
1697.0962
 21
1526.2867000000001
  0
CIRCLE
  8
_0-0_LAYER001
  6
CONTINUOUS
 62
    2
 10
1697.0962
 20
1526.2867000000001
 40
1.6999999999999997
  0
LINE
  8
_0-0_LAYER001
  6
CONTINUOUS
 62
    2
 10
1696.2386999999999
 20
1528.6349999999998
 11
1714.2467999999999
 21
1479.3200999999999
  0
LINE
  8
_0-1_LAYER003
  6
CONTINUOUS
 62
    2
 10
1127.2775999999999
 20
874.5607
 11
2117.0625
 21
1319.9643000000001
  0
LINE
  8
_0-3_LAYER005
  6
DASHED3
 62
    2
 10
1119.5201
 20
875.45630000000006
 11
2115.4213
 21
1323.6114
  0
LINE
  8
_0-1_LAYER003
  6
CONTINUOUS
 62
    3
 10
1045.2017000000001
 20
837.62660000000005
 11
1057.2717
 21
810.16059999999993
  0
LINE
  8
_0-1_LAYER003
  6
CONTINUOUS
 62
    3
 10
1139.3478
 20
847.09439999999995
 11
1057.2717
 21
810.16059999999993
  0
LINE
  8
_0-1_LAYER003
  6
CONTINUOUS
 62
    3
 10
1127.2777000000001
 20
874.56060000000002
 11
1045.2017000000001
 21
837.62660000000005
  0
LINE
  8
_0-1_LAYER003
  6
CONTINUOUS
 62
    3
 10
1127.2777000000001
 20
874.56060000000002
 11
1139.3477
 21
847.0945999999999
  0
LINE
  8
_0-5_LAYER009
  6
CONTINUOUS
 62
    2
 10
1070.9507000000001
 20
816.3155999999999
 11
1079.5097000000001
 21
796.83860000000004
  0
LINE
  8
_0-1_LAYER003
  6
CONTINUOUS
 62
    2
 10
1070.9507000000001
 20
816.3155999999999
 11
1127.2751000000001
 21
688.13959999999997
  0
LINE
  8
_0-1_LAYER003
  6
CONTINUOUS
 62
    2
 10
1136.3941
 20
692.24360000000001
 11
1140.4170999999999
 21
683.08760000000007
  0
LINE
  8
_0-1_LAYER003
  6
CONTINUOUS
 62
    2
 10
1136.3941
 20
692.24360000000001
 11
1127.2751000000001
 21
688.13959999999997
  0
LINE
  8
_0-1_LAYER003
  6
CONTINUOUS
 62
    2
 10
1064.6388999999999
 20
887.75520000000006
 11
1107.8231000000001
 21
901.44830000000002
  0
LINE
  8
_0-1_LAYER003
  6
CONTINUOUS
 62
    2
 10
1064.6388999999999
 20
887.75520000000006
 11
1080.1249
 21
853.34140000000002
  0
LINE
  8
_0-1_LAYER003
  6
CONTINUOUS
 62
    2
 10
1107.8231000000001
 20
901.44830000000002
 11
1121.1617000000001
 21
871.80819999999994
  0
LINE
  8
_0-3_LAYER005
  6
CONTINUOUS
 62
    2
 10
1038.8604
 20
879.02880000000005
 11
1055.4217000000001
 21
842.22559999999999
  0
LINE
  8
_0-1_LAYER003
  6
DASHED1
 62
    2
 10
1038.8604
 20
879.02880000000005
 11
1022.3637000000001
 21
915.68859999999995
  0
LINE
  8
_0-1_LAYER003
  6
CONTINUOUS
 62
    2
 10
1290.3519000000001
 20
904.08030000000008
 11
1223.5298
 21
720.48829999999998
  0
LINE
  8
_0-1_LAYER003
  6
CONTINUOUS
 62
    2
 10
1264.8985
 20
892.6262999999999
 11
1198.0763999999999
 21
709.03430000000003
  0
LINE
  8
_0-1_LAYER003
  6
CONTINUOUS
 62
    2
 10
1277.6256000000001
 20
898.35349999999994
 11
1210.8034
 21
714.76150000000007
  0
LINE
  8
_0-1_LAYER003
  6
CONTINUOUS
 62
    2
 10
1687.9326999999998
 20
1082.9919
 11
1621.1106
 21
899.39989999999989
  0
LINE
  8
_0-1_LAYER003
  6
CONTINUOUS
 62
    2
 10
1700.6586000000002
 20
1088.7185999999999
 11
1633.8364999999999
 21
905.12660000000005
  0
LINE
  8
_0-1_LAYER003
  6
CONTINUOUS
 62
    2
 10
1713.3849
 20
1094.4454000000001
 11
1646.5628000000002
 21
910.85339999999997
  0
LINE
  8
_0-1_LAYER003
  6
CONTINUOUS
 62
    2
 10
2085.4058
 20
1261.855
 11
2018.585
 21
1078.2636
  0
LINE
  8
_0-1_LAYER003
  6
CONTINUOUS
 62
    2
 10
2098.1327999999999
 20
1267.5822000000001
 11
2031.3107
 21
1083.9902
  0
LINE
  8
_0-1_LAYER003
  6
CONTINUOUS
 62
    2
 10
2110.8587000000002
 20
1273.3088
 11
2044.0365999999999
 21
1089.7167999999999
  0
LINE
  8
_0-1_LAYER003
  6
CONTINUOUS
 62
    2
 10
1052.4547
 20
821.12159999999994
 11
1061.5087000000001
 21
812.06760000000008
  0
LINE
  8
_0-1_LAYER003
  6
CONTINUOUS
 62
    2
 10
1046.6237000000001
 20
838.26659999999993
 11
1069.3117
 21
815.57860000000005
  0
LINE
  8
_0-1_LAYER003
  6
CONTINUOUS
 62
    2
 10
1054.4257
 20
841.77759999999989
 11
1077.1137000000001
 21
819.08960000000002
  0
LINE
  8
_0-1_LAYER003
  6
CONTINUOUS
 62
    2
 10
1062.2286999999999
 20
845.28860000000009
 11
1084.9167
 21
822.60059999999999
  0
LINE
  8
_0-1_LAYER003
  6
CONTINUOUS
 62
    2
 10
1070.0307
 20
848.79960000000005
 11
1092.7186999999999
 21
826.11159999999995
  0
LINE
  8
_0-1_LAYER003
  6
CONTINUOUS
 62
    2
 10
1077.8336999999999
 20
852.31060000000002
 11
1100.5217
 21
829.62259999999992
  0
LINE
  8
_0-1_LAYER003
  6
CONTINUOUS
 62
    2
 10
1085.6357
 20
855.82159999999999
 11
1108.3236999999999
 21
833.13359999999989
  0
LINE
  8
_0-1_LAYER003
  6
CONTINUOUS
 62
    2
 10
1093.4386999999999
 20
859.33259999999996
 11
1116.1267
 21
836.64560000000006
  0
LINE
  8
_0-1_LAYER003
  6
CONTINUOUS
 62
    2
 10
1101.2417
 20
862.8445999999999
 11
1123.9296999999999
 21
840.15660000000003
  0
LINE
  8
_0-1_LAYER003
  6
CONTINUOUS
 62
    2
 10
1109.0436999999999
 20
866.35560000000009
 11
1131.7317
 21
843.66759999999999
  0
LINE
  8
_0-1_LAYER003
  6
CONTINUOUS
 62
    2
 10
1116.8467000000001
 20
869.86660000000006
 11
1139.1347000000001
 21
847.57760000000007
  0
LINE
  8
_0-1_LAYER003
  6
CONTINUOUS
 62
    2
 10
1124.6487
 20
873.37760000000003
 11
1130.2656999999999
 21
867.76060000000007
  0
ARC
  8
_0-1_LAYER003
  6
DASHED1
 62
    2
 10
1037.2197000000001
 20
882.57960000000003
 40
36.289999999999999
 50
25.317412999999998
 51
114.16601
  0
CIRCLE
  8
_0-3_LAYER005
  6
CONTINUOUS
 62
    2
 10
1056.4296999999999
 20
859.98659999999995
 40
0.4199999999999999
  0
CIRCLE
  8
_0-3_LAYER005
  6
CONTINUOUS
 62
    2
 10
1062.2537
 20
858.10760000000005
 40
0.188
  0
CIRCLE
  8
_0-3_LAYER005
  6
CONTINUOUS
 62
    2
 10
1069.2057
 20
856.60459999999989
 40
0.188
  0
CIRCLE
  8
_0-3_LAYER005
  6
CONTINUOUS
 62
    2
 10
1062.2537
 20
853.59860000000003
 40
0.188
  0
CIRCLE
  8
_0-3_LAYER005
  6
CONTINUOUS
 62
    2
 10
1061.8787
 20
852.65859999999998
 40
0.188
  0
CIRCLE
  8
_0-3_LAYER005
  6
CONTINUOUS
 62
    2
 10
1064.8847000000001
 20
853.22260000000006
 40
0.188
  0
CIRCLE
  8
_0-3_LAYER005
  6
CONTINUOUS
 62
    2
 10
1064.5087000000001
 20
854.91360000000009
 40
0.188
  0
CIRCLE
  8
_0-3_LAYER005
  6
CONTINUOUS
 62
    2
 10
1065.6357
 20
856.22859999999991
 40
0.188
  0
CIRCLE
  8
_0-3_LAYER005
  6
CONTINUOUS
 62
    2
 10
1070.8967
 20
854.72559999999999
 40
0.188
  0
CIRCLE
  8
_0-3_LAYER005
  6
CONTINUOUS
 62
    2
 10
1065.0726999999999
 20
850.40460000000007
 40
0.188
  0
CIRCLE
  8
_0-3_LAYER005
  6
CONTINUOUS
 62
    2
 10
1060.9386999999999
 20
849.65259999999989
 40
0.188
  0
CIRCLE
  8
_0-3_LAYER005
  6
CONTINUOUS
 62
    2
 10
1059.0597
 20
851.34359999999992
 40
0.188
  0
CIRCLE
  8
_0-3_LAYER005
  6
CONTINUOUS
 62
    2
 10
1053.4237000000001
 20
856.60459999999989
 40
0.188
  0
CIRCLE
  8
_0-3_LAYER005
  6
CONTINUOUS
 62
    2
 10
1049.6657
 20
861.67759999999998
 40
0.188
  0
CIRCLE
  8
_0-3_LAYER005
  6
CONTINUOUS
 62
    2
 10
1053.7987000000001
 20
865.81060000000002
 40
0.188
  0
CIRCLE
  8
_0-3_LAYER005
  6
CONTINUOUS
 62
    2
 10
1056.9927
 20
867.68959999999993
 40
0.188
  0
CIRCLE
  8
_0-3_LAYER005
  6
CONTINUOUS
 62
    2
 10
1057.9327000000001
 20
870.88359999999989
 40
0.188
  0
CIRCLE
  8
_0-3_LAYER005
  6
CONTINUOUS
 62
    2
 10
1055.8657000000001
 20
876.52060000000006
 40
0.188
  0
CIRCLE
  8
_0-3_LAYER005
  6
CONTINUOUS
 62
    2
 10
1055.4897000000001
 20
883.28459999999995
 40
0.188
  0
CIRCLE
  8
_0-3_LAYER005
  6
CONTINUOUS
 62
    2
 10
1056.4296999999999
 20
887.41759999999999
 40
0.188
  0
CIRCLE
  8
_0-3_LAYER005
  6
CONTINUOUS
 62
    2
 10
1059.8117
 20
880.46559999999999
 40
0.188
  0
CIRCLE
  8
_0-3_LAYER005
  6
CONTINUOUS
 62
    2
 10
1059.9997000000001
 20
870.69560000000001
 40
0.188
  0
CIRCLE
  8
_0-3_LAYER005
  6
CONTINUOUS
 62
    2
 10
1061.8787
 20
866.1866
 40
0.188
  0
CIRCLE
  8
_0-3_LAYER005
  6
CONTINUOUS
 62
    2
 10
1063.0056999999999
 20
863.18059999999991
 40
0.188
  0
CIRCLE
  8
_0-3_LAYER005
  6
CONTINUOUS
 62
    2
 10
1067.7027
 20
864.49559999999997
 40
0.188
  0
CIRCLE
  8
_0-3_LAYER005
  6
CONTINUOUS
 62
    2
 10
1066.5757000000001
 20
871.63560000000007
 40
0.188
  0
CIRCLE
  8
_0-3_LAYER005
  6
CONTINUOUS
 62
    2
 10
1063.0056999999999
 20
872.01160000000004
 40
0.188
  0
CIRCLE
  8
_0-3_LAYER005
  6
CONTINUOUS
 62
    2
 10
1066.0117
 20
868.62959999999998
 40
0.188
  0
CIRCLE
  8
_0-3_LAYER005
  6
CONTINUOUS
 62
    2
 10
1067.5146999999999
 20
865.24759999999992
 40
0.188
  0
CIRCLE
  8
_0-3_LAYER005
  6
CONTINUOUS
 62
    2
 10
1069.7697000000001
 20
862.61660000000006
 40
0.188
  0
CIRCLE
  8
_0-3_LAYER005
  6
CONTINUOUS
 62
    2
 10
1074.2787000000001
 20
857.16859999999997
 40
0.188
  0
CIRCLE
  8
_0-3_LAYER005
  6
CONTINUOUS
 62
    2
 10
1075.7817
 20
856.22859999999991
 40
0.188
  0
CIRCLE
  8
_0-3_LAYER005
  6
CONTINUOUS
 62
    2
 10
1065.2597000000001
 20
859.2346
 40
0.188
  0
CIRCLE
  8
_0-3_LAYER005
  6
CONTINUOUS
 62
    2
 10
1061.5027
 20
860.17460000000005
 40
0.188
  0
CIRCLE
  8
_0-3_LAYER005
  6
CONTINUOUS
 62
    2
 10
1058.3087
 20
861.11359999999991
 40
0.188
  0
CIRCLE
  8
_0-3_LAYER005
  6
CONTINUOUS
 62
    2
 10
1056.4296999999999
 20
863.18059999999991
 40
0.188
  0
CIRCLE
  8
_0-3_LAYER005
  6
CONTINUOUS
 62
    2
 10
1055.1147000000001
 20
860.73759999999993
 40
0.188
  0
CIRCLE
  8
_0-3_LAYER005
  6
CONTINUOUS
 62
    2
 10
1050.6047000000001
 20
864.49559999999997
 40
0.188
  0
CIRCLE
  8
_0-3_LAYER005
  6
CONTINUOUS
 62
    2
 10
1049.8536999999999
 20
868.44160000000011
 40
0.188
  0
CIRCLE
  8
_0-3_LAYER005
  6
CONTINUOUS
 62
    2
 10
1049.1016999999999
 20
873.3266000000001
 40
0.188
  0
CIRCLE
  8
_0-3_LAYER005
  6
CONTINUOUS
 62
    2
 10
1047.5987
 20
876.70859999999993
 40
0.188
  0
CIRCLE
  8
_0-3_LAYER005
  6
CONTINUOUS
 62
    2
 10
1044.4047
 20
881.21759999999995
 40
0.188
  0
CIRCLE
  8
_0-3_LAYER005
  6
CONTINUOUS
 62
    2
 10
1041.5867000000001
 20
883.65959999999995
 40
0.188
  0
CIRCLE
  8
_0-3_LAYER005
  6
CONTINUOUS
 62
    2
 10
1038.3927000000001
 20
884.97559999999999
 40
0.188
  0
CIRCLE
  8
_0-3_LAYER005
  6
CONTINUOUS
 62
    2
 10
1042.9016999999999
 20
887.41759999999999
 40
0.188
  0
CIRCLE
  8
_0-3_LAYER005
  6
CONTINUOUS
 62
    2
 10
1046.8477
 20
888.54459999999995
 40
0.188
  0
CIRCLE
  8
_0-3_LAYER005
  6
CONTINUOUS
 62
    2
 10
1053.2357
 20
888.92059999999992
 40
0.188
  0
CIRCLE
  8
_0-3_LAYER005
  6
CONTINUOUS
 62
    2
 10
1053.4237000000001
 20
887.04160000000002
 40
0.188
  0
CIRCLE
  8
_0-3_LAYER005
  6
CONTINUOUS
 62
    2
 10
1049.1016999999999
 20
884.03559999999993
 40
0.188
  0
CIRCLE
  8
_0-3_LAYER005
  6
CONTINUOUS
 62
    2
 10
1056.2417
 20
885.16260000000011
 40
0.188
  0
CIRCLE
  8
_0-3_LAYER005
  6
CONTINUOUS
 62
    2
 10
1056.4296999999999
 20
887.98160000000007
 40
0.188
  0
CIRCLE
  8
_0-3_LAYER005
  6
CONTINUOUS
 62
    2
 10
1056.2417
 20
891.55160000000001
 40
0.188
  0
CIRCLE
  8
_0-3_LAYER005
  6
CONTINUOUS
 62
    2
 10
1053.2357
 20
892.49060000000009
 40
0.188
  0
CIRCLE
  8
_0-3_LAYER005
  6
CONTINUOUS
 62
    2
 10
1060.3747000000001
 20
886.66660000000002
 40
0.188
  0
CIRCLE
  8
_0-3_LAYER005
  6
CONTINUOUS
 62
    2
 10
1060.7507000000001
 20
885.53860000000009
 40
0.188
  0
CIRCLE
  8
_0-3_LAYER005
  6
CONTINUOUS
 62
    2
 10
1063.1937
 20
877.83560000000011
 40
0.188
  0
CIRCLE
  8
_0-3_LAYER005
  6
CONTINUOUS
 62
    2
 10
1059.9997000000001
 20
875.5806
 40
0.188
  0
CIRCLE
  8
_0-3_LAYER005
  6
CONTINUOUS
 62
    2
 10
1055.8657000000001
 20
878.58760000000007
 40
0.188
  0
CIRCLE
  8
_0-3_LAYER005
  6
CONTINUOUS
 62
    2
 10
1054.1747
 20
880.27759999999989
 40
0.188
  0
CIRCLE
  8
_0-3_LAYER005
  6
CONTINUOUS
 62
    2
 10
1044.4047
 20
875.95659999999998
 40
0.188
  0
CIRCLE
  8
_0-3_LAYER005
  6
CONTINUOUS
 62
    2
 10
1042.9016999999999
 20
876.14460000000008
 40
0.188
  0
CIRCLE
  8
_0-3_LAYER005
  6
CONTINUOUS
 62
    2
 10
1043.8416999999999
 20
873.1386
 40
0.188
  0
CIRCLE
  8
_0-3_LAYER005
  6
CONTINUOUS
 62
    2
 10
1047.0356999999999
 20
866.93859999999995
 40
0.188
  0
CIRCLE
  8
_0-3_LAYER005
  6
CONTINUOUS
 62
    2
 10
1052.1077
 20
868.0655999999999
 40
0.188
  0
CIRCLE
  8
_0-3_LAYER005
  6
CONTINUOUS
 62
    2
 10
1051.9206999999999
 20
870.13259999999991
 40
0.188
  0
CIRCLE
  8
_0-3_LAYER005
  6
CONTINUOUS
 62
    2
 10
1055.8657000000001
 20
866.56259999999997
 40
0.188
  0
CIRCLE
  8
_0-3_LAYER005
  6
CONTINUOUS
 62
    2
 10
1058.4966999999999
 20
862.80459999999994
 40
0.188
  0
CIRCLE
  8
_0-3_LAYER005
  6
CONTINUOUS
 62
    2
 10
1060.5626999999999
 20
865.81060000000002
 40
0.188
  0
CIRCLE
  8
_0-3_LAYER005
  6
CONTINUOUS
 62
    2
 10
1062.6297
 20
866.56259999999997
 40
0.188
  0
CIRCLE
  8
_0-3_LAYER005
  6
CONTINUOUS
 62
    2
 10
1060.9386999999999
 20
863.36860000000001
 40
0.188
  0
CIRCLE
  8
_0-3_LAYER005
  6
CONTINUOUS
 62
    2
 10
1063.0056999999999
 20
864.11959999999999
 40
0.188
  0
CIRCLE
  8
_0-3_LAYER005
  6
CONTINUOUS
 62
    2
 10
1054.7387000000001
 20
858.48360000000002
 40
0.188
  0
CIRCLE
  8
_0-3_LAYER005
  6
CONTINUOUS
 62
    2
 10
1056.8056999999999
 20
859.2346
 40
0.188
  0
CIRCLE
  8
_0-3_LAYER005
  6
CONTINUOUS
 62
    2
 10
1056.0536999999999
 20
853.03459999999995
 40
0.188
  0
CIRCLE
  8
_0-3_LAYER005
  6
CONTINUOUS
 62
    2
 10
1058.1206999999999
 20
853.78659999999991
 40
0.188
  0
CIRCLE
  8
_0-3_LAYER005
  6
CONTINUOUS
 62
    2
 10
1055.6777
 20
850.40460000000007
 40
0.188
  0
CIRCLE
  8
_0-3_LAYER005
  6
CONTINUOUS
 62
    2
 10
1057.7447
 20
851.15560000000005
 40
0.188
  0
CIRCLE
  8
_0-3_LAYER005
  6
CONTINUOUS
 62
    2
 10
1056.6177
 20
847.77359999999999
 40
0.188
  0
CIRCLE
  8
_0-3_LAYER005
  6
CONTINUOUS
 62
    2
 10
1058.6837
 20
848.52559999999994
 40
0.188
  0
CIRCLE
  8
_0-3_LAYER005
  6
CONTINUOUS
 62
    2
 10
1057.7447
 20
847.39859999999999
 40
0.188
  0
CIRCLE
  8
_0-3_LAYER005
  6
CONTINUOUS
 62
    2
 10
1059.8117
 20
848.14959999999996
 40
0.188
  0
CIRCLE
  8
_0-3_LAYER005
  6
CONTINUOUS
 62
    2
 10
1068.2666999999999
 20
849.65259999999989
 40
0.188
  0
CIRCLE
  8
_0-3_LAYER005
  6
CONTINUOUS
 62
    2
 10
1070.3326999999999
 20
850.40460000000007
 40
0.188
  0
CIRCLE
  8
_0-3_LAYER005
  6
CONTINUOUS
 62
    2
 10
1070.1447000000001
 20
851.34359999999992
 40
0.188
  0
CIRCLE
  8
_0-3_LAYER005
  6
CONTINUOUS
 62
    2
 10
1072.2117000000001
 20
852.0956000000001
 40
0.188
  0
CIRCLE
  8
_0-3_LAYER005
  6
CONTINUOUS
 62
    2
 10
1070.3326999999999
 20
857.91959999999995
 40
0.188
  0
CIRCLE
  8
_0-3_LAYER005
  6
CONTINUOUS
 62
    2
 10
1072.3996999999999
 20
858.6715999999999
 40
0.188
  0
CIRCLE
  8
_0-3_LAYER005
  6
CONTINUOUS
 62
    2
 10
1067.7027
 20
865.81060000000002
 40
0.188
  0
CIRCLE
  8
_0-3_LAYER005
  6
CONTINUOUS
 62
    2
 10
1069.7697000000001
 20
866.56259999999997
 40
0.188
  0
CIRCLE
  8
_0-3_LAYER005
  6
CONTINUOUS
 62
    2
 10
1066.1996999999999
 20
869.56860000000006
 40
0.188
  0
CIRCLE
  8
_0-3_LAYER005
  6
CONTINUOUS
 62
    2
 10
1068.2666999999999
 20
870.32060000000001
 40
0.188
  0
CIRCLE
  8
_0-3_LAYER005
  6
CONTINUOUS
 62
    2
 10
1058.4966999999999
 20
867.12660000000005
 40
0.188
  0
CIRCLE
  8
_0-3_LAYER005
  6
CONTINUOUS
 62
    2
 10
1060.5626999999999
 20
867.87760000000003
 40
0.188
  0
CIRCLE
  8
_0-3_LAYER005
  6
CONTINUOUS
 62
    2
 10
1055.1147000000001
 20
869.19260000000008
 40
0.188
  0
CIRCLE
  8
_0-3_LAYER005
  6
CONTINUOUS
 62
    2
 10
1057.1806999999999
 20
869.94460000000004
 40
0.188
  0
CIRCLE
  8
_0-3_LAYER005
  6
CONTINUOUS
 62
    2
 10
1051.9206999999999
 20
872.19859999999994
 40
0.188
  0
CIRCLE
  8
_0-3_LAYER005
  6
CONTINUOUS
 62
    2
 10
1053.9866999999999
 20
872.95059999999989
 40
0.188
  0
CIRCLE
  8
_0-3_LAYER005
  6
CONTINUOUS
 62
    2
 10
1045.9077
 20
878.02359999999999
 40
0.188
  0
CIRCLE
  8
_0-3_LAYER005
  6
CONTINUOUS
 62
    2
 10
1047.9747
 20
878.77459999999996
 40
0.188
  0
CIRCLE
  8
_0-3_LAYER005
  6
CONTINUOUS
 62
    2
 10
1044.2166999999999
 20
878.77459999999996
 40
0.188
  0
CIRCLE
  8
_0-3_LAYER005
  6
CONTINUOUS
 62
    2
 10
1046.2837
 20
879.52659999999992
 40
0.188
  0
CIRCLE
  8
_0-3_LAYER005
  6
CONTINUOUS
 62
    2
 10
1043.2777000000001
 20
879.71460000000002
 40
0.188
  0
CIRCLE
  8
_0-3_LAYER005
  6
CONTINUOUS
 62
    2
 10
1045.3447000000001
 20
880.46559999999999
 40
0.188
  0
CIRCLE
  8
_0-3_LAYER005
  6
CONTINUOUS
 62
    2
 10
1039.8957
 20
884.78760000000011
 40
0.188
  0
CIRCLE
  8
_0-3_LAYER005
  6
CONTINUOUS
 62
    2
 10
1041.9627
 20
885.53860000000009
 40
0.188
  0
CIRCLE
  8
_0-3_LAYER005
  6
CONTINUOUS
 62
    2
 10
1039.8957
 20
887.41759999999999
 40
0.188
  0
CIRCLE
  8
_0-3_LAYER005
  6
CONTINUOUS
 62
    2
 10
1041.9627
 20
888.16959999999995
 40
0.188
  0
CIRCLE
  8
_0-3_LAYER005
  6
CONTINUOUS
 62
    2
 10
1043.8416999999999
 20
882.3445999999999
 40
0.188
  0
CIRCLE
  8
_0-3_LAYER005
  6
CONTINUOUS
 62
    2
 10
1045.9077
 20
883.09660000000008
 40
0.188
  0
CIRCLE
  8
_0-3_LAYER005
  6
CONTINUOUS
 62
    2
 10
1040.4597000000001
 20
880.09059999999999
 40
0.188
  0
CIRCLE
  8
_0-3_LAYER005
  6
CONTINUOUS
 62
    2
 10
1042.5256999999999
 20
880.84159999999997
 40
0.188
  0
CIRCLE
  8
_0-3_LAYER005
  6
CONTINUOUS
 62
    2
 10
1050.2297000000001
 20
879.90259999999989
 40
0.188
  0
CIRCLE
  8
_0-3_LAYER005
  6
CONTINUOUS
 62
    2
 10
1052.2956999999999
 20
880.6536000000001
 40
0.188
  0
CIRCLE
  8
_0-3_LAYER005
  6
CONTINUOUS
 62
    2
 10
1051.7327
 20
879.33860000000004
 40
0.188
  0
CIRCLE
  8
_0-3_LAYER005
  6
CONTINUOUS
 62
    2
 10
1053.7987000000001
 20
880.09059999999999
 40
0.188
  0
CIRCLE
  8
_0-3_LAYER005
  6
CONTINUOUS
 62
    2
 10
1050.7927
 20
876.70859999999993
 40
0.188
  0
CIRCLE
  8
_0-3_LAYER005
  6
CONTINUOUS
 62
    2
 10
1052.8597
 20
877.45959999999991
 40
0.188
  0
CIRCLE
  8
_0-3_LAYER005
  6
CONTINUOUS
 62
    2
 10
1051.3567
 20
885.16260000000011
 40
0.188
  0
CIRCLE
  8
_0-3_LAYER005
  6
CONTINUOUS
 62
    2
 10
1053.4237000000001
 20
885.91460000000006
 40
0.188
  0
CIRCLE
  8
_0-3_LAYER005
  6
CONTINUOUS
 62
    2
 10
1059.2476999999999
 20
878.96260000000007
 40
0.188
  0
CIRCLE
  8
_0-3_LAYER005
  6
CONTINUOUS
 62
    2
 10
1061.3146999999999
 20
879.71460000000002
 40
0.188
  0
CIRCLE
  8
_0-3_LAYER005
  6
CONTINUOUS
 62
    2
 10
1063.0056999999999
 20
875.3925999999999
 40
0.188
  0
CIRCLE
  8
_0-3_LAYER005
  6
CONTINUOUS
 62
    2
 10
1065.0726999999999
 20
876.14460000000008
 40
0.188
  0
CIRCLE
  8
_0-3_LAYER005
  6
CONTINUOUS
 62
    2
 10
1047.5987
 20
870.32060000000001
 40
0.188
  0
CIRCLE
  8
_0-3_LAYER005
  6
CONTINUOUS
 62
    2
 10
1049.6657
 20
871.07159999999999
 40
0.188
  0
CIRCLE
  8
_0-3_LAYER005
  6
CONTINUOUS
 62
    2
 10
1047.0356999999999
 20
869.56860000000006
 40
0.188
  0
CIRCLE
  8
_0-3_LAYER005
  6
CONTINUOUS
 62
    2
 10
1049.1016999999999
 20
870.32060000000001
 40
0.188
  0
CIRCLE
  8
_0-3_LAYER005
  6
CONTINUOUS
 62
    2
 10
1046.2837
 20
869.38059999999996
 40
0.188
  0
CIRCLE
  8
_0-3_LAYER005
  6
CONTINUOUS
 62
    2
 10
1048.3507
 20
870.13259999999991
 40
0.188
  0
CIRCLE
  8
_0-3_LAYER005
  6
CONTINUOUS
 62
    2
 10
1058.1206999999999
 20
870.69560000000001
 40
0.188
  0
CIRCLE
  8
_0-3_LAYER005
  6
CONTINUOUS
 62
    2
 10
1060.1876999999999
 20
871.44759999999997
 40
0.188
  0
CIRCLE
  8
_0-3_LAYER005
  6
CONTINUOUS
 62
    2
 10
1052.4837
 20
860.92560000000003
 40
0.188
  0
CIRCLE
  8
_0-3_LAYER005
  6
CONTINUOUS
 62
    2
 10
1054.5507
 20
861.67759999999998
 40
0.188
  0
CIRCLE
  8
_0-3_LAYER005
  6
CONTINUOUS
 62
    2
 10
1051.3567
 20
853.22260000000006
 40
0.188
  0
CIRCLE
  8
_0-3_LAYER005
  6
CONTINUOUS
 62
    2
 10
1053.4237000000001
 20
853.97460000000001
 40
0.188
  0
CIRCLE
  8
_0-3_LAYER005
  6
CONTINUOUS
 62
    2
 10
1053.0477000000001
 20
851.53160000000003
 40
0.188
  0
CIRCLE
  8
_0-3_LAYER005
  6
CONTINUOUS
 62
    2
 10
1055.1147000000001
 20
852.28359999999998
 40
0.188
  0
CIRCLE
  8
_0-3_LAYER005
  6
CONTINUOUS
 62
    2
 10
1056.6177
 20
845.89560000000006
 40
0.188
  0
CIRCLE
  8
_0-3_LAYER005
  6
CONTINUOUS
 62
    2
 10
1058.6837
 20
846.64660000000003
 40
0.188
  0
CIRCLE
  8
_0-3_LAYER005
  6
CONTINUOUS
 62
    2
 10
1061.1267
 20
854.72559999999999
 40
0.188
  0
CIRCLE
  8
_0-3_LAYER005
  6
CONTINUOUS
 62
    2
 10
1063.1937
 20
855.47759999999994
 40
0.188
  0
CIRCLE
  8
_0-3_LAYER005
  6
CONTINUOUS
 62
    2
 10
1067.3267000000001
 20
857.16859999999997
 40
0.188
  0
CIRCLE
  8
_0-3_LAYER005
  6
CONTINUOUS
 62
    2
 10
1069.3937000000001
 20
857.91959999999995
 40
0.188
  0
CIRCLE
  8
_0-3_LAYER005
  6
CONTINUOUS
 62
    2
 10
1066.9507000000001
 20
861.67759999999998
 40
0.188
  0
CIRCLE
  8
_0-3_LAYER005
  6
CONTINUOUS
 62
    2
 10
1069.0177000000001
 20
862.42859999999996
 40
0.188
  0
CIRCLE
  8
_0-3_LAYER005
  6
CONTINUOUS
 62
    2
 10
1066.5757000000001
 20
860.17460000000005
 40
0.188
  0
CIRCLE
  8
_0-3_LAYER005
  6
CONTINUOUS
 62
    2
 10
1068.6416999999999
 20
860.92560000000003
 40
0.188
  0
CIRCLE
  8
_0-3_LAYER005
  6
CONTINUOUS
 62
    2
 10
1060.9386999999999
 20
856.60459999999989
 40
0.188
  0
CIRCLE
  8
_0-3_LAYER005
  6
CONTINUOUS
 62
    2
 10
1063.0056999999999
 20
857.35660000000007
 40
0.188
  0
CIRCLE
  8
_0-3_LAYER005
  6
CONTINUOUS
 62
    2
 10
1058.3087
 20
856.60459999999989
 40
0.188
  0
CIRCLE
  8
_0-3_LAYER005
  6
CONTINUOUS
 62
    2
 10
1060.3747000000001
 20
857.35660000000007
 40
0.188
  0
CIRCLE
  8
_0-3_LAYER005
  6
CONTINUOUS
 62
    2
 10
1056.9937
 20
872.38660000000004
 40
0.188
  0
CIRCLE
  8
_0-3_LAYER005
  6
CONTINUOUS
 62
    2
 10
1059.0597
 20
873.1386
 40
0.188
  0
CIRCLE
  8
_0-3_LAYER005
  6
CONTINUOUS
 62
    2
 10
1050.9807000000001
 20
872.38660000000004
 40
0.188
  0
CIRCLE
  8
_0-3_LAYER005
  6
CONTINUOUS
 62
    2
 10
1053.0477000000001
 20
873.1386
 40
0.188
  0
LINE
  8
_0-2_LAYER004
  6
DASHED1
 62
    2
 10
1315.7627
 20
853.21299999999997
 11
1311.7397000000001
 21
862.36809999999991
  0
LINE
  8
_0-2_LAYER004
  6
DASHED1
 62
    2
 10
1266.6514
 20
915.33240000000001
 11
1293.4559999999999
 21
854.33369999999991
  0
LINE
  8
_0-2_LAYER004
  6
DASHED1
 62
    2
 10
1257.4963
 20
911.3094000000001
 11
1288.3240000000001
 21
841.15560000000005
  0
LINE
  8
_0-2_LAYER004
  6
DASHED1
 62
    2
 10
1293.4559999999999
 20
854.33369999999991
 11
1311.7397000000001
 21
862.36809999999991
  0
LINE
  8
_0-2_LAYER004
  6
DASHED1
 62
    2
 10
1288.3240000000001
 20
841.15560000000005
 11
1315.7627
 21
853.21299999999997
  0
LINE
  8
_0-2_LAYER004
  6
CONTINUOUS
 62
    3
 10
1160.4381000000001
 20
862.06790000000001
 11
2127.3218000000002
 21
1297.1659999999999
  0
CIRCLE
  8
_0-2_LAYER004
  6
CONTINUOUS
 62
    3
 10
1171.6987999999999
 20
868.35159999999996
 40
1.3049219999999999
  0
CIRCLE
  8
_0-2_LAYER004
  6
CONTINUOUS
 62
    3
 10
1308.4870000000001
 20
929.90640000000008
 40
1.3049219999999999
  0
CIRCLE
  8
_0-2_LAYER004
  6
CONTINUOUS
 62
    3
 10
1445.2752
 20
991.46119999999996
 40
1.3049219999999999
  0
CIRCLE
  8
_0-2_LAYER004
  6
CONTINUOUS
 62
    3
 10
1582.0634
 20
1053.0159000000001
 40
1.3049219999999999
  0
CIRCLE
  8
_0-2_LAYER004
  6
CONTINUOUS
 62
    3
 10
1718.8516
 20
1114.5707
 40
1.3049219999999999
  0
CIRCLE
  8
_0-2_LAYER004
  6
CONTINUOUS
 62
    3
 10
1855.6397999999999
 20
1176.1253999999999
 40
1.3049219999999999
  0
CIRCLE
  8
_0-2_LAYER004
  6
CONTINUOUS
 62
    3
 10
1992.4279999999999
 20
1237.6802
 40
1.3049219999999999
  0
LINE
  8
_0-2_LAYER004
  6
DASHED1
 62
    2
 10
1862.9367999999999
 20
1099.4417000000001
 11
1858.9137999999998
 21
1108.5967000000001
  0
LINE
  8
_0-2_LAYER004
  6
DASHED1
 62
    2
 10
1813.8254999999999
 20
1161.5609999999999
 11
1840.6300999999999
 21
1100.5623000000001
  0
LINE
  8
_0-2_LAYER004
  6
DASHED1
 62
    2
 10
1804.6704
 20
1157.538
 11
1835.4980999999998
 21
1087.3842999999999
  0
LINE
  8
_0-2_LAYER004
  6
DASHED1
 62
    2
 10
1840.6300999999999
 20
1100.5623000000001
 11
1858.9137999999998
 21
1108.5967000000001
  0
LINE
  8
_0-2_LAYER004
  6
DASHED1
 62
    2
 10
1835.4980999999998
 20
1087.3842999999999
 11
1862.9367999999999
 21
1099.4417000000001
  0
LINE
  8
_0-2_LAYER004
  6
DASHED1
 62
    2
 10
1813.8254999999999
 20
1161.5609999999999
 11
1804.6704
 21
1157.538
  0
LINE
  8
_0-2_LAYER004
  6
DASHED1
 62
    2
 10
1266.6514
 20
915.33240000000001
 11
1257.4963
 21
911.3094000000001
  0
LINE
  8
_0-2_LAYER004
  6
CONTINUOUS
 62
    2
 10
1827.0205999999998
 20
1100.7524000000001
 11
1832.3238999999999
 21
1106.0556999999999
  0
LINE
  8
_0-2_LAYER004
  6
CONTINUOUS
 62
    2
 10
1832.3238999999999
 20
1106.0556999999999
 11
1830.3827999999999
 21
1098.8113000000001
  0
LINE
  8
_0-2_LAYER004
  6
CONTINUOUS
 62
    2
 10
1832.3238999999999
 20
1106.0556999999999
 11
1810.7858000000001
 21
1068.7507000000001
  0
LINE
  8
_0-2_LAYER004
  6
CONTINUOUS
 62
    2
 10
1810.7858000000001
 20
1068.7507000000001
 11
1750.7858000000001
 21
1068.7507000000001
  0
LINE
  8
_0-2_LAYER004
  6
CONTINUOUS
 62
    2
 10
1899.3289
 20
1186.4511
 11
1897.3878
 21
1193.6956
  0
LINE
  8
_0-2_LAYER004
  6
CONTINUOUS
 62
    2
 10
1897.3878
 20
1193.6956
 11
1902.6911
 21
1188.3923
  0
LINE
  8
_0-2_LAYER004
  6
CONTINUOUS
 62
    2
 10
1897.3878
 20
1193.6956
 11
1924.2705999999998
 21
1147.1331
  0
LINE
  8
_0-2_LAYER004
  6
CONTINUOUS
 62
    2
 10
1924.2705999999998
 20
1147.1331
 11
1984.2705999999998
 21
1147.1331
  0
LINE
  8
_0-0_LAYER001
  6
CONTINUOUS
 62
    2
 10
1748.3074999999999
 20
785.5483999999999
 11
1953.1302000000001
 21
785.5483999999999
  0
LINE
  8
_0-0_LAYER001
  6
CONTINUOUS
 62
    2
 10
1754.567
 20
753.18190000000004
 11
2091.8038000000001
 21
753.18190000000004
  0
LINE
  8
_0-0_LAYER001
  6
CONTINUOUS
 62
    2
 10
1657.0929999999998
 20
1111.8838000000001
 11
1657.0929999999998
 21
1119.3838000000001
  0
LINE
  8
_0-0_LAYER001
  6
CONTINUOUS
 62
    2
 10
1657.0929999999998
 20
1119.3838000000001
 11
1660.8429999999998
 21
1112.8886
  0
LINE
  8
_0-0_LAYER001
  6
CONTINUOUS
 62
    2
 10
1657.0929999999998
 20
1119.3838000000001
 11
1763.3361
 21
722.87910000000011
  0
LINE
  8
_0-1_LAYER003
  6
CONTINUOUS
 62
    7
 10
779.07159999999999
 20
1015.0907
 11
1017.5716
 21
1015.0907
  0
LINE
  8
_0-1_LAYER003
  6
CONTINUOUS
 62
    7
 10
1002.1817000000001
 20
1098.9608000000001
 11
1066.6817000000001
 21
1098.9608000000001
  0
LINE
  8
_0-1_LAYER003
  6
CONTINUOUS
 62
    7
 10
968.01099999999997
 20
956.29639999999995
 11
1008.511
 21
956.29639999999995
  0
LINE
  8
_0-1_LAYER003
  6
CONTINUOUS
 62
    7
 10
894.15789999999993
 20
754.32950000000005
 11
1041.1578999999999
 21
754.32950000000005
  0
LINE
  8
_0-1_LAYER003
  6
CONTINUOUS
 62
    7
 10
1748.3074999999999
 20
785.5483999999999
 11
1928.3074999999999
 21
785.5483999999999
  0
LINE
  8
_0-1_LAYER003
  6
CONTINUOUS
 62
    7
 10
1953.1302000000001
 20
785.5483999999999
 11
1928.3074999999999
 21
785.5483999999999
  0
LINE
  8
_0-1_LAYER003
  6
CONTINUOUS
 62
    7
 10
1755.2164902937848
 20
753.18190000000004
 11
2083.067
 21
753.18190000000004
  0
LINE
  8
_0-1_LAYER003
  6
CONTINUOUS
 62
    7
 10
1750.7858000000001
 20
1068.7507000000001
 11
1810.7858000000001
 21
1068.7507000000001
  0
LINE
  8
_0-1_LAYER003
  6
CONTINUOUS
 62
    7
 10
1924.2705999999998
 20
1147.1331
 11
1984.2705999999998
 21
1147.1331
  0
LINE
  8
_0-1_LAYER003
  6
CONTINUOUS
 62
    7
 10
1473.1332000000002
 20
1207.7556999999999
 11
1513.6332000000002
 21
1207.7556999999999
  0
LINE
  8
_0-1_LAYER003
  6
CONTINUOUS
 62
    7
 10
877.57114201484285
 20
1146.7236490111302
 11
895.30490000000009
 21
1098.1603
  0
LINE
  8
_0-1_LAYER003
  6
CONTINUOUS
 62
    7
 10
878.15429999999992
 20
1145.1268
 11
1089.5037
 21
1222.3045999999999
  0
LINE
  8
_0-1_LAYER003
  6
CONTINUOUS
 62
    7
 10
1106.6542999999999
 20
1175.3380999999999
 11
1079.6803097949589
 21
1249.2057372442875
  0
LINE
  8
_0-1_LAYER003
  6
CONTINUOUS
 62
    7
 10
1080.2635
 20
1247.6088999999999
 11
1290.0160373344997
 21
1324.2034794056704
  0
LINE
  8
_0-1_LAYER003
  6
CONTINUOUS
 62
    7
 10
1290.0160373344997
 20
1324.2034794056704
 11
1291.6129000000001
 21
1324.7865999999999
  0
LINE
  8
_0-1_LAYER003
  6
CONTINUOUS
 62
    7
 10
1308.7635
 20
1277.8200999999999
 11
1282.4219966842154
 21
1349.9557689749383
  0
LINE
  8
_0-1_LAYER003
  6
CONTINUOUS
 62
    7
 10
1283.0051168997309
 20
1348.3589061712189
 11
1494.3546000000001
 21
1425.5367000000001
  0
LINE
  8
_0-1_LAYER003
  6
CONTINUOUS
 62
    7
 10
1511.5052000000001
 20
1378.5700999999999
 11
1484.8892000000001
 21
1451.4572000000001
  0
LINE
  8
_0-1_LAYER003
  6
CONTINUOUS
 62
    7
 10
1714.2467999999999
 20
1479.3200999999999
 11
1696.2386999999999
 21
1528.6349999999998
  0
LINE
  8
_0-1_LAYER003
  6
CONTINUOUS
 62
    7
 10
1485.7467999999999
 20
1449.1088999999999
 11
1697.0962
 21
1526.2867000000001
  0
LINE
  8
_0-1_LAYER003
  6
CONTINUOUS
 62
    7
 10
1513.6332000000002
 20
1207.7556999999999
 11
1565.7422000000001
 21
1117.5003999999999
  0
LINE
  8
_0-1_LAYER003
  6
CONTINUOUS
 62
    7
 10
1560.4389000000001
 20
1122.8036999999999
 11
1565.7422000000001
 21
1117.5003999999999
  0
LINE
  8
_0-1_LAYER003
  6
CONTINUOUS
 62
    7
 10
1565.7422000000001
 20
1117.5003999999999
 11
1563.8009999999999
 21
1124.7447999999999
  0
LINE
  8
_0-1_LAYER003
  6
CONTINUOUS
 62
    7
 10
1634.4515000000001
 20
1128.2654
 11
1640.607
 21
1114.5866000000001
  0
LINE
  8
_0-1_LAYER003
  6
CONTINUOUS
 62
    7
 10
1640.607
 20
1114.5866000000001
 11
1667.9647
 21
1126.8975
  0
LINE
  8
_0-1_LAYER003
  6
CONTINUOUS
 62
    7
 10
1667.9647
 20
1126.8975
 11
1661.8092000000001
 21
1140.5762999999999
  0
LINE
  8
_0-1_LAYER003
  6
CONTINUOUS
 62
    7
 10
1661.8092000000001
 20
1140.5762999999999
 11
1634.4515000000001
 21
1128.2654
  0
LINE
  8
_0-1_LAYER003
  6
CONTINUOUS
 62
    7
 10
1661.8092000000001
 20
1140.5762999999999
 11
1640.607
 21
1114.5866000000001
  0
LINE
  8
_0-1_LAYER003
  6
CONTINUOUS
 62
    7
 10
1428.6840000000002
 20
1035.6699000000001
 11
1456.0416
 21
1047.9808
  0
LINE
  8
_0-1_LAYER003
  6
CONTINUOUS
 62
    7
 10
1456.0416
 20
1047.9808
 11
1462.1970999999999
 21
1034.3019999999999
  0
LINE
  8
_0-1_LAYER003
  6
CONTINUOUS
 62
    7
 10
1462.1970999999999
 20
1034.3019999999999
 11
1434.8395
 21
1021.9911
  0
LINE
  8
_0-1_LAYER003
  6
CONTINUOUS
 62
    7
 10
1434.8395
 20
1021.9911
 11
1428.6840000000002
 21
1035.6699000000001
  0
LINE
  8
_0-1_LAYER003
  6
CONTINUOUS
 62
    7
 10
1434.8395
 20
1021.9911
 11
1456.0416
 21
1047.9808
  0
LINE
  8
_0-1_LAYER003
  6
CONTINUOUS
 62
    7
 10
1222.9158
 20
943.07410000000004
 11
1250.2727
 21
955.38650000000007
  0
LINE
  8
_0-1_LAYER003
  6
CONTINUOUS
 62
    7
 10
1250.2727
 20
955.38650000000007
 11
1256.4289000000001
 21
941.70800000000008
  0
LINE
  8
_0-1_LAYER003
  6
CONTINUOUS
 62
    7
 10
1256.4289000000001
 20
941.70800000000008
 11
1229.0719999999999
 21
929.39560000000006
  0
LINE
  8
_0-1_LAYER003
  6
CONTINUOUS
 62
    7
 10
1229.0719999999999
 20
929.39560000000006
 11
1222.9158
 21
943.07410000000004
  0
LINE
  8
_0-1_LAYER003
  6
CONTINUOUS
 62
    7
 10
1229.0719999999999
 20
929.39560000000006
 11
1250.2727
 21
955.38650000000007
  0
LINE
  8
_0-1_LAYER003
  6
CONTINUOUS
 62
    7
 10
1154.4758999999999
 20
943.0145
 11
1159.7791999999999
 21
937.71119999999996
  0
LINE
  8
_0-1_LAYER003
  6
CONTINUOUS
 62
    7
 10
1159.7791999999999
 20
937.71119999999996
 11
1157.8380999999999
 21
944.95569999999998
  0
LINE
  8
_0-1_LAYER003
  6
CONTINUOUS
 62
    7
 10
1157.8380999999999
 20
944.95569999999998
 11
1159.7791999999999
 21
937.71119999999996
  0
LINE
  8
_0-1_LAYER003
  6
CONTINUOUS
 62
    7
 10
1159.7791999999999
 20
937.71119999999996
 11
1066.6817000000001
 21
1098.9608000000001
  0
LINE
  8
_0-1_LAYER003
  6
CONTINUOUS
 62
    7
 10
1017.5716
 20
1015.0907
 11
1093.8271999999999
 21
883.01199999999994
  0
LINE
  8
_0-1_LAYER003
  6
CONTINUOUS
 62
    7
 10
1093.8271999999999
 20
883.01199999999994
 11
1091.8860999999999
 21
890.25649999999996
  0
LINE
  8
_0-1_LAYER003
  6
CONTINUOUS
 62
    7
 10
1093.8271999999999
 20
883.01199999999994
 11
1088.5238999999999
 21
888.31529999999998
  0
LINE
  8
_0-1_LAYER003
  6
CONTINUOUS
 62
    7
 10
1064.6388999999999
 20
887.75520000000006
 11
1107.8231000000001
 21
901.44830000000002
  0
LINE
  8
_0-1_LAYER003
  6
CONTINUOUS
 62
    7
 10
1107.8231000000001
 20
901.44830000000002
 11
1121.1616195759655
 21
871.80837871264077
  0
LINE
  8
_0-1_LAYER003
  6
CONTINUOUS
 62
    7
 10
1121.1616195759655
 20
871.80837871264077
 11
1080.1249
 21
853.34140000000002
  0
LINE
  8
_0-1_LAYER003
  6
CONTINUOUS
 62
    7
 10
1080.1249
 20
853.34140000000002
 11
1064.6388999999999
 21
887.75520000000006
  0
LINE
  8
_0-1_LAYER003
  6
CONTINUOUS
 62
    7
 10
1064.6388999999999
 20
887.75520000000006
 11
1121.1614064690416
 21
871.80828281504432
  0
LINE
  8
_0-1_LAYER003
  6
CONTINUOUS
 62
    7
 10
1080.1247504358475
 20
853.34188759683218
 11
1107.8231000000001
 21
901.44830000000002
  0
LINE
  8
_0-1_LAYER003
  6
CONTINUOUS
 62
    7
 10
1055.4217000000001
 20
842.22559999999999
 11
1038.8604296150709
 21
879.02873418817489
  0
LINE
  8
_0-1_LAYER003
  6
CONTINUOUS
 62
    7
 10
1052.6294
 20
875.99890000000005
 11
1057.9327000000001
 21
870.69560000000001
  0
LINE
  8
_0-1_LAYER003
  6
CONTINUOUS
 62
    7
 10
1057.9327000000001
 20
870.69560000000001
 11
1055.9915000000001
 21
877.94000000000005
  0
LINE
  8
_0-1_LAYER003
  6
CONTINUOUS
 62
    7
 10
1057.7447000000002
 20
870.88359999999989
 11
1008.511
 21
956.29639999999995
  0
LINE
  8
_0-1_LAYER003
  6
CONTINUOUS
 62
    7
 10
1061.0519999999999
 20
828.57529999999997
 11
1057.3019999999999
 21
822.0800999999999
  0
LINE
  8
_0-1_LAYER003
  6
CONTINUOUS
 62
    7
 10
1061.0519999999999
 20
828.57529999999997
 11
1061.0519999999999
 21
821.07529999999997
  0
LINE
  8
_0-1_LAYER003
  6
CONTINUOUS
 62
    7
 10
1061.0519999999999
 20
828.57529999999997
 11
1041.1578999999999
 21
754.32950000000005
  0
LINE
  8
_0-1_LAYER003
  6
CONTINUOUS
 62
    7
 10
1070.9507000000001
 20
816.3155999999999
 11
1127.2751000000001
 21
688.13959999999997
  0
LINE
  8
_0-1_LAYER003
  6
CONTINUOUS
 62
    7
 10
1127.2751000000001
 20
688.13959999999997
 11
1136.3946861184054
 21
692.24341788466177
  0
LINE
  8
_0-1_LAYER003
  6
CONTINUOUS
 62
    7
 10
1136.3946861184056
 20
692.24341788466177
 11
1140.4170999999999
 21
683.08760000000007
  0
LINE
  8
_0-1_LAYER003
  6
CONTINUOUS
 62
    7
 10
1140.4170999999999
 20
683.08760000000007
 11
2190.9283
 21
1155.8181999999999
  0
LINE
  8
_0-1_LAYER003
  6
CONTINUOUS
 62
    7
 10
1069.3559
 20
645.94419999999991
 11
1096.3647000000001
 21
584.47799999999995
  0
LINE
  8
_0-1_LAYER003
  6
CONTINUOUS
 62
    7
 10
1097.0486882024377
 20
582.921670941309
 11
1096.3647000000001
 21
584.47799999999995
  0
LINE
  8
_0-1_LAYER003
  6
CONTINUOUS
 62
    7
 10
1096.3647000000001
 20
584.47799999999995
 11
1160.4507844330228
 21
612.63809315970786
  0
LINE
  8
_0-1_LAYER003
  6
CONTINUOUS
 62
    7
 10
1133.442
 20
674.10429999999997
 11
1175.1463000000001
 21
579.19439999999997
  0
LINE
  8
_0-1_LAYER003
  6
CONTINUOUS
 62
    7
 10
1175.830168409532
 20
577.63801829924512
 11
1174.4623971200544
 21
580.75076655412602
  0
LINE
  8
_0-1_LAYER003
  6
CONTINUOUS
 62
    7
 10
1135.9871680676165
 20
631.01871814900892
 11
1119.7068999999999
 21
668.06899999999996
  0
LINE
  8
_0-1_LAYER003
  6
CONTINUOUS
 62
    7
 10
1135.3033
 20
632.57510000000002
 11
1149.0382999999999
 21
638.61040000000003
  0
LINE
  8
_0-1_LAYER003
  6
CONTINUOUS
 62
    7
 10
1997.1816684095315
 20
938.54771829924516
 11
1976.3834999999999
 21
985.87979999999993
  0
LINE
  8
_0-1_LAYER003
  6
CONTINUOUS
 62
    7
 10
1175.1463000000001
 20
579.19439999999997
 11
1996.4977827647926
 21
940.10409242668652
  0
LINE
  8
_0-1_LAYER003
  6
CONTINUOUS
 62
    7
 10
1790.6130684095319
 20
847.77951829924518
 11
1769.8148999999999
 21
895.11159999999995
  0
LINE
  8
_0-1_LAYER003
  6
CONTINUOUS
 62
    7
 10
1584.0444522255716
 20
757.01135513039844
 11
1563.2462999999998
 21
804.34339999999997
  0
LINE
  8
_0-1_LAYER003
  6
CONTINUOUS
 62
    7
 10
1377.4757684095316
 20
666.24301829924536
 11
1356.6776
 21
713.57510000000002
  0
LINE
  8
_0-1_LAYER003
  6
CONTINUOUS
 62
    7
 10
1356.6776
 20
713.57510000000002
 11
1376.7919000000002
 21
667.79940000000011
  0
LINE
  8
_0-1_LAYER003
  6
CONTINUOUS
 62
    7
 10
886.15930000000003
 20
571.36490000000003
 11
934.22379999999998
 21
592.48479999999995
  0
LINE
  8
_0-1_LAYER003
  6
CONTINUOUS
 62
    7
 10
888.44809418051818
 20
572.37061324393517
 11
816.12291036378383
 21
736.96767641423662
  0
LINE
  8
_0-1_LAYER003
  6
CONTINUOUS
 62
    7
 10
813.83420000000001
 20
735.96199999999999
 11
861.89869999999996
 21
757.08189999999991
  0
LINE
  8
_0-1_LAYER003
  6
CONTINUOUS
 62
    7
 10
826.58231910705285
 20
708.93842975202233
 11
873.91450000000009
 21
729.73649999999998
  0
LINE
  8
_0-1_LAYER003
  6
CONTINUOUS
 62
    7
 10
1074.9739023514544
 20
807.16010105815587
 11
2133.4771999999998
 21
1283.4872
  0
LINE
  8
_0-1_LAYER003
  6
CONTINUOUS
 62
    7
 10
2117.0625
 20
1319.9643000000001
 11
1127.4849999999999
 21
874.65390000000002
  0
LINE
  8
_0-1_LAYER003
  6
CONTINUOUS
 62
    7
 10
1119.5201
 20
875.45630000000006
 11
2115.4213
 21
1323.6114
  0
LINE
  8
_0-1_LAYER003
  6
CONTINUOUS
 62
    7
 10
2045.8966
 20
1313.4159
 11
2073.2541999999999
 21
1325.7267999999999
  0
LINE
  8
_0-1_LAYER003
  6
CONTINUOUS
 62
    7
 10
2073.2541999999999
 20
1325.7267999999999
 11
2079.4097000000002
 21
1312.048
  0
LINE
  8
_0-1_LAYER003
  6
CONTINUOUS
 62
    7
 10
2079.4097000000002
 20
1312.048
 11
2052.0520999999999
 21
1299.7371000000001
  0
LINE
  8
_0-1_LAYER003
  6
CONTINUOUS
 62
    7
 10
2052.0520999999999
 20
1299.7371000000001
 11
2045.8966
 21
1313.4159
  0
LINE
  8
_0-1_LAYER003
  6
CONTINUOUS
 62
    7
 10
2052.0520999999999
 20
1299.7371000000001
 11
2073.2541999999999
 21
1325.7267999999999
  0
LINE
  8
_0-1_LAYER003
  6
CONTINUOUS
 62
    7
 10
1840.2075
 20
1220.8557000000001
 11
1867.5547000000001
 21
1233.1896999999999
  0
LINE
  8
_0-1_LAYER003
  6
CONTINUOUS
 62
    7
 10
1867.5547000000001
 20
1233.1896999999999
 11
1873.7217000000001
 21
1219.5160000000001
  0
LINE
  8
_0-1_LAYER003
  6
CONTINUOUS
 62
    7
 10
1873.7217000000001
 20
1219.5160000000001
 11
1846.3744999999999
 21
1207.182
  0
LINE
  8
_0-1_LAYER003
  6
CONTINUOUS
 62
    7
 10
1846.3744999999999
 20
1207.182
 11
1840.2075
 21
1220.8557000000001
  0
LINE
  8
_0-1_LAYER003
  6
CONTINUOUS
 62
    7
 10
1867.5547000000001
 20
1233.1896999999999
 11
1846.3744999999999
 21
1207.182
  0
LINE
  8
_0-1_LAYER003
  6
CONTINUOUS
 62
    7
 10
1657.0929999999998
 20
1111.8838000000001
 11
1657.0929999999998
 21
1119.3838000000001
  0
LINE
  8
_0-1_LAYER003
  6
CONTINUOUS
 62
    7
 10
1657.0929999999998
 20
1119.3838000000001
 11
1660.8429999999998
 21
1112.8886
  0
LINE
  8
_0-1_LAYER003
  6
CONTINUOUS
 62
    7
 10
1810.7858000000001
 20
1068.7507000000001
 11
1832.3238999999999
 21
1106.0556999999999
  0
LINE
  8
_0-1_LAYER003
  6
CONTINUOUS
 62
    7
 10
1832.3238999999999
 20
1106.0556999999999
 11
1827.0205999999998
 21
1100.7524000000001
  0
LINE
  8
_0-1_LAYER003
  6
CONTINUOUS
 62
    7
 10
1832.3238999999999
 20
1106.0556999999999
 11
1830.3827999999999
 21
1098.8113000000001
  0
LINE
  8
_0-1_LAYER003
  6
CONTINUOUS
 62
    7
 10
1835.4980999999998
 20
1087.3842999999999
 11
1862.9367999999999
 21
1099.4417000000001
  0
LINE
  8
_0-1_LAYER003
  6
CONTINUOUS
 62
    7
 10
1862.9367999999999
 20
1099.4417000000001
 11
1858.9137999999998
 21
1108.5967000000001
  0
LINE
  8
_0-1_LAYER003
  6
CONTINUOUS
 62
    7
 10
1858.9137999999998
 20
1108.5967000000001
 11
1840.6300999999999
 21
1100.5623000000001
  0
LINE
  8
_0-1_LAYER003
  6
CONTINUOUS
 62
    7
 10
1840.6300999999999
 20
1100.5623000000001
 11
1813.8254999999999
 21
1161.5609999999999
  0
LINE
  8
_0-1_LAYER003
  6
CONTINUOUS
 62
    7
 10
1813.8254999999999
 20
1161.5609999999999
 11
1804.6704
 21
1157.538
  0
LINE
  8
_0-1_LAYER003
  6
CONTINUOUS
 62
    7
 10
1804.6704
 20
1157.538
 11
1835.4980999999998
 21
1087.3842999999999
  0
LINE
  8
_0-1_LAYER003
  6
CONTINUOUS
 62
    7
 10
1924.2705999999998
 20
1147.1331
 11
1897.387802377292
 21
1193.695597622708
  0
LINE
  8
_0-1_LAYER003
  6
CONTINUOUS
 62
    7
 10
1897.387802377292
 20
1193.695597622708
 11
1899.3289
 21
1186.4511
  0
LINE
  8
_0-1_LAYER003
  6
CONTINUOUS
 62
    7
 10
1897.387802377292
 20
1193.695597622708
 11
1902.6911
 21
1188.3923
  0
LINE
  8
_0-1_LAYER003
  6
CONTINUOUS
 62
    7
 10
1713.3849
 20
1094.4454000000001
 11
1646.5628151527362
 21
910.85344163175239
  0
LINE
  8
_0-1_LAYER003
  6
CONTINUOUS
 62
    7
 10
1633.8364999999999
 20
905.12660000000005
 11
1700.6586000000002
 21
1088.7185999999999
  0
LINE
  8
_0-1_LAYER003
  6
CONTINUOUS
 62
    7
 10
1687.9326999999998
 20
1082.9919
 11
1621.1106135997691
 21
899.39993736501515
  0
LINE
  8
_0-1_LAYER003
  6
CONTINUOUS
 62
    7
 10
1290.3519000000001
 20
904.08030000000008
 11
1223.5298258132236
 21
720.48837092116753
  0
LINE
  8
_0-1_LAYER003
  6
CONTINUOUS
 62
    7
 10
1210.8034
 20
714.76150000000007
 11
1277.6256000000001
 21
898.35349999999994
  0
LINE
  8
_0-1_LAYER003
  6
CONTINUOUS
 62
    7
 10
1288.3240000000001
 20
841.15560000000005
 11
1315.7627
 21
853.21299999999997
  0
LINE
  8
_0-1_LAYER003
  6
CONTINUOUS
 62
    7
 10
1315.7627
 20
853.21299999999997
 11
1311.7397000000001
 21
862.36809999999991
  0
LINE
  8
_0-1_LAYER003
  6
CONTINUOUS
 62
    7
 10
1311.7397000000001
 20
862.36809999999991
 11
1293.4559999999999
 21
854.33369999999991
  0
LINE
  8
_0-1_LAYER003
  6
CONTINUOUS
 62
    7
 10
1293.4559999999999
 20
854.33369999999991
 11
1266.6514
 21
915.33240000000001
  0
LINE
  8
_0-1_LAYER003
  6
CONTINUOUS
 62
    7
 10
1266.6514
 20
915.33240000000001
 11
1257.4963
 21
911.3094000000001
  0
LINE
  8
_0-1_LAYER003
  6
CONTINUOUS
 62
    7
 10
1257.4963
 20
911.3094000000001
 11
1288.3240000000001
 21
841.15560000000005
  0
LINE
  8
_0-1_LAYER003
  6
CONTINUOUS
 62
    7
 10
1264.8984914462185
 20
892.62627649870547
 11
1198.0763999999999
 21
709.03430000000003
  0
LINE
  8
_0-1_LAYER003
  6
CONTINUOUS
 62
    7
 10
2110.8587000000002
 20
1273.3088
 11
2044.0365999999999
 21
1089.7167999999999
  0
LINE
  8
_0-1_LAYER003
  6
CONTINUOUS
 62
    7
 10
2031.3107
 20
1083.9902
 11
2098.1327997669541
 21
1267.5821993597131
  0
LINE
  8
_0-1_LAYER003
  6
CONTINUOUS
 62
    7
 10
2018.5850100666457
 20
1078.2636276582978
 11
2085.4058
 21
1261.855
  0
LINE
  8
_0-1_LAYER003
  6
CONTINUOUS
 62
    7
 10
1136.3941
 20
692.24360000000001
 11
2186.8247000000001
 21
1164.9374
  0
LINE
  8
_0-1_LAYER003
  6
CONTINUOUS
 62
    7
 10
1136.3941
 20
692.24360000000001
 11
1084.0934072281243
 21
811.26388355117228
  0
LINE
  8
_0-0_LAYER001
  6
CONTINUOUS
 62
    2
 10
1763.2805273448967
 20
723.08649999999989
 11
2002.1329999999998
 21
723.08649999999989
  0
LINE
  8
_0-1_LAYER003
  6
CONTINUOUS
 62
    7
 10
1657.0929999999998
 20
1119.3838000000001
 11
1763.2805273448967
 21
723.08649999999989
  0
LINE
  8
_0-1_LAYER003
  6
CONTINUOUS
 62
    7
 10
1763.2805273448967
 20
723.08649999999989
 11
2008.8992793221482
 21
723.08649999999989
  0
TEXT
  8
_0-2_LAYER004
 62
    7
 10
977.24021423994145
 20
1192.0183881241217
 40
20
 41
1
 50
20.060507000000086
  1
225
  0
TEXT
  8
_0-2_LAYER004
 62
    7
 10
1193.5277402225856
 20
1293.5071503159779
 40
20
 41
1
 50
20.060507000000158
  1
225
  0
TEXT
  8
_0-2_LAYER004
 62
    7
 10
1393.1777642065654
 20
1393.3321623079673
 40
20
 41
1
 50
20.060507000001145
  1
225
  0
TEXT
  8
_0-2_LAYER004
 62
    7
 10
1586.1727873910786
 20
1501.4759252992894
 40
20
 41
1
 50
20.060507000000225
  1
225
  0
TEXT
  8
_0-2_LAYER004
 62
    7
 10
1459.727772201225
 20
1210.319640322653
 40
20
 41
1
 50
0
  1
桟　瓦
  0
TEXT
  8
_0-2_LAYER004
 62
    7
 10
732.66893485956666
 20
1020.6521175378726
 40
20
 41
1
 50
0
  1
瓦　座：36x45（防腐処理）
  0
TEXT
  8
_0-2_LAYER004
 62
    7
 10
982.23146483954088
 20
1107.1671279309303
 40
20
 41
1
 50
0
  1
万十軒瓦
  0
TEXT
  8
_0-2_LAYER004
 62
    7
 10
957.25107546297806
 20
960.8136151832316
 40
20
 41
1
 50
0
  1
面　戸
  0
TEXT
  8
_0-2_LAYER004
 62
    7
 10
901.55987760529513
 20
729.89889235869214
 40
20
 41
1
 50
0
  1
（防腐処理）
  0
TEXT
  8
_0-2_LAYER004
 62
    7
 10
897.48491190839127
 20
765.21526173185703
 40
20
 41
1
 50
0
  1
広小舞：30x90
  0
TEXT
  8
_0-2_LAYER004
 62
    7
 10
860.81022063625846
 20
621.23314044126164
 40
15
 41
1.3333333333333333
 50
113.72109999999857
  1
160
  0
TEXT
  8
_0-2_LAYER004
 62
    7
 10
821.41888556619051
 20
706.80742007623849
 40
15
 41
1.3333333333333333
 50
113.72110000000204
  1
30
  0
TEXT
  8
_0-2_LAYER004
 62
    7
 10
1146.0578194195132
 20
609.00824335055108
 40
20
 41
1
 50
20.060506999999426
  1
15
  0
TEXT
  8
_0-2_LAYER004
 62
    7
 10
1133.8329223288024
 20
568.25858638151465
 40
20
 41
1
 50
20.060506999999458
  1
70
  0
TEXT
  8
_0-2_LAYER004
 62
    7
 10
1300.9065159018519
 20
589.99173676500038
 40
20
 41
1
 50
20.060507000001369
  1
226
  0
TEXT
  8
_0-2_LAYER004
 62
    7
 10
1504.6548007470333
 20
674.20769450100909
 40
20
 41
1
 50
20.060507000000079
  1
226
  0
TEXT
  8
_0-2_LAYER004
 62
    7
 10
1701.6114760973758
 20
769.29022742876077
 40
20
 41
1
 50
20.060507000000211
  1
226
  0
TEXT
  8
_0-2_LAYER004
 62
    7
 10
1897.2098295487501
 20
858.93947276064068
 40
20
 41
1
 50
20.060506999999646
  1
226
  0
TEXT
  8
_0-2_LAYER004
 62
    7
 10
1757.3026739550587
 20
796.45666540811817
 40
20
 41
1
 50
0
  1
瓦桟：15x30以上
  0
TEXT
  8
_0-2_LAYER004
 62
    7
 10
1769.5275710457699
 20
761.14029603495339
 40
20
 41
1
 50
0
  1
下葺材：ルーフィング
  0
TEXT
  8
_0-2_LAYER004
 62
    7
 10
1770.8858929447376
 20
729.89889235869214
 40
20
 41
1
 50
0
  1
パーライト系モルタルｔ＝40
  0
TEXT
  8
_0-2_LAYER004
 62
    7
 10
1931.1678770229469
 20
1150.9786810387347
 40
20
 41
1
 50
0
  1
溶接金網
  0
TEXT
  8
_0-2_LAYER004
 62
    7
 10
1730.1362359757013
 20
1072.1960108985977
 40
20
 41
1
 50
0
  1
アンカー
  0
ENDSEC
  0
EOF
