  0
SECTION
  2
HEADER
  9
$ACADVER
  1
AC1009
  9
$INSBASE
 10
0
 20
0
 30
0
  9
$EXTMIN
 10
0
 20
0
  9
$EXTMAX
 10
2970
 20
2100
  9
$LIMMIN
 10
0
 20
0
  9
$LIMMAX
 10
2970
 20
2100
  9
$LTSCALE
 40
10
  0
ENDSEC
  0
SECTION
  2
TABLES
  0
TABLE
  2
LTYPE
 70
     9
  0
LTYPE
  2
CONTINUOUS
 70
    64
  3
実線
 72
    65
 73
     0
 40
0.0
  0
LTYPE
  2
DASHED1
 70
    64
  3
--  --  --  --  --  --  --  --  
 72
    65
 73
     2
 40
2.5
 49
1.25
 49
-1.25
  0
LTYPE
  2
DASHED2
 70
    64
  3
----    ----    ----    ----    
 72
    65
 73
     2
 40
5.0
 49
2.5
 49
-2.5
  0
LTYPE
  2
DASHED3
 70
    64
  3
------  ------  ------  ------  
 72
    65
 73
     2
 40
5.0
 49
3.75
 49
-1.25
  0
LTYPE
  2
CENTER1
 70
    64
  3
----- - ----- - ----- - ----- - 
 72
    65
 73
     4
 40
10.0
 49
6.25
 49
-1.25
 49
1.25
 49
-1.25
  0
LTYPE
  2
CENTER2
 70
    64
  3
----------  --  ----------  --  
 72
    65
 73
     4
 40
20.0
 49
12.5
 49
-2.5
 49
2.5
 49
-2.5
  0
LTYPE
  2
PHANTOM1
 70
    64
  3
--- - - --- - - --- - - --- - - 
 72
    65
 73
     6
 40
10.0
 49
3.25
 49
-1.25
 49
1.25
 49
-1.25
 49
1.25
 49
-1.25
  0
LTYPE
  2
PHANTOM2
 70
    64
  3
--------  -  -  --------  -  -  
 72
    65
 73
     6
 40
20.0
 49
10.0
 49
-2.5
 49
1.25
 49
-2.5
 49
1.25
 49
-2.5
  0
LTYPE
  2
DOT
 70
    64
  3
-   -   -   -   -   -   -   -   
 72
    65
 73
     2
 40
2.5
 49
0.625
 49
-1.875
  0
LTYPE
  2
DUMMY
 70
    64
  3
ダミー
 72
    65
 73
     0
 40
0.0
  0
LTYPE
  2
RAND1
 70
    64
  3
ランダム線1
 72
    65
 73
     4
 40
10.0
 49
1.0
 49
-2.0
 49
3.0
 49
-4.0
  0
LTYPE
  2
RAND2
 70
    64
  3
ランダム線2
 72
    65
 73
     4
 40
14.0
 49
2.0
 49
-3.0
 49
4.0
 49
-5.0
  0
LTYPE
  2
RAND3
 70
    64
  3
ランダム線3
 72
    65
 73
     4
 40
18.0
 49
3.0
 49
-4.0
 49
5.0
 49
-6.0
  0
LTYPE
  2
RAND4
 70
    64
  3
ランダム線4
 72
    65
 73
     4
 40
22.0
 49
4.0
 49
-5.0
 49
6.0
 49
-7.0
  0
LTYPE
  2
RAND5
 70
    64
  3
ランダム線5
 72
    65
 73
     4
 40
26.0
 49
5.0
 49
-6.0
 49
7.0
 49
-8.0
  0
LTYPE
  2
LONG1
 70
    64
  3
----------  --  ----------  --  
 72
    65
 73
     4
 40
40.0
 49
32.5
 49
-2.5
 49
2.5
 49
-2.5
  0
LTYPE
  2
LONG2
 70
    64
  3
--------  -  -  --------  -  -  
 72
    65
 73
     6
 40
40.0
 49
30.0
 49
-2.5
 49
1.25
 49
-2.5
 49
1.25
 49
-2.5
  0
LTYPE
  2
LONG3
 70
    64
  3
+++++++++++++++..+++++++++++++++
 72
    65
 73
     2
 40
40.0
 49
37.5
 49
-2.5
  0
LTYPE
  2
LONG4
 70
    64
  3
+++++++++++++++..+++++++++++++++
 72
    65
 73
     2
 40
80.0
 49
75.0
 49
-5.0
  0
LTYPE
  2
LONG5
 70
    64
  3
----------  --  ----------  --  
 72
    65
 73
     4
 40
60.0
 49
37.5
 49
-7.5
 49
7.5
 49
-7.5
  0
LTYPE
  2
dashed
 70
   64
  3
-------   -------------   ------
 72
   65
 73
    2
 40
7.5
 49
6
 49
-1.5
  0
LTYPE
  2
dashed_spaced
 70
   64
  3
----        --------        ----
 72
   65
 73
    2
 40
12
 49
6
 49
-6
  0
LTYPE
  2
long_dashed_dotted
 70
   64
  3
------------- --- --------------
 72
   65
 73
    4
 40
15.25
 49
12
 49
-1.5
 49
0.25
 49
-1.5
  0
LTYPE
  2
long_dashed_double-dotted
 70
   64
  3
----------- --- --- ------------
 72
   65
 73
    6
 40
17
 49
12
 49
-1.5
 49
0.25
 49
-1.5
 49
0.25
 49
-1.5
  0
LTYPE
  2
long_dashed_triplicate-dotted
 70
   64
  3
--------- --- --- --- ----------
 72
   65
 73
    8
 40
18.75
 49
12
 49
-1.5
 49
0.25
 49
-1.5
 49
0.25
 49
-1.5
 49
0.25
 49
-1.5
  0
LTYPE
  2
dotted
 70
   64
  3
   -       -       -       -    
 72
   65
 73
    2
 40
1.75
 49
0.25
 49
-1.5
  0
LTYPE
  2
chain
 70
   64
  3
-------------- -- --------------
 72
   65
 73
    4
 40
18.5
 49
12
 49
-1.5
 49
3.5
 49
-1.5
  0
LTYPE
  2
chain_double_dash
 70
   64
  3
------------ -- -- -------------
 72
   65
 73
    6
 40
23.5
 49
12
 49
-1.5
 49
3.5
 49
-1.5
 49
3.5
 49
-1.5
  0
LTYPE
  2
dashed_dotted
 70
   64
  3
-----------     -     ----------
 72
   65
 73
    4
 40
9.25
 49
6
 49
-1.5
 49
0.25
 49
-1.5
  0
LTYPE
  2
double-dashed_dotted
 70
   64
  3
------   -----------   -   -----
 72
   65
 73
    6
 40
16.75
 49
6
 49
-1.5
 49
6
 49
-1.5
 49
0.25
 49
-1.5
  0
LTYPE
  2
dashed_double-dotted
 70
   64
  3
---------    -    -    ---------
 72
   65
 73
    6
 40
11
 49
6
 49
-1.5
 49
0.25
 49
-1.5
 49
0.25
 49
-1.5
  0
LTYPE
  2
double-dashed_double-dotted
 70
   64
  3
-----   ---------   -   -   ----
 72
   65
 73
    8
 40
18.5
 49
6
 49
-1.5
 49
6
 49
-1.5
 49
0.25
 49
-1.5
 49
0.25
 49
-1.5
  0
LTYPE
  2
dashed_triplicate-dotted
 70
   64
  3
-------    -    -    -    ------
 72
   65
 73
    8
 40
12.75
 49
6
 49
-1.5
 49
0.25
 49
-1.5
 49
0.25
 49
-1.5
 49
0.25
 49
-1.5
  0
LTYPE
  2
double-dashed_triplicate-dotted
 70
   64
  3
-----  ---------  -  -  -  -----
 72
   65
 73
   10
 40
20.25
 49
6
 49
-1.5
 49
6
 49
-1.5
 49
0.25
 49
-1.5
 49
0.25
 49
-1.5
 49
0.25
 49
-1.5
  0
LTYPE
  2
undefined
 70
   64
  3
--------------------------------
 72
   65
 73
    0
 40
0
  0
ENDTAB
  0
TABLE
  2
STYLE
  5
3
100
AcDbSymbolTable
 70
     1
  0
STYLE
  5
10
100
AcDbSymbolTableRecord
100
AcDbTextStyleTableRecord
  2
STANDARD
 70
     0
 40
0.0
 41
1.0
 50
0.0
 71
     0
 42
0.2
  3
txt
  4
bigfont.shx
  0
STYLE
  5
26
100
AcDbSymbolTableRecord
100
AcDbTextStyleTableRecord
  2
TATEGAKI
 70
    68
 40
0.0
 41
1.0
 50
0.0
 71
     0
 42
1.0
  3
txt
  4
bigfont.shx
  0
ENDTAB
  0
TABLE
  2
LAYER
 70
    7
  0
LAYER
  2
_0-0_LAYER001
 70
   64
 62
    7
  6
CONTINUOUS
  0
LAYER
  2
_0-1_LAYER003
 70
   64
 62
    7
  6
CONTINUOUS
  0
LAYER
  2
_0-2_LAYER004
 70
   64
 62
    7
  6
CONTINUOUS
  0
LAYER
  2
_0-3_LAYER005
 70
   64
 62
    7
  6
CONTINUOUS
  0
LAYER
  2
_0-4_LAYER006
 70
   64
 62
    7
  6
CONTINUOUS
  0
LAYER
  2
_0-5_LAYER008
 70
   64
 62
    7
  6
CONTINUOUS
  0
LAYER
  2
ADD_LINE
 70
   64
 62
    7
  6
CONTINUOUS
  0
ENDTAB
  0
ENDSEC
  0
SECTION
  2
BLOCKS
  0
ENDSEC
  0
SECTION
  2
ENTITIES
  0
LINE
  8
_0-5_LAYER008
  6
CONTINUOUS
 62
    2
 10
1090.8735999999999
 20
722.13390000000004
 11
1767.8582000000001
 21
1026.7775999999999
  0
LINE
  8
_0-0_LAYER001
  6
CONTINUOUS
 62
    2
 10
1767.8582000000001
 20
884.22090000000003
 11
1767.8582000000001
 21
715.8148000000001
  0
LINE
  8
_0-0_LAYER001
  6
CONTINUOUS
 62
    1
 10
1750.2552000000001
 20
1018.8561999999999
 11
1767.8582000000001
 21
1036.4593
  0
LINE
  8
_0-0_LAYER001
  6
CONTINUOUS
 62
    1
 10
1724.5421000000001
 20
1007.2853
 11
1767.8582000000001
 21
1050.6014
  0
LINE
  8
_0-0_LAYER001
  6
CONTINUOUS
 62
    1
 10
1698.8290999999999
 20
995.71440000000007
 11
1767.8582000000001
 21
1064.7435
  0
LINE
  8
_0-0_LAYER001
  6
CONTINUOUS
 62
    1
 10
1673.1161000000002
 20
984.14360000000011
 11
1752.8674000000001
 21
1063.8949
  0
LINE
  8
_0-0_LAYER001
  6
CONTINUOUS
 62
    1
 10
1647.4031
 20
972.57269999999994
 11
1727.1543999999999
 21
1052.3240000000001
  0
LINE
  8
_0-0_LAYER001
  6
CONTINUOUS
 62
    1
 10
1621.6900999999998
 20
961.0018
 11
1701.4414000000002
 21
1040.7530999999999
  0
LINE
  8
_0-0_LAYER001
  6
CONTINUOUS
 62
    1
 10
1595.9771000000001
 20
949.43090000000007
 11
1675.7284
 21
1029.1822999999999
  0
LINE
  8
_0-0_LAYER001
  6
CONTINUOUS
 62
    1
 10
1570.2640999999999
 20
937.8601000000001
 11
1650.0154000000002
 21
1017.6114
  0
LINE
  8
_0-0_LAYER001
  6
CONTINUOUS
 62
    1
 10
1544.5511000000001
 20
926.28919999999994
 11
1624.3024
 21
1006.0405000000001
  0
LINE
  8
_0-0_LAYER001
  6
CONTINUOUS
 62
    1
 10
1518.8380000000002
 20
914.7183
 11
1598.5893999999998
 21
994.4697000000001
  0
LINE
  8
_0-0_LAYER001
  6
CONTINUOUS
 62
    1
 10
1493.125
 20
903.14740000000006
 11
1572.8764000000001
 21
982.89879999999994
  0
LINE
  8
_0-0_LAYER001
  6
CONTINUOUS
 62
    1
 10
1467.4119999999998
 20
891.5764999999999
 11
1547.1633999999999
 21
971.3279
  0
LINE
  8
_0-0_LAYER001
  6
CONTINUOUS
 62
    1
 10
1441.6990000000001
 20
880.00569999999993
 11
1521.4504000000002
 21
959.75710000000004
  0
LINE
  8
_0-0_LAYER001
  6
CONTINUOUS
 62
    1
 10
1415.9860000000001
 20
868.4348
 11
1495.7374
 21
948.1862000000001
  0
LINE
  8
_0-0_LAYER001
  6
CONTINUOUS
 62
    1
 10
1390.2729999999999
 20
856.86390000000006
 11
1470.0243999999998
 21
936.61529999999993
  0
LINE
  8
_0-0_LAYER001
  6
CONTINUOUS
 62
    1
 10
1364.5599999999999
 20
845.29299999999989
 11
1444.3114
 21
925.04449999999997
  0
LINE
  8
_0-0_LAYER001
  6
CONTINUOUS
 62
    1
 10
1338.8470000000002
 20
833.72219999999993
 11
1418.5984000000003
 21
913.47360000000003
  0
LINE
  8
_0-0_LAYER001
  6
CONTINUOUS
 62
    1
 10
1313.1339
 20
822.15129999999999
 11
1392.8853999999999
 21
901.9027000000001
  0
LINE
  8
_0-0_LAYER001
  6
CONTINUOUS
 62
    1
 10
1287.4209000000001
 20
810.58040000000005
 11
1367.1723999999999
 21
890.33189999999991
  0
LINE
  8
_0-0_LAYER001
  6
CONTINUOUS
 62
    1
 10
1261.7079000000001
 20
799.00949999999989
 11
1341.4594
 21
878.76099999999997
  0
LINE
  8
_0-0_LAYER001
  6
CONTINUOUS
 62
    1
 10
1235.9948999999999
 20
787.43869999999993
 11
1315.7464
 21
867.19010000000003
  0
LINE
  8
_0-0_LAYER001
  6
CONTINUOUS
 62
    1
 10
1210.2819
 20
775.86779999999999
 11
1290.0334
 21
855.61930000000007
  0
LINE
  8
_0-0_LAYER001
  6
CONTINUOUS
 62
    1
 10
1184.5689
 20
764.29690000000005
 11
1264.3204000000001
 21
844.0483999999999
  0
LINE
  8
_0-0_LAYER001
  6
CONTINUOUS
 62
    1
 10
1158.8559
 20
752.72600000000011
 11
1238.6074000000001
 21
832.47749999999996
  0
LINE
  8
_0-0_LAYER001
  6
CONTINUOUS
 62
    1
 10
1133.1429000000001
 20
741.15519999999992
 11
1212.8943999999999
 21
820.9067
  0
LINE
  8
_0-0_LAYER001
  6
CONTINUOUS
 62
    1
 10
1107.4299000000001
 20
729.58429999999998
 11
1187.1813999999999
 21
809.33580000000006
  0
LINE
  8
_0-0_LAYER001
  6
CONTINUOUS
 62
    1
 10
1089.8949
 20
726.19149999999991
 11
1161.4684
 21
797.7648999999999
  0
LINE
  8
_0-0_LAYER001
  6
CONTINUOUS
 62
    1
 10
1087.1469
 20
737.58560000000011
 11
1135.7554
 21
786.19409999999993
  0
LINE
  8
_0-0_LAYER001
  6
CONTINUOUS
 62
    1
 10
1084.3987999999999
 20
748.97970000000009
 11
1110.0424
 21
774.6232
  0
LINE
  8
_0-0_LAYER001
  6
CONTINUOUS
 62
    1
 10
1081.6507999999999
 20
760.3737000000001
 11
1084.3294000000001
 21
763.05230000000006
  0
LINE
  8
_0-0_LAYER001
  6
CONTINUOUS
 62
    1
 10
1090.2293999999999
 20
724.80490000000009
 11
1092.2713000000001
 21
722.76289999999995
  0
LINE
  8
_0-0_LAYER001
  6
CONTINUOUS
 62
    1
 10
1085.7344000000001
 20
743.44200000000001
 11
1102.0245
 21
727.15190000000007
  0
LINE
  8
_0-0_LAYER001
  6
CONTINUOUS
 62
    1
 10
1081.5272
 20
761.79140000000007
 11
1111.7777000000001
 21
731.54079999999999
  0
LINE
  8
_0-0_LAYER001
  6
CONTINUOUS
 62
    1
 10
1091.2804000000001
 20
766.18029999999999
 11
1121.5309
 21
735.92979999999989
  0
LINE
  8
_0-0_LAYER001
  6
CONTINUOUS
 62
    1
 10
1101.0336
 20
770.56919999999991
 11
1131.2841000000001
 21
740.31870000000004
  0
LINE
  8
_0-0_LAYER001
  6
CONTINUOUS
 62
    1
 10
1110.7868000000001
 20
774.95820000000003
 11
1141.0373
 21
744.70769999999993
  0
LINE
  8
_0-0_LAYER001
  6
CONTINUOUS
 62
    1
 10
1120.54
 20
779.34709999999995
 11
1150.7905000000001
 21
749.09660000000008
  0
LINE
  8
_0-0_LAYER001
  6
CONTINUOUS
 62
    1
 10
1130.2931000000001
 20
783.73610000000008
 11
1160.5436999999999
 21
753.4855
  0
LINE
  8
_0-0_LAYER001
  6
CONTINUOUS
 62
    1
 10
1140.0463
 20
788.125
 11
1170.2969000000001
 21
757.8744999999999
  0
LINE
  8
_0-0_LAYER001
  6
CONTINUOUS
 62
    1
 10
1149.7995000000001
 20
792.5139999999999
 11
1180.0500999999999
 21
762.26340000000005
  0
LINE
  8
_0-0_LAYER001
  6
CONTINUOUS
 62
    1
 10
1159.5527
 20
796.90290000000005
 11
1189.8033
 21
766.65239999999994
  0
LINE
  8
_0-0_LAYER001
  6
CONTINUOUS
 62
    1
 10
1169.3059000000001
 20
801.29179999999997
 11
1199.5563999999999
 21
771.04130000000009
  0
LINE
  8
_0-0_LAYER001
  6
CONTINUOUS
 62
    1
 10
1179.0590999999999
 20
805.68080000000009
 11
1209.3096
 21
775.43029999999999
  0
LINE
  8
_0-0_LAYER001
  6
CONTINUOUS
 62
    1
 10
1188.8123000000001
 20
810.06970000000001
 11
1219.0627999999999
 21
779.81919999999991
  0
LINE
  8
_0-0_LAYER001
  6
CONTINUOUS
 62
    1
 10
1198.5654999999999
 20
814.45869999999991
 11
1228.816
 21
784.20820000000003
  0
LINE
  8
_0-0_LAYER001
  6
CONTINUOUS
 62
    1
 10
1208.3187
 20
818.84760000000006
 11
1238.5691999999999
 21
788.59709999999995
  0
LINE
  8
_0-0_LAYER001
  6
CONTINUOUS
 62
    1
 10
1218.0718999999999
 20
823.23659999999995
 11
1248.3224
 21
792.9860000000001
  0
LINE
  8
_0-0_LAYER001
  6
CONTINUOUS
 62
    1
 10
1227.8251
 20
827.6255000000001
 11
1258.0755999999999
 21
797.375
  0
LINE
  8
_0-0_LAYER001
  6
CONTINUOUS
 62
    1
 10
1237.5782999999999
 20
832.01440000000002
 11
1267.8288
 21
801.76389999999992
  0
LINE
  8
_0-0_LAYER001
  6
CONTINUOUS
 62
    1
 10
1247.3315
 20
836.40339999999992
 11
1277.5820000000001
 21
806.15290000000005
  0
LINE
  8
_0-0_LAYER001
  6
CONTINUOUS
 62
    1
 10
1257.0847000000001
 20
840.79230000000007
 11
1287.3352
 21
810.54179999999997
  0
LINE
  8
_0-0_LAYER001
  6
CONTINUOUS
 62
    1
 10
1266.8379
 20
845.18129999999996
 11
1297.0884000000001
 21
814.93080000000009
  0
LINE
  8
_0-0_LAYER001
  6
CONTINUOUS
 62
    1
 10
1276.5909999999999
 20
849.57020000000011
 11
1306.8415
 21
819.31970000000001
  0
LINE
  8
_0-0_LAYER001
  6
CONTINUOUS
 62
    1
 10
1286.3442
 20
853.95920000000001
 11
1316.5947000000001
 21
823.70869999999991
  0
LINE
  8
_0-0_LAYER001
  6
CONTINUOUS
 62
    1
 10
1296.0974000000001
 20
858.34809999999993
 11
1326.3479000000002
 21
828.09760000000006
  0
LINE
  8
_0-0_LAYER001
  6
CONTINUOUS
 62
    1
 10
1305.8506
 20
862.73700000000008
 11
1336.1011000000003
 21
832.48649999999998
  0
LINE
  8
_0-0_LAYER001
  6
CONTINUOUS
 62
    1
 10
1315.6038000000001
 20
867.12599999999998
 11
1345.8543
 21
836.8755000000001
  0
LINE
  8
_0-0_LAYER001
  6
CONTINUOUS
 62
    1
 10
1325.357
 20
871.5148999999999
 11
1355.6075000000001
 21
841.26440000000002
  0
LINE
  8
_0-0_LAYER001
  6
CONTINUOUS
 62
    1
 10
1335.1102000000001
 20
875.90390000000002
 11
1365.3607
 21
845.65339999999992
  0
LINE
  8
_0-0_LAYER001
  6
CONTINUOUS
 62
    1
 10
1344.8633999999997
 20
880.29279999999994
 11
1375.1139000000001
 21
850.04230000000007
  0
LINE
  8
_0-0_LAYER001
  6
CONTINUOUS
 62
    1
 10
1354.6165999999998
 20
884.68180000000007
 11
1384.8670999999999
 21
854.43129999999996
  0
LINE
  8
_0-0_LAYER001
  6
CONTINUOUS
 62
    1
 10
1364.3697999999999
 20
889.07069999999999
 11
1394.6203
 21
858.82020000000011
  0
LINE
  8
_0-0_LAYER001
  6
CONTINUOUS
 62
    1
 10
1374.123
 20
893.45959999999991
 11
1404.3734999999997
 21
863.20910000000003
  0
LINE
  8
_0-0_LAYER001
  6
CONTINUOUS
 62
    1
 10
1383.8761999999999
 20
897.84860000000003
 11
1414.1266999999998
 21
867.59809999999993
  0
LINE
  8
_0-0_LAYER001
  6
CONTINUOUS
 62
    1
 10
1393.6294
 20
902.23749999999995
 11
1423.8797999999999
 21
871.98700000000008
  0
LINE
  8
_0-0_LAYER001
  6
CONTINUOUS
 62
    1
 10
1403.3825999999999
 20
906.62650000000008
 11
1433.6329999999998
 21
876.37599999999998
  0
LINE
  8
_0-0_LAYER001
  6
CONTINUOUS
 62
    1
 10
1413.1357
 20
911.0154
 11
1443.3861999999999
 21
880.7648999999999
  0
LINE
  8
_0-0_LAYER001
  6
CONTINUOUS
 62
    1
 10
1422.8888999999999
 20
915.40429999999992
 11
1453.1394
 21
885.15390000000002
  0
LINE
  8
_0-0_LAYER001
  6
CONTINUOUS
 62
    1
 10
1432.6421
 20
919.79330000000004
 11
1462.8926000000001
 21
889.54279999999994
  0
LINE
  8
_0-0_LAYER001
  6
CONTINUOUS
 62
    1
 10
1442.3953000000001
 20
924.18219999999997
 11
1472.6457999999998
 21
893.93180000000007
  0
LINE
  8
_0-0_LAYER001
  6
CONTINUOUS
 62
    1
 10
1452.1484999999998
 20
928.57120000000009
 11
1482.3989999999999
 21
898.32069999999999
  0
LINE
  8
_0-0_LAYER001
  6
CONTINUOUS
 62
    1
 10
1461.9016999999999
 20
932.96010000000001
 11
1492.1522
 21
902.70959999999991
  0
LINE
  8
_0-0_LAYER001
  6
CONTINUOUS
 62
    1
 10
1471.6549
 20
937.34909999999991
 11
1501.9054000000001
 21
907.09860000000003
  0
LINE
  8
_0-0_LAYER001
  6
CONTINUOUS
 62
    1
 10
1481.4081000000001
 20
941.73800000000006
 11
1511.6586000000002
 21
911.48749999999995
  0
LINE
  8
_0-0_LAYER001
  6
CONTINUOUS
 62
    1
 10
1491.1613000000002
 20
946.12689999999998
 11
1521.4117999999999
 21
915.87650000000008
  0
LINE
  8
_0-0_LAYER001
  6
CONTINUOUS
 62
    1
 10
1500.9144999999999
 20
950.5159000000001
 11
1531.165
 21
920.2654
  0
LINE
  8
_0-0_LAYER001
  6
CONTINUOUS
 62
    1
 10
1510.6677
 20
954.90480000000002
 11
1540.9180999999999
 21
924.6543999999999
  0
LINE
  8
_0-0_LAYER001
  6
CONTINUOUS
 62
    1
 10
1520.4209000000001
 20
959.29379999999992
 11
1550.6713
 21
929.04330000000004
  0
LINE
  8
_0-0_LAYER001
  6
CONTINUOUS
 62
    1
 10
1530.1741000000002
 20
963.68270000000007
 11
1560.4245000000001
 21
933.43229999999994
  0
LINE
  8
_0-0_LAYER001
  6
CONTINUOUS
 62
    1
 10
1539.9272999999998
 20
968.07169999999996
 11
1570.1777000000002
 21
937.82120000000009
  0
LINE
  8
_0-0_LAYER001
  6
CONTINUOUS
 62
    1
 10
1549.6804999999999
 20
972.46060000000011
 11
1579.9308999999998
 21
942.21010000000001
  0
LINE
  8
_0-0_LAYER001
  6
CONTINUOUS
 62
    1
 10
1559.4335999999998
 20
976.84950000000003
 11
1589.6840999999999
 21
946.59909999999991
  0
LINE
  8
_0-0_LAYER001
  6
CONTINUOUS
 62
    1
 10
1569.1867999999999
 20
981.23849999999993
 11
1599.4373000000001
 21
950.98800000000006
  0
LINE
  8
_0-0_LAYER001
  6
CONTINUOUS
 62
    1
 10
1578.9400000000001
 20
985.62740000000008
 11
1609.1905000000002
 21
955.37699999999995
  0
LINE
  8
_0-0_LAYER001
  6
CONTINUOUS
 62
    1
 10
1588.6932000000002
 20
990.01639999999998
 11
1618.9436999999998
 21
959.7659000000001
  0
LINE
  8
_0-0_LAYER001
  6
CONTINUOUS
 62
    1
 10
1598.4463999999998
 20
994.4052999999999
 11
1628.6968999999999
 21
964.1549
  0
LINE
  8
_0-0_LAYER001
  6
CONTINUOUS
 62
    1
 10
1608.1995999999999
 20
998.79430000000002
 11
1638.4501
 21
968.54379999999992
  0
LINE
  8
_0-0_LAYER001
  6
CONTINUOUS
 62
    1
 10
1617.9528
 20
1003.1831999999999
 11
1648.2033000000001
 21
972.93280000000004
  0
LINE
  8
_0-0_LAYER001
  6
CONTINUOUS
 62
    1
 10
1627.7060000000001
 20
1007.5721000000001
 11
1657.9564
 21
977.32169999999996
  0
LINE
  8
_0-0_LAYER001
  6
CONTINUOUS
 62
    1
 10
1637.4591999999998
 20
1011.9611
 11
1667.7096000000001
 21
981.71060000000011
  0
LINE
  8
_0-0_LAYER001
  6
CONTINUOUS
 62
    1
 10
1647.2123999999999
 20
1016.3499999999999
 11
1677.4627999999998
 21
986.09960000000001
  0
LINE
  8
_0-0_LAYER001
  6
CONTINUOUS
 62
    1
 10
1656.9656
 20
1020.739
 11
1687.2159999999999
 21
990.48849999999993
  0
LINE
  8
_0-0_LAYER001
  6
CONTINUOUS
 62
    1
 10
1666.7188000000001
 20
1025.1279
 11
1696.9692
 21
994.87750000000005
  0
LINE
  8
_0-0_LAYER001
  6
CONTINUOUS
 62
    1
 10
1676.4720000000002
 20
1029.5169000000001
 11
1706.7224000000001
 21
999.26639999999998
  0
LINE
  8
_0-0_LAYER001
  6
CONTINUOUS
 62
    1
 10
1686.2251999999999
 20
1033.9058
 11
1716.4756000000002
 21
1003.6554000000001
  0
LINE
  8
_0-0_LAYER001
  6
CONTINUOUS
 62
    1
 10
1695.9783000000002
 20
1038.2946999999999
 11
1726.2287999999999
 21
1008.0443
  0
LINE
  8
_0-0_LAYER001
  6
CONTINUOUS
 62
    1
 10
1705.7314999999999
 20
1042.6837
 11
1735.982
 21
1012.4331999999999
  0
LINE
  8
_0-0_LAYER001
  6
CONTINUOUS
 62
    1
 10
1715.4847
 20
1047.0726
 11
1745.7352000000001
 21
1016.8222000000001
  0
LINE
  8
_0-0_LAYER001
  6
CONTINUOUS
 62
    1
 10
1725.2379000000001
 20
1051.4616000000001
 11
1755.4884000000002
 21
1021.2111
  0
LINE
  8
_0-0_LAYER001
  6
CONTINUOUS
 62
    1
 10
1734.9911000000002
 20
1055.8505
 11
1765.2415000000001
 21
1025.6001000000001
  0
LINE
  8
_0-0_LAYER001
  6
CONTINUOUS
 62
    1
 10
1744.7442999999998
 20
1060.2394999999999
 11
1767.8582000000001
 21
1037.1255000000001
  0
LINE
  8
_0-0_LAYER001
  6
CONTINUOUS
 62
    1
 10
1754.4974999999999
 20
1064.6284000000001
 11
1767.8582000000001
 21
1051.2677000000001
  0
LINE
  8
_0-0_LAYER001
  6
CONTINUOUS
 62
    1
 10
1764.2507000000001
 20
1069.0173
 11
1767.8582000000001
 21
1065.4097999999999
  0
LINE
  8
_0-0_LAYER001
  6
CONTINUOUS
 62
    2
 10
1361.7968000000001
 20
974.69499999999994
 11
1363.7379000000001
 21
967.45059999999989
  0
LINE
  8
_0-0_LAYER001
  6
CONTINUOUS
 62
    2
 10
1363.7379000000001
 20
967.45059999999989
 11
1358.4346
 21
972.75389999999993
  0
LINE
  8
_0-0_LAYER001
  6
CONTINUOUS
 62
    2
 10
1363.7379000000001
 20
967.45059999999989
 11
1298.9967999999999
 21
1079.5853999999999
  0
LINE
  8
_0-0_LAYER001
  6
CONTINUOUS
 62
    2
 10
1298.9967999999999
 20
1079.5853999999999
 11
1258.4967999999999
 21
1079.5853999999999
  0
LINE
  8
_0-0_LAYER001
  6
CONTINUOUS
 62
    2
 10
1984.5940999999998
 20
1070.6406999999999
 11
1932.0940999999998
 21
1070.6406999999999
  0
CIRCLE
  8
_0-0_LAYER001
  6
CONTINUOUS
 62
    2
 10
1982.0940999999998
 20
1070.6406999999999
 40
1.6999999999999997
  0
LINE
  8
_0-0_LAYER001
  6
CONTINUOUS
 62
    2
 10
1982.0940999999998
 20
1070.6406999999999
 11
1982.0940999999998
 21
1320.6406999999999
  0
CIRCLE
  8
_0-0_LAYER001
  6
CONTINUOUS
 62
    2
 10
1982.0940999999998
 20
1320.6406999999999
 40
1.6999999999999997
  0
LINE
  8
_0-0_LAYER001
  6
CONTINUOUS
 62
    2
 10
1984.5940999999998
 20
1320.6406999999999
 11
1932.0940999999998
 21
1320.6406999999999
  0
LINE
  8
_0-0_LAYER001
  6
CONTINUOUS
 62
    2
 10
1725.9974000000002
 20
1060.665
 11
1753.355
 21
1072.9760000000001
  0
LINE
  8
_0-0_LAYER001
  6
CONTINUOUS
 62
    2
 10
1747.1995000000002
 20
1086.6548
 11
1719.8418999999999
 21
1074.3439000000001
  0
LINE
  8
_0-0_LAYER001
  6
CONTINUOUS
 62
    2
 10
1753.355
 20
1072.9760000000001
 11
1747.1995000000002
 21
1086.6548
  0
LINE
  8
_0-0_LAYER001
  6
CONTINUOUS
 62
    2
 10
1719.8418999999999
 20
1074.3439000000001
 11
1725.9974000000002
 21
1060.665
  0
LINE
  8
_0-0_LAYER001
  6
CONTINUOUS
 62
    2
 10
1747.1995000000002
 20
1086.6548
 11
1725.9974000000002
 21
1060.665
  0
LINE
  8
_0-0_LAYER001
  6
CONTINUOUS
 62
    2
 10
1520.3198000000002
 20
968.1099999999999
 11
1547.6669999999999
 21
980.44399999999996
  0
LINE
  8
_0-0_LAYER001
  6
CONTINUOUS
 62
    2
 10
1541.5
 20
994.11760000000004
 11
1514.1527999999998
 21
981.78359999999998
  0
LINE
  8
_0-0_LAYER001
  6
CONTINUOUS
 62
    2
 10
1547.6669999999999
 20
980.44399999999996
 11
1541.5
 21
994.11760000000004
  0
LINE
  8
_0-0_LAYER001
  6
CONTINUOUS
 62
    2
 10
1514.1527999999998
 20
981.78359999999998
 11
1520.3198000000002
 21
968.1099999999999
  0
LINE
  8
_0-0_LAYER001
  6
CONTINUOUS
 62
    2
 10
1541.5
 20
994.11760000000004
 11
1520.3198000000002
 21
968.1099999999999
  0
LINE
  8
_0-0_LAYER001
  6
CONTINUOUS
 62
    2
 10
1314.5523000000001
 20
875.51459999999997
 11
1341.9100000000001
 21
887.82549999999992
  0
LINE
  8
_0-0_LAYER001
  6
CONTINUOUS
 62
    2
 10
1335.7545
 20
901.50430000000006
 11
1308.3968
 21
889.19340000000011
  0
LINE
  8
_0-0_LAYER001
  6
CONTINUOUS
 62
    2
 10
1341.9100000000001
 20
887.82549999999992
 11
1335.7545
 21
901.50430000000006
  0
LINE
  8
_0-0_LAYER001
  6
CONTINUOUS
 62
    2
 10
1308.3968
 20
889.19340000000011
 11
1314.5523000000001
 21
875.51459999999997
  0
LINE
  8
_0-0_LAYER001
  6
CONTINUOUS
 62
    2
 10
1335.7545
 20
901.50430000000006
 11
1314.5523000000001
 21
875.51459999999997
  0
LINE
  8
_0-0_LAYER001
  6
CONTINUOUS
 62
    2
 10
1108.7847999999999
 20
782.91910000000007
 11
1136.1424
 21
795.23000000000002
  0
LINE
  8
_0-0_LAYER001
  6
CONTINUOUS
 62
    2
 10
1129.9869000000001
 20
808.90879999999993
 11
1102.6293000000001
 21
796.59789999999998
  0
LINE
  8
_0-0_LAYER001
  6
CONTINUOUS
 62
    2
 10
1136.1424
 20
795.23000000000002
 11
1129.9869000000001
 21
808.90879999999993
  0
LINE
  8
_0-0_LAYER001
  6
CONTINUOUS
 62
    2
 10
1102.6293000000001
 20
796.59789999999998
 11
1108.7847999999999
 21
782.91910000000007
  0
LINE
  8
_0-0_LAYER001
  6
CONTINUOUS
 62
    2
 10
1129.9869000000001
 20
808.90879999999993
 11
1108.7847999999999
 21
782.91910000000007
  0
LINE
  8
_0-0_LAYER001
  6
CONTINUOUS
 62
    4
 10
1748.4043000000001
 20
1088.0119
 11
1752.4969999999998
 21
1076.7312999999999
  0
LINE
  8
_0-0_LAYER001
  6
CONTINUOUS
 62
    4
 10
1483.1541000000002
 20
1009.8625999999999
 11
1751.0668999999998
 21
1107.0621000000001
  0
LINE
  8
_0-0_LAYER001
  6
CONTINUOUS
 62
    4
 10
1466.5003999999999
 20
1055.7655999999999
 11
1734.4131000000002
 21
1152.9650999999999
  0
ARC
  8
_0-0_LAYER001
  6
CONTINUOUS
 62
    4
 10
1280.8524
 20
907.74489999999992
 40
10
 50
109.94091000000002
 51
199.94091
  0
ARC
  8
_0-0_LAYER001
  6
CONTINUOUS
 62
    4
 10
1486.5646000000002
 20
1000.4621
 40
10
 50
109.94091000000002
 51
199.94091
  0
LINE
  8
_0-0_LAYER001
  6
CONTINUOUS
 62
    4
 10
1752.4969999999998
 20
1076.7312999999999
 11
1760.9573999999998
 21
1079.8008
  0
LINE
  8
_0-0_LAYER001
  6
CONTINUOUS
 62
    4
 10
1734.4131000000002
 20
1152.9650999999999
 11
1760.9573999999998
 21
1079.8008
  0
LINE
  8
_0-0_LAYER001
  6
CONTINUOUS
 62
    4
 10
1283.2398000000001
 20
901.16460000000006
 11
1542.6921000000002
 21
995.29469999999992
  0
LINE
  8
_0-0_LAYER001
  6
CONTINUOUS
 62
    4
 10
1542.6921000000002
 20
995.29469999999992
 11
1546.7847000000002
 21
984.0141000000001
  0
LINE
  8
_0-0_LAYER001
  6
CONTINUOUS
 62
    4
 10
1546.7847000000002
 20
984.0141000000001
 11
1555.2451000000001
 21
987.08359999999993
  0
LINE
  8
_0-0_LAYER001
  6
CONTINUOUS
 62
    4
 10
1349.5328999999997
 20
894.36629999999991
 11
1341.0725
 21
891.29690000000005
  0
LINE
  8
_0-0_LAYER001
  6
CONTINUOUS
 62
    4
 10
1131.2677000000001
 20
809.86020000000008
 11
1135.3603000000001
 21
798.5797
  0
LINE
  8
_0-0_LAYER001
  6
CONTINUOUS
 62
    4
 10
1143.8207
 20
801.64910000000009
 11
1135.3603000000001
 21
798.5797
  0
LINE
  8
_0-0_LAYER001
  6
CONTINUOUS
 62
    4
 10
1133.9302
 20
828.91039999999998
 11
1143.8207
 21
801.64910000000009
  0
LINE
  8
_0-0_LAYER001
  6
CONTINUOUS
 62
    4
 10
1087.8202000000001
 20
812.18159999999989
 11
1336.9799
 21
902.5773999999999
  0
LINE
  8
_0-0_LAYER001
  6
CONTINUOUS
 62
    4
 10
1336.9799
 20
902.5773999999999
 11
1341.0725
 21
891.29690000000005
  0
LINE
  8
_0-0_LAYER001
  6
CONTINUOUS
 62
    4
 10
1059.8724
 20
872.07130000000006
 11
1257.1856
 21
943.6570999999999
  0
ARC
  8
_0-0_LAYER001
  6
CONTINUOUS
 62
    4
 10
1264.1986999999999
 20
953.64789999999994
 40
10
 50
109.94091000000002
 51
199.94091
  0
LINE
  8
_0-0_LAYER001
  6
CONTINUOUS
 62
    4
 10
1254.7982
 20
950.23739999999998
 11
1273.8393000000001
 21
897.75410000000011
  0
LINE
  8
_0-0_LAYER001
  6
CONTINUOUS
 62
    4
 10
1254.7982
 20
950.23739999999998
 11
1273.8393000000001
 21
897.75410000000011
  0
LINE
  8
_0-0_LAYER001
  6
CONTINUOUS
 62
    4
 10
1080.6030000000001
 20
827.64740000000006
 11
1339.6424999999999
 21
921.62760000000003
  0
LINE
  8
_0-0_LAYER001
  6
CONTINUOUS
 62
    4
 10
1339.6424999999999
 20
921.62760000000003
 11
1349.5328999999997
 21
894.36629999999991
  0
LINE
  8
_0-0_LAYER001
  6
CONTINUOUS
 62
    4
 10
1260.7882
 20
963.0483999999999
 11
1462.8978000000002
 21
1036.3742999999999
  0
LINE
  8
_0-0_LAYER001
  6
CONTINUOUS
 62
    4
 10
1466.3083000000001
 20
1026.9739
 11
1479.5515
 21
990.47129999999993
  0
LINE
  8
_0-0_LAYER001
  6
CONTINUOUS
 62
    4
 10
1545.3546999999999
 20
1014.3449000000001
 11
1555.2451000000001
 21
987.08359999999993
  0
LINE
  8
_0-0_LAYER001
  6
CONTINUOUS
 62
    4
 10
1277.4419
 20
917.14540000000011
 11
1748.4043000000001
 21
1088.0119
  0
LINE
  8
_0-0_LAYER001
  6
CONTINUOUS
 62
    4
 10
1460.5104000000001
 20
1042.9546
 11
1479.5515
 21
990.47129999999993
  0
ARC
  8
_0-0_LAYER001
  6
CONTINUOUS
 62
    4
 10
1469.9108999999999
 20
1046.3651
 40
10
 50
109.94091000000002
 51
199.94091
  0
LINE
  8
_0-0_LAYER001
  6
CONTINUOUS
 62
    4
 10
1131.2677000000001
 20
809.86020000000008
 11
1095.0373999999999
 21
796.71569999999997
  0
LINE
  8
_0-0_LAYER001
  6
CONTINUOUS
 62
    2
 10
1672.8793999999998
 20
1322.5717
 11
1690.7845000000002
 21
1273.2194
  0
CIRCLE
  8
_0-0_LAYER001
  6
CONTINUOUS
 62
    2
 10
1673.732
 20
1320.2216000000001
 40
1.6999999999999997
  0
LINE
  8
_0-0_LAYER001
  6
CONTINUOUS
 62
    2
 10
1673.732
 20
1320.2216000000001
 11
1396.4187999999999
 21
1219.6116
  0
CIRCLE
  8
_0-0_LAYER001
  6
CONTINUOUS
 62
    2
 10
1396.4187999999999
 20
1219.6116
 40
1.6999999999999997
  0
LINE
  8
_0-0_LAYER001
  6
CONTINUOUS
 62
    2
 10
1395.5661
 20
1221.9617000000001
 11
1413.4712999999999
 21
1172.6094000000001
  0
LINE
  8
_0-0_LAYER001
  6
CONTINUOUS
 62
    2
 10
1405.7977000000001
 20
1193.7603999999999
 11
1423.7029000000002
 21
1144.4079999999999
  0
CIRCLE
  8
_0-0_LAYER001
  6
CONTINUOUS
 62
    2
 10
1406.6503
 20
1191.4102
 40
1.6999999999999997
  0
LINE
  8
_0-0_LAYER001
  6
CONTINUOUS
 62
    2
 10
1406.6503
 20
1191.4102
 11
1195.1402
 21
1114.6738
  0
CIRCLE
  8
_0-0_LAYER001
  6
CONTINUOUS
 62
    2
 10
1195.1402
 20
1114.6738
 40
1.6999999999999997
  0
LINE
  8
_0-0_LAYER001
  6
CONTINUOUS
 62
    2
 10
1194.2876000000001
 20
1117.0238999999999
 11
1212.1928
 21
1067.6714999999999
  0
LINE
  8
_0-0_LAYER001
  6
CONTINUOUS
 62
    2
 10
1204.5191
 20
1088.8226
 11
1222.4242999999999
 21
1039.4702
  0
CIRCLE
  8
_0-0_LAYER001
  6
CONTINUOUS
 62
    2
 10
1205.3717999999999
 20
1086.4724000000001
 40
1.6999999999999997
  0
LINE
  8
_0-0_LAYER001
  6
CONTINUOUS
 62
    2
 10
1205.3717999999999
 20
1086.4724000000001
 11
965.66030000000001
 21
999.50440000000003
  0
CIRCLE
  8
_0-0_LAYER001
  6
CONTINUOUS
 62
    2
 10
965.66030000000001
 20
999.50440000000003
 40
1.6999999999999997
  0
LINE
  8
_0-0_LAYER001
  6
CONTINUOUS
 62
    2
 10
964.80770000000007
 20
1001.8545999999999
 11
982.71289999999999
 21
952.5021999999999
  0
LINE
  8
_0-0_LAYER001
  6
CONTINUOUS
 62
    3
 10
1726.5192999999999
 20
1175.6501000000001
 11
1726.5520999999999
 21
1175.1855
  0
LINE
  8
_0-0_LAYER001
  6
CONTINUOUS
 62
    3
 10
1726.5520999999999
 20
1175.1855
 11
1726.6410000000001
 21
1173.9244000000001
  0
LINE
  8
_0-0_LAYER001
  6
CONTINUOUS
 62
    3
 10
1726.6410000000001
 20
1173.9244000000001
 11
1726.7721000000001
 21
1172.0659000000001
  0
LINE
  8
_0-0_LAYER001
  6
CONTINUOUS
 62
    3
 10
1726.7721000000001
 20
1172.0659000000001
 11
1726.9312
 21
1169.8090999999999
  0
LINE
  8
_0-0_LAYER001
  6
CONTINUOUS
 62
    3
 10
1726.9312
 20
1169.8090999999999
 11
1727.1044000000002
 21
1167.3532
  0
LINE
  8
_0-0_LAYER001
  6
CONTINUOUS
 62
    3
 10
1727.1044000000002
 20
1167.3532
 11
1727.2775999999999
 21
1164.8974000000001
  0
LINE
  8
_0-0_LAYER001
  6
CONTINUOUS
 62
    3
 10
1727.2775999999999
 20
1164.8974000000001
 11
1727.4367000000002
 21
1162.6405999999999
  0
LINE
  8
_0-0_LAYER001
  6
CONTINUOUS
 62
    3
 10
1727.4367000000002
 20
1162.6405999999999
 11
1727.5677999999998
 21
1160.7820999999999
  0
LINE
  8
_0-0_LAYER001
  6
CONTINUOUS
 62
    3
 10
1727.5677999999998
 20
1160.7820999999999
 11
1727.6567
 21
1159.521
  0
LINE
  8
_0-0_LAYER001
  6
CONTINUOUS
 62
    3
 10
1727.6567
 20
1159.521
 11
1727.6895
 21
1159.0563999999999
  0
LINE
  8
_0-0_LAYER001
  6
CONTINUOUS
 62
    3
 10
1727.6895
 20
1159.0563999999999
 11
1726.5435000000002
 21
1158.9955
  0
LINE
  8
_0-0_LAYER001
  6
CONTINUOUS
 62
    3
 10
1726.5435000000002
 20
1158.9955
 11
1723.1839
 21
1158.6628000000001
  0
LINE
  8
_0-0_LAYER001
  6
CONTINUOUS
 62
    3
 10
1723.1839
 20
1158.6628000000001
 11
1717.7287999999999
 21
1157.8331000000001
  0
LINE
  8
_0-0_LAYER001
  6
CONTINUOUS
 62
    3
 10
1717.7287999999999
 20
1157.8331000000001
 11
1710.2959999999998
 21
1156.2811999999999
  0
LINE
  8
_0-0_LAYER001
  6
CONTINUOUS
 62
    3
 10
1710.2959999999998
 20
1156.2811999999999
 11
1701.0034999999998
 21
1153.7819999999999
  0
LINE
  8
_0-0_LAYER001
  6
CONTINUOUS
 62
    3
 10
1701.0034999999998
 20
1153.7819999999999
 11
1689.9690000000001
 21
1150.1104
  0
LINE
  8
_0-0_LAYER001
  6
CONTINUOUS
 62
    3
 10
1689.9690000000001
 20
1150.1104
 11
1677.3105
 21
1145.0410999999999
  0
LINE
  8
_0-0_LAYER001
  6
CONTINUOUS
 62
    3
 10
1677.3105
 20
1145.0410999999999
 11
1663.1459
 21
1138.3489999999999
  0
LINE
  8
_0-0_LAYER001
  6
CONTINUOUS
 62
    3
 10
1663.1459
 20
1138.3489999999999
 11
1647.5931999999998
 21
1129.8090999999999
  0
LINE
  8
_0-0_LAYER001
  6
CONTINUOUS
 62
    3
 10
1647.5931999999998
 20
1129.8090999999999
 11
1630.7701000000002
 21
1119.1959999999999
  0
LINE
  8
_0-0_LAYER001
  6
CONTINUOUS
 62
    3
 10
1630.7701000000002
 20
1119.1959999999999
 11
1630.7168000000001
 21
1119.9521999999999
  0
LINE
  8
_0-0_LAYER001
  6
CONTINUOUS
 62
    3
 10
1630.7168000000001
 20
1119.9521999999999
 11
1630.5720000000001
 21
1122.0046
  0
LINE
  8
_0-0_LAYER001
  6
CONTINUOUS
 62
    3
 10
1630.5720000000001
 20
1122.0046
 11
1630.3587000000002
 21
1125.0292999999999
  0
LINE
  8
_0-0_LAYER001
  6
CONTINUOUS
 62
    3
 10
1630.3587000000002
 20
1125.0292999999999
 11
1630.0997000000002
 21
1128.7021
  0
LINE
  8
_0-0_LAYER001
  6
CONTINUOUS
 62
    3
 10
1630.0997000000002
 20
1128.7021
 11
1629.8177999999998
 21
1132.6989000000001
  0
LINE
  8
_0-0_LAYER001
  6
CONTINUOUS
 62
    3
 10
1629.8177999999998
 20
1132.6989000000001
 11
1629.5360000000001
 21
1136.6958
  0
LINE
  8
_0-0_LAYER001
  6
CONTINUOUS
 62
    3
 10
1629.5360000000001
 20
1136.6958
 11
1629.277
 21
1140.3686
  0
LINE
  8
_0-0_LAYER001
  6
CONTINUOUS
 62
    3
 10
1629.277
 20
1140.3686
 11
1629.0637000000002
 21
1143.3933
  0
LINE
  8
_0-0_LAYER001
  6
CONTINUOUS
 62
    3
 10
1629.0637000000002
 20
1143.3933
 11
1628.9189000000001
 21
1145.4457
  0
LINE
  8
_0-0_LAYER001
  6
CONTINUOUS
 62
    3
 10
1628.9189000000001
 20
1145.4457
 11
1628.8656000000001
 21
1146.2019
  0
LINE
  8
_0-0_LAYER001
  6
CONTINUOUS
 62
    3
 10
1628.8656000000001
 20
1146.2019
 11
1630.4872999999998
 21
1146.9038
  0
LINE
  8
_0-0_LAYER001
  6
CONTINUOUS
 62
    3
 10
1630.4872999999998
 20
1146.9038
 11
1635.0657000000001
 21
1148.8286000000001
  0
LINE
  8
_0-0_LAYER001
  6
CONTINUOUS
 62
    3
 10
1635.0657000000001
 20
1148.8286000000001
 11
1642.1707000000001
 21
1151.7045000000001
  0
LINE
  8
_0-0_LAYER001
  6
CONTINUOUS
 62
    3
 10
1642.1707000000001
 20
1151.7045000000001
 11
1651.3721
 21
1155.26
  0
LINE
  8
_0-0_LAYER001
  6
CONTINUOUS
 62
    3
 10
1651.3721
 20
1155.26
 11
1662.2399
 21
1159.2233000000001
  0
LINE
  8
_0-0_LAYER001
  6
CONTINUOUS
 62
    3
 10
1662.2399
 20
1159.2233000000001
 11
1674.3438000000001
 21
1163.3227999999999
  0
LINE
  8
_0-0_LAYER001
  6
CONTINUOUS
 62
    3
 10
1674.3438000000001
 20
1163.3227999999999
 11
1687.2539000000002
 21
1167.2869000000001
  0
LINE
  8
_0-0_LAYER001
  6
CONTINUOUS
 62
    3
 10
1687.2539000000002
 20
1167.2869000000001
 11
1700.5399000000002
 21
1170.8439000000001
  0
LINE
  8
_0-0_LAYER001
  6
CONTINUOUS
 62
    3
 10
1700.5399000000002
 20
1170.8439000000001
 11
1713.7716999999998
 21
1173.7221999999999
  0
LINE
  8
_0-0_LAYER001
  6
CONTINUOUS
 62
    3
 10
1726.5192999999999
 20
1175.6501000000001
 11
1713.6608000000001
 21
1173.6981000000001
  0
LINE
  8
_0-0_LAYER001
  6
CONTINUOUS
 62
    3
 10
1736.9029999999998
 20
1202.1711
 11
1737.0762
 21
1199.7152000000001
  0
LINE
  8
_0-0_LAYER001
  6
CONTINUOUS
 62
    3
 10
1737.0762
 20
1199.7152000000001
 11
1737.2354
 21
1197.4585
  0
LINE
  8
_0-0_LAYER001
  6
CONTINUOUS
 62
    3
 10
1737.2354
 20
1197.4585
 11
1737.3663999999999
 21
1195.5999999999999
  0
LINE
  8
_0-0_LAYER001
  6
CONTINUOUS
 62
    3
 10
1736.3179
 20
1210.4680000000001
 11
1736.3507
 21
1210.0034000000001
  0
LINE
  8
_0-0_LAYER001
  6
CONTINUOUS
 62
    3
 10
1736.3507
 20
1210.0034000000001
 11
1736.4396000000002
 21
1208.7422999999999
  0
LINE
  8
_0-0_LAYER001
  6
CONTINUOUS
 62
    3
 10
1736.4396000000002
 20
1208.7422999999999
 11
1736.5707000000002
 21
1206.8838000000001
  0
LINE
  8
_0-0_LAYER001
  6
CONTINUOUS
 62
    3
 10
1736.5707000000002
 20
1206.8838000000001
 11
1736.7298999999998
 21
1204.627
  0
LINE
  8
_0-0_LAYER001
  6
CONTINUOUS
 62
    3
 10
1736.7298999999998
 20
1204.627
 11
1736.9029999999998
 21
1202.1711
  0
LINE
  8
_0-0_LAYER001
  6
CONTINUOUS
 62
    3
 10
1697.0524999999998
 20
1202.1048000000001
 11
1710.3384999999998
 21
1205.6618000000001
  0
LINE
  8
_0-0_LAYER001
  6
CONTINUOUS
 62
    3
 10
1710.3384999999998
 20
1205.6618000000001
 11
1723.5704000000001
 21
1208.5400999999999
  0
LINE
  8
_0-0_LAYER001
  6
CONTINUOUS
 62
    3
 10
1736.3179
 20
1210.4680000000001
 11
1723.4594999999999
 21
1208.5160000000001
  0
LINE
  8
_0-0_LAYER001
  6
CONTINUOUS
 62
    2
 10
1756.5313000000001
 20
1218.7994000000001
 11
1767.8582000000001
 21
1218.7994000000001
  0
LINE
  8
_0-0_LAYER001
  6
CONTINUOUS
 62
    2
 10
1815.8582000000001
 20
1198.7994000000001
 11
1810.8582000000001
 21
1201.7994000000001
  0
LINE
  8
_0-0_LAYER001
  6
CONTINUOUS
 62
    2
 10
1810.8582000000001
 20
1195.7995000000001
 11
1815.8582000000001
 21
1198.7994000000001
  0
LINE
  8
_0-0_LAYER001
  6
CONTINUOUS
 62
    2
 10
1809.7831999999999
 20
1195.7995000000001
 11
1812.6322
 21
1200.7355
  0
LINE
  8
_0-0_LAYER001
  6
CONTINUOUS
 62
    2
 10
1743.8580999999999
 20
1195.7995000000001
 11
1743.8580999999999
 21
1201.7994000000001
  0
LINE
  8
_0-0_LAYER001
  6
CONTINUOUS
 62
    2
 10
1737.8582000000001
 20
1192.7992999999999
 11
1737.8582000000001
 21
1204.7995000000001
  0
LINE
  8
_0-0_LAYER001
  6
CONTINUOUS
 62
    2
 10
1746.7451000000001
 20
1195.7995000000001
 11
1750.2082
 21
1201.7994000000001
  0
LINE
  8
_0-0_LAYER001
  6
CONTINUOUS
 62
    2
 10
1737.8582000000001
 20
1192.7992999999999
 11
1743.8580999999999
 21
1195.7995000000001
  0
LINE
  8
_0-0_LAYER001
  6
CONTINUOUS
 62
    2
 10
1743.8580999999999
 20
1201.7994000000001
 11
1737.8582000000001
 21
1204.7995000000001
  0
LINE
  8
_0-0_LAYER001
  6
CONTINUOUS
 62
    2
 10
1810.8582000000001
 20
1201.7994000000001
 11
1800.8431
 21
1201.7994000000001
  0
LINE
  8
_0-0_LAYER001
  6
CONTINUOUS
 62
    2
 10
1792.1912000000002
 20
1197.3264999999999
 11
1794.0852
 21
1200.6075000000001
  0
LINE
  8
_0-0_LAYER001
  6
CONTINUOUS
 62
    2
 10
1800.5752000000002
 20
1195.8484000000001
 11
1804.0102000000002
 21
1201.7994000000001
  0
LINE
  8
_0-0_LAYER001
  6
CONTINUOUS
 62
    2
 10
1810.8582000000001
 20
1195.7995000000001
 11
1800.8512999999998
 21
1195.7995000000001
  0
LINE
  8
_0-0_LAYER001
  6
CONTINUOUS
 62
    2
 10
1808.7071999999998
 20
1205.5225
 11
1809.1071999999999
 21
1203.2564
  0
LINE
  8
_0-0_LAYER001
  6
CONTINUOUS
 62
    2
 10
1808.5342000000001
 20
1192.1095
 11
1808.9321
 21
1194.3743999999999
  0
LINE
  8
_0-0_LAYER001
  6
CONTINUOUS
 62
    2
 10
1804.1140999999998
 20
1204.5084999999999
 11
1805.7882
 21
1204.8034
  0
LINE
  8
_0-0_LAYER001
  6
CONTINUOUS
 62
    2
 10
1799.7811999999999
 20
1203.7445
 11
1801.4540999999999
 21
1204.0393999999999
  0
LINE
  8
_0-0_LAYER001
  6
CONTINUOUS
 62
    2
 10
1795.4481000000001
 20
1202.9803999999999
 11
1797.1210999999998
 21
1203.2755
  0
LINE
  8
_0-0_LAYER001
  6
CONTINUOUS
 62
    2
 10
1795.1520999999998
 20
1204.6534999999999
 11
1786.0581000000002
 21
1203.0506
  0
LINE
  8
_0-0_LAYER001
  6
CONTINUOUS
 62
    2
 10
1799.4850999999999
 20
1205.4174
 11
1796.8261000000002
 21
1204.9484
  0
LINE
  8
_0-0_LAYER001
  6
CONTINUOUS
 62
    2
 10
1803.8181
 20
1206.1814999999999
 11
1801.1592000000001
 21
1205.7125000000001
  0
LINE
  8
_0-0_LAYER001
  6
CONTINUOUS
 62
    2
 10
1806.9701
 20
1206.7374
 11
1805.4922000000001
 21
1206.4763
  0
LINE
  8
_0-0_LAYER001
  6
CONTINUOUS
 62
    2
 10
1805.7882
 20
1204.8034
 11
1805.4922000000001
 21
1206.4774
  0
LINE
  8
_0-0_LAYER001
  6
CONTINUOUS
 62
    2
 10
1804.1140999999998
 20
1204.5084999999999
 11
1803.8181
 21
1206.1824999999999
  0
LINE
  8
_0-0_LAYER001
  6
CONTINUOUS
 62
    2
 10
1801.4551999999999
 20
1204.0393999999999
 11
1801.1592000000001
 21
1205.7135000000001
  0
LINE
  8
_0-0_LAYER001
  6
CONTINUOUS
 62
    2
 10
1799.7811999999999
 20
1203.7445
 11
1799.4850999999999
 21
1205.4184
  0
LINE
  8
_0-0_LAYER001
  6
CONTINUOUS
 62
    2
 10
1797.1221999999998
 20
1203.2755
 11
1796.8261000000002
 21
1204.9494
  0
LINE
  8
_0-0_LAYER001
  6
CONTINUOUS
 62
    2
 10
1795.4481000000001
 20
1202.9803999999999
 11
1795.1520999999998
 21
1204.6543999999999
  0
LINE
  8
_0-0_LAYER001
  6
CONTINUOUS
 62
    2
 10
1803.9391999999998
 20
1193.1224
 11
1805.6131999999998
 21
1192.8273999999999
  0
LINE
  8
_0-0_LAYER001
  6
CONTINUOUS
 62
    2
 10
1799.6062000000002
 20
1193.8865000000001
 11
1801.2802000000001
 21
1193.5915
  0
LINE
  8
_0-0_LAYER001
  6
CONTINUOUS
 62
    2
 10
1795.2732000000001
 20
1194.6504
 11
1796.9470999999999
 21
1194.3553999999999
  0
LINE
  8
_0-0_LAYER001
  6
CONTINUOUS
 62
    2
 10
1795.2741999999998
 20
1194.6504
 11
1794.9780999999998
 21
1192.9775
  0
LINE
  8
_0-0_LAYER001
  6
CONTINUOUS
 62
    2
 10
1796.9481000000001
 20
1194.3553999999999
 11
1796.6520999999998
 21
1192.6823999999999
  0
LINE
  8
_0-0_LAYER001
  6
CONTINUOUS
 62
    2
 10
1799.6071999999999
 20
1193.8865000000001
 11
1799.3112000000001
 21
1192.2134000000001
  0
LINE
  8
_0-0_LAYER001
  6
CONTINUOUS
 62
    2
 10
1801.2811999999999
 20
1193.5915
 11
1800.9850999999999
 21
1191.9185
  0
LINE
  8
_0-0_LAYER001
  6
CONTINUOUS
 62
    2
 10
1803.9400999999998
 20
1193.1224
 11
1803.6442000000002
 21
1191.4494
  0
LINE
  8
_0-0_LAYER001
  6
CONTINUOUS
 62
    2
 10
1805.6142
 20
1192.8273999999999
 11
1805.3181
 21
1191.1545000000001
  0
LINE
  8
_0-0_LAYER001
  6
CONTINUOUS
 62
    2
 10
1794.9780999999998
 20
1192.9775
 11
1786.0581000000002
 21
1194.5494000000001
  0
LINE
  8
_0-0_LAYER001
  6
CONTINUOUS
 62
    2
 10
1799.3112000000001
 20
1192.2134000000001
 11
1796.6520999999998
 21
1192.6823999999999
  0
LINE
  8
_0-0_LAYER001
  6
CONTINUOUS
 62
    2
 10
1803.6442000000002
 20
1191.4494
 11
1800.9850999999999
 21
1191.9185
  0
LINE
  8
_0-0_LAYER001
  6
CONTINUOUS
 62
    2
 10
1806.7953000000002
 20
1190.8933999999999
 11
1805.3181
 21
1191.1533999999999
  0
LINE
  8
_0-0_LAYER001
  6
CONTINUOUS
 62
    2
 10
1783.8341999999998
 20
1198.8005000000001
 11
1809.1071999999999
 21
1203.2564
  0
LINE
  8
_0-0_LAYER001
  6
CONTINUOUS
 62
    2
 10
1783.8341999999998
 20
1198.8005000000001
 11
1808.9321
 21
1194.3743999999999
  0
LINE
  8
_0-0_LAYER001
  6
CONTINUOUS
 62
    2
 10
1767.8582000000001
 20
1203.0494000000001
 11
1786.0581000000002
 21
1203.0494000000001
  0
LINE
  8
_0-0_LAYER001
  6
CONTINUOUS
 62
    2
 10
1767.8582000000001
 20
1194.5494000000001
 11
1786.0581000000002
 21
1194.5494000000001
  0
LINE
  8
_0-0_LAYER001
  6
CONTINUOUS
 62
    2
 10
1767.8582000000001
 20
1194.5494000000001
 11
1767.8582000000001
 21
1203.0494000000001
  0
LINE
  8
_0-0_LAYER001
  6
CONTINUOUS
 62
    2
 10
1737.8582000000001
 20
1178.7994000000001
 11
1767.8582000000001
 21
1178.7994000000001
  0
LINE
  8
_0-0_LAYER001
  6
CONTINUOUS
 62
    2
 10
1767.8582000000001
 20
1201.7994000000001
 11
1743.8580999999999
 21
1201.7994000000001
  0
LINE
  8
_0-0_LAYER001
  6
CONTINUOUS
 62
    2
 10
1767.8582000000001
 20
1195.7995000000001
 11
1743.8580999999999
 21
1195.7995000000001
  0
LINE
  8
_0-0_LAYER001
  6
CONTINUOUS
 62
    2
 10
1752.4683
 20
1195.7995000000001
 11
1755.9313999999999
 21
1201.7994000000001
  0
LINE
  8
_0-0_LAYER001
  6
CONTINUOUS
 62
    2
 10
1758.1914000000002
 20
1195.7995000000001
 11
1761.6545000000001
 21
1201.7994000000001
  0
LINE
  8
_0-0_LAYER001
  6
CONTINUOUS
 62
    2
 10
1763.9146000000001
 20
1195.7995000000001
 11
1767.3775999999998
 21
1201.7994000000001
  0
LINE
  8
_0-0_LAYER001
  6
CONTINUOUS
 62
    2
 10
1737.8582000000001
 20
1178.7994000000001
 11
1737.8582000000001
 21
1215.3789999999999
  0
LINE
  8
_0-0_LAYER001
  6
CONTINUOUS
 62
    2
 10
1767.8582000000001
 20
1178.7994000000001
 11
1740.1136999999999
 21
1215.7920999999999
  0
ARC
  8
_0-0_LAYER001
  6
CONTINUOUS
 62
    2
 10
1807.2222000000002
 20
1205.2555
 40
1.5049999999999999
 50
10.451269999999999
 51
99.637527999999989
  0
ARC
  8
_0-0_LAYER001
  6
CONTINUOUS
 62
    2
 10
1807.0542
 20
1192.3724
 40
1.4969999999999999
 50
259.83899000000008
 51
350.14733000000001
  0
LINE
  8
_0-0_LAYER001
  6
CONTINUOUS
 62
    2
 10
1735.3681999999999
 20
1228.5941
 11
1743.4389000000001
 21
1232.3567
  0
LINE
  8
_0-0_LAYER001
  6
CONTINUOUS
 62
    2
 10
1749.8078999999998
 20
1203.7731000000001
 11
1755.2642000000001
 21
1196.7052000000001
  0
LINE
  8
_0-0_LAYER001
  6
CONTINUOUS
 62
    2
 10
1741.7564000000002
 20
1229.8122000000001
 11
1753.1671000000001
 21
1205.3394000000001
  0
LINE
  8
_0-0_LAYER001
  6
CONTINUOUS
 62
    2
 10
1755.2642000000001
 20
1196.7052000000001
 11
1753.1671000000001
 21
1205.3394000000001
  0
LINE
  8
_0-0_LAYER001
  6
CONTINUOUS
 62
    2
 10
1738.3969999999999
 20
1228.2473
 11
1735.3681999999999
 21
1228.5941
  0
LINE
  8
_0-0_LAYER001
  6
CONTINUOUS
 62
    2
 10
1741.7564000000002
 20
1229.8122000000001
 11
1743.4389000000001
 21
1232.3567
  0
LINE
  8
_0-0_LAYER001
  6
CONTINUOUS
 62
    2
 10
1738.3969999999999
 20
1228.2473
 11
1749.8078999999998
 21
1203.7731000000001
  0
LINE
  8
_0-0_LAYER001
  6
CONTINUOUS
 62
    2
 10
1651.3674000000001
 20
1218.6489999999999
 11
1647.1734000000001
 21
1193.0116
  0
LINE
  8
_0-0_LAYER001
  6
CONTINUOUS
 62
    2
 10
1647.1734000000001
 20
1193.0116
 11
1652.067
 21
1198.6043
  0
LINE
  8
_0-0_LAYER001
  6
CONTINUOUS
 62
    2
 10
1766.7822999999999
 20
1220.6771000000001
 11
1764.0796999999998
 21
1235.4315999999999
  0
LINE
  8
_0-0_LAYER001
  6
CONTINUOUS
 62
    2
 10
1764.0796999999998
 20
1235.4315999999999
 11
1660.7979999999998
 21
1216.5132000000001
  0
LINE
  8
_0-0_LAYER001
  6
CONTINUOUS
 62
    2
 10
1766.7822999999999
 20
1220.6771000000001
 11
1663.5007000000001
 21
1201.7587000000001
  0
LINE
  8
_0-0_LAYER001
  6
CONTINUOUS
 62
    2
 10
1663.5007000000001
 20
1201.7587000000001
 11
1660.7979999999998
 21
1216.5132000000001
  0
LINE
  8
_0-0_LAYER001
  6
CONTINUOUS
 62
    2
 10
1663.5007000000001
 20
1201.7587000000001
 11
1764.0796999999998
 21
1235.4315999999999
  0
LINE
  8
_0-0_LAYER001
  6
CONTINUOUS
 62
    2
 10
1742.8582000000001
 20
1235.4077
 11
1651.3674000000001
 21
1218.6489999999999
  0
LINE
  8
_0-0_LAYER001
  6
CONTINUOUS
 62
    2
 10
1663.2654000000002
 20
1168.0675000000001
 11
1662.2399
 21
1159.2233000000001
  0
CIRCLE
  8
_0-3_LAYER005
  6
CONTINUOUS
 62
    2
 10
1684.2219
 20
1172.3469
 40
1.018
  0
LINE
  8
_0-0_LAYER001
  6
CONTINUOUS
 62
    3
 10
1737.3663999999999
 20
1195.5999999999999
 11
1737.4553999999998
 21
1194.3389
  0
LINE
  8
_0-0_LAYER001
  6
CONTINUOUS
 62
    3
 10
1737.4553999999998
 20
1194.3389
 11
1737.4881
 21
1193.8742
  0
LINE
  8
_0-0_LAYER001
  6
CONTINUOUS
 62
    3
 10
1737.4881
 20
1193.8742
 11
1736.3420999999998
 21
1193.8134
  0
LINE
  8
_0-0_LAYER001
  6
CONTINUOUS
 62
    3
 10
1736.3420999999998
 20
1193.8134
 11
1732.9825999999998
 21
1193.4807000000001
  0
LINE
  8
_0-0_LAYER001
  6
CONTINUOUS
 62
    3
 10
1732.9825999999998
 20
1193.4807000000001
 11
1727.5275000000001
 21
1192.6509000000001
  0
LINE
  8
_0-0_LAYER001
  6
CONTINUOUS
 62
    3
 10
1727.5275000000001
 20
1192.6509000000001
 11
1720.0947000000001
 21
1191.0990999999999
  0
LINE
  8
_0-0_LAYER001
  6
CONTINUOUS
 62
    3
 10
1720.0947000000001
 20
1191.0990999999999
 11
1710.8020999999999
 21
1188.5998999999999
  0
LINE
  8
_0-0_LAYER001
  6
CONTINUOUS
 62
    3
 10
1710.8020999999999
 20
1188.5998999999999
 11
1699.7676000000001
 21
1184.9282000000001
  0
LINE
  8
_0-0_LAYER001
  6
CONTINUOUS
 62
    3
 10
1699.7676000000001
 20
1184.9282000000001
 11
1687.1091999999999
 21
1179.8589999999999
  0
LINE
  8
_0-0_LAYER001
  6
CONTINUOUS
 62
    3
 10
1687.1091999999999
 20
1179.8589999999999
 11
1672.9445999999998
 21
1173.1668999999999
  0
LINE
  8
_0-0_LAYER001
  6
CONTINUOUS
 62
    3
 10
1672.9445999999998
 20
1173.1668999999999
 11
1657.3917999999999
 21
1164.627
  0
LINE
  8
_0-0_LAYER001
  6
CONTINUOUS
 62
    3
 10
1657.3917999999999
 20
1164.627
 11
1640.5686999999998
 21
1154.0138999999999
  0
LINE
  8
_0-0_LAYER001
  6
CONTINUOUS
 62
    3
 10
1640.5686999999998
 20
1154.0138999999999
 11
1640.5154000000002
 21
1154.7701
  0
LINE
  8
_0-0_LAYER001
  6
CONTINUOUS
 62
    3
 10
1640.5154000000002
 20
1154.7701
 11
1640.3706999999999
 21
1156.8225
  0
LINE
  8
_0-0_LAYER001
  6
CONTINUOUS
 62
    3
 10
1640.3706999999999
 20
1156.8225
 11
1640.1574000000001
 21
1159.8471999999999
  0
LINE
  8
_0-0_LAYER001
  6
CONTINUOUS
 62
    3
 10
1640.1574000000001
 20
1159.8471999999999
 11
1639.8982999999998
 21
1163.52
  0
LINE
  8
_0-0_LAYER001
  6
CONTINUOUS
 62
    3
 10
1639.8982999999998
 20
1163.52
 11
1639.6165000000001
 21
1167.5168000000001
  0
LINE
  8
_0-0_LAYER001
  6
CONTINUOUS
 62
    3
 10
1639.6165000000001
 20
1167.5168000000001
 11
1639.3346000000001
 21
1171.5137
  0
LINE
  8
_0-0_LAYER001
  6
CONTINUOUS
 62
    3
 10
1639.3346000000001
 20
1171.5137
 11
1639.0756000000001
 21
1175.1865
  0
LINE
  8
_0-0_LAYER001
  6
CONTINUOUS
 62
    3
 10
1639.0756000000001
 20
1175.1865
 11
1638.8622999999998
 21
1178.2111
  0
LINE
  8
_0-0_LAYER001
  6
CONTINUOUS
 62
    3
 10
1638.8622999999998
 20
1178.2111
 11
1638.7175999999999
 21
1180.2636
  0
LINE
  8
_0-0_LAYER001
  6
CONTINUOUS
 62
    3
 10
1638.7175999999999
 20
1180.2636
 11
1638.6642999999999
 21
1181.0198
  0
LINE
  8
_0-0_LAYER001
  6
CONTINUOUS
 62
    3
 10
1638.6642999999999
 20
1181.0198
 11
1640.2860000000001
 21
1181.7217000000001
  0
LINE
  8
_0-0_LAYER001
  6
CONTINUOUS
 62
    3
 10
1640.2860000000001
 20
1181.7217000000001
 11
1644.8643999999999
 21
1183.6465000000001
  0
LINE
  8
_0-0_LAYER001
  6
CONTINUOUS
 62
    3
 10
1644.8643999999999
 20
1183.6465000000001
 11
1651.9694
 21
1186.5224000000001
  0
LINE
  8
_0-0_LAYER001
  6
CONTINUOUS
 62
    3
 10
1651.9694
 20
1186.5224000000001
 11
1661.1707999999999
 21
1190.0778
  0
LINE
  8
_0-0_LAYER001
  6
CONTINUOUS
 62
    3
 10
1661.1707999999999
 20
1190.0778
 11
1672.0385000000001
 21
1194.0411999999999
  0
LINE
  8
_0-0_LAYER001
  6
CONTINUOUS
 62
    3
 10
1672.0385000000001
 20
1194.0411999999999
 11
1684.1424999999999
 21
1198.1406999999999
  0
LINE
  8
_0-0_LAYER001
  6
CONTINUOUS
 62
    3
 10
1684.1424999999999
 20
1198.1406999999999
 11
1697.0524999999998
 21
1202.1048000000001
  0
LINE
  8
_0-0_LAYER001
  6
CONTINUOUS
 62
    2
 10
1763.4279999999999
 20
1181.9285
 11
1761.4868999999999
 21
1189.173
  0
LINE
  8
_0-0_LAYER001
  6
CONTINUOUS
 62
    2
 10
1761.4868999999999
 20
1189.173
 11
1766.7901999999999
 21
1183.8697
  0
LINE
  8
_0-0_LAYER001
  6
CONTINUOUS
 62
    2
 10
1761.4868999999999
 20
1189.173
 11
1805.2123999999999
 21
1113.4381000000001
  0
LINE
  8
_0-0_LAYER001
  6
CONTINUOUS
 62
    2
 10
1805.2123999999999
 20
1113.4381000000001
 11
1952.2123999999999
 21
1113.4381000000001
  0
LINE
  8
_0-0_LAYER001
  6
CONTINUOUS
 62
    2
 10
1758.3411999999998
 20
1354.4436999999998
 11
1758.3411999999998
 21
1335.4077000000002
  0
LINE
  8
_0-0_LAYER001
  6
CONTINUOUS
 62
    2
 10
1763.8031999999998
 20
1354.4436999999998
 11
1758.3411999999998
 21
1335.4077000000002
  0
LINE
  8
_0-0_LAYER001
  6
CONTINUOUS
 62
    2
 10
1763.8031999999998
 20
1335.4077000000002
 11
1758.3411999999998
 21
1354.4436999999998
  0
ARC
  8
_0-0_LAYER001
  6
CONTINUOUS
 62
    2
 10
1726.0392000000002
 20
1344.0402999999997
 40
20.694040000000001
 50
335.49168000000003
 51
29.733201000000058
  0
LINE
  8
_0-0_LAYER001
  6
CONTINUOUS
 62
    2
 10
1850.6165000000001
 20
1235.4077
 11
1833.1165000000001
 21
1235.4077
  0
CIRCLE
  8
_0-0_LAYER001
  6
CONTINUOUS
 62
    2
 10
1848.1165000000001
 20
1235.4077
 40
1.6999999999999997
  0
LINE
  8
_0-0_LAYER001
  6
CONTINUOUS
 62
    2
 10
1848.1165000000001
 20
1235.4077
 11
1848.1165000000001
 21
1335.4077000000002
  0
CIRCLE
  8
_0-0_LAYER001
  6
CONTINUOUS
 62
    2
 10
1848.1165000000001
 20
1335.4077000000002
 40
1.6999999999999997
  0
LINE
  8
_0-0_LAYER001
  6
CONTINUOUS
 62
    2
 10
1850.6165000000001
 20
1335.4077000000002
 11
1833.1165000000001
 21
1335.4077000000002
  0
CIRCLE
  8
_0-0_LAYER001
  6
CONTINUOUS
 62
    2
 10
1848.1165000000001
 20
1335.4077000000002
 40
1.6999999999999997
  0
LINE
  8
_0-0_LAYER001
  6
CONTINUOUS
 62
    2
 10
1848.1165000000001
 20
1335.4077000000002
 11
1848.1165000000001
 21
1355.4077000000002
  0
CIRCLE
  8
_0-0_LAYER001
  6
CONTINUOUS
 62
    2
 10
1848.1165000000001
 20
1355.4077000000002
 40
1.6999999999999997
  0
LINE
  8
_0-0_LAYER001
  6
CONTINUOUS
 62
    2
 10
1850.6165000000001
 20
1355.4077000000002
 11
1833.1165000000001
 21
1355.4077000000002
  0
LINE
  8
_0-0_LAYER001
  6
CONTINUOUS
 62
    2
 10
1649.7251999999999
 20
1415.1587
 11
1649.7251999999999
 21
1371.4645999999998
  0
CIRCLE
  8
_0-0_LAYER001
  6
CONTINUOUS
 62
    2
 10
1649.7251999999999
 20
1412.6587
 40
1.6999999999999997
  0
LINE
  8
_0-0_LAYER001
  6
CONTINUOUS
 62
    2
 10
1649.7251999999999
 20
1412.6587
 11
1742.8582000000001
 21
1412.6587
  0
CIRCLE
  8
_0-0_LAYER001
  6
CONTINUOUS
 62
    2
 10
1742.8582000000001
 20
1412.6587
 40
1.6999999999999997
  0
LINE
  8
_0-0_LAYER001
  6
CONTINUOUS
 62
    2
 10
1701.3326999999999
 20
1236.9893
 11
1703.2737999999999
 21
1229.7447999999999
  0
LINE
  8
_0-0_LAYER001
  6
CONTINUOUS
 62
    2
 10
1703.2737999999999
 20
1229.7447999999999
 11
1697.9704999999999
 21
1235.0481
  0
LINE
  8
_0-0_LAYER001
  6
CONTINUOUS
 62
    2
 10
1703.2737999999999
 20
1229.7447999999999
 11
1612.9695999999999
 21
1386.1564000000001
  0
LINE
  8
_0-0_LAYER001
  6
CONTINUOUS
 62
    2
 10
1612.9695999999999
 20
1386.1564000000001
 11
1378.9695999999999
 21
1386.1564000000001
  0
LINE
  8
_0-0_LAYER001
  6
CONTINUOUS
 62
    2
 10
1642.9434999999999
 20
1180.5179000000001
 11
1644.8845999999999
 21
1173.2734
  0
LINE
  8
_0-0_LAYER001
  6
CONTINUOUS
 62
    2
 10
1644.8845999999999
 20
1173.2734
 11
1639.5812999999998
 21
1178.5767000000001
  0
LINE
  8
_0-0_LAYER001
  6
CONTINUOUS
 62
    2
 10
1644.8845999999999
 20
1173.2734
 11
1567.1601000000001
 21
1307.8961999999999
  0
LINE
  8
_0-0_LAYER001
  6
CONTINUOUS
 62
    2
 10
1567.1601000000001
 20
1307.8961999999999
 11
1453.1601000000001
 21
1307.8961999999999
  0
LINE
  8
_0-2_LAYER004
  6
CONTINUOUS
 62
    3
 10
1065.9641999999999
 20
728.43399999999997
 11
1740.8715000000002
 21
1032.1424999999999
  0
CIRCLE
  8
_0-2_LAYER004
  6
CONTINUOUS
 62
    3
 10
1189.3087
 20
785.1554000000001
 40
1.3049219999999999
  0
CIRCLE
  8
_0-2_LAYER004
  6
CONTINUOUS
 62
    3
 10
1326.0969
 20
846.71019999999999
 40
1.3049219999999999
  0
CIRCLE
  8
_0-2_LAYER004
  6
CONTINUOUS
 62
    3
 10
1462.8851
 20
908.2650000000001
 40
1.3049219999999999
  0
CIRCLE
  8
_0-2_LAYER004
  6
CONTINUOUS
 62
    3
 10
1599.6732999999999
 20
969.81970000000001
 40
1.3049219999999999
  0
CIRCLE
  8
_0-2_LAYER004
  6
CONTINUOUS
 62
    3
 10
1736.4614999999999
 20
1031.3744999999999
 40
1.3049219999999999
  0
LINE
  8
_0-2_LAYER004
  6
DASHED1
 62
    2
 10
1606.9703
 20
893.13599999999997
 11
1602.9472000000001
 21
902.29099999999994
  0
LINE
  8
_0-2_LAYER004
  6
DASHED1
 62
    2
 10
1557.8589000000002
 20
955.25530000000003
 11
1584.6635999999999
 21
894.25659999999993
  0
LINE
  8
_0-2_LAYER004
  6
DASHED1
 62
    2
 10
1548.7037999999998
 20
951.2322999999999
 11
1579.5315000000001
 21
881.07850000000008
  0
LINE
  8
_0-2_LAYER004
  6
DASHED1
 62
    2
 10
1584.6635999999999
 20
894.25659999999993
 11
1602.9472000000001
 21
902.29099999999994
  0
LINE
  8
_0-2_LAYER004
  6
DASHED1
 62
    2
 10
1579.5315000000001
 20
881.07850000000008
 11
1606.9703
 21
893.13599999999997
  0
LINE
  8
_0-2_LAYER004
  6
DASHED1
 62
    2
 10
1557.8589000000002
 20
955.25530000000003
 11
1548.7037999999998
 21
951.2322999999999
  0
LINE
  8
_0-2_LAYER004
  6
CONTINUOUS
 62
    2
 10
1571.0540999999998
 20
894.44669999999996
 11
1576.3573999999999
 21
899.75
  0
LINE
  8
_0-2_LAYER004
  6
CONTINUOUS
 62
    2
 10
1576.3573999999999
 20
899.75
 11
1574.4162000000001
 21
892.50559999999996
  0
LINE
  8
_0-2_LAYER004
  6
CONTINUOUS
 62
    2
 10
1576.3573999999999
 20
899.75
 11
1554.8193000000001
 21
862.44489999999996
  0
LINE
  8
_0-2_LAYER004
  6
CONTINUOUS
 62
    2
 10
1554.8193000000001
 20
862.44489999999996
 11
1494.8193000000001
 21
862.44489999999996
  0
LINE
  8
_0-2_LAYER004
  6
CONTINUOUS
 62
    2
 10
1643.3622999999998
 20
980.14540000000011
 11
1641.4212000000002
 21
987.3898999999999
  0
LINE
  8
_0-2_LAYER004
  6
CONTINUOUS
 62
    2
 10
1641.4212000000002
 20
987.3898999999999
 11
1646.7244999999998
 21
982.08660000000009
  0
LINE
  8
_0-2_LAYER004
  6
CONTINUOUS
 62
    2
 10
1641.4212000000002
 20
987.3898999999999
 11
1668.3040000000001
 21
940.8273999999999
  0
LINE
  8
_0-2_LAYER004
  6
CONTINUOUS
 62
    2
 10
1668.3040000000001
 20
940.8273999999999
 11
1728.3040000000001
 21
940.8273999999999
  0
LINE
  8
_0-2_LAYER004
  6
DASHED3
 62
    2
 10
1079.6882000000001
 20
765.35069999999996
 11
1764.7972
 21
1073.6496999999999
  0
LINE
  8
_0-4_LAYER006
  6
DASHED3
 62
    2
 10
1764.7972
 20
1073.6496999999999
 11
1764.7972
 21
1320.6406999999999
  0
LINE
  8
_0-3_LAYER005
  6
CONTINUOUS
 62
    2
 10
1742.8582000000001
 20
1559.9871000000003
 11
1742.8582000000001
 21
1354.4436999999998
  0
LINE
  8
_0-3_LAYER005
  6
CONTINUOUS
 62
    2
 10
1742.8582000000001
 20
1354.4436999999998
 11
1767.8582000000001
 21
1354.4436999999998
  0
LINE
  8
_0-3_LAYER005
  6
CONTINUOUS
 62
    2
 10
1742.8582000000001
 20
1335.4077000000002
 11
1763.8031999999998
 21
1335.4077000000002
  0
LINE
  8
_0-3_LAYER005
  6
CONTINUOUS
 62
    2
 10
1742.8582000000001
 20
1335.4077000000002
 11
1742.8582000000001
 21
1235.4077
  0
LINE
  8
_0-3_LAYER005
  6
CONTINUOUS
 62
    2
 10
1763.8031999999998
 20
1335.4077000000002
 11
1763.8031999999998
 21
1354.4436999999998
  0
LINE
  8
_0-3_LAYER005
  6
CONTINUOUS
 62
    2
 10
1752.0331999999999
 20
1335.4077000000002
 11
1758.3411999999998
 21
1341.7157
  0
LINE
  8
_0-3_LAYER005
  6
CONTINUOUS
 62
    2
 10
1747.7901999999999
 20
1335.4077000000002
 11
1758.3411999999998
 21
1345.9586999999999
  0
LINE
  8
_0-3_LAYER005
  6
CONTINUOUS
 62
    2
 10
1745.6889000000001
 20
1337.5495000000001
 11
1758.3411999999998
 21
1350.2009
  0
LINE
  8
_0-3_LAYER005
  6
CONTINUOUS
 62
    2
 10
1746.6959000000002
 20
1342.7982999999999
 11
1758.3411999999998
 21
1354.4436999999998
  0
LINE
  8
_0-3_LAYER005
  6
CONTINUOUS
 62
    2
 10
1746.5372000000002
 20
1346.8814
 11
1754.0981999999999
 21
1354.4436999999998
  0
LINE
  8
_0-3_LAYER005
  6
CONTINUOUS
 62
    2
 10
1745.7518
 20
1350.3375000000001
 11
1749.8552
 21
1354.4436999999998
  0
LINE
  8
_0-1_LAYER003
  6
CONTINUOUS
 62
    2
 10
1081.3302000000001
 20
761.70270000000005
 11
1767.8582000000001
 21
1070.6406999999999
  0
LINE
  8
_0-1_LAYER003
  6
CONTINUOUS
 62
    2
 10
1767.8582000000001
 20
1354.4436999999998
 11
1767.8582000000001
 21
1070.6406999999999
  0
LINE
  8
_0-3_LAYER005
  6
CONTINUOUS
 62
    2
 10
1742.8582000000001
 20
1403.4637
 11
1828.7941999999998
 21
1489.3996999999999
  0
LINE
  8
_0-3_LAYER005
  6
CONTINUOUS
 62
    2
 10
1742.8582000000001
 20
1392.1496999999999
 11
1840.1071999999999
 21
1489.3996999999999
  0
LINE
  8
_0-3_LAYER005
  6
CONTINUOUS
 62
    2
 10
1151.0922
 20
606.67669999999998
 11
1767.8582000000001
 21
884.22090000000003
  0
LINE
  8
_0-3_LAYER005
  6
CONTINUOUS
 62
    2
 10
1767.8582000000001
 20
1070.6406999999999
 11
1767.8582000000001
 21
1026.7775999999999
  0
LINE
  8
_0-3_LAYER005
  6
CONTINUOUS
 62
    2
 10
1249.4419
 20
793.48980000000006
 11
1212.7321999999999
 21
634.41470000000004
  0
LINE
  8
_0-3_LAYER005
  6
CONTINUOUS
 62
    2
 10
1240.2810999999999
 20
789.36740000000009
 11
1203.5712000000001
 21
630.29169999999999
  0
LINE
  8
_0-3_LAYER005
  6
CONTINUOUS
 62
    2
 10
1231.1190999999999
 20
785.24450000000002
 11
1194.4092000000001
 21
626.16869999999994
  0
LINE
  8
_0-3_LAYER005
  6
CONTINUOUS
 62
    2
 10
1597.8980999999999
 20
950.29539999999997
 11
1561.1882000000001
 21
791.2197000000001
  0
LINE
  8
_0-3_LAYER005
  6
CONTINUOUS
 62
    2
 10
1607.0587999999998
 20
954.41769999999997
 11
1570.3501999999999
 21
795.34269999999992
  0
LINE
  8
_0-3_LAYER005
  6
CONTINUOUS
 62
    2
 10
1616.2212
 20
958.54079999999999
 11
1579.5111999999999
 21
799.46469999999999
  0
ARC
  8
_0-3_LAYER005
  6
CONTINUOUS
 62
    2
 10
1473.5862000000002
 20
1089.7656999999999
 40
196.005
 50
356.37113000000005
 51
14.393177000000051
  0
CIRCLE
  8
_0-3_LAYER005
  6
CONTINUOUS
 62
    2
 10
1708.6752000000001
 20
1151.4280000000001
 40
1.018
  0
CIRCLE
  8
_0-3_LAYER005
  6
CONTINUOUS
 62
    2
 10
1700.9962
 20
1150.3309999999999
 40
1.018
  0
CIRCLE
  8
_0-3_LAYER005
  6
CONTINUOUS
 62
    2
 10
1696.9742000000001
 20
1142.2860000000001
 40
1.018
  0
CIRCLE
  8
_0-3_LAYER005
  6
CONTINUOUS
 62
    2
 10
1694.4151999999999
 20
1126.5634
 40
1.018
  0
CIRCLE
  8
_0-3_LAYER005
  6
CONTINUOUS
 62
    2
 10
1695.5111999999999
 20
1121.0784000000001
 40
1.018
  0
CIRCLE
  8
_0-3_LAYER005
  6
CONTINUOUS
 62
    2
 10
1700.2651999999998
 20
1115.9594
 40
1.018
  0
CIRCLE
  8
_0-3_LAYER005
  6
CONTINUOUS
 62
    2
 10
1700.9962
 20
1110.1084000000001
 40
1.018
  0
CIRCLE
  8
_0-3_LAYER005
  6
CONTINUOUS
 62
    2
 10
1697.3402000000001
 20
1096.5957000000001
 40
1.018
  0
CIRCLE
  8
_0-3_LAYER005
  6
CONTINUOUS
 62
    2
 10
1687.1021999999998
 20
1091.1107
 40
1.018
  0
CIRCLE
  8
_0-3_LAYER005
  6
CONTINUOUS
 62
    2
 10
1679.0572000000002
 20
1087.8197
 40
1.018
  0
CIRCLE
  8
_0-3_LAYER005
  6
CONTINUOUS
 62
    2
 10
1677.9602
 20
1096.2297000000001
 40
1.018
  0
CIRCLE
  8
_0-3_LAYER005
  6
CONTINUOUS
 62
    2
 10
1672.8411999999998
 20
1081.9697000000001
 40
1.018
  0
CIRCLE
  8
_0-3_LAYER005
  6
CONTINUOUS
 62
    2
 10
1675.7662
 20
1086.3577
 40
1.018
  0
CIRCLE
  8
_0-3_LAYER005
  6
CONTINUOUS
 62
    2
 10
1675.0351999999998
 20
1088.9167
 40
1.018
  0
CIRCLE
  8
_0-3_LAYER005
  6
CONTINUOUS
 62
    2
 10
1674.6691999999998
 20
1094.7677000000001
 40
1.018
  0
CIRCLE
  8
_0-3_LAYER005
  6
CONTINUOUS
 62
    2
 10
1674.6691999999998
 20
1100.6177
 40
1.018
  0
CIRCLE
  8
_0-3_LAYER005
  6
CONTINUOUS
 62
    2
 10
1673.9382000000001
 20
1123.6379999999999
 40
1.018
  0
CIRCLE
  8
_0-3_LAYER005
  6
CONTINUOUS
 62
    2
 10
1674.6691999999998
 20
1129.854
 40
1.018
  0
CIRCLE
  8
_0-3_LAYER005
  6
CONTINUOUS
 62
    2
 10
1675.0351999999998
 20
1139.7270000000001
 40
1.018
  0
CIRCLE
  8
_0-3_LAYER005
  6
CONTINUOUS
 62
    2
 10
1676.1322
 20
1144.48
 40
1.018
  0
CIRCLE
  8
_0-3_LAYER005
  6
CONTINUOUS
 62
    2
 10
1690.0272
 20
1151.4280000000001
 40
1.018
  0
CIRCLE
  8
_0-3_LAYER005
  6
CONTINUOUS
 62
    2
 10
1686.3701999999998
 20
1120.7123999999999
 40
1.018
  0
CIRCLE
  8
_0-3_LAYER005
  6
CONTINUOUS
 62
    2
 10
1685.2732000000001
 20
1122.5409999999999
 40
1.018
  0
CIRCLE
  8
_0-3_LAYER005
  6
CONTINUOUS
 62
    2
 10
1694.0491999999999
 20
1107.9154000000001
 40
1.018
  0
CIRCLE
  8
_0-3_LAYER005
  6
CONTINUOUS
 62
    2
 10
1708.6752000000001
 20
1094.0356999999999
 40
1.018
  0
CIRCLE
  8
_0-3_LAYER005
  6
CONTINUOUS
 62
    2
 10
1706.8472000000002
 20
1109.3774000000001
 40
1.018
  0
CIRCLE
  8
_0-3_LAYER005
  6
CONTINUOUS
 62
    2
 10
1709.7721999999999
 20
1115.2284
 40
1.018
  0
CIRCLE
  8
_0-3_LAYER005
  6
CONTINUOUS
 62
    2
 10
1722.2042000000001
 20
1126.5634
 40
1.018
  0
CIRCLE
  8
_0-3_LAYER005
  6
CONTINUOUS
 62
    2
 10
1717.4512
 20
1152.5250000000001
 40
1.018
  0
CIRCLE
  8
_0-3_LAYER005
  6
CONTINUOUS
 62
    2
 10
1724.3982000000001
 20
1161.6659999999999
 40
1.018
  0
CIRCLE
  8
_0-3_LAYER005
  6
CONTINUOUS
 62
    2
 10
1720.3762000000002
 20
1168.979
 40
1.018
  0
CIRCLE
  8
_0-3_LAYER005
  6
CONTINUOUS
 62
    2
 10
1710.5032000000001
 20
1165.6880000000001
 40
1.018
  0
CIRCLE
  8
_0-3_LAYER005
  6
CONTINUOUS
 62
    2
 10
1706.4812000000002
 20
1156.181
 40
1.018
  0
CIRCLE
  8
_0-3_LAYER005
  6
CONTINUOUS
 62
    2
 10
1699.5342000000001
 20
1158.009
 40
1.018
  0
CIRCLE
  8
_0-3_LAYER005
  6
CONTINUOUS
 62
    2
 10
1691.4892
 20
1158.741
 40
1.018
  0
CIRCLE
  8
_0-3_LAYER005
  6
CONTINUOUS
 62
    2
 10
1679.0572000000002
 20
1151.4280000000001
 40
1.018
  0
CIRCLE
  8
_0-3_LAYER005
  6
CONTINUOUS
 62
    2
 10
1683.0792000000001
 20
1146.309
 40
1.018
  0
CIRCLE
  8
_0-3_LAYER005
  6
CONTINUOUS
 62
    2
 10
1691.1242000000002
 20
1143.749
 40
1.018
  0
CIRCLE
  8
_0-3_LAYER005
  6
CONTINUOUS
 62
    2
 10
1709.7721999999999
 20
1145.943
 40
1.018
  0
CIRCLE
  8
_0-3_LAYER005
  6
CONTINUOUS
 62
    2
 10
1684.5421999999999
 20
1135.7049999999999
 40
1.018
  0
CIRCLE
  8
_0-3_LAYER005
  6
CONTINUOUS
 62
    2
 10
1716.7192
 20
1127.2944
 40
1.018
  0
CIRCLE
  8
_0-3_LAYER005
  6
CONTINUOUS
 62
    2
 10
1723.3011999999999
 20
1112.3024
 40
1.018
  0
CIRCLE
  8
_0-3_LAYER005
  6
CONTINUOUS
 62
    2
 10
1725.4951999999998
 20
1107.9154000000001
 40
1.018
  0
CIRCLE
  8
_0-3_LAYER005
  6
CONTINUOUS
 62
    2
 10
1729.8832000000002
 20
1095.4987000000001
 40
1.018
  0
CIRCLE
  8
_0-3_LAYER005
  6
CONTINUOUS
 62
    2
 10
1736.0992000000001
 20
1114.8624
 40
1.018
  0
CIRCLE
  8
_0-3_LAYER005
  6
CONTINUOUS
 62
    2
 10
1740.8521999999998
 20
1125.8314
 40
1.018
  0
CIRCLE
  8
_0-3_LAYER005
  6
CONTINUOUS
 62
    2
 10
1739.0241999999998
 20
1145.943
 40
1.018
  0
CIRCLE
  8
_0-3_LAYER005
  6
CONTINUOUS
 62
    2
 10
1751.0902000000001
 20
1167.8820000000001
 40
1.018
  0
CIRCLE
  8
_0-3_LAYER005
  6
CONTINUOUS
 62
    2
 10
1747.0682000000002
 20
1170.076
 40
1.018
  0
CIRCLE
  8
_0-3_LAYER005
  6
CONTINUOUS
 62
    2
 10
1742.3152
 20
1167.5160000000001
 40
1.018
  0
CIRCLE
  8
_0-3_LAYER005
  6
CONTINUOUS
 62
    2
 10
1737.9272000000001
 20
1174.098
 40
1.018
  0
CIRCLE
  8
_0-3_LAYER005
  6
CONTINUOUS
 62
    2
 10
1680.5648999999999
 20
1170.1529
 40
1.018
  0
CIRCLE
  8
_0-3_LAYER005
  6
CONTINUOUS
 62
    2
 10
1693.8712999999998
 20
1176.2376999999999
 40
1.018
  0
CIRCLE
  8
_0-3_LAYER005
  6
CONTINUOUS
 62
    2
 10
1708.0527999999999
 20
1181.075
 40
1.018
  0
CIRCLE
  8
_0-3_LAYER005
  6
CONTINUOUS
 62
    2
 10
1726.5221000000001
 20
1180.8649
 40
1.018
  0
CIRCLE
  8
_0-3_LAYER005
  6
CONTINUOUS
 62
    2
 10
1669.6837
 20
1166.9999
 40
1.018
  0
CIRCLE
  8
_0-3_LAYER005
  6
CONTINUOUS
 62
    2
 10
1676.9956999999999
 20
1167.3659
 40
1.018
  0
CIRCLE
  8
_0-3_LAYER005
  6
CONTINUOUS
 62
    2
 10
1716.0967999999998
 20
1177.4190000000001
 40
1.018
  0
CIRCLE
  8
_0-3_LAYER005
  6
CONTINUOUS
 62
    2
 10
1720.3060999999998
 20
1181.5959
 40
1.018
  0
CIRCLE
  8
_0-3_LAYER005
  6
CONTINUOUS
 62
    2
 10
1701.5502999999999
 20
1174.4087
 40
1.018
  0
CIRCLE
  8
_0-3_LAYER005
  6
CONTINUOUS
 62
    2
 10
1729.1511999999998
 20
1177.3889999999999
 40
1.018
  0
CIRCLE
  8
_0-3_LAYER005
  6
CONTINUOUS
 62
    2
 10
1735.3672000000001
 20
1160.9349999999999
 40
1.018
  0
CIRCLE
  8
_0-3_LAYER005
  6
CONTINUOUS
 62
    2
 10
1729.5171999999998
 20
1149.5989999999999
 40
1.018
  0
CIRCLE
  8
_0-3_LAYER005
  6
CONTINUOUS
 62
    2
 10
1731.7112000000002
 20
1126.9284
 40
1.018
  0
CIRCLE
  8
_0-3_LAYER005
  6
CONTINUOUS
 62
    2
 10
1715.9881999999998
 20
1120.7123999999999
 40
1.018
  0
CIRCLE
  8
_0-3_LAYER005
  6
CONTINUOUS
 62
    2
 10
1717.4512
 20
1115.2284
 40
1.018
  0
CIRCLE
  8
_0-3_LAYER005
  6
CONTINUOUS
 62
    2
 10
1722.9351999999999
 20
1098.0577000000001
 40
1.018
  0
CIRCLE
  8
_0-3_LAYER005
  6
CONTINUOUS
 62
    2
 10
1743.0462000000002
 20
1095.8647000000001
 40
1.018
  0
CIRCLE
  8
_0-3_LAYER005
  6
CONTINUOUS
 62
    2
 10
1740.8521999999998
 20
1125.4664
 40
1.018
  0
CIRCLE
  8
_0-3_LAYER005
  6
CONTINUOUS
 62
    2
 10
1754.3811999999998
 20
1129.4884
 40
1.018
  0
CIRCLE
  8
_0-3_LAYER005
  6
CONTINUOUS
 62
    2
 10
1751.0902000000001
 20
1107.9154000000001
 40
1.018
  0
CIRCLE
  8
_0-3_LAYER005
  6
CONTINUOUS
 62
    2
 10
1753.6502
 20
1098.0577000000001
 40
1.018
  0
CIRCLE
  8
_0-3_LAYER005
  6
CONTINUOUS
 62
    2
 10
1741.5832
 20
1091.1107
 40
1.018
  0
CIRCLE
  8
_0-3_LAYER005
  6
CONTINUOUS
 62
    2
 10
1748.1651999999999
 20
1109.3774000000001
 40
1.018
  0
CIRCLE
  8
_0-3_LAYER005
  6
CONTINUOUS
 62
    2
 10
1756.9412000000002
 20
1117.4213999999999
 40
1.018
  0
CIRCLE
  8
_0-3_LAYER005
  6
CONTINUOUS
 62
    2
 10
1744.1432
 20
1128.7574
 40
1.018
  0
CIRCLE
  8
_0-3_LAYER005
  6
CONTINUOUS
 62
    2
 10
1755.8442
 20
1148.8679999999999
 40
1.018
  0
CIRCLE
  8
_0-3_LAYER005
  6
CONTINUOUS
 62
    2
 10
1761.6941999999999
 20
1159.106
 40
1.018
  0
CIRCLE
  8
_0-3_LAYER005
  6
CONTINUOUS
 62
    2
 10
1758.7692000000002
 20
1173.732
 40
1.018
  0
CIRCLE
  8
_0-3_LAYER005
  6
CONTINUOUS
 62
    2
 10
1738.9391999999998
 20
1091.0146999999999
 40
1.018
  0
CIRCLE
  8
_0-3_LAYER005
  6
CONTINUOUS
 62
    2
 10
1711.9382000000001
 20
1158.3889999999999
 40
1.018
  0
CIRCLE
  8
_0-3_LAYER005
  6
CONTINUOUS
 62
    2
 10
1729.0392000000002
 20
1126.5504000000001
 40
1.018
  0
CIRCLE
  8
_0-3_LAYER005
  6
CONTINUOUS
 62
    2
 10
1724.5392000000002
 20
1143.989
 40
1.018
  0
CIRCLE
  8
_0-3_LAYER005
  6
CONTINUOUS
 62
    2
 10
1732.6392000000001
 20
1115.7493999999999
 40
1.018
  0
CIRCLE
  8
_0-3_LAYER005
  6
CONTINUOUS
 62
    2
 10
1722.7392
 20
1119.3494000000001
 40
1.018
  0
CIRCLE
  8
_0-3_LAYER005
  6
CONTINUOUS
 62
    2
 10
1742.5392000000002
 20
1120.2493999999999
 40
1.018
  0
CIRCLE
  8
_0-3_LAYER005
  6
CONTINUOUS
 62
    2
 10
1752.4402
 20
1118.4494
 40
1.018
  0
CIRCLE
  8
_0-3_LAYER005
  6
CONTINUOUS
 62
    2
 10
1745.2392
 20
1154.789
 40
1.018
  0
LINE
  8
_0-0_LAYER001
  6
CONTINUOUS
 62
    2
 10
1751.0102000000002
 20
1353.6543000000001
 11
1752.9513000000002
 21
1346.4099000000001
  0
LINE
  8
_0-0_LAYER001
  6
CONTINUOUS
 62
    2
 10
1752.9513000000002
 20
1346.4099000000001
 11
1747.6480000000001
 21
1351.7131999999997
  0
LINE
  8
_0-0_LAYER001
  6
CONTINUOUS
 62
    2
 10
1752.9513000000002
 20
1346.4099000000001
 11
1690.1289000000002
 21
1455.2213999999999
  0
LINE
  8
_0-0_LAYER001
  6
CONTINUOUS
 62
    2
 10
1690.1289000000002
 20
1455.2213999999999
 11
1609.1289000000002
 21
1455.2213999999999
  0
LINE
  8
_0-0_LAYER001
  6
CONTINUOUS
 62
    2
 10
1669.8795
 20
1217.3843999999999
 11
1671.8206
 21
1210.1400000000001
  0
LINE
  8
_0-0_LAYER001
  6
CONTINUOUS
 62
    2
 10
1671.8206
 20
1210.1400000000001
 11
1666.5173
 21
1215.4432999999999
  0
LINE
  8
_0-0_LAYER001
  6
CONTINUOUS
 62
    2
 10
1671.8206
 20
1210.1400000000001
 11
1591.3899000000001
 21
1349.4501
  0
LINE
  8
_0-0_LAYER001
  6
CONTINUOUS
 62
    2
 10
1591.3899000000001
 20
1349.4501
 11
1444.3899000000001
 21
1349.4501
  0
LINE
  8
_0-0_LAYER001
  6
CONTINUOUS
 62
    2
 10
1741.7919000000002
 20
1118.4045000000001
 11
1739.8507
 21
1125.6488999999999
  0
LINE
  8
_0-0_LAYER001
  6
CONTINUOUS
 62
    2
 10
1739.8507
 20
1125.6488999999999
 11
1745.154
 21
1120.3456000000001
  0
LINE
  8
_0-0_LAYER001
  6
CONTINUOUS
 62
    2
 10
1739.8507
 20
1125.6488999999999
 11
1833.0682999999999
 21
964.19139999999993
  0
LINE
  8
_0-0_LAYER001
  6
CONTINUOUS
 62
    2
 10
1833.0682999999999
 20
964.19139999999993
 11
1911.6147000000001
 21
964.19139999999993
  0
LINE
  8
_0-0_LAYER001
  6
CONTINUOUS
 62
    2
 10
1402.96
 20
599.97469999999998
 11
1607.7827000000002
 21
599.97469999999998
  0
LINE
  8
_0-0_LAYER001
  6
CONTINUOUS
 62
    2
 10
1328.1504
 20
873.10609999999997
 11
1328.1504
 21
880.60609999999997
  0
LINE
  8
_0-0_LAYER001
  6
CONTINUOUS
 62
    2
 10
1328.1504
 20
880.60609999999997
 11
1331.9004
 21
874.1108999999999
  0
LINE
  8
_0-0_LAYER001
  6
CONTINUOUS
 62
    2
 10
1328.1504
 20
880.60609999999997
 11
1419.4121
 21
540.01282000000003
  0
LINE
  8
_0-1_LAYER003
  6
CONTINUOUS
 62
    7
 10
966.2401395705275
 20
997.9063430321637
 11
965.08056588627346
 21
1001.1024952278829
  0
LINE
  8
_0-1_LAYER003
  6
CONTINUOUS
 62
    7
 10
965.08056588627346
 20
1001.1024952278829
 11
982.71289999999999
 21
952.5021999999999
  0
LINE
  8
_0-1_LAYER003
  6
CONTINUOUS
 62
    7
 10
965.66030000000001
 20
999.50440000000003
 11
1205.3717999999999
 21
1086.4724000000001
  0
LINE
  8
_0-1_LAYER003
  6
CONTINUOUS
 62
    7
 10
1194.5604338256776
 20
1116.2718835970347
 11
1222.4242999999999
 21
1039.4702
  0
LINE
  8
_0-1_LAYER003
  6
CONTINUOUS
 62
    7
 10
1195.140220668075
 20
1114.6738074984301
 11
1406.6503
 21
1191.4102
  0
LINE
  8
_0-1_LAYER003
  6
CONTINUOUS
 62
    7
 10
1423.7029000000002
 20
1144.4079999999999
 11
1395.838945946273
 21
1221.2096517126727
  0
LINE
  8
_0-1_LAYER003
  6
CONTINUOUS
 62
    7
 10
1396.4187999999999
 20
1219.6116
 11
1673.732
 21
1320.2216000000001
  0
LINE
  8
_0-1_LAYER003
  6
CONTINUOUS
 62
    7
 10
1673.1522329676664
 20
1321.8196832857579
 11
1690.7845000000002
 21
1273.2194
  0
LINE
  8
_0-1_LAYER003
  6
CONTINUOUS
 62
    7
 10
1703.2737999999999
 20
1229.7447999999999
 11
1701.3326999999999
 21
1236.9893
  0
LINE
  8
_0-1_LAYER003
  6
CONTINUOUS
 62
    7
 10
1703.2737999999999
 20
1229.7447999999999
 11
1697.9704999999999
 21
1235.0481
  0
LINE
  8
_0-1_LAYER003
  6
CONTINUOUS
 62
    7
 10
1703.2737999999999
 20
1229.7447999999999
 11
1612.9695999999999
 21
1386.1564000000001
  0
LINE
  8
_0-1_LAYER003
  6
CONTINUOUS
 62
    7
 10
1671.8206
 20
1210.1400000000001
 11
1669.8795
 21
1217.3843999999999
  0
LINE
  8
_0-1_LAYER003
  6
CONTINUOUS
 62
    7
 10
1671.8206
 20
1210.1400000000001
 11
1666.5173
 21
1215.4432999999999
  0
LINE
  8
_0-1_LAYER003
  6
CONTINUOUS
 62
    7
 10
1671.8206
 20
1210.1400000000001
 11
1591.3899000000001
 21
1349.4501
  0
LINE
  8
_0-1_LAYER003
  6
CONTINUOUS
 62
    7
 10
1647.1734000000001
 20
1193.0116
 11
1652.067
 21
1198.6043
  0
LINE
  8
_0-1_LAYER003
  6
CONTINUOUS
 62
    7
 10
1647.1734000000001
 20
1193.0116
 11
1651.3674000000001
 21
1218.6489999999999
  0
LINE
  8
_0-1_LAYER003
  6
CONTINUOUS
 62
    7
 10
1651.3674000000001
 20
1218.6489999999999
 11
1742.8582000000001
 21
1235.4077
  0
LINE
  8
_0-1_LAYER003
  6
CONTINUOUS
 62
    7
 10
1742.8582000000001
 20
1235.4077
 11
1742.8582000000001
 21
1335.4077000000002
  0
LINE
  8
_0-1_LAYER003
  6
CONTINUOUS
 62
    7
 10
1742.8582000000001
 20
1335.4077000000002
 11
1763.8031999999998
 21
1335.4077000000002
  0
LINE
  8
_0-1_LAYER003
  6
CONTINUOUS
 62
    7
 10
1763.8031999999998
 20
1354.4436999999998
 11
1763.8031999999998
 21
1335.4077000000002
  0
LINE
  8
_0-1_LAYER003
  6
CONTINUOUS
 62
    7
 10
1758.3411999999998
 20
1335.4077000000002
 11
1758.3411999999998
 21
1354.4436999999998
  0
LINE
  8
_0-1_LAYER003
  6
CONTINUOUS
 62
    7
 10
1767.8582000000001
 20
1354.4436999999998
 11
1742.8582000000001
 21
1354.4436999999998
  0
LINE
  8
_0-1_LAYER003
  6
CONTINUOUS
 62
    7
 10
1742.8582000000001
 20
1354.4436999999998
 11
1742.8582000000001
 21
1559.9871000000003
  0
LINE
  8
_0-1_LAYER003
  6
CONTINUOUS
 62
    7
 10
1742.8582000000001
 20
1392.1496999999999
 11
1840.1071999999999
 21
1489.3996999999999
  0
LINE
  8
_0-1_LAYER003
  6
CONTINUOUS
 62
    7
 10
1742.8582000000001
 20
1403.4637
 11
1828.7941999999998
 21
1489.3996999999999
  0
LINE
  8
_0-1_LAYER003
  6
CONTINUOUS
 62
    7
 10
1851.4212000000002
 20
1489.3996999999999
 11
1748.7363999999998
 21
1386.7139999999999
  0
LINE
  8
_0-3_LAYER005
  6
CONTINUOUS
 62
    2
 10
1742.8582000000001
 20
1380.8357484794246
 11
1851.4212000000002
 21
1489.3996999999999
  0
LINE
  8
_0-0_LAYER001
  6
CONTINUOUS
 62
    2
 10
1742.8582000000001
 20
1382.8883999999998
 11
1742.8582000000001
 21
1380.9533069948159
  0
LINE
  8
_0-0_LAYER001
  6
CONTINUOUS
 62
    2
 10
1742.8582000000001
 20
1380.9533069948159
 11
1742.8582000000001
 21
1365.3883999999998
  0
LINE
  8
_0-1_LAYER003
  6
CONTINUOUS
 62
    7
 10
1742.8582000000001
 20
1382.8883999999998
 11
1742.8582000000001
 21
1365.3883999999998
  0
LINE
  8
_0-1_LAYER003
  6
CONTINUOUS
 62
    7
 10
1742.8582000000001
 20
1380.8357484794246
 11
1851.4212000000002
 21
1489.3996999999999
  0
LINE
  8
_0-1_LAYER003
  6
CONTINUOUS
 62
    7
 10
1767.8582000000001
 20
1354.4436999999998
 11
1767.8582000000001
 21
1026.7775999999999
  0
LINE
  8
_0-1_LAYER003
  6
CONTINUOUS
 62
    7
 10
1767.8582000000001
 20
1026.7775999999999
 11
1090.8735999999999
 21
722.13390000000004
  0
LINE
  8
_0-1_LAYER003
  6
CONTINUOUS
 62
    7
 10
1081.3302000000001
 20
761.70270000000005
 11
1767.8582000000001
 21
1070.6406999999999
  0
LINE
  8
_0-1_LAYER003
  6
CONTINUOUS
 62
    7
 10
1764.7972
 20
1073.6496999999999
 11
1079.6882000000001
 21
765.35069999999996
  0
LINE
  8
_0-1_LAYER003
  6
CONTINUOUS
 62
    7
 10
1764.7972
 20
1073.6496999999999
 11
1764.7972
 21
1320.6406999999999
  0
LINE
  8
_0-1_LAYER003
  6
CONTINUOUS
 62
    7
 10
1644.8845999999999
 20
1173.2734
 11
1642.9434999999999
 21
1180.5179000000001
  0
LINE
  8
_0-1_LAYER003
  6
CONTINUOUS
 62
    7
 10
1644.8845999999999
 20
1173.2734
 11
1638.7175999999999
 21
1180.2636
  0
LINE
  8
_0-1_LAYER003
  6
CONTINUOUS
 62
    7
 10
1644.8845999999999
 20
1173.2734
 11
1567.1601000000001
 21
1307.8961999999999
  0
LINE
  8
_0-1_LAYER003
  6
CONTINUOUS
 62
    7
 10
1612.9695999999999
 20
1386.1564000000001
 11
1378.9695999999999
 21
1386.1564000000001
  0
LINE
  8
_0-1_LAYER003
  6
CONTINUOUS
 62
    7
 10
1591.3899000000001
 20
1349.4501
 11
1444.3899000000001
 21
1349.4501
  0
LINE
  8
_0-1_LAYER003
  6
CONTINUOUS
 62
    7
 10
1567.1601000000001
 20
1307.8961999999999
 11
1453.1601000000001
 21
1307.8961999999999
  0
LINE
  8
_0-1_LAYER003
  6
CONTINUOUS
 62
    7
 10
1649.7251999999999
 20
1371.4645999999998
 11
1649.7251999999999
 21
1414.3587
  0
LINE
  8
_0-1_LAYER003
  6
CONTINUOUS
 62
    7
 10
1649.7251999999999
 20
1412.6587
 11
1741.1582000000001
 21
1412.6587
  0
LINE
  8
_0-1_LAYER003
  6
CONTINUOUS
 62
    7
 10
1609.1289000000002
 20
1455.2213999999999
 11
1690.1289000000002
 21
1455.2213999999999
  0
LINE
  8
_0-1_LAYER003
  6
CONTINUOUS
 62
    7
 10
1690.1289000000002
 20
1455.2213999999999
 11
1752.9513000000002
 21
1346.4099000000001
  0
LINE
  8
_0-1_LAYER003
  6
CONTINUOUS
 62
    7
 10
1752.9513000000002
 20
1346.4099000000001
 11
1751.0102000000002
 21
1353.6543000000001
  0
LINE
  8
_0-1_LAYER003
  6
CONTINUOUS
 62
    7
 10
1752.9513000000002
 20
1346.4099000000001
 11
1747.6480000000001
 21
1351.7131999999997
  0
LINE
  8
_0-1_LAYER003
  6
CONTINUOUS
 62
    7
 10
1758.3411999999998
 20
1354.4436999999998
 11
1763.8031999999998
 21
1335.4077000000002
  0
LINE
  8
_0-1_LAYER003
  6
CONTINUOUS
 62
    7
 10
1758.3411999999998
 20
1335.4077000000002
 11
1763.8031999999998
 21
1354.4436999999998
  0
ARC
  8
_0-1_LAYER003
  6
CONTINUOUS
 62
    7
 10
1726.0388594576943
 20
1344.04028446197
 40
20.69434341481373
 50
335.4921102612376
 51
29.732770738762582
  0
LINE
  8
_0-1_LAYER003
  6
CONTINUOUS
 62
    7
 10
1833.1165000000001
 20
1355.4077000000002
 11
1849.8164999999999
 21
1355.4077000000002
  0
LINE
  8
_0-1_LAYER003
  6
CONTINUOUS
 62
    7
 10
1848.1165000000001
 20
1355.4077000000002
 11
1848.1165000000001
 21
1235.4077
  0
LINE
  8
_0-1_LAYER003
  6
CONTINUOUS
 62
    7
 10
1833.1165000000001
 20
1235.4077
 11
1849.8164999999999
 21
1235.4077
  0
LINE
  8
_0-1_LAYER003
  6
CONTINUOUS
 62
    7
 10
1833.1165000000001
 20
1335.4077000000002
 11
1849.8164999999999
 21
1335.4077000000002
  0
LINE
  8
_0-1_LAYER003
  6
CONTINUOUS
 62
    7
 10
1932.0940999999998
 20
1320.6406999999999
 11
1984.5940999999998
 21
1320.6406999999999
  0
LINE
  8
_0-1_LAYER003
  6
CONTINUOUS
 62
    7
 10
1982.0940999999998
 20
1320.6406999999999
 11
1982.0940999999998
 21
1070.6406999999999
  0
LINE
  8
_0-1_LAYER003
  6
CONTINUOUS
 62
    7
 10
1983.7940999999998
 20
1070.6406999999999
 11
1932.0940999999998
 21
1070.6406999999999
  0
LINE
  8
_0-1_LAYER003
  6
CONTINUOUS
 62
    7
 10
1952.2123999999999
 20
1113.4381000000001
 11
1805.2123999999999
 21
1113.4381000000001
  0
LINE
  8
_0-1_LAYER003
  6
CONTINUOUS
 62
    7
 10
1805.2123999999999
 20
1113.4381000000001
 11
1761.4868999999999
 21
1189.173
  0
LINE
  8
_0-1_LAYER003
  6
CONTINUOUS
 62
    7
 10
1761.4868999999999
 20
1189.173
 11
1763.4279999999999
 21
1181.9285
  0
LINE
  8
_0-1_LAYER003
  6
CONTINUOUS
 62
    7
 10
1761.4868999999999
 20
1189.173
 11
1764.7972
 21
1185.8626999999999
  0
LINE
  8
_0-1_LAYER003
  6
CONTINUOUS
 62
    7
 10
1764.7972
 20
1185.8626999999999
 11
1766.7901999999999
 21
1183.8697
  0
LINE
  8
_0-1_LAYER003
  6
CONTINUOUS
 62
    7
 10
1767.4760918626682
 20
1178.7994000000001
 11
1737.8582000000001
 21
1178.7994000000001
  0
LINE
  8
_0-1_LAYER003
  6
CONTINUOUS
 62
    7
 10
1737.8582000000001
 20
1178.7994000000001
 11
1737.8582000000001
 21
1215.3789859754304
  0
LINE
  8
_0-1_LAYER003
  6
CONTINUOUS
 62
    7
 10
1737.8582000000001
 20
1215.3789859754304
 11
1756.5313347851825
 21
1218.7994000000001
  0
LINE
  8
_0-1_LAYER003
  6
CONTINUOUS
 62
    7
 10
1756.5313347851825
 20
1218.7994000000001
 11
1767.8582000000001
 21
1218.7994000000001
  0
LINE
  8
_0-1_LAYER003
  6
CONTINUOUS
 62
    7
 10
1740.1136999999999
 20
1215.7920999999999
 11
1767.8582000000001
 21
1178.7994000000001
  0
LINE
  8
_0-1_LAYER003
  6
CONTINUOUS
 62
    7
 10
1737.8582000000001
 20
1204.7995000000001
 11
1743.8580999999999
 21
1201.7994000000001
  0
LINE
  8
_0-1_LAYER003
  6
CONTINUOUS
 62
    7
 10
1743.8580999999999
 20
1201.7994000000001
 11
1743.8580999999999
 21
1195.7995000000001
  0
LINE
  8
_0-1_LAYER003
  6
CONTINUOUS
 62
    7
 10
1743.8580999999999
 20
1195.7995000000001
 11
1737.8582000000001
 21
1192.7992999999999
  0
LINE
  8
_0-1_LAYER003
  6
CONTINUOUS
 62
    7
 10
1743.8580999999999
 20
1201.7994000000001
 11
1767.3775999999998
 21
1201.7994000000001
  0
LINE
  8
_0-1_LAYER003
  6
CONTINUOUS
 62
    7
 10
1767.8582000000001
 20
1195.7995000000001
 11
1743.8580999999999
 21
1195.7995000000001
  0
LINE
  8
_0-1_LAYER003
  6
CONTINUOUS
 62
    7
 10
1767.8582000000001
 20
1203.0494000000001
 11
1786.0581000000002
 21
1203.0506
  0
LINE
  8
_0-1_LAYER003
  6
CONTINUOUS
 62
    7
 10
1786.0581000000002
 20
1203.0506
 11
1795.1520999999998
 21
1204.6534999999999
  0
LINE
  8
_0-1_LAYER003
  6
CONTINUOUS
 62
    7
 10
1795.1520999999998
 20
1204.6534999999999
 11
1795.4481000000001
 21
1202.9803999999999
  0
LINE
  8
_0-1_LAYER003
  6
CONTINUOUS
 62
    7
 10
1795.4481000000001
 20
1202.9803999999999
 11
1797.1221999999998
 21
1203.2755
  0
LINE
  8
_0-1_LAYER003
  6
CONTINUOUS
 62
    7
 10
1797.1221999999998
 20
1203.2755
 11
1796.8261000000002
 21
1204.9494
  0
LINE
  8
_0-1_LAYER003
  6
CONTINUOUS
 62
    7
 10
1796.8261000000002
 20
1204.9494
 11
1799.4850999999999
 21
1205.4184
  0
LINE
  8
_0-1_LAYER003
  6
CONTINUOUS
 62
    7
 10
1799.4850999999999
 20
1205.4184
 11
1799.7811999999999
 21
1203.7445
  0
LINE
  8
_0-1_LAYER003
  6
CONTINUOUS
 62
    7
 10
1799.7811999999999
 20
1203.7445
 11
1801.4540999999999
 21
1204.0393999999999
  0
LINE
  8
_0-1_LAYER003
  6
CONTINUOUS
 62
    7
 10
1801.4540999999999
 20
1204.0393999999999
 11
1801.1592000000001
 21
1205.7135000000001
  0
LINE
  8
_0-1_LAYER003
  6
CONTINUOUS
 62
    7
 10
1801.1592000000001
 20
1205.7135000000001
 11
1803.8181
 21
1206.1814999999999
  0
LINE
  8
_0-1_LAYER003
  6
CONTINUOUS
 62
    7
 10
1803.8181
 20
1206.1814999999999
 11
1804.1140999999998
 21
1204.5084999999999
  0
LINE
  8
_0-1_LAYER003
  6
CONTINUOUS
 62
    7
 10
1804.1140999999998
 20
1204.5084999999999
 11
1805.7882
 21
1204.8034
  0
LINE
  8
_0-1_LAYER003
  6
CONTINUOUS
 62
    7
 10
1805.7882
 20
1204.8034
 11
1805.4922000000001
 21
1206.4774
  0
LINE
  8
_0-1_LAYER003
  6
CONTINUOUS
 62
    7
 10
1805.4922000000001
 20
1206.4774
 11
1806.9701
 21
1206.7374
  0
LINE
  8
_0-1_LAYER003
  6
CONTINUOUS
 62
    7
 10
1806.9701
 20
1206.7374
 11
1808.7022313622897
 21
1205.5285057996452
  0
LINE
  8
_0-1_LAYER003
  6
CONTINUOUS
 62
    7
 10
1808.7022313622897
 20
1205.5285057996452
 11
1809.1071999999999
 21
1203.2564
  0
LINE
  8
_0-1_LAYER003
  6
CONTINUOUS
 62
    7
 10
1809.1071999999999
 20
1203.2564
 11
1783.8341999999998
 21
1198.8005000000001
  0
LINE
  8
_0-1_LAYER003
  6
CONTINUOUS
 62
    7
 10
1783.8341999999998
 20
1198.8005000000001
 11
1808.9321
 21
1194.3743999999999
  0
LINE
  8
_0-1_LAYER003
  6
CONTINUOUS
 62
    7
 10
1808.9321
 20
1194.3743999999999
 11
1808.5342000000001
 21
1192.1095
  0
LINE
  8
_0-1_LAYER003
  6
CONTINUOUS
 62
    7
 10
1808.5342000000001
 20
1192.1095
 11
1806.7953000000002
 21
1190.8933999999999
  0
LINE
  8
_0-1_LAYER003
  6
CONTINUOUS
 62
    7
 10
1806.800520144423
 20
1190.8970507088575
 11
1805.3181
 21
1191.1545000000001
  0
LINE
  8
_0-1_LAYER003
  6
CONTINUOUS
 62
    7
 10
1805.3181
 20
1191.1545000000001
 11
1805.6142
 21
1192.8273999999999
  0
LINE
  8
_0-1_LAYER003
  6
CONTINUOUS
 62
    7
 10
1805.6142
 20
1192.8273999999999
 11
1803.9400727962693
 21
1193.1222461918164
  0
LINE
  8
_0-1_LAYER003
  6
CONTINUOUS
 62
    7
 10
1803.9400727962693
 20
1193.1222461918164
 11
1803.6442000000002
 21
1191.4494
  0
LINE
  8
_0-1_LAYER003
  6
CONTINUOUS
 62
    7
 10
1803.6442000000002
 20
1191.4494
 11
1800.9850999999999
 21
1191.9185
  0
LINE
  8
_0-1_LAYER003
  6
CONTINUOUS
 62
    7
 10
1800.9850999999999
 20
1191.9185
 11
1801.2802000000001
 21
1193.5915
  0
LINE
  8
_0-1_LAYER003
  6
CONTINUOUS
 62
    7
 10
1801.2802000000001
 20
1193.5915
 11
1799.6071999999999
 21
1193.8865000000001
  0
LINE
  8
_0-1_LAYER003
  6
CONTINUOUS
 62
    7
 10
1799.6071999999999
 20
1193.8865000000001
 11
1799.3112000000001
 21
1192.2134000000001
  0
LINE
  8
_0-1_LAYER003
  6
CONTINUOUS
 62
    7
 10
1799.3112000000001
 20
1192.2134000000001
 11
1796.6520999999998
 21
1192.6823999999999
  0
LINE
  8
_0-1_LAYER003
  6
CONTINUOUS
 62
    7
 10
1796.6520999999998
 20
1192.6823999999999
 11
1796.9481000000001
 21
1194.3553999999999
  0
LINE
  8
_0-1_LAYER003
  6
CONTINUOUS
 62
    7
 10
1796.9481000000001
 20
1194.3553999999999
 11
1795.2741697503145
 21
1194.6502290959181
  0
LINE
  8
_0-1_LAYER003
  6
CONTINUOUS
 62
    7
 10
1795.2741697503145
 20
1194.6502290959181
 11
1794.9780999999998
 21
1192.9775
  0
LINE
  8
_0-1_LAYER003
  6
CONTINUOUS
 62
    7
 10
1794.9780999999998
 20
1192.9775
 11
1786.0581000000002
 21
1194.5494000000001
  0
LINE
  8
_0-1_LAYER003
  6
CONTINUOUS
 62
    7
 10
1786.0581000000002
 20
1194.5494000000001
 11
1767.8582000000001
 21
1194.5494000000001
  0
LINE
  8
_0-1_LAYER003
  6
CONTINUOUS
 62
    7
 10
1258.4967999999999
 20
1079.5853999999999
 11
1298.9967999999999
 21
1079.5853999999999
  0
LINE
  8
_0-1_LAYER003
  6
CONTINUOUS
 62
    7
 10
1298.9967999999999
 20
1079.5853999999999
 11
1363.7379000000001
 21
967.45059999999989
  0
LINE
  8
_0-1_LAYER003
  6
CONTINUOUS
 62
    7
 10
1363.7379000000001
 20
967.45059999999989
 11
1361.7968000000001
 21
974.69499999999994
  0
LINE
  8
_0-1_LAYER003
  6
CONTINUOUS
 62
    7
 10
1361.7968000000001
 20
974.69499999999994
 11
1363.7379000000001
 21
967.45059999999989
  0
LINE
  8
_0-1_LAYER003
  6
CONTINUOUS
 62
    7
 10
1363.7379000000001
 20
967.45059999999989
 11
1358.4346
 21
972.75389999999993
  0
LINE
  8
_0-1_LAYER003
  6
CONTINUOUS
 62
    7
 10
1308.3968
 20
889.19340000000011
 11
1314.5523000000001
 21
875.51459999999997
  0
LINE
  8
_0-1_LAYER003
  6
CONTINUOUS
 62
    7
 10
1314.5523000000001
 20
875.51459999999997
 11
1341.9100000000001
 21
887.82549999999992
  0
LINE
  8
_0-1_LAYER003
  6
CONTINUOUS
 62
    7
 10
1341.9100000000001
 20
887.82549999999992
 11
1335.7545
 21
901.50430000000006
  0
LINE
  8
_0-1_LAYER003
  6
CONTINUOUS
 62
    7
 10
1335.7545
 20
901.50430000000006
 11
1308.3968
 21
889.19340000000011
  0
LINE
  8
_0-1_LAYER003
  6
CONTINUOUS
 62
    7
 10
1314.5523000000001
 20
875.51459999999997
 11
1335.7545
 21
901.50430000000006
  0
LINE
  8
_0-1_LAYER003
  6
CONTINUOUS
 62
    7
 10
1328.1504
 20
880.60609999999997
 11
1328.1504
 21
873.10609999999997
  0
LINE
  8
_0-1_LAYER003
  6
CONTINUOUS
 62
    7
 10
1328.1504
 20
880.60609999999997
 11
1331.7406715945037
 21
874.3875581171676
  0
LINE
  8
_0-1_LAYER003
  6
CONTINUOUS
 62
    7
 10
1328.1504
 20
880.60609999999997
 11
1419.4121
 21
540.01282000000003
  0
LINE
  8
_0-1_LAYER003
  6
CONTINUOUS
 62
    7
 10
1402.96
 20
599.97469999999998
 11
1607.7827000000002
 21
599.97469999999998
  0
LINE
  8
_0-1_LAYER003
  6
CONTINUOUS
 62
    7
 10
1151.0922
 20
606.67669999999998
 11
1767.8582000000001
 21
884.22090000000003
  0
LINE
  8
_0-1_LAYER003
  6
CONTINUOUS
 62
    7
 10
1767.8582000000001
 20
884.22090000000003
 11
1767.8582000000001
 21
715.8148000000001
  0
LINE
  8
_0-1_LAYER003
  6
CONTINUOUS
 62
    7
 10
1579.5112521948374
 20
799.46492617682281
 11
1616.2212
 21
958.54079999999999
  0
LINE
  8
_0-1_LAYER003
  6
CONTINUOUS
 62
    7
 10
1607.0587999999998
 20
954.41769999999997
 11
1570.3501999999999
 21
795.34269999999992
  0
LINE
  8
_0-1_LAYER003
  6
CONTINUOUS
 62
    7
 10
1561.1882000000001
 20
791.2197000000001
 11
1597.8980999999999
 21
950.29539999999997
  0
LINE
  8
_0-1_LAYER003
  6
CONTINUOUS
 62
    7
 10
1548.7037999999998
 20
951.2322999999999
 11
1557.8589000000002
 21
955.25530000000003
  0
LINE
  8
_0-1_LAYER003
  6
CONTINUOUS
 62
    7
 10
1557.8589000000002
 20
955.25530000000003
 11
1584.6635999999999
 21
894.25659999999993
  0
LINE
  8
_0-1_LAYER003
  6
CONTINUOUS
 62
    7
 10
1584.6635999999999
 20
894.25659999999993
 11
1602.9472000000001
 21
902.29099999999994
  0
LINE
  8
_0-1_LAYER003
  6
CONTINUOUS
 62
    7
 10
1602.9472000000001
 20
902.29099999999994
 11
1606.9703
 21
893.13599999999997
  0
LINE
  8
_0-1_LAYER003
  6
CONTINUOUS
 62
    7
 10
1606.9703
 20
893.13599999999997
 11
1579.5315000000001
 21
881.07850000000008
  0
LINE
  8
_0-1_LAYER003
  6
CONTINUOUS
 62
    7
 10
1579.5315000000001
 20
881.07850000000008
 11
1548.7037999999998
 21
951.2322999999999
  0
LINE
  8
_0-1_LAYER003
  6
CONTINUOUS
 62
    7
 10
1571.0540999999998
 20
894.44669999999996
 11
1576.3573999999999
 21
899.75
  0
LINE
  8
_0-1_LAYER003
  6
CONTINUOUS
 62
    7
 10
1576.3573999999999
 20
899.75
 11
1574.4517643260886
 21
892.63832316294884
  0
LINE
  8
_0-1_LAYER003
  6
CONTINUOUS
 62
    7
 10
1576.3573999999999
 20
899.75
 11
1554.8193000000001
 21
862.44489999999996
  0
LINE
  8
_0-1_LAYER003
  6
CONTINUOUS
 62
    7
 10
1554.8193000000001
 20
862.44489999999996
 11
1494.8193000000001
 21
862.44489999999996
  0
LINE
  8
_0-1_LAYER003
  6
CONTINUOUS
 62
    7
 10
1194.4093583396152
 20
626.16938613646312
 11
1231.1190999999999
 21
785.24450000000002
  0
LINE
  8
_0-1_LAYER003
  6
CONTINUOUS
 62
    7
 10
1240.2810999999999
 20
789.36740000000009
 11
1203.5712000000001
 21
630.29169999999999
  0
LINE
  8
_0-1_LAYER003
  6
CONTINUOUS
 62
    7
 10
1212.7321999999999
 20
634.41470000000004
 11
1249.4419
 21
793.48980000000006
  0
LINE
  8
_0-1_LAYER003
  6
CONTINUOUS
 62
    7
 10
1102.6293000000001
 20
796.59789999999998
 11
1108.7847999999999
 21
782.91910000000007
  0
LINE
  8
_0-1_LAYER003
  6
CONTINUOUS
 62
    7
 10
1108.7847999999999
 20
782.91910000000007
 11
1136.1424
 21
795.23000000000002
  0
LINE
  8
_0-1_LAYER003
  6
CONTINUOUS
 62
    7
 10
1136.1424
 20
795.23000000000002
 11
1129.9869000000001
 21
808.90879999999993
  0
LINE
  8
_0-1_LAYER003
  6
CONTINUOUS
 62
    7
 10
1129.9869000000001
 20
808.90879999999993
 11
1102.6293000000001
 21
796.59789999999998
  0
LINE
  8
_0-1_LAYER003
  6
CONTINUOUS
 62
    7
 10
1108.7847999999999
 20
782.91910000000007
 11
1129.9869000000001
 21
808.90879999999993
  0
LINE
  8
_0-1_LAYER003
  6
CONTINUOUS
 62
    7
 10
1520.3198000000002
 20
968.1099999999999
 11
1514.1527999999998
 21
981.78359999999998
  0
LINE
  8
_0-1_LAYER003
  6
CONTINUOUS
 62
    7
 10
1514.1527999999998
 20
981.78359999999998
 11
1541.5
 21
994.11760000000004
  0
LINE
  8
_0-1_LAYER003
  6
CONTINUOUS
 62
    7
 10
1541.5
 20
994.11760000000004
 11
1547.6669999999999
 21
980.44399999999996
  0
LINE
  8
_0-1_LAYER003
  6
CONTINUOUS
 62
    7
 10
1547.6669999999999
 20
980.44399999999996
 11
1520.3198000000002
 21
968.1099999999999
  0
LINE
  8
_0-1_LAYER003
  6
CONTINUOUS
 62
    7
 10
1520.3198000000002
 20
968.1099999999999
 11
1541.5
 21
994.11760000000004
  0
LINE
  8
_0-1_LAYER003
  6
CONTINUOUS
 62
    7
 10
1641.4212159441709
 20
987.38984049376882
 11
1643.3622999999998
 21
980.14540000000011
  0
LINE
  8
_0-1_LAYER003
  6
CONTINUOUS
 62
    7
 10
1641.4212000000002
 20
987.3898999999999
 11
1646.7244999999998
 21
982.08660000000009
  0
LINE
  8
_0-1_LAYER003
  6
CONTINUOUS
 62
    7
 10
1641.4212000000002
 20
987.3898999999999
 11
1668.3040000000001
 21
940.8273999999999
  0
LINE
  8
_0-1_LAYER003
  6
CONTINUOUS
 62
    7
 10
1668.3040000000001
 20
940.8273999999999
 11
1728.3040000000001
 21
940.8273999999999
  0
LINE
  8
_0-1_LAYER003
  6
CONTINUOUS
 62
    7
 10
1719.8418999999999
 20
1074.3439000000001
 11
1725.9974000000002
 21
1060.665
  0
LINE
  8
_0-1_LAYER003
  6
CONTINUOUS
 62
    7
 10
1725.9974000000002
 20
1060.665
 11
1753.355
 21
1072.9760000000001
  0
LINE
  8
_0-1_LAYER003
  6
CONTINUOUS
 62
    7
 10
1753.355
 20
1072.9760000000001
 11
1747.1995000000002
 21
1086.6548
  0
LINE
  8
_0-1_LAYER003
  6
CONTINUOUS
 62
    7
 10
1747.1995000000002
 20
1086.6548
 11
1719.8418999999999
 21
1074.3439000000001
  0
LINE
  8
_0-1_LAYER003
  6
CONTINUOUS
 62
    7
 10
1747.1995000000002
 20
1086.6548
 11
1725.9974000000002
 21
1060.665
  0
LINE
  8
_0-1_LAYER003
  6
CONTINUOUS
 62
    7
 10
1740.0761418510845
 20
1124.8075694075849
 11
1741.7919000000002
 21
1118.4045000000001
  0
LINE
  8
_0-1_LAYER003
  6
CONTINUOUS
 62
    7
 10
1740.0761418510845
 20
1124.8075694075849
 11
1745.154
 21
1120.3456000000001
  0
LINE
  8
_0-1_LAYER003
  6
CONTINUOUS
 62
    7
 10
1740.6044832823559
 20
1124.3433100222383
 11
1833.0682999999999
 21
964.19139999999993
  0
LINE
  8
_0-1_LAYER003
  6
CONTINUOUS
 62
    7
 10
1833.0682999999999
 20
964.19139999999993
 11
1911.6147000000001
 21
964.19139999999993
  0
ARC
  8
_0-1_LAYER003
  6
CONTINUOUS
 62
    7
 10
1659.5265092721377
 20
1163.9029283432351
 40
5.409381727411823
 50
300.10646089283745
 51
46.665524948183517
  0
ARC
  8
_0-1_LAYER003
  6
CONTINUOUS
 62
    7
 10
1426.1948540260983
 20
1084.0401112019467
 40
243.09515336716498
 50
358.42532697039189
 51
12.909156382218043
  0
LINE
  8
_0-1_LAYER003
  6
CONTINUOUS
 62
    7
 10
1660.7979999999998
 20
1216.5132000000001
 11
1663.5007000000001
 21
1201.7587000000001
  0
LINE
  8
_0-1_LAYER003
  6
CONTINUOUS
 62
    7
 10
1663.5007000000001
 20
1201.7587000000001
 11
1766.7822999999999
 21
1220.6771000000001
  0
LINE
  8
_0-1_LAYER003
  6
CONTINUOUS
 62
    7
 10
1766.7822999999999
 20
1220.6771000000001
 11
1764.0796999999998
 21
1235.4315999999999
  0
LINE
  8
_0-1_LAYER003
  6
CONTINUOUS
 62
    7
 10
1764.0796999999998
 20
1235.4315999999999
 11
1663.5007000000001
 21
1201.7587000000001
  0
LINE
  8
_0-1_LAYER003
  6
CONTINUOUS
 62
    7
 10
1663.5007000000001
 20
1201.7587000000001
 11
1660.7979999999998
 21
1216.5132000000001
  0
LINE
  8
_0-1_LAYER003
  6
CONTINUOUS
 62
    7
 10
1660.7979999999998
 20
1216.5132000000001
 11
1764.0796999999998
 21
1235.4315999999999
  0
LINE
  8
_0-1_LAYER003
  6
CONTINUOUS
 62
    7
 10
1735.3681999999999
 20
1228.5941
 11
1743.4389000000001
 21
1232.3567
  0
LINE
  8
_0-1_LAYER003
  6
CONTINUOUS
 62
    7
 10
1743.4389000000001
 20
1232.3567
 11
1741.7564000000002
 21
1229.8122000000001
  0
LINE
  8
_0-1_LAYER003
  6
CONTINUOUS
 62
    7
 10
1741.7564000000002
 20
1229.8122000000001
 11
1753.1671000000001
 21
1205.3394000000001
  0
LINE
  8
_0-1_LAYER003
  6
CONTINUOUS
 62
    7
 10
1753.1671000000001
 20
1205.3394000000001
 11
1755.2642000000001
 21
1196.7052000000001
  0
LINE
  8
_0-1_LAYER003
  6
CONTINUOUS
 62
    7
 10
1755.2642000000001
 20
1196.7052000000001
 11
1749.8078999999998
 21
1203.7731000000001
  0
LINE
  8
_0-1_LAYER003
  6
CONTINUOUS
 62
    7
 10
1749.8078999999998
 20
1203.7731000000001
 11
1738.3969999999999
 21
1228.2473
  0
LINE
  8
_0-1_LAYER003
  6
CONTINUOUS
 62
    7
 10
1738.3969999999999
 20
1228.2473
 11
1735.3681999999999
 21
1228.5941
  0
LINE
  8
_0-0_LAYER001
  6
CONTINUOUS
 62
    7
 10
1609.1289000000002
 20
1455.2213999999999
 11
1583.8652838327853
 21
1455.2213999999999
  0
LINE
  8
_0-0_LAYER001
  6
CONTINUOUS
 62
    7
 10
1378.9695999999999
 20
1386.1564000000001
 11
1269.4663089382534
 21
1386.1564000000001
  0
LINE
  8
_0-0_LAYER001
  6
CONTINUOUS
 62
    7
 10
1258.4967999999999
 20
1079.5853999999999
 11
1235.6599675517443
 21
1079.5853999999999
  0
LINE
  8
_0-0_LAYER001
  6
CONTINUOUS
 62
    7
 10
1494.8193000000001
 20
862.44489999999996
 11
1453.7108694947265
 21
862.44489999999996
  0
LINE
  8
_0-0_LAYER001
  6
CONTINUOUS
 62
    7
 10
1728.3040000000001
 20
940.8273999999999
 11
1764.7292102506074
 21
940.8273999999999
  0
TEXT
  8
_0-2_LAYER004
 62
    7
 10
1674.6733125123453
 20
1416.5949809796375
 40
20
 41
1
 50
0
  1
90
  0
TEXT
  8
_0-2_LAYER004
 62
    7
 10
1843.7050194448893
 20
1269.5373959483243
 40
20
 41
1
 50
90
  1
100
  0
TEXT
  8
_0-2_LAYER004
 62
    7
 10
1835.253434098262
 20
1335.4597616520164
 40
20
 41
1
 50
90
  1
20
  0
TEXT
  8
_0-2_LAYER004
 62
    7
 10
1880.8919949700489
 20
1205.3053473139576
 40
20
 41
1
 50
90
  1
水切り立上がり寸法
  0
TEXT
  8
_0-2_LAYER004
 62
    7
 10
1975.5497508522737
 20
1203.6150302446322
 40
20
 41
1
 50
90
  1
250
  0
TEXT
  8
_0-2_LAYER004
 62
    7
 10
2009.3560922387826
 20
1081.9122012532002
 40
20
 41
1
 50
90
  1
下葺き材立上がり寸法
  0
TEXT
  8
_0-2_LAYER004
 62
    7
 10
1835.253434098262
 20
968.66095760839585
 40
20
 41
1
 50
0
  1
葺き土
  0
TEXT
  8
_0-2_LAYER004
 62
    7
 10
1084.7526553177661
 20
1048.1058598666916
 40
20
 41
1
 50
20.060506999999614
  1
255
  0
TEXT
  8
_0-2_LAYER004
 62
    7
 10
1289.2810207061443
 20
1161.357103511496
 40
20
 41
1
 50
20.060506999999692
  1
225
  0
TEXT
  8
_0-2_LAYER004
 62
    7
 10
1495.4997031638484
 20
1267.8470788789989
 40
20
 41
1
 50
20.060506999999486
  1
295
  0
TEXT
  8
_0-2_LAYER004
 62
    7
 10
1448.1708252227361
 20
1350.6726152759456
 40
20
 41
1
 50
0
  1
笠木：15x105
  0
TEXT
  8
_0-2_LAYER004
 62
    7
 10
1280.8294353595174
 20
1394.620859078407
 40
20
 41
1
 50
0
  1
雨押水切カラー鋼板0.35ｍｍ以上
  0
TEXT
  8
_0-2_LAYER004
 62
    7
 10
1240.2618256957069
 20
1086.9831524611768
 40
20
 41
1
 50
0
  1
桟　瓦
  0
TEXT
  8
_0-2_LAYER004
 62
    7
 10
1463.3836788466649
 20
870.62256758752028
 40
20
 41
1
 50
0
  1
アンカー
  0
TEXT
  8
_0-2_LAYER004
 62
    7
 10
1672.9829954430197
 20
941.61588449918884
 40
20
 41
1
 50
0
  1
溶接金網
  0
TEXT
  8
_0-2_LAYER004
 62
    7
 10
1811.5889951277059
 20
1119.0991767783601
 40
20
 41
1
 50
0
  1
下地：40x30
  0
TEXT
  8
_0-2_LAYER004
 62
    7
 10
1410.9838496975763
 20
612.0040559807278
 40
20
 41
1
 50
0
  1
瓦桟：15x30以上
  0
TEXT
  8
_0-2_LAYER004
 62
    7
 10
1421.125752113529
 20
1310.1050056121348
 40
20
 41
1
 50
0
  1
熨斗瓦２段積み
  0
TEXT
  8
_0-2_LAYER004
 62
    7
 10
1583.3961907687715
 20
1460.5432247820991
 40
20
 41
1
 50
0
  1
シーリング
  0
TEXT
  8
_0-2_LAYER004
 62
    7
 10
1419.4354350442036
 20
544.3913732077101
 40
20
 41
1
 50
0
  1
パーライト系モルタルｔ＝40
  0
TEXT
  8
_0-2_LAYER004
 62
    7
 10
1419.4354350442036
 20
576.50739752489346
 40
20
 41
1
 50
0
  1
下葺材：ルーフィング
  0
LINE
  8
_0-2_LAYER004
  6
CONTINUOUS
 62
    7
 10
1411.8977823622024
 20
569.79654073200243
 11
1652.4258579982345
 21
569.79654073200243
  0
LINE
  8
_0-2_LAYER004
  6
CONTINUOUS
 62
    7
 10
1419.4121
 20
540.01282000000003
 11
1717.9475657725491
 21
540.01282000000003
  0
ENDSEC
  0
EOF
