  0
SECTION
  2
HEADER
  9
$ACADVER
  1
AC1009
  9
$INSBASE
 10
0
 20
0
 30
0
  9
$EXTMIN
 10
0
 20
0
  9
$EXTMAX
 10
2970
 20
2100
  9
$LIMMIN
 10
0
 20
0
  9
$LIMMAX
 10
2970
 20
2100
  9
$LTSCALE
 40
10
  0
ENDSEC
  0
SECTION
  2
TABLES
  0
TABLE
  2
LTYPE
 70
     9
  0
LTYPE
  2
CONTINUOUS
 70
    64
  3
実線
 72
    65
 73
     0
 40
0.0
  0
LTYPE
  2
DASHED1
 70
    64
  3
--  --  --  --  --  --  --  --  
 72
    65
 73
     2
 40
2.5
 49
1.25
 49
-1.25
  0
LTYPE
  2
DASHED2
 70
    64
  3
----    ----    ----    ----    
 72
    65
 73
     2
 40
5.0
 49
2.5
 49
-2.5
  0
LTYPE
  2
DASHED3
 70
    64
  3
------  ------  ------  ------  
 72
    65
 73
     2
 40
5.0
 49
3.75
 49
-1.25
  0
LTYPE
  2
CENTER1
 70
    64
  3
----- - ----- - ----- - ----- - 
 72
    65
 73
     4
 40
10.0
 49
6.25
 49
-1.25
 49
1.25
 49
-1.25
  0
LTYPE
  2
CENTER2
 70
    64
  3
----------  --  ----------  --  
 72
    65
 73
     4
 40
20.0
 49
12.5
 49
-2.5
 49
2.5
 49
-2.5
  0
LTYPE
  2
PHANTOM1
 70
    64
  3
--- - - --- - - --- - - --- - - 
 72
    65
 73
     6
 40
10.0
 49
3.25
 49
-1.25
 49
1.25
 49
-1.25
 49
1.25
 49
-1.25
  0
LTYPE
  2
PHANTOM2
 70
    64
  3
--------  -  -  --------  -  -  
 72
    65
 73
     6
 40
20.0
 49
10.0
 49
-2.5
 49
1.25
 49
-2.5
 49
1.25
 49
-2.5
  0
LTYPE
  2
DOT
 70
    64
  3
-   -   -   -   -   -   -   -   
 72
    65
 73
     2
 40
2.5
 49
0.625
 49
-1.875
  0
LTYPE
  2
DUMMY
 70
    64
  3
ダミー
 72
    65
 73
     0
 40
0.0
  0
LTYPE
  2
RAND1
 70
    64
  3
ランダム線1
 72
    65
 73
     4
 40
10.0
 49
1.0
 49
-2.0
 49
3.0
 49
-4.0
  0
LTYPE
  2
RAND2
 70
    64
  3
ランダム線2
 72
    65
 73
     4
 40
14.0
 49
2.0
 49
-3.0
 49
4.0
 49
-5.0
  0
LTYPE
  2
RAND3
 70
    64
  3
ランダム線3
 72
    65
 73
     4
 40
18.0
 49
3.0
 49
-4.0
 49
5.0
 49
-6.0
  0
LTYPE
  2
RAND4
 70
    64
  3
ランダム線4
 72
    65
 73
     4
 40
22.0
 49
4.0
 49
-5.0
 49
6.0
 49
-7.0
  0
LTYPE
  2
RAND5
 70
    64
  3
ランダム線5
 72
    65
 73
     4
 40
26.0
 49
5.0
 49
-6.0
 49
7.0
 49
-8.0
  0
LTYPE
  2
LONG1
 70
    64
  3
----------  --  ----------  --  
 72
    65
 73
     4
 40
40.0
 49
32.5
 49
-2.5
 49
2.5
 49
-2.5
  0
LTYPE
  2
LONG2
 70
    64
  3
--------  -  -  --------  -  -  
 72
    65
 73
     6
 40
40.0
 49
30.0
 49
-2.5
 49
1.25
 49
-2.5
 49
1.25
 49
-2.5
  0
LTYPE
  2
LONG3
 70
    64
  3
+++++++++++++++..+++++++++++++++
 72
    65
 73
     2
 40
40.0
 49
37.5
 49
-2.5
  0
LTYPE
  2
LONG4
 70
    64
  3
+++++++++++++++..+++++++++++++++
 72
    65
 73
     2
 40
80.0
 49
75.0
 49
-5.0
  0
LTYPE
  2
LONG5
 70
    64
  3
----------  --  ----------  --  
 72
    65
 73
     4
 40
60.0
 49
37.5
 49
-7.5
 49
7.5
 49
-7.5
  0
LTYPE
  2
dashed
 70
   64
  3
-------   -------------   ------
 72
   65
 73
    2
 40
7.5
 49
6
 49
-1.5
  0
LTYPE
  2
dashed_spaced
 70
   64
  3
----        --------        ----
 72
   65
 73
    2
 40
12
 49
6
 49
-6
  0
LTYPE
  2
long_dashed_dotted
 70
   64
  3
------------- --- --------------
 72
   65
 73
    4
 40
15.25
 49
12
 49
-1.5
 49
0.25
 49
-1.5
  0
LTYPE
  2
long_dashed_double-dotted
 70
   64
  3
----------- --- --- ------------
 72
   65
 73
    6
 40
17
 49
12
 49
-1.5
 49
0.25
 49
-1.5
 49
0.25
 49
-1.5
  0
LTYPE
  2
long_dashed_triplicate-dotted
 70
   64
  3
--------- --- --- --- ----------
 72
   65
 73
    8
 40
18.75
 49
12
 49
-1.5
 49
0.25
 49
-1.5
 49
0.25
 49
-1.5
 49
0.25
 49
-1.5
  0
LTYPE
  2
dotted
 70
   64
  3
   -       -       -       -    
 72
   65
 73
    2
 40
1.75
 49
0.25
 49
-1.5
  0
LTYPE
  2
chain
 70
   64
  3
-------------- -- --------------
 72
   65
 73
    4
 40
18.5
 49
12
 49
-1.5
 49
3.5
 49
-1.5
  0
LTYPE
  2
chain_double_dash
 70
   64
  3
------------ -- -- -------------
 72
   65
 73
    6
 40
23.5
 49
12
 49
-1.5
 49
3.5
 49
-1.5
 49
3.5
 49
-1.5
  0
LTYPE
  2
dashed_dotted
 70
   64
  3
-----------     -     ----------
 72
   65
 73
    4
 40
9.25
 49
6
 49
-1.5
 49
0.25
 49
-1.5
  0
LTYPE
  2
double-dashed_dotted
 70
   64
  3
------   -----------   -   -----
 72
   65
 73
    6
 40
16.75
 49
6
 49
-1.5
 49
6
 49
-1.5
 49
0.25
 49
-1.5
  0
LTYPE
  2
dashed_double-dotted
 70
   64
  3
---------    -    -    ---------
 72
   65
 73
    6
 40
11
 49
6
 49
-1.5
 49
0.25
 49
-1.5
 49
0.25
 49
-1.5
  0
LTYPE
  2
double-dashed_double-dotted
 70
   64
  3
-----   ---------   -   -   ----
 72
   65
 73
    8
 40
18.5
 49
6
 49
-1.5
 49
6
 49
-1.5
 49
0.25
 49
-1.5
 49
0.25
 49
-1.5
  0
LTYPE
  2
dashed_triplicate-dotted
 70
   64
  3
-------    -    -    -    ------
 72
   65
 73
    8
 40
12.75
 49
6
 49
-1.5
 49
0.25
 49
-1.5
 49
0.25
 49
-1.5
 49
0.25
 49
-1.5
  0
LTYPE
  2
double-dashed_triplicate-dotted
 70
   64
  3
-----  ---------  -  -  -  -----
 72
   65
 73
   10
 40
20.25
 49
6
 49
-1.5
 49
6
 49
-1.5
 49
0.25
 49
-1.5
 49
0.25
 49
-1.5
 49
0.25
 49
-1.5
  0
LTYPE
  2
undefined
 70
   64
  3
--------------------------------
 72
   65
 73
    0
 40
0
  0
ENDTAB
  0
TABLE
  2
STYLE
  5
3
100
AcDbSymbolTable
 70
     1
  0
STYLE
  5
10
100
AcDbSymbolTableRecord
100
AcDbTextStyleTableRecord
  2
STANDARD
 70
     0
 40
0.0
 41
1.0
 50
0.0
 71
     0
 42
0.2
  3
txt
  4
bigfont.shx
  0
STYLE
  5
26
100
AcDbSymbolTableRecord
100
AcDbTextStyleTableRecord
  2
TATEGAKI
 70
    68
 40
0.0
 41
1.0
 50
0.0
 71
     0
 42
1.0
  3
txt
  4
bigfont.shx
  0
ENDTAB
  0
TABLE
  2
LAYER
 70
    7
  0
LAYER
  2
_0-0_LAYER001
 70
   64
 62
    7
  6
CONTINUOUS
  0
LAYER
  2
_0-1_LAYER003
 70
   64
 62
    7
  6
CONTINUOUS
  0
LAYER
  2
_0-2_LAYER004
 70
   64
 62
    7
  6
CONTINUOUS
  0
LAYER
  2
_0-3_LAYER005
 70
   64
 62
    7
  6
CONTINUOUS
  0
LAYER
  2
_0-4_LAYER006
 70
   64
 62
    7
  6
CONTINUOUS
  0
LAYER
  2
_0-5_LAYER007
 70
   64
 62
    7
  6
CONTINUOUS
  0
LAYER
  2
ADD_LINE
 70
   64
 62
    7
  6
CONTINUOUS
  0
ENDTAB
  0
ENDSEC
  0
SECTION
  2
BLOCKS
  0
ENDSEC
  0
SECTION
  2
ENTITIES
  0
LINE
  8
_0-0_LAYER001
  6
CONTINUOUS
 62
    2
 10
1861.9549000000002
 20
973.58909999999992
 11
833.03490000000011
 21
973.58909999999992
  0
LINE
  8
_0-1_LAYER003
  6
CONTINUOUS
 62
    2
 10
1451.2975999999999
 20
1058.6931
 11
1453.2388000000001
 21
1051.4486999999999
  0
LINE
  8
_0-1_LAYER003
  6
CONTINUOUS
 62
    2
 10
1453.2388000000001
 20
1051.4486999999999
 11
1447.9355
 21
1056.752
  0
LINE
  8
_0-1_LAYER003
  6
CONTINUOUS
 62
    2
 10
1453.2388000000001
 20
1051.4486999999999
 11
1389.4487999999999
 21
1161.9362000000001
  0
LINE
  8
_0-1_LAYER003
  6
CONTINUOUS
 62
    2
 10
1389.4487999999999
 20
1161.9362000000001
 11
1348.9488000000001
 21
1161.9362000000001
  0
LINE
  8
_0-0_LAYER001
  6
CONTINUOUS
 62
    1
 10
1853.6950000000002
 20
973.58909999999992
 11
1861.9549000000002
 21
981.84889999999996
  0
LINE
  8
_0-0_LAYER001
  6
CONTINUOUS
 62
    1
 10
1839.5529000000001
 20
973.58909999999992
 11
1861.9549000000002
 21
995.99099999999999
  0
LINE
  8
_0-0_LAYER001
  6
CONTINUOUS
 62
    1
 10
1825.4108000000001
 20
973.58909999999992
 11
1861.9549000000002
 21
1010.1332
  0
LINE
  8
_0-0_LAYER001
  6
CONTINUOUS
 62
    1
 10
1811.2685999999999
 20
973.58909999999992
 11
1851.2685999999999
 21
1013.5890999999999
  0
LINE
  8
_0-0_LAYER001
  6
CONTINUOUS
 62
    1
 10
1797.1264999999999
 20
973.58909999999992
 11
1837.1264999999999
 21
1013.5890999999999
  0
LINE
  8
_0-0_LAYER001
  6
CONTINUOUS
 62
    1
 10
1782.9843999999998
 20
973.58909999999992
 11
1822.9843999999998
 21
1013.5890999999999
  0
LINE
  8
_0-0_LAYER001
  6
CONTINUOUS
 62
    1
 10
1768.8422
 20
973.58909999999992
 11
1808.8422
 21
1013.5890999999999
  0
LINE
  8
_0-0_LAYER001
  6
CONTINUOUS
 62
    1
 10
1754.7001
 20
973.58909999999992
 11
1794.7001
 21
1013.5890999999999
  0
LINE
  8
_0-0_LAYER001
  6
CONTINUOUS
 62
    1
 10
1740.558
 20
973.58909999999992
 11
1780.558
 21
1013.5890999999999
  0
LINE
  8
_0-0_LAYER001
  6
CONTINUOUS
 62
    1
 10
1726.4158000000002
 20
973.58909999999992
 11
1766.4158000000002
 21
1013.5890999999999
  0
LINE
  8
_0-0_LAYER001
  6
CONTINUOUS
 62
    1
 10
1712.2737000000002
 20
973.58909999999992
 11
1752.2737000000002
 21
1013.5890999999999
  0
LINE
  8
_0-0_LAYER001
  6
CONTINUOUS
 62
    1
 10
1698.1315
 20
973.58909999999992
 11
1738.1315
 21
1013.5890999999999
  0
LINE
  8
_0-0_LAYER001
  6
CONTINUOUS
 62
    1
 10
1683.9893999999999
 20
973.58909999999992
 11
1723.9893999999999
 21
1013.5890999999999
  0
LINE
  8
_0-0_LAYER001
  6
CONTINUOUS
 62
    1
 10
1669.8472999999999
 20
973.58909999999992
 11
1709.8472999999999
 21
1013.5890999999999
  0
LINE
  8
_0-0_LAYER001
  6
CONTINUOUS
 62
    1
 10
1655.7051000000001
 20
973.58909999999992
 11
1695.7051000000001
 21
1013.5890999999999
  0
LINE
  8
_0-0_LAYER001
  6
CONTINUOUS
 62
    1
 10
1641.5630000000001
 20
973.58909999999992
 11
1681.5630000000001
 21
1013.5890999999999
  0
LINE
  8
_0-0_LAYER001
  6
CONTINUOUS
 62
    1
 10
1627.4209000000001
 20
973.58909999999992
 11
1667.4209000000001
 21
1013.5890999999999
  0
LINE
  8
_0-0_LAYER001
  6
CONTINUOUS
 62
    1
 10
1613.2786999999998
 20
973.58909999999992
 11
1653.2786999999998
 21
1013.5890999999999
  0
LINE
  8
_0-0_LAYER001
  6
CONTINUOUS
 62
    1
 10
1599.1365999999998
 20
973.58909999999992
 11
1639.1365999999998
 21
1013.5890999999999
  0
LINE
  8
_0-0_LAYER001
  6
CONTINUOUS
 62
    1
 10
1584.9944999999998
 20
973.58909999999992
 11
1624.9944999999998
 21
1013.5890999999999
  0
LINE
  8
_0-0_LAYER001
  6
CONTINUOUS
 62
    1
 10
1570.8523
 20
973.58909999999992
 11
1610.8523
 21
1013.5890999999999
  0
LINE
  8
_0-0_LAYER001
  6
CONTINUOUS
 62
    1
 10
1556.7102
 20
973.58909999999992
 11
1596.7102
 21
1013.5890999999999
  0
LINE
  8
_0-0_LAYER001
  6
CONTINUOUS
 62
    1
 10
1542.5681
 20
973.58909999999992
 11
1582.5681
 21
1013.5890999999999
  0
LINE
  8
_0-0_LAYER001
  6
CONTINUOUS
 62
    1
 10
1528.4259000000002
 20
973.58909999999992
 11
1568.4259000000002
 21
1013.5890999999999
  0
LINE
  8
_0-0_LAYER001
  6
CONTINUOUS
 62
    1
 10
1514.2838000000002
 20
973.58909999999992
 11
1554.2838000000002
 21
1013.5890999999999
  0
LINE
  8
_0-0_LAYER001
  6
CONTINUOUS
 62
    1
 10
1500.1415999999999
 20
973.58909999999992
 11
1540.1415999999999
 21
1013.5890999999999
  0
LINE
  8
_0-0_LAYER001
  6
CONTINUOUS
 62
    1
 10
1485.9994999999999
 20
973.58909999999992
 11
1525.9994999999999
 21
1013.5890999999999
  0
LINE
  8
_0-0_LAYER001
  6
CONTINUOUS
 62
    1
 10
1471.8573999999999
 20
973.58909999999992
 11
1511.8573999999999
 21
1013.5890999999999
  0
LINE
  8
_0-0_LAYER001
  6
CONTINUOUS
 62
    1
 10
1457.7152000000001
 20
973.58909999999992
 11
1497.7152000000001
 21
1013.5890999999999
  0
LINE
  8
_0-0_LAYER001
  6
CONTINUOUS
 62
    1
 10
1443.5731000000001
 20
973.58909999999992
 11
1483.5731000000001
 21
1013.5890999999999
  0
LINE
  8
_0-0_LAYER001
  6
CONTINUOUS
 62
    1
 10
1429.431
 20
973.58909999999992
 11
1469.431
 21
1013.5890999999999
  0
LINE
  8
_0-0_LAYER001
  6
CONTINUOUS
 62
    1
 10
1415.2888000000003
 20
973.58909999999992
 11
1455.2887999999998
 21
1013.5890999999999
  0
LINE
  8
_0-0_LAYER001
  6
CONTINUOUS
 62
    1
 10
1401.1466999999998
 20
973.58909999999992
 11
1441.1466999999998
 21
1013.5890999999999
  0
LINE
  8
_0-0_LAYER001
  6
CONTINUOUS
 62
    1
 10
1387.0046
 20
973.58909999999992
 11
1427.0046
 21
1013.5890999999999
  0
LINE
  8
_0-0_LAYER001
  6
CONTINUOUS
 62
    1
 10
1372.8624
 20
973.58909999999992
 11
1412.8624
 21
1013.5890999999999
  0
LINE
  8
_0-0_LAYER001
  6
CONTINUOUS
 62
    1
 10
1358.7203
 20
973.58909999999992
 11
1398.7203
 21
1013.5890999999999
  0
LINE
  8
_0-0_LAYER001
  6
CONTINUOUS
 62
    1
 10
1344.5781999999999
 20
973.58909999999992
 11
1384.5781999999999
 21
1013.5890999999999
  0
LINE
  8
_0-0_LAYER001
  6
CONTINUOUS
 62
    1
 10
1330.4359999999999
 20
973.58909999999992
 11
1370.4359999999999
 21
1013.5890999999999
  0
LINE
  8
_0-0_LAYER001
  6
CONTINUOUS
 62
    1
 10
1316.2939000000001
 20
973.58909999999992
 11
1356.2939000000001
 21
1013.5890999999999
  0
LINE
  8
_0-0_LAYER001
  6
CONTINUOUS
 62
    1
 10
1302.1516999999999
 20
973.58909999999992
 11
1342.1516999999999
 21
1013.5890999999999
  0
LINE
  8
_0-0_LAYER001
  6
CONTINUOUS
 62
    1
 10
1288.0096000000001
 20
973.58909999999992
 11
1328.0096000000001
 21
1013.5890999999999
  0
LINE
  8
_0-0_LAYER001
  6
CONTINUOUS
 62
    1
 10
1273.8675000000001
 20
973.58909999999992
 11
1313.8675000000001
 21
1013.5890999999999
  0
LINE
  8
_0-0_LAYER001
  6
CONTINUOUS
 62
    1
 10
1259.7253000000001
 20
973.58909999999992
 11
1299.7253000000001
 21
1013.5890999999999
  0
LINE
  8
_0-0_LAYER001
  6
CONTINUOUS
 62
    1
 10
1245.5832
 20
973.58909999999992
 11
1285.5832
 21
1013.5890999999999
  0
LINE
  8
_0-0_LAYER001
  6
CONTINUOUS
 62
    1
 10
1231.4411
 20
973.58909999999992
 11
1271.4411
 21
1013.5890999999999
  0
LINE
  8
_0-0_LAYER001
  6
CONTINUOUS
 62
    1
 10
1217.2989
 20
973.58909999999992
 11
1257.2989
 21
1013.5890999999999
  0
LINE
  8
_0-0_LAYER001
  6
CONTINUOUS
 62
    1
 10
1203.1568
 20
973.58909999999992
 11
1243.1568
 21
1013.5890999999999
  0
LINE
  8
_0-0_LAYER001
  6
CONTINUOUS
 62
    1
 10
1189.0146999999999
 20
973.58909999999992
 11
1229.0146999999999
 21
1013.5890999999999
  0
LINE
  8
_0-0_LAYER001
  6
CONTINUOUS
 62
    1
 10
1174.8724999999999
 20
973.58909999999992
 11
1214.8724999999999
 21
1013.5890999999999
  0
LINE
  8
_0-0_LAYER001
  6
CONTINUOUS
 62
    1
 10
1160.7303999999999
 20
973.58909999999992
 11
1200.7303999999999
 21
1013.5890999999999
  0
LINE
  8
_0-0_LAYER001
  6
CONTINUOUS
 62
    1
 10
1146.5882999999999
 20
973.58909999999992
 11
1186.5882999999999
 21
1013.5890999999999
  0
LINE
  8
_0-0_LAYER001
  6
CONTINUOUS
 62
    1
 10
1132.4460999999999
 20
973.58909999999992
 11
1172.4460999999999
 21
1013.5890999999999
  0
LINE
  8
_0-0_LAYER001
  6
CONTINUOUS
 62
    1
 10
1118.3040000000001
 20
973.58909999999992
 11
1158.3040000000001
 21
1013.5890999999999
  0
LINE
  8
_0-0_LAYER001
  6
CONTINUOUS
 62
    1
 10
1104.1618000000001
 20
973.58909999999992
 11
1144.1618000000001
 21
1013.5890999999999
  0
LINE
  8
_0-0_LAYER001
  6
CONTINUOUS
 62
    1
 10
1090.0197000000001
 20
973.58909999999992
 11
1130.0197000000001
 21
1013.5890999999999
  0
LINE
  8
_0-0_LAYER001
  6
CONTINUOUS
 62
    1
 10
1075.8776
 20
973.58909999999992
 11
1115.8776
 21
1013.5890999999999
  0
LINE
  8
_0-0_LAYER001
  6
CONTINUOUS
 62
    1
 10
1061.7354
 20
973.58909999999992
 11
1101.7354
 21
1013.5890999999999
  0
LINE
  8
_0-0_LAYER001
  6
CONTINUOUS
 62
    1
 10
1047.5933
 20
973.58909999999992
 11
1087.5933
 21
1013.5890999999999
  0
LINE
  8
_0-0_LAYER001
  6
CONTINUOUS
 62
    1
 10
1033.4512
 20
973.58909999999992
 11
1073.4512
 21
1013.5890999999999
  0
LINE
  8
_0-0_LAYER001
  6
CONTINUOUS
 62
    1
 10
1019.309
 20
973.58909999999992
 11
1059.309
 21
1013.5890999999999
  0
LINE
  8
_0-0_LAYER001
  6
CONTINUOUS
 62
    1
 10
1005.1668999999999
 20
973.58909999999992
 11
1045.1668999999999
 21
1013.5890999999999
  0
LINE
  8
_0-0_LAYER001
  6
CONTINUOUS
 62
    1
 10
991.02479999999991
 20
973.58909999999992
 11
1031.0247999999999
 21
1013.5890999999999
  0
LINE
  8
_0-0_LAYER001
  6
CONTINUOUS
 62
    1
 10
976.88259999999991
 20
973.58909999999992
 11
1016.8825999999999
 21
1013.5890999999999
  0
LINE
  8
_0-0_LAYER001
  6
CONTINUOUS
 62
    1
 10
962.74050000000011
 20
973.58909999999992
 11
1002.7405000000001
 21
1013.5890999999999
  0
LINE
  8
_0-0_LAYER001
  6
CONTINUOUS
 62
    1
 10
948.59840000000008
 20
973.58909999999992
 11
988.59840000000008
 21
1013.5890999999999
  0
LINE
  8
_0-0_LAYER001
  6
CONTINUOUS
 62
    1
 10
934.45620000000008
 20
973.58909999999992
 11
974.45620000000008
 21
1013.5890999999999
  0
LINE
  8
_0-0_LAYER001
  6
CONTINUOUS
 62
    1
 10
920.31410000000005
 20
973.58909999999992
 11
960.31410000000005
 21
1013.5890999999999
  0
LINE
  8
_0-0_LAYER001
  6
CONTINUOUS
 62
    1
 10
906.17190000000005
 20
973.58909999999992
 11
946.17190000000005
 21
1013.5890999999999
  0
LINE
  8
_0-0_LAYER001
  6
CONTINUOUS
 62
    1
 10
892.02980000000002
 20
973.58909999999992
 11
932.02980000000002
 21
1013.5890999999999
  0
LINE
  8
_0-0_LAYER001
  6
CONTINUOUS
 62
    1
 10
877.8877
 20
973.58909999999992
 11
917.8877
 21
1013.5890999999999
  0
LINE
  8
_0-0_LAYER001
  6
CONTINUOUS
 62
    1
 10
863.74549999999999
 20
973.58909999999992
 11
903.74549999999999
 21
1013.5890999999999
  0
LINE
  8
_0-0_LAYER001
  6
CONTINUOUS
 62
    1
 10
849.60339999999997
 20
973.58909999999992
 11
889.60339999999997
 21
1013.5890999999999
  0
LINE
  8
_0-0_LAYER001
  6
CONTINUOUS
 62
    1
 10
835.46129999999994
 20
973.58909999999992
 11
875.46129999999994
 21
1013.5890999999999
  0
LINE
  8
_0-0_LAYER001
  6
CONTINUOUS
 62
    1
 10
833.03490000000011
 20
985.30479999999989
 11
861.31909999999993
 21
1013.5890999999999
  0
LINE
  8
_0-0_LAYER001
  6
CONTINUOUS
 62
    1
 10
833.03490000000011
 20
999.44689999999991
 11
847.17699999999991
 21
1013.5890999999999
  0
LINE
  8
_0-0_LAYER001
  6
CONTINUOUS
 62
    1
 10
833.03490000000011
 20
985.30479999999989
 11
844.75060000000008
 21
973.58909999999992
  0
LINE
  8
_0-0_LAYER001
  6
CONTINUOUS
 62
    1
 10
833.03490000000011
 20
999.44689999999991
 11
858.8927000000001
 21
973.58909999999992
  0
LINE
  8
_0-0_LAYER001
  6
CONTINUOUS
 62
    1
 10
833.03490000000011
 20
1013.5890999999999
 11
873.03490000000011
 21
973.58909999999992
  0
LINE
  8
_0-0_LAYER001
  6
CONTINUOUS
 62
    1
 10
847.17699999999991
 20
1013.5890999999999
 11
887.17699999999991
 21
973.58909999999992
  0
LINE
  8
_0-0_LAYER001
  6
CONTINUOUS
 62
    1
 10
861.31909999999993
 20
1013.5890999999999
 11
901.31909999999993
 21
973.58909999999992
  0
LINE
  8
_0-0_LAYER001
  6
CONTINUOUS
 62
    1
 10
875.46129999999994
 20
1013.5890999999999
 11
915.46129999999994
 21
973.58909999999992
  0
LINE
  8
_0-0_LAYER001
  6
CONTINUOUS
 62
    1
 10
889.60339999999997
 20
1013.5890999999999
 11
929.60339999999997
 21
973.58909999999992
  0
LINE
  8
_0-0_LAYER001
  6
CONTINUOUS
 62
    1
 10
903.74549999999999
 20
1013.5890999999999
 11
943.74549999999999
 21
973.58909999999992
  0
LINE
  8
_0-0_LAYER001
  6
CONTINUOUS
 62
    1
 10
917.8877
 20
1013.5890999999999
 11
957.8877
 21
973.58909999999992
  0
LINE
  8
_0-0_LAYER001
  6
CONTINUOUS
 62
    1
 10
932.02980000000002
 20
1013.5890999999999
 11
972.02980000000002
 21
973.58909999999992
  0
LINE
  8
_0-0_LAYER001
  6
CONTINUOUS
 62
    1
 10
946.17190000000005
 20
1013.5890999999999
 11
986.17190000000005
 21
973.58909999999992
  0
LINE
  8
_0-0_LAYER001
  6
CONTINUOUS
 62
    1
 10
960.31410000000005
 20
1013.5890999999999
 11
1000.3141000000001
 21
973.58909999999992
  0
LINE
  8
_0-0_LAYER001
  6
CONTINUOUS
 62
    1
 10
974.45620000000008
 20
1013.5890999999999
 11
1014.4562000000001
 21
973.58909999999992
  0
LINE
  8
_0-0_LAYER001
  6
CONTINUOUS
 62
    1
 10
988.59840000000008
 20
1013.5890999999999
 11
1028.5984000000001
 21
973.58909999999992
  0
LINE
  8
_0-0_LAYER001
  6
CONTINUOUS
 62
    1
 10
1002.7405000000001
 20
1013.5890999999999
 11
1042.7405000000001
 21
973.58909999999992
  0
LINE
  8
_0-0_LAYER001
  6
CONTINUOUS
 62
    1
 10
1016.8825999999999
 20
1013.5890999999999
 11
1056.8825999999999
 21
973.58909999999992
  0
LINE
  8
_0-0_LAYER001
  6
CONTINUOUS
 62
    1
 10
1031.0247999999999
 20
1013.5890999999999
 11
1071.0247999999999
 21
973.58909999999992
  0
LINE
  8
_0-0_LAYER001
  6
CONTINUOUS
 62
    1
 10
1045.1668999999999
 20
1013.5890999999999
 11
1085.1668999999999
 21
973.58909999999992
  0
LINE
  8
_0-0_LAYER001
  6
CONTINUOUS
 62
    1
 10
1059.309
 20
1013.5890999999999
 11
1099.309
 21
973.58909999999992
  0
LINE
  8
_0-0_LAYER001
  6
CONTINUOUS
 62
    1
 10
1073.4512
 20
1013.5890999999999
 11
1113.4512
 21
973.58909999999992
  0
LINE
  8
_0-0_LAYER001
  6
CONTINUOUS
 62
    1
 10
1087.5933
 20
1013.5890999999999
 11
1127.5933
 21
973.58909999999992
  0
LINE
  8
_0-0_LAYER001
  6
CONTINUOUS
 62
    1
 10
1101.7354
 20
1013.5890999999999
 11
1141.7354
 21
973.58909999999992
  0
LINE
  8
_0-0_LAYER001
  6
CONTINUOUS
 62
    1
 10
1115.8776
 20
1013.5890999999999
 11
1155.8776
 21
973.58909999999992
  0
LINE
  8
_0-0_LAYER001
  6
CONTINUOUS
 62
    1
 10
1130.0197000000001
 20
1013.5890999999999
 11
1170.0197000000001
 21
973.58909999999992
  0
LINE
  8
_0-0_LAYER001
  6
CONTINUOUS
 62
    1
 10
1144.1618000000001
 20
1013.5890999999999
 11
1184.1618000000001
 21
973.58909999999992
  0
LINE
  8
_0-0_LAYER001
  6
CONTINUOUS
 62
    1
 10
1158.3040000000001
 20
1013.5890999999999
 11
1198.3040000000001
 21
973.58909999999992
  0
LINE
  8
_0-0_LAYER001
  6
CONTINUOUS
 62
    1
 10
1172.4460999999999
 20
1013.5890999999999
 11
1212.4460999999999
 21
973.58909999999992
  0
LINE
  8
_0-0_LAYER001
  6
CONTINUOUS
 62
    1
 10
1186.5882999999999
 20
1013.5890999999999
 11
1226.5882999999999
 21
973.58909999999992
  0
LINE
  8
_0-0_LAYER001
  6
CONTINUOUS
 62
    1
 10
1200.7303999999999
 20
1013.5890999999999
 11
1240.7303999999999
 21
973.58909999999992
  0
LINE
  8
_0-0_LAYER001
  6
CONTINUOUS
 62
    1
 10
1214.8724999999999
 20
1013.5890999999999
 11
1254.8724999999999
 21
973.58909999999992
  0
LINE
  8
_0-0_LAYER001
  6
CONTINUOUS
 62
    1
 10
1229.0146999999999
 20
1013.5890999999999
 11
1269.0146999999999
 21
973.58909999999992
  0
LINE
  8
_0-0_LAYER001
  6
CONTINUOUS
 62
    1
 10
1243.1568
 20
1013.5890999999999
 11
1283.1567999999997
 21
973.58909999999992
  0
LINE
  8
_0-0_LAYER001
  6
CONTINUOUS
 62
    1
 10
1257.2989
 20
1013.5890999999999
 11
1297.2989000000002
 21
973.58909999999992
  0
LINE
  8
_0-0_LAYER001
  6
CONTINUOUS
 62
    1
 10
1271.4411
 20
1013.5890999999999
 11
1311.4411
 21
973.58909999999992
  0
LINE
  8
_0-0_LAYER001
  6
CONTINUOUS
 62
    1
 10
1285.5832
 20
1013.5890999999999
 11
1325.5832
 21
973.58909999999992
  0
LINE
  8
_0-0_LAYER001
  6
CONTINUOUS
 62
    1
 10
1299.7253000000001
 20
1013.5890999999999
 11
1339.7253000000001
 21
973.58909999999992
  0
LINE
  8
_0-0_LAYER001
  6
CONTINUOUS
 62
    1
 10
1313.8675000000001
 20
1013.5890999999999
 11
1353.8675000000001
 21
973.58909999999992
  0
LINE
  8
_0-0_LAYER001
  6
CONTINUOUS
 62
    1
 10
1328.0096000000001
 20
1013.5890999999999
 11
1368.0096000000001
 21
973.58909999999992
  0
LINE
  8
_0-0_LAYER001
  6
CONTINUOUS
 62
    1
 10
1342.1516999999999
 20
1013.5890999999999
 11
1382.1516999999999
 21
973.58909999999992
  0
LINE
  8
_0-0_LAYER001
  6
CONTINUOUS
 62
    1
 10
1356.2939000000001
 20
1013.5890999999999
 11
1396.2939000000001
 21
973.58909999999992
  0
LINE
  8
_0-0_LAYER001
  6
CONTINUOUS
 62
    1
 10
1370.4359999999999
 20
1013.5890999999999
 11
1410.4359999999999
 21
973.58909999999992
  0
LINE
  8
_0-0_LAYER001
  6
CONTINUOUS
 62
    1
 10
1384.5781999999999
 20
1013.5890999999999
 11
1424.5781999999999
 21
973.58909999999992
  0
LINE
  8
_0-0_LAYER001
  6
CONTINUOUS
 62
    1
 10
1398.7203
 20
1013.5890999999999
 11
1438.7203
 21
973.58909999999992
  0
LINE
  8
_0-0_LAYER001
  6
CONTINUOUS
 62
    1
 10
1412.8624
 20
1013.5890999999999
 11
1452.8624
 21
973.58909999999992
  0
LINE
  8
_0-0_LAYER001
  6
CONTINUOUS
 62
    1
 10
1427.0046
 20
1013.5890999999999
 11
1467.0046000000002
 21
973.58909999999992
  0
LINE
  8
_0-0_LAYER001
  6
CONTINUOUS
 62
    1
 10
1441.1466999999998
 20
1013.5890999999999
 11
1481.1466999999998
 21
973.58909999999992
  0
LINE
  8
_0-0_LAYER001
  6
CONTINUOUS
 62
    1
 10
1455.2887999999998
 20
1013.5890999999999
 11
1495.2887999999998
 21
973.58909999999992
  0
LINE
  8
_0-0_LAYER001
  6
CONTINUOUS
 62
    1
 10
1469.431
 20
1013.5890999999999
 11
1509.431
 21
973.58909999999992
  0
LINE
  8
_0-0_LAYER001
  6
CONTINUOUS
 62
    1
 10
1483.5731000000001
 20
1013.5890999999999
 11
1523.5731000000001
 21
973.58909999999992
  0
LINE
  8
_0-0_LAYER001
  6
CONTINUOUS
 62
    1
 10
1497.7152000000001
 20
1013.5890999999999
 11
1537.7152000000001
 21
973.58909999999992
  0
LINE
  8
_0-0_LAYER001
  6
CONTINUOUS
 62
    1
 10
1511.8573999999999
 20
1013.5890999999999
 11
1551.8573999999999
 21
973.58909999999992
  0
LINE
  8
_0-0_LAYER001
  6
CONTINUOUS
 62
    1
 10
1525.9994999999999
 20
1013.5890999999999
 11
1565.9994999999999
 21
973.58909999999992
  0
LINE
  8
_0-0_LAYER001
  6
CONTINUOUS
 62
    1
 10
1540.1415999999999
 20
1013.5890999999999
 11
1580.1415999999999
 21
973.58909999999992
  0
LINE
  8
_0-0_LAYER001
  6
CONTINUOUS
 62
    1
 10
1554.2838000000002
 20
1013.5890999999999
 11
1594.2838000000002
 21
973.58909999999992
  0
LINE
  8
_0-0_LAYER001
  6
CONTINUOUS
 62
    1
 10
1568.4259000000002
 20
1013.5890999999999
 11
1608.4259000000002
 21
973.58909999999992
  0
LINE
  8
_0-0_LAYER001
  6
CONTINUOUS
 62
    1
 10
1582.5681
 20
1013.5890999999999
 11
1622.5681
 21
973.58909999999992
  0
LINE
  8
_0-0_LAYER001
  6
CONTINUOUS
 62
    1
 10
1596.7102
 20
1013.5890999999999
 11
1636.7102
 21
973.58909999999992
  0
LINE
  8
_0-0_LAYER001
  6
CONTINUOUS
 62
    1
 10
1610.8523
 20
1013.5890999999999
 11
1650.8523
 21
973.58909999999992
  0
LINE
  8
_0-0_LAYER001
  6
CONTINUOUS
 62
    1
 10
1624.9944999999998
 20
1013.5890999999999
 11
1664.9944999999998
 21
973.58909999999992
  0
LINE
  8
_0-0_LAYER001
  6
CONTINUOUS
 62
    1
 10
1639.1365999999998
 20
1013.5890999999999
 11
1679.1365999999998
 21
973.58909999999992
  0
LINE
  8
_0-0_LAYER001
  6
CONTINUOUS
 62
    1
 10
1653.2786999999998
 20
1013.5890999999999
 11
1693.2786999999998
 21
973.58909999999992
  0
LINE
  8
_0-0_LAYER001
  6
CONTINUOUS
 62
    1
 10
1667.4209000000001
 20
1013.5890999999999
 11
1707.4209000000001
 21
973.58909999999992
  0
LINE
  8
_0-0_LAYER001
  6
CONTINUOUS
 62
    1
 10
1681.5630000000001
 20
1013.5890999999999
 11
1721.5630000000001
 21
973.58909999999992
  0
LINE
  8
_0-0_LAYER001
  6
CONTINUOUS
 62
    1
 10
1695.7051000000001
 20
1013.5890999999999
 11
1735.7051000000001
 21
973.58909999999992
  0
LINE
  8
_0-0_LAYER001
  6
CONTINUOUS
 62
    1
 10
1709.8472999999999
 20
1013.5890999999999
 11
1749.8472999999999
 21
973.58909999999992
  0
LINE
  8
_0-0_LAYER001
  6
CONTINUOUS
 62
    1
 10
1723.9893999999999
 20
1013.5890999999999
 11
1763.9893999999999
 21
973.58909999999992
  0
LINE
  8
_0-0_LAYER001
  6
CONTINUOUS
 62
    1
 10
1738.1315
 20
1013.5890999999999
 11
1778.1315
 21
973.58909999999992
  0
LINE
  8
_0-0_LAYER001
  6
CONTINUOUS
 62
    1
 10
1752.2737000000002
 20
1013.5890999999999
 11
1792.2737000000002
 21
973.58909999999992
  0
LINE
  8
_0-0_LAYER001
  6
CONTINUOUS
 62
    1
 10
1766.4158000000002
 20
1013.5890999999999
 11
1806.4158000000002
 21
973.58909999999992
  0
LINE
  8
_0-0_LAYER001
  6
CONTINUOUS
 62
    1
 10
1780.558
 20
1013.5890999999999
 11
1820.558
 21
973.58909999999992
  0
LINE
  8
_0-0_LAYER001
  6
CONTINUOUS
 62
    1
 10
1794.7001
 20
1013.5890999999999
 11
1834.7001
 21
973.58909999999992
  0
LINE
  8
_0-0_LAYER001
  6
CONTINUOUS
 62
    1
 10
1808.8422
 20
1013.5890999999999
 11
1848.8422
 21
973.58909999999992
  0
LINE
  8
_0-0_LAYER001
  6
CONTINUOUS
 62
    1
 10
1822.9843999999998
 20
1013.5890999999999
 11
1861.9549000000002
 21
974.61860000000001
  0
LINE
  8
_0-0_LAYER001
  6
CONTINUOUS
 62
    1
 10
1837.1264999999999
 20
1013.5890999999999
 11
1861.9549000000002
 21
988.76070000000004
  0
LINE
  8
_0-0_LAYER001
  6
CONTINUOUS
 62
    1
 10
1851.2685999999999
 20
1013.5890999999999
 11
1861.9549000000002
 21
1002.9028000000001
  0
LINE
  8
_0-0_LAYER001
  6
CONTINUOUS
 62
    2
 10
1820.2550999999999
 20
1011.3323
 11
1818.3139000000001
 21
1018.5768
  0
LINE
  8
_0-0_LAYER001
  6
CONTINUOUS
 62
    2
 10
1818.3139000000001
 20
1018.5768
 11
1823.6172000000001
 21
1013.2735
  0
LINE
  8
_0-0_LAYER001
  6
CONTINUOUS
 62
    2
 10
1818.3139000000001
 20
1018.5768
 11
1902.9650000000001
 21
871.95669999999996
  0
LINE
  8
_0-0_LAYER001
  6
CONTINUOUS
 62
    2
 10
1902.9650000000001
 20
871.95669999999996
 11
2136.9650000000001
 21
871.95669999999996
  0
LINE
  8
_0-2_LAYER004
  6
CONTINUOUS
 62
    2
 10
1761.1949
 20
1099.2032999999999
 11
1758.4919
 21
1113.9583
  0
LINE
  8
_0-2_LAYER004
  6
CONTINUOUS
 62
    2
 10
1758.4919
 20
1113.9583
 11
1847.0198999999998
 21
1130.1732999999999
  0
LINE
  8
_0-2_LAYER004
  6
CONTINUOUS
 62
    2
 10
1847.0198999999998
 20
1130.1732999999999
 11
1849.7219
 21
1115.4193
  0
LINE
  8
_0-2_LAYER004
  6
CONTINUOUS
 62
    2
 10
1849.7219
 20
1115.4193
 11
1761.1949
 21
1099.2032999999999
  0
LINE
  8
_0-2_LAYER004
  6
CONTINUOUS
 62
    2
 10
1758.4919
 20
1113.9583
 11
1849.7219
 21
1115.4193
  0
LINE
  8
_0-4_LAYER006
  6
CONTINUOUS
 62
    2
 10
1746.9549000000002
 20
1114.5376000000001
 11
1744.5738999999999
 21
1088.9466
  0
LINE
  8
_0-4_LAYER006
  6
CONTINUOUS
 62
    2
 10
1744.5738999999999
 20
1088.9466
 11
1749.8708999999999
 21
1094.9056
  0
LINE
  8
_0-4_LAYER006
  6
CONTINUOUS
 62
    2
 10
1746.9549000000002
 20
1114.5376000000001
 11
1836.9549000000002
 21
1131.0233000000001
  0
LINE
  8
_0-0_LAYER001
  6
CONTINUOUS
 62
    2
 10
1849.7219
 20
1115.2157
 11
1861.9549000000002
 21
1115.2157
  0
LINE
  8
_0-0_LAYER001
  6
CONTINUOUS
 62
    2
 10
1909.9549000000002
 20
1095.2157
 11
1904.9548
 21
1098.2156
  0
LINE
  8
_0-0_LAYER001
  6
CONTINUOUS
 62
    2
 10
1904.9548
 20
1092.2157
 11
1909.9549000000002
 21
1095.2157
  0
LINE
  8
_0-0_LAYER001
  6
CONTINUOUS
 62
    2
 10
1903.8798000000002
 20
1092.2157
 11
1906.7287999999999
 21
1097.1518000000001
  0
LINE
  8
_0-0_LAYER001
  6
CONTINUOUS
 62
    2
 10
1837.9548
 20
1092.2157
 11
1837.9548
 21
1098.2156
  0
LINE
  8
_0-0_LAYER001
  6
CONTINUOUS
 62
    2
 10
1831.9549000000002
 20
1089.2156
 11
1831.9549000000002
 21
1101.2157
  0
LINE
  8
_0-0_LAYER001
  6
CONTINUOUS
 62
    2
 10
1840.8418000000001
 20
1092.2157
 11
1844.3049000000001
 21
1098.2156
  0
LINE
  8
_0-0_LAYER001
  6
CONTINUOUS
 62
    2
 10
1831.9549000000002
 20
1089.2156
 11
1837.9548
 21
1092.2157
  0
LINE
  8
_0-0_LAYER001
  6
CONTINUOUS
 62
    2
 10
1837.9548
 20
1098.2156
 11
1831.9549000000002
 21
1101.2157
  0
LINE
  8
_0-0_LAYER001
  6
CONTINUOUS
 62
    2
 10
1904.9548
 20
1098.2156
 11
1894.9398000000001
 21
1098.2156
  0
LINE
  8
_0-0_LAYER001
  6
CONTINUOUS
 62
    2
 10
1886.2878999999998
 20
1093.7428
 11
1888.1819
 21
1097.0237
  0
LINE
  8
_0-0_LAYER001
  6
CONTINUOUS
 62
    2
 10
1894.6718999999998
 20
1092.2646999999999
 11
1898.1068
 21
1098.2156
  0
LINE
  8
_0-0_LAYER001
  6
CONTINUOUS
 62
    2
 10
1904.9548
 20
1092.2157
 11
1894.9479000000001
 21
1092.2157
  0
LINE
  8
_0-0_LAYER001
  6
CONTINUOUS
 62
    2
 10
1902.8038000000001
 20
1101.9386999999999
 11
1903.2037999999998
 21
1099.6727000000001
  0
LINE
  8
_0-0_LAYER001
  6
CONTINUOUS
 62
    2
 10
1902.6309000000001
 20
1088.5257999999999
 11
1903.0288
 21
1090.7907
  0
LINE
  8
_0-0_LAYER001
  6
CONTINUOUS
 62
    2
 10
1898.2107000000001
 20
1100.9247
 11
1899.8847999999998
 21
1101.2197000000001
  0
LINE
  8
_0-0_LAYER001
  6
CONTINUOUS
 62
    2
 10
1893.8778000000002
 20
1100.1606999999999
 11
1895.5508
 21
1100.4557
  0
LINE
  8
_0-0_LAYER001
  6
CONTINUOUS
 62
    2
 10
1889.5448000000001
 20
1099.3967
 11
1891.2177000000001
 21
1099.6917000000001
  0
LINE
  8
_0-0_LAYER001
  6
CONTINUOUS
 62
    2
 10
1889.2487000000001
 20
1101.0697
 11
1880.1547999999998
 21
1099.4667999999999
  0
LINE
  8
_0-0_LAYER001
  6
CONTINUOUS
 62
    2
 10
1893.5817999999999
 20
1101.8336999999999
 11
1890.9227999999998
 21
1101.3647000000001
  0
LINE
  8
_0-0_LAYER001
  6
CONTINUOUS
 62
    2
 10
1897.9148
 20
1102.5978
 11
1895.2557999999999
 21
1102.1288
  0
LINE
  8
_0-0_LAYER001
  6
CONTINUOUS
 62
    2
 10
1901.0666999999999
 20
1103.1537000000001
 11
1899.5889000000002
 21
1102.8925999999999
  0
LINE
  8
_0-0_LAYER001
  6
CONTINUOUS
 62
    2
 10
1899.8847999999998
 20
1101.2197000000001
 11
1899.5889000000002
 21
1102.8937000000001
  0
LINE
  8
_0-0_LAYER001
  6
CONTINUOUS
 62
    2
 10
1898.2107000000001
 20
1100.9247
 11
1897.9148
 21
1102.5988
  0
LINE
  8
_0-0_LAYER001
  6
CONTINUOUS
 62
    2
 10
1895.5518999999999
 20
1100.4557
 11
1895.2557999999999
 21
1102.1297999999999
  0
LINE
  8
_0-0_LAYER001
  6
CONTINUOUS
 62
    2
 10
1893.8778000000002
 20
1100.1606999999999
 11
1893.5817999999999
 21
1101.8347000000001
  0
LINE
  8
_0-0_LAYER001
  6
CONTINUOUS
 62
    2
 10
1891.2188000000001
 20
1099.6917000000001
 11
1890.9227999999998
 21
1101.3656000000001
  0
LINE
  8
_0-0_LAYER001
  6
CONTINUOUS
 62
    2
 10
1889.5448000000001
 20
1099.3967
 11
1889.2487000000001
 21
1101.0707
  0
LINE
  8
_0-0_LAYER001
  6
CONTINUOUS
 62
    2
 10
1898.0358000000001
 20
1089.5386000000001
 11
1899.7098999999998
 21
1089.2437
  0
LINE
  8
_0-0_LAYER001
  6
CONTINUOUS
 62
    2
 10
1893.7029000000002
 20
1090.3027
 11
1895.3768
 21
1090.0077000000001
  0
LINE
  8
_0-0_LAYER001
  6
CONTINUOUS
 62
    2
 10
1889.3697999999999
 20
1091.0667000000001
 11
1891.0437999999999
 21
1090.7716
  0
LINE
  8
_0-0_LAYER001
  6
CONTINUOUS
 62
    2
 10
1889.3708000000001
 20
1091.0667000000001
 11
1889.0747999999999
 21
1089.3938000000001
  0
LINE
  8
_0-0_LAYER001
  6
CONTINUOUS
 62
    2
 10
1891.0448000000001
 20
1090.7716
 11
1890.7487000000001
 21
1089.0987
  0
LINE
  8
_0-0_LAYER001
  6
CONTINUOUS
 62
    2
 10
1893.7039
 20
1090.3027
 11
1893.4078
 21
1088.6297
  0
LINE
  8
_0-0_LAYER001
  6
CONTINUOUS
 62
    2
 10
1895.3778000000002
 20
1090.0077000000001
 11
1895.0817999999999
 21
1088.3347000000001
  0
LINE
  8
_0-0_LAYER001
  6
CONTINUOUS
 62
    2
 10
1898.0367999999999
 20
1089.5386000000001
 11
1897.7408999999998
 21
1087.8657000000001
  0
LINE
  8
_0-0_LAYER001
  6
CONTINUOUS
 62
    2
 10
1899.7107999999998
 20
1089.2437
 11
1899.4148
 21
1087.5708
  0
LINE
  8
_0-0_LAYER001
  6
CONTINUOUS
 62
    2
 10
1889.0747999999999
 20
1089.3938000000001
 11
1880.1547999999998
 21
1090.9657
  0
LINE
  8
_0-0_LAYER001
  6
CONTINUOUS
 62
    2
 10
1893.4078
 20
1088.6297
 11
1890.7487000000001
 21
1089.0987
  0
LINE
  8
_0-0_LAYER001
  6
CONTINUOUS
 62
    2
 10
1897.7408999999998
 20
1087.8657000000001
 11
1895.0817999999999
 21
1088.3347000000001
  0
LINE
  8
_0-0_LAYER001
  6
CONTINUOUS
 62
    2
 10
1900.8919000000001
 20
1087.3097
 11
1899.4148
 21
1087.5697
  0
LINE
  8
_0-0_LAYER001
  6
CONTINUOUS
 62
    2
 10
1877.9308999999998
 20
1095.2167999999999
 11
1903.2037999999998
 21
1099.6727000000001
  0
LINE
  8
_0-0_LAYER001
  6
CONTINUOUS
 62
    2
 10
1877.9308999999998
 20
1095.2167999999999
 11
1903.0288
 21
1090.7907
  0
LINE
  8
_0-0_LAYER001
  6
CONTINUOUS
 62
    2
 10
1861.9549000000002
 20
1099.4657
 11
1880.1547999999998
 21
1099.4657
  0
LINE
  8
_0-0_LAYER001
  6
CONTINUOUS
 62
    2
 10
1861.9549000000002
 20
1090.9657
 11
1880.1547999999998
 21
1090.9657
  0
LINE
  8
_0-0_LAYER001
  6
CONTINUOUS
 62
    2
 10
1861.9549000000002
 20
1090.9657
 11
1861.9549000000002
 21
1099.4657
  0
LINE
  8
_0-0_LAYER001
  6
CONTINUOUS
 62
    2
 10
1831.9549000000002
 20
1075.2157
 11
1861.9549000000002
 21
1075.2157
  0
LINE
  8
_0-0_LAYER001
  6
CONTINUOUS
 62
    2
 10
1861.9549000000002
 20
1098.2156
 11
1837.9548
 21
1098.2156
  0
LINE
  8
_0-0_LAYER001
  6
CONTINUOUS
 62
    2
 10
1861.9549000000002
 20
1092.2157
 11
1837.9548
 21
1092.2157
  0
LINE
  8
_0-0_LAYER001
  6
CONTINUOUS
 62
    2
 10
1846.5648999999999
 20
1092.2157
 11
1850.0279999999998
 21
1098.2156
  0
LINE
  8
_0-0_LAYER001
  6
CONTINUOUS
 62
    2
 10
1852.2881000000002
 20
1092.2157
 11
1855.7511
 21
1098.2156
  0
LINE
  8
_0-0_LAYER001
  6
CONTINUOUS
 62
    2
 10
1858.0111999999999
 20
1092.2157
 11
1861.4742999999999
 21
1098.2156
  0
LINE
  8
_0-0_LAYER001
  6
CONTINUOUS
 62
    2
 10
1831.9549000000002
 20
1075.2157
 11
1831.9549000000002
 21
1112.2061000000001
  0
LINE
  8
_0-0_LAYER001
  6
CONTINUOUS
 62
    2
 10
1861.9549000000002
 20
1075.2157
 11
1834.1695
 21
1112.2628999999999
  0
ARC
  8
_0-0_LAYER001
  6
CONTINUOUS
 62
    2
 10
1901.3188
 20
1101.6717000000001
 40
1.5049999999999999
 50
10.451269999999999
 51
99.637527999999989
  0
ARC
  8
_0-0_LAYER001
  6
CONTINUOUS
 62
    2
 10
1901.1509000000001
 20
1088.7887000000001
 40
1.4969999999999999
 50
259.83899000000008
 51
350.14733000000001
  0
LINE
  8
_0-0_LAYER001
  6
CONTINUOUS
 62
    2
 10
1829.4648000000002
 20
1125.0102999999999
 11
1837.5355
 21
1128.7729999999999
  0
LINE
  8
_0-0_LAYER001
  6
CONTINUOUS
 62
    2
 10
1843.9045999999998
 20
1100.1893
 11
1849.3609000000001
 21
1093.1215
  0
LINE
  8
_0-0_LAYER001
  6
CONTINUOUS
 62
    2
 10
1835.8530999999998
 20
1126.2284
 11
1847.2637
 21
1101.7556
  0
LINE
  8
_0-0_LAYER001
  6
CONTINUOUS
 62
    2
 10
1849.3609000000001
 20
1093.1215
 11
1847.2637
 21
1101.7556
  0
LINE
  8
_0-0_LAYER001
  6
CONTINUOUS
 62
    2
 10
1832.4935999999998
 20
1124.6636000000001
 11
1829.4648000000002
 21
1125.0102999999999
  0
LINE
  8
_0-0_LAYER001
  6
CONTINUOUS
 62
    2
 10
1835.8530999999998
 20
1126.2284
 11
1837.5355
 21
1128.7729999999999
  0
LINE
  8
_0-0_LAYER001
  6
CONTINUOUS
 62
    2
 10
1832.4935999999998
 20
1124.6636000000001
 11
1843.9045999999998
 21
1100.1893
  0
ARC
  8
_0-0_LAYER001
  6
CONTINUOUS
 62
    2
 10
1820.1358
 20
1239.1905999999999
 40
20.694040000000001
 50
335.49168000000003
 51
33.319545000000062
  0
LINE
  8
_0-0_LAYER001
  6
CONTINUOUS
 62
    2
 10
1852.4378999999999
 20
1250.558
 11
1852.4378999999999
 21
1230.558
  0
LINE
  8
_0-2_LAYER004
  6
CONTINUOUS
 62
    2
 10
1857.8998999999999
 20
1250.558
 11
1852.4378999999999
 21
1230.558
  0
LINE
  8
_0-2_LAYER004
  6
CONTINUOUS
 62
    2
 10
1857.8998999999999
 20
1230.558
 11
1852.4378999999999
 21
1250.558
  0
LINE
  8
_0-2_LAYER004
  6
CONTINUOUS
 62
    2
 10
1859.9616999999998
 20
1230.6596
 11
1859.9616999999998
 21
1247.6024
  0
LINE
  8
_0-3_LAYER005
  6
CONTINUOUS
 62
    2
 10
1836.9549000000002
 20
1250.558
 11
1861.9549000000002
 21
1250.558
  0
LINE
  8
_0-3_LAYER005
  6
CONTINUOUS
 62
    2
 10
1836.9549000000002
 20
1230.558
 11
1861.9549000000002
 21
1230.558
  0
LINE
  8
_0-3_LAYER005
  6
CONTINUOUS
 62
    2
 10
1857.8998999999999
 20
1230.558
 11
1857.8998999999999
 21
1250.558
  0
LINE
  8
_0-3_LAYER005
  6
CONTINUOUS
 62
    2
 10
1846.1298999999999
 20
1230.558
 11
1852.4378999999999
 21
1236.866
  0
LINE
  8
_0-3_LAYER005
  6
CONTINUOUS
 62
    2
 10
1841.8869
 20
1230.558
 11
1852.4378999999999
 21
1241.1089999999999
  0
LINE
  8
_0-3_LAYER005
  6
CONTINUOUS
 62
    2
 10
1839.7856000000002
 20
1232.6999000000001
 11
1852.4378999999999
 21
1245.3513
  0
LINE
  8
_0-3_LAYER005
  6
CONTINUOUS
 62
    2
 10
1840.7925
 20
1237.9486999999999
 11
1852.4378999999999
 21
1249.5940000000001
  0
LINE
  8
_0-3_LAYER005
  6
CONTINUOUS
 62
    2
 10
1840.6338999999998
 20
1242.0318
 11
1849.1587
 21
1250.558
  0
LINE
  8
_0-3_LAYER005
  6
CONTINUOUS
 62
    2
 10
1839.8485000000001
 20
1245.4878000000001
 11
1844.9151999999999
 21
1250.558
  0
LINE
  8
_0-0_LAYER001
  6
CONTINUOUS
 62
    2
 10
1839.6179000000002
 20
1075.2157
 11
1833.2168000000001
 21
1064.617
  0
LINE
  8
_0-0_LAYER001
  6
CONTINUOUS
 62
    2
 10
1857.1489000000001
 20
1075.2157
 11
1842.1489000000001
 21
1017.8351
  0
LINE
  8
_0-0_LAYER001
  6
CONTINUOUS
 62
    2
 10
1836.2269999999999
 20
1110.1569999999999
 11
1838.1680999999999
 21
1102.9126000000001
  0
LINE
  8
_0-0_LAYER001
  6
CONTINUOUS
 62
    2
 10
1838.1680999999999
 20
1102.9126000000001
 11
1832.8647999999998
 21
1108.2158999999999
  0
LINE
  8
_0-0_LAYER001
  6
CONTINUOUS
 62
    2
 10
1838.1680999999999
 20
1102.9126000000001
 11
1711.5556999999999
 21
1322.2118
  0
LINE
  8
_0-0_LAYER001
  6
CONTINUOUS
 62
    2
 10
1711.5556999999999
 20
1322.2118
 11
1630.5556999999999
 21
1322.2118
  0
LINE
  8
_0-1_LAYER003
  6
CONTINUOUS
 62
    2
 10
1798.1743000000001
 20
1131.8468
 11
1800.1154000000001
 21
1124.6024
  0
LINE
  8
_0-1_LAYER003
  6
CONTINUOUS
 62
    2
 10
1800.1154000000001
 20
1124.6024
 11
1794.8121000000001
 21
1129.9057
  0
LINE
  8
_0-1_LAYER003
  6
CONTINUOUS
 62
    2
 10
1800.1154000000001
 20
1124.6024
 11
1712.4956999999999
 21
1276.3642
  0
LINE
  8
_0-1_LAYER003
  6
CONTINUOUS
 62
    2
 10
1712.4956999999999
 20
1276.3642
 11
1478.4956999999999
 21
1276.3642
  0
LINE
  8
_0-1_LAYER003
  6
CONTINUOUS
 62
    2
 10
1746.9549000000002
 20
1204.2057
 11
1746.9549000000002
 21
1150.1697999999999
  0
CIRCLE
  8
_0-1_LAYER003
  6
CONTINUOUS
 62
    2
 10
1746.9549000000002
 20
1201.7057
 40
1.6999999999999997
  0
LINE
  8
_0-1_LAYER003
  6
CONTINUOUS
 62
    2
 10
1746.9549000000002
 20
1201.7057
 11
1836.9549000000002
 21
1201.7057
  0
CIRCLE
  8
_0-1_LAYER003
  6
CONTINUOUS
 62
    2
 10
1836.9549000000002
 20
1201.7057
 40
1.6999999999999997
  0
LINE
  8
_0-1_LAYER003
  6
CONTINUOUS
 62
    2
 10
1836.9549000000002
 20
1176.6398999999999
 11
1836.9549000000002
 21
1149.1398999999999
  0
LINE
  8
_0-0_LAYER001
  6
CONTINUOUS
 62
    2
 10
2065.9843999999998
 20
1013.5890999999999
 11
2013.4843999999998
 21
1013.5890999999999
  0
CIRCLE
  8
_0-0_LAYER001
  6
CONTINUOUS
 62
    2
 10
2063.4843999999998
 20
1013.5890999999999
 40
1.6999999999999997
  0
LINE
  8
_0-0_LAYER001
  6
CONTINUOUS
 62
    2
 10
2063.4843999999998
 20
1013.5890999999999
 11
2063.4843999999998
 21
1213.5890999999999
  0
CIRCLE
  8
_0-0_LAYER001
  6
CONTINUOUS
 62
    2
 10
2063.4843999999998
 20
1213.5890999999999
 40
1.6999999999999997
  0
LINE
  8
_0-0_LAYER001
  6
CONTINUOUS
 62
    2
 10
2065.9843999999998
 20
1213.5890999999999
 11
2013.4843999999998
 21
1213.5890999999999
  0
LINE
  8
_0-0_LAYER001
  6
CONTINUOUS
 62
    2
 10
1025.7601999999999
 20
757.76250000000005
 11
1025.7601999999999
 21
810.26250000000005
  0
CIRCLE
  8
_0-0_LAYER001
  6
CONTINUOUS
 62
    2
 10
1025.7601999999999
 20
760.26250000000005
 40
1.6999999999999997
  0
LINE
  8
_0-0_LAYER001
  6
CONTINUOUS
 62
    2
 10
1025.7601999999999
 20
760.26250000000005
 11
1280.7601999999999
 21
760.26250000000005
  0
CIRCLE
  8
_0-0_LAYER001
  6
CONTINUOUS
 62
    2
 10
1280.7601999999999
 20
760.26250000000005
 40
1.6999999999999997
  0
LINE
  8
_0-0_LAYER001
  6
CONTINUOUS
 62
    2
 10
1280.7601999999999
 20
757.76250000000005
 11
1280.7601999999999
 21
810.26250000000005
  0
CIRCLE
  8
_0-0_LAYER001
  6
CONTINUOUS
 62
    2
 10
1280.7601999999999
 20
760.26250000000005
 40
1.6999999999999997
  0
LINE
  8
_0-0_LAYER001
  6
CONTINUOUS
 62
    2
 10
1280.7601999999999
 20
760.26250000000005
 11
1535.7602000000002
 21
760.26250000000005
  0
CIRCLE
  8
_0-0_LAYER001
  6
CONTINUOUS
 62
    2
 10
1535.7602000000002
 20
760.26250000000005
 40
1.6999999999999997
  0
LINE
  8
_0-0_LAYER001
  6
CONTINUOUS
 62
    2
 10
1535.7602000000002
 20
757.76250000000005
 11
1535.7602000000002
 21
810.26250000000005
  0
CIRCLE
  8
_0-0_LAYER001
  6
CONTINUOUS
 62
    2
 10
1535.7602000000002
 20
760.26250000000005
 40
1.6999999999999997
  0
LINE
  8
_0-0_LAYER001
  6
CONTINUOUS
 62
    2
 10
1535.7602000000002
 20
760.26250000000005
 11
1830.7602000000002
 21
760.26250000000005
  0
CIRCLE
  8
_0-0_LAYER001
  6
CONTINUOUS
 62
    2
 10
1830.7602000000002
 20
760.26250000000005
 40
1.6999999999999997
  0
LINE
  8
_0-0_LAYER001
  6
CONTINUOUS
 62
    2
 10
1830.7602000000002
 20
757.76250000000005
 11
1830.7602000000002
 21
810.26250000000005
  0
LINE
  8
_0-0_LAYER001
  6
CONTINUOUS
 62
    2
 10
1983.7664
 20
1013.5890999999999
 11
1931.2664
 21
1013.5890999999999
  0
CIRCLE
  8
_0-0_LAYER001
  6
CONTINUOUS
 62
    2
 10
1981.2664
 20
1013.5890999999999
 40
1.6999999999999997
  0
LINE
  8
_0-0_LAYER001
  6
CONTINUOUS
 62
    2
 10
1981.2664
 20
1013.5890999999999
 11
1981.2664
 21
1075.2157
  0
CIRCLE
  8
_0-0_LAYER001
  6
CONTINUOUS
 62
    2
 10
1981.2664
 20
1075.2157
 40
1.6999999999999997
  0
LINE
  8
_0-0_LAYER001
  6
CONTINUOUS
 62
    2
 10
1983.7664
 20
1075.2157
 11
1931.2664
 21
1075.2157
  0
CIRCLE
  8
_0-0_LAYER001
  6
CONTINUOUS
 62
    2
 10
1981.2664
 20
1075.2157
 40
1.6999999999999997
  0
LINE
  8
_0-0_LAYER001
  6
CONTINUOUS
 62
    2
 10
1981.2664
 20
1075.2157
 11
1981.2664
 21
1131.0233000000001
  0
CIRCLE
  8
_0-0_LAYER001
  6
CONTINUOUS
 62
    2
 10
1981.2664
 20
1131.0233000000001
 40
1.6999999999999997
  0
LINE
  8
_0-0_LAYER001
  6
CONTINUOUS
 62
    2
 10
1983.7664
 20
1131.0233000000001
 11
1931.2664
 21
1131.0233000000001
  0
CIRCLE
  8
_0-0_LAYER001
  6
CONTINUOUS
 62
    2
 10
1981.2664
 20
1131.0233000000001
 40
1.6999999999999997
  0
LINE
  8
_0-0_LAYER001
  6
CONTINUOUS
 62
    2
 10
1981.2664
 20
1131.0233000000001
 11
1981.2664
 21
1231.0233000000001
  0
CIRCLE
  8
_0-0_LAYER001
  6
CONTINUOUS
 62
    2
 10
1981.2664
 20
1231.0233000000001
 40
1.6999999999999997
  0
LINE
  8
_0-0_LAYER001
  6
CONTINUOUS
 62
    2
 10
1983.7664
 20
1231.0233000000001
 11
1931.2664
 21
1231.0233000000001
  0
CIRCLE
  8
_0-0_LAYER001
  6
CONTINUOUS
 62
    2
 10
1981.2664
 20
1231.0233000000001
 40
1.6999999999999997
  0
LINE
  8
_0-0_LAYER001
  6
CONTINUOUS
 62
    2
 10
1981.2664
 20
1231.0233000000001
 11
1981.2664
 21
1251.0233000000001
  0
CIRCLE
  8
_0-0_LAYER001
  6
CONTINUOUS
 62
    2
 10
1981.2664
 20
1251.0233000000001
 40
1.6999999999999997
  0
LINE
  8
_0-0_LAYER001
  6
CONTINUOUS
 62
    2
 10
1983.7664
 20
1251.0233000000001
 11
1931.2664
 21
1251.0233000000001
  0
LINE
  8
_0-1_LAYER003
  6
CONTINUOUS
 62
    2
 10
1851.8980999999999
 20
1036.6285
 11
1849.9569999999999
 21
1043.8729000000001
  0
LINE
  8
_0-1_LAYER003
  6
CONTINUOUS
 62
    2
 10
1849.9569999999999
 20
1043.8729000000001
 11
1855.2602999999999
 21
1038.5696
  0
LINE
  8
_0-1_LAYER003
  6
CONTINUOUS
 62
    2
 10
1849.9569999999999
 20
1043.8729000000001
 11
1915.7487999999998
 21
929.91810000000009
  0
LINE
  8
_0-1_LAYER003
  6
CONTINUOUS
 62
    2
 10
1915.7487999999998
 20
929.91810000000009
 11
2067.6992
 21
929.91810000000009
  0
LINE
  8
_0-0_LAYER001
  6
CONTINUOUS
 62
    2
 10
1839.5902999999998
 20
1245.6197999999999
 11
1841.5315000000001
 21
1238.3752999999999
  0
LINE
  8
_0-0_LAYER001
  6
CONTINUOUS
 62
    2
 10
1841.5315000000001
 20
1238.3752999999999
 11
1836.2282
 21
1243.6786
  0
LINE
  8
_0-0_LAYER001
  6
CONTINUOUS
 62
    2
 10
1841.5315000000001
 20
1238.3752999999999
 11
1760.7858000000001
 21
1378.2309
  0
LINE
  8
_0-0_LAYER001
  6
CONTINUOUS
 62
    2
 10
1760.7858000000001
 20
1378.2309
 11
1679.7858000000001
 21
1378.2309
  0
LINE
  8
_0-1_LAYER003
  6
CONTINUOUS
 62
    2
 10
1779.1702
 20
1117.4614999999999
 11
1781.1113
 21
1110.2170000000001
  0
LINE
  8
_0-1_LAYER003
  6
CONTINUOUS
 62
    2
 10
1781.1113
 20
1110.2170000000001
 11
1775.808
 21
1115.5202999999999
  0
LINE
  8
_0-1_LAYER003
  6
CONTINUOUS
 62
    2
 10
1781.1113
 20
1110.2170000000001
 11
1707.8400999999999
 21
1237.1265000000001
  0
LINE
  8
_0-1_LAYER003
  6
CONTINUOUS
 62
    2
 10
1707.8400999999999
 20
1237.1265000000001
 11
1577.3400999999999
 21
1237.1265000000001
  0
LINE
  8
_0-2_LAYER004
  6
CONTINUOUS
 62
    3
 10
1840.9603999999999
 20
985.35220000000004
 11
850.80719999999997
 21
985.35220000000004
  0
CIRCLE
  8
_0-2_LAYER004
  6
CONTINUOUS
 62
    3
 10
1835.4870999999998
 20
986.57729999999992
 40
1.3049219999999999
  0
CIRCLE
  8
_0-2_LAYER004
  6
CONTINUOUS
 62
    3
 10
1685.4870999999998
 20
986.57729999999992
 40
1.3049219999999999
  0
CIRCLE
  8
_0-2_LAYER004
  6
CONTINUOUS
 62
    3
 10
1535.4870999999998
 20
986.57729999999992
 40
1.3049219999999999
  0
CIRCLE
  8
_0-2_LAYER004
  6
CONTINUOUS
 62
    3
 10
1385.4871000000001
 20
986.57729999999992
 40
1.3049219999999999
  0
CIRCLE
  8
_0-2_LAYER004
  6
CONTINUOUS
 62
    3
 10
1085.4871000000001
 20
986.57729999999992
 40
1.3049219999999999
  0
CIRCLE
  8
_0-2_LAYER004
  6
CONTINUOUS
 62
    3
 10
935.48710000000005
 20
986.57729999999992
 40
1.3049219999999999
  0
CIRCLE
  8
_0-2_LAYER004
  6
CONTINUOUS
 62
    3
 10
1235.4871000000001
 20
986.57729999999992
 40
1.3049219999999999
  0
LINE
  8
_0-2_LAYER004
  6
DASHED1
 62
    2
 10
1750.7123000000001
 20
990.0313000000001
 11
1760.7123000000001
 21
990.0313000000001
  0
LINE
  8
_0-2_LAYER004
  6
DASHED1
 62
    2
 10
1729.3422
 20
936.01260000000002
 11
1729.3422
 21
926.01260000000002
  0
LINE
  8
_0-2_LAYER004
  6
DASHED1
 62
    2
 10
1750.7123000000001
 20
990.0313000000001
 11
1750.7123000000001
 21
936.01260000000002
  0
LINE
  8
_0-2_LAYER004
  6
DASHED1
 62
    2
 10
1760.7123000000001
 20
990.0313000000001
 11
1760.7123000000001
 21
926.01260000000002
  0
LINE
  8
_0-2_LAYER004
  6
DASHED1
 62
    2
 10
1750.7123000000001
 20
936.01260000000002
 11
1729.3422
 21
936.01260000000002
  0
LINE
  8
_0-2_LAYER004
  6
DASHED1
 62
    2
 10
1760.7123000000001
 20
926.01260000000002
 11
1729.3422
 21
926.01260000000002
  0
LINE
  8
_0-2_LAYER004
  6
DASHED1
 62
    2
 10
1150.7122999999999
 20
990.0313000000001
 11
1160.7122999999999
 21
990.0313000000001
  0
LINE
  8
_0-2_LAYER004
  6
DASHED1
 62
    2
 10
1129.3422
 20
936.01260000000002
 11
1129.3422
 21
926.01260000000002
  0
LINE
  8
_0-2_LAYER004
  6
DASHED1
 62
    2
 10
1150.7122999999999
 20
990.0313000000001
 11
1150.7122999999999
 21
936.01260000000002
  0
LINE
  8
_0-2_LAYER004
  6
DASHED1
 62
    2
 10
1160.7122999999999
 20
990.0313000000001
 11
1160.7122999999999
 21
926.01260000000002
  0
LINE
  8
_0-2_LAYER004
  6
DASHED1
 62
    2
 10
1150.7122999999999
 20
936.01260000000002
 11
1129.3422
 21
936.01260000000002
  0
LINE
  8
_0-2_LAYER004
  6
DASHED1
 62
    2
 10
1160.7122999999999
 20
926.01260000000002
 11
1129.3422
 21
926.01260000000002
  0
LINE
  8
_0-2_LAYER004
  6
CONTINUOUS
 62
    2
 10
1157.7556999999999
 20
942.04790000000003
 11
1155.8145999999999
 21
949.29230000000007
  0
LINE
  8
_0-2_LAYER004
  6
CONTINUOUS
 62
    2
 10
1155.8145999999999
 20
949.29230000000007
 11
1161.1179
 21
943.98900000000003
  0
LINE
  8
_0-2_LAYER004
  6
CONTINUOUS
 62
    2
 10
1155.8145999999999
 20
949.29230000000007
 11
1180.4429
 21
906.63490000000002
  0
LINE
  8
_0-2_LAYER004
  6
CONTINUOUS
 62
    2
 10
1180.4429
 20
906.63490000000002
 11
1240.4429
 21
906.63490000000002
  0
LINE
  8
_0-2_LAYER004
  6
CONTINUOUS
 62
    2
 10
1465.6273000000001
 20
977.8266000000001
 11
1463.6860999999999
 21
985.07099999999991
  0
LINE
  8
_0-2_LAYER004
  6
CONTINUOUS
 62
    2
 10
1463.6860999999999
 20
985.07099999999991
 11
1468.9893999999999
 21
979.7677000000001
  0
LINE
  8
_0-2_LAYER004
  6
CONTINUOUS
 62
    2
 10
1463.6860999999999
 20
985.07099999999991
 11
1501.1487000000002
 21
920.18389999999999
  0
LINE
  8
_0-2_LAYER004
  6
CONTINUOUS
 62
    2
 10
1501.1487000000002
 20
920.18389999999999
 11
1561.1487000000002
 21
920.18389999999999
  0
LINE
  8
_0-0_LAYER001
  6
CONTINUOUS
 62
    2
 10
1339.4016999999999
 20
718.1706999999999
 11
1544.2244000000001
 21
718.1706999999999
  0
LINE
  8
_0-0_LAYER001
  6
CONTINUOUS
 62
    2
 10
1356.6278
 20
658.41619999999989
 11
1613.9484000000002
 21
658.41619999999989
  0
LINE
  8
_0-0_LAYER001
  6
CONTINUOUS
 62
    2
 10
1257.3887999999999
 20
1018.1854000000001
 11
1257.3887999999999
 21
1025.6854000000001
  0
LINE
  8
_0-0_LAYER001
  6
CONTINUOUS
 62
    2
 10
1257.3887999999999
 20
1025.6854000000001
 11
1261.1387999999999
 21
1019.1902
  0
LINE
  8
_0-0_LAYER001
  6
CONTINUOUS
 62
    2
 10
1257.3887999999999
 20
1025.6854000000001
 11
1355.8539000000001
 21
658.20880000000011
  0
ARC
  8
_0-0_LAYER001
  6
CONTINUOUS
 62
    4
 10
951.1896999999999
 20
1252.442
 40
214.38050999999999
 50
236.55438000000001
 51
268.38173
  0
ARC
  8
_0-0_LAYER001
  6
CONTINUOUS
 62
    4
 10
1005.6588999999999
 20
1068.9395
 40
52.178303999999997
 50
215.53766999999999
 51
234.46232000000001
  0
ARC
  8
_0-0_LAYER001
  6
CONTINUOUS
 62
    4
 10
979.3302000000001
 20
1031.2357
 40
6.2695089999999993
 50
234.10575000000003
 51
303.29033000000004
  0
ARC
  8
_0-0_LAYER001
  6
CONTINUOUS
 62
    4
 10
947.86940000000004
 20
1075.2418
 40
58.841383
 50
213.2508
 51
234.31144
  0
ARC
  8
_0-0_LAYER001
  6
CONTINUOUS
 62
    4
 10
917.99379999999996
 20
1034.0844
 40
7.947610000000001
 50
234.52014000000003
 51
301.23766000000001
  0
ARC
  8
_0-0_LAYER001
  6
CONTINUOUS
 62
    4
 10
901.49229999999989
 20
1066.5536999999999
 40
44.132803000000003
 50
297.62160999999998
 51
318.23129999999998
  0
ARC
  8
_0-0_LAYER001
  6
CONTINUOUS
 62
    4
 10
951.1896999999999
 20
1252.442
 40
199.38050999999999
 50
233.65757999999997
 51
268.38172999999995
  0
ARC
  8
_0-0_LAYER001
  6
CONTINUOUS
 62
    4
 10
951.1896999999999
 20
1252.442
 40
199.38050999999999
 50
233.65757999999997
 51
268.38172999999995
  0
ARC
  8
_0-0_LAYER001
  6
CONTINUOUS
 62
    4
 10
951.1896999999999
 20
1252.442
 40
197.38050999999999
 50
233.22928000000002
 51
268.38173
  0
ARC
  8
_0-0_LAYER001
  6
CONTINUOUS
 62
    4
 10
951.1896999999999
 20
1252.442
 40
182.38050999999999
 50
231.7756
 51
268.38173
  0
ARC
  8
_0-0_LAYER001
  6
CONTINUOUS
 62
    4
 10
951.1896999999999
 20
1252.442
 40
214.38050999999999
 50
236.55438000000001
 51
268.38173
  0
ARC
  8
_0-0_LAYER001
  6
CONTINUOUS
 62
    4
 10
812.95170000000007
 20
1077.3224
 40
40.679594999999999
 50
51.535313000000002
 51
60.416449
  0
ARC
  8
_0-0_LAYER001
  6
CONTINUOUS
 62
    4
 10
927.80120000000011
 20
1069.0568000000001
 40
69.674484000000007
 50
321.65733
 51
337.34946000000002
  0
ARC
  8
_0-0_LAYER001
  6
CONTINUOUS
 62
    4
 10
941.64609999999993
 20
1345.3291999999999
 40
307.27562
 50
270.90795000000003
 51
293.21983
  0
ARC
  8
_0-0_LAYER001
  6
CONTINUOUS
 62
    4
 10
941.64609999999993
 20
1345.3291999999999
 40
275.27562
 50
270.90795000000003
 51
287.11988000000002
  0
ARC
  8
_0-0_LAYER001
  6
CONTINUOUS
 62
    4
 10
941.64609999999993
 20
1345.3291999999999
 40
292.27562
 50
270.90795000000003
 51
292.69346000000002
  0
LINE
  8
_0-0_LAYER001
  6
CONTINUOUS
 62
    4
 10
1054.4063000000001
 20
1078.1058
 11
1054.4063000000001
 21
1075.6811
  0
LINE
  8
_0-0_LAYER001
  6
CONTINUOUS
 62
    4
 10
1062.7926
 20
1062.9434000000001
 11
1062.7926
 21
1081.2507000000001
  0
LINE
  8
_0-0_LAYER001
  6
CONTINUOUS
 62
    4
 10
1054.4063000000001
 20
1078.1058
 11
1062.7926
 21
1081.2507000000001
  0
ARC
  8
_0-0_LAYER001
  6
CONTINUOUS
 62
    4
 10
941.64609999999993
 20
1345.3291999999999
 40
290.27562
 50
270.90795000000003
 51
286.23334
  0
LINE
  8
_0-0_LAYER001
  6
CONTINUOUS
 62
    4
 10
1022.7926
 20
1066.6266000000001
 11
1022.7926
 21
1082.2858000000001
  0
ARC
  8
_0-0_LAYER001
  6
CONTINUOUS
 62
    4
 10
1206.0766000000001
 20
1252.0455999999999
 40
214.38050999999999
 50
231.7756
 51
268.38173
  0
LINE
  8
_0-0_LAYER001
  6
CONTINUOUS
 62
    4
 10
1026.6849999999999
 20
1067.6404
 11
1062.875
 21
1083.7967000000001
  0
ARC
  8
_0-0_LAYER001
  6
CONTINUOUS
 62
    4
 10
1260.5458000000001
 20
1068.5432000000001
 40
52.178303999999997
 50
215.53766999999999
 51
234.46232000000001
  0
ARC
  8
_0-0_LAYER001
  6
CONTINUOUS
 62
    4
 10
1234.2171000000001
 20
1030.8394000000001
 40
6.2695089999999993
 50
234.10575000000003
 51
303.29033000000004
  0
ARC
  8
_0-0_LAYER001
  6
CONTINUOUS
 62
    4
 10
1202.7564
 20
1074.8453999999999
 40
58.841383
 50
213.2508
 51
234.31144
  0
ARC
  8
_0-0_LAYER001
  6
CONTINUOUS
 62
    4
 10
1172.8806999999999
 20
1033.6881000000001
 40
7.947610000000001
 50
234.52014000000003
 51
301.23766000000001
  0
ARC
  8
_0-0_LAYER001
  6
CONTINUOUS
 62
    4
 10
1156.3792000000001
 20
1066.1574000000001
 40
44.132803000000003
 50
297.62160999999998
 51
318.23129999999998
  0
LINE
  8
_0-0_LAYER001
  6
CONTINUOUS
 62
    4
 10
1026.6849999999999
 20
1066.2206000000001
 11
1022.6795999999999
 21
1064.3385000000001
  0
LINE
  8
_0-0_LAYER001
  6
CONTINUOUS
 62
    4
 10
1026.6849999999999
 20
1067.6404
 11
1026.6849999999999
 21
1066.2206000000001
  0
LINE
  8
_0-0_LAYER001
  6
CONTINUOUS
 62
    4
 10
1026.1594
 20
1084.3842999999999
 11
1022.7964999999999
 21
1083.0581
  0
LINE
  8
_0-0_LAYER001
  6
CONTINUOUS
 62
    4
 10
1026.1594
 20
1085.873
 11
1026.1594
 21
1084.3842999999999
  0
ARC
  8
_0-0_LAYER001
  6
CONTINUOUS
 62
    4
 10
1206.0766000000001
 20
1252.0455999999999
 40
199.38050999999999
 50
231.7756
 51
268.38173
  0
ARC
  8
_0-0_LAYER001
  6
CONTINUOUS
 62
    4
 10
1206.0766000000001
 20
1252.0455999999999
 40
199.38050999999999
 50
231.7756
 51
268.38173
  0
ARC
  8
_0-0_LAYER001
  6
CONTINUOUS
 62
    4
 10
1206.0766000000001
 20
1252.0455999999999
 40
197.38050999999999
 50
231.7756
 51
268.38173
  0
LINE
  8
_0-0_LAYER001
  6
CONTINUOUS
 62
    4
 10
1026.4143999999999
 20
1086.0975000000001
 11
1056.6944000000001
 21
1100.1449
  0
LINE
  8
_0-0_LAYER001
  6
CONTINUOUS
 62
    4
 10
1057.943
 20
1098.5840000000001
 11
1023.2927999999999
 21
1082.9757999999999
  0
ARC
  8
_0-0_LAYER001
  6
CONTINUOUS
 62
    4
 10
1206.0766000000001
 20
1252.0455999999999
 40
182.38050999999999
 50
231.7756
 51
268.38173
  0
LINE
  8
_0-0_LAYER001
  6
CONTINUOUS
 62
    4
 10
1022.6795999999999
 20
1064.3385000000001
 11
1022.6795999999999
 21
1100.9003
  0
LINE
  8
_0-0_LAYER001
  6
CONTINUOUS
 62
    4
 10
1022.6795999999999
 20
1100.9003
 11
1050.3818000000001
 21
1113.7519
  0
ARC
  8
_0-0_LAYER001
  6
CONTINUOUS
 62
    4
 10
1206.0766000000001
 20
1252.0455999999999
 40
214.38050999999999
 50
231.7756
 51
268.38173
  0
ARC
  8
_0-0_LAYER001
  6
CONTINUOUS
 62
    4
 10
1067.4907000000001
 20
1074.6527000000001
 40
27.732966999999999
 50
54.176177000000003
 51
112.93031000000001
  0
ARC
  8
_0-0_LAYER001
  6
CONTINUOUS
 62
    4
 10
1067.8386
 20
1076.9260999999999
 40
40.679594999999999
 50
51.535313000000002
 51
115.27963000000001
  0
ARC
  8
_0-0_LAYER001
  6
CONTINUOUS
 62
    4
 10
1067.4772
 20
1074.1548
 40
26.213477999999995
 50
54.56426900000001
 51
111.2666
  0
ARC
  8
_0-0_LAYER001
  6
CONTINUOUS
 62
    4
 10
1067.9880000000001
 20
1071.6934000000001
 40
13.076713
 50
65.553432000000001
 51
112.83269999999999
  0
ARC
  8
_0-0_LAYER001
  6
CONTINUOUS
 62
    4
 10
1182.6881000000001
 20
1068.6604
 40
69.674484000000007
 50
321.65733
 51
337.34946000000002
  0
ARC
  8
_0-0_LAYER001
  6
CONTINUOUS
 62
    4
 10
1196.5329999999999
 20
1344.9329
 40
307.27562
 50
270.90795000000003
 51
293.21983
  0
ARC
  8
_0-0_LAYER001
  6
CONTINUOUS
 62
    4
 10
1196.5329999999999
 20
1344.9329
 40
275.27562
 50
270.90795000000003
 51
287.11988000000002
  0
ARC
  8
_0-0_LAYER001
  6
CONTINUOUS
 62
    4
 10
1196.5329999999999
 20
1344.9329
 40
292.27562
 50
270.90795000000003
 51
292.69346000000002
  0
ARC
  8
_0-0_LAYER001
  6
CONTINUOUS
 62
    4
 10
1196.5329999999999
 20
1344.9329
 40
290.27562
 50
270.90795000000003
 51
286.23334
  0
ARC
  8
_0-0_LAYER001
  6
CONTINUOUS
 62
    4
 10
1460.7125000000001
 20
1254.4819
 40
214.38050999999999
 50
231.7756
 51
268.38173
  0
LINE
  8
_0-0_LAYER001
  6
CONTINUOUS
 62
    4
 10
1281.3208
 20
1070.0767000000001
 11
1317.5108
 21
1086.2329
  0
ARC
  8
_0-0_LAYER001
  6
CONTINUOUS
 62
    4
 10
1515.1817000000001
 20
1070.9794999999999
 40
52.178303999999997
 50
215.53766999999999
 51
234.46232000000001
  0
ARC
  8
_0-0_LAYER001
  6
CONTINUOUS
 62
    4
 10
1488.8528999999999
 20
1033.2756999999999
 40
6.2695089999999993
 50
234.10575000000003
 51
303.29033000000004
  0
ARC
  8
_0-0_LAYER001
  6
CONTINUOUS
 62
    4
 10
1457.3921999999998
 20
1077.2817
 40
58.841383
 50
213.2508
 51
234.31144
  0
ARC
  8
_0-0_LAYER001
  6
CONTINUOUS
 62
    4
 10
1427.5164999999997
 20
1036.1243999999999
 40
7.947610000000001
 50
234.52014000000003
 51
301.23766000000001
  0
ARC
  8
_0-0_LAYER001
  6
CONTINUOUS
 62
    4
 10
1411.0150000000001
 20
1068.5935999999999
 40
44.132803000000003
 50
297.62160999999998
 51
318.23129999999998
  0
LINE
  8
_0-0_LAYER001
  6
CONTINUOUS
 62
    4
 10
1281.3208
 20
1068.6568
 11
1277.3154
 21
1066.7747999999999
  0
LINE
  8
_0-0_LAYER001
  6
CONTINUOUS
 62
    4
 10
1281.3208
 20
1070.0767000000001
 11
1281.3208
 21
1068.6568
  0
LINE
  8
_0-0_LAYER001
  6
CONTINUOUS
 62
    4
 10
1280.7953
 20
1086.8206
 11
1277.4322999999999
 21
1085.4944
  0
LINE
  8
_0-0_LAYER001
  6
CONTINUOUS
 62
    4
 10
1280.7953
 20
1088.3092999999999
 11
1280.7953
 21
1086.8206
  0
ARC
  8
_0-0_LAYER001
  6
CONTINUOUS
 62
    4
 10
1460.7125000000001
 20
1254.4819
 40
199.38050999999999
 50
231.7756
 51
268.38173
  0
ARC
  8
_0-0_LAYER001
  6
CONTINUOUS
 62
    4
 10
1460.7125000000001
 20
1254.4819
 40
199.38050999999999
 50
231.7756
 51
268.38173
  0
ARC
  8
_0-0_LAYER001
  6
CONTINUOUS
 62
    4
 10
1460.7125000000001
 20
1254.4819
 40
197.38050999999999
 50
231.7756
 51
268.38173
  0
LINE
  8
_0-0_LAYER001
  6
CONTINUOUS
 62
    4
 10
1281.0502999999999
 20
1088.5337999999999
 11
1311.3302000000001
 21
1102.5811000000001
  0
LINE
  8
_0-0_LAYER001
  6
CONTINUOUS
 62
    4
 10
1312.5789
 20
1101.0202999999999
 11
1277.9286
 21
1085.4121
  0
ARC
  8
_0-0_LAYER001
  6
CONTINUOUS
 62
    4
 10
1460.7125000000001
 20
1254.4819
 40
182.38050999999999
 50
231.7756
 51
268.38173
  0
LINE
  8
_0-0_LAYER001
  6
CONTINUOUS
 62
    4
 10
1277.3154
 20
1066.7747999999999
 11
1277.3154
 21
1103.3366000000001
  0
LINE
  8
_0-0_LAYER001
  6
CONTINUOUS
 62
    4
 10
1277.3154
 20
1103.3366000000001
 11
1305.0177000000003
 21
1116.1882000000001
  0
ARC
  8
_0-0_LAYER001
  6
CONTINUOUS
 62
    4
 10
1460.7125000000001
 20
1254.4819
 40
214.38050999999999
 50
231.7756
 51
268.38173
  0
ARC
  8
_0-0_LAYER001
  6
CONTINUOUS
 62
    4
 10
1322.1264999999999
 20
1077.0889999999999
 40
27.732966999999999
 50
54.176177000000003
 51
112.93031000000001
  0
ARC
  8
_0-0_LAYER001
  6
CONTINUOUS
 62
    4
 10
1322.4744000000001
 20
1079.3623
 40
40.679594999999999
 50
51.535313000000002
 51
115.27963000000001
  0
ARC
  8
_0-0_LAYER001
  6
CONTINUOUS
 62
    4
 10
1322.1129999999998
 20
1076.5911000000001
 40
26.213477999999995
 50
54.56426900000001
 51
111.2666
  0
ARC
  8
_0-0_LAYER001
  6
CONTINUOUS
 62
    4
 10
1322.6238000000001
 20
1074.1297
 40
13.076713
 50
65.553432000000001
 51
112.83269999999999
  0
ARC
  8
_0-0_LAYER001
  6
CONTINUOUS
 62
    4
 10
1437.3238999999999
 20
1071.0967000000001
 40
69.674484000000007
 50
321.65733
 51
337.34946000000002
  0
ARC
  8
_0-0_LAYER001
  6
CONTINUOUS
 62
    4
 10
1451.1689000000001
 20
1347.3692000000001
 40
307.27562
 50
270.90795000000003
 51
293.21983
  0
ARC
  8
_0-0_LAYER001
  6
CONTINUOUS
 62
    4
 10
1715.5994000000001
 20
1254.4937
 40
214.38050999999999
 50
231.7756
 51
268.38173
  0
LINE
  8
_0-0_LAYER001
  6
CONTINUOUS
 62
    4
 10
1536.2076999999999
 20
1070.0884000000001
 11
1572.3978000000002
 21
1086.2447
  0
ARC
  8
_0-0_LAYER001
  6
CONTINUOUS
 62
    4
 10
1770.0686000000001
 20
1070.9911999999999
 40
52.178303999999997
 50
215.53766999999999
 51
234.46232000000001
  0
ARC
  8
_0-0_LAYER001
  6
CONTINUOUS
 62
    4
 10
1743.7397999999998
 20
1033.2873999999999
 40
6.2695089999999993
 50
234.10575000000003
 51
303.29033000000004
  0
ARC
  8
_0-0_LAYER001
  6
CONTINUOUS
 62
    4
 10
1712.2791000000002
 20
1077.2934
 40
58.841383
 50
213.2508
 51
234.31144
  0
ARC
  8
_0-0_LAYER001
  6
CONTINUOUS
 62
    4
 10
1682.4034999999999
 20
1036.1360999999999
 40
7.947610000000001
 50
234.52014000000003
 51
301.23766000000001
  0
ARC
  8
_0-0_LAYER001
  6
CONTINUOUS
 62
    4
 10
1665.9018999999998
 20
1068.6053999999999
 40
44.132803000000003
 50
297.62160999999998
 51
318.23129999999998
  0
LINE
  8
_0-0_LAYER001
  6
CONTINUOUS
 62
    4
 10
1826.5369000000001
 20
1102.9463000000001
 11
1818.8159999999998
 21
1099.9437
  0
LINE
  8
_0-0_LAYER001
  6
CONTINUOUS
 62
    4
 10
1536.2076999999999
 20
1070.0884000000001
 11
1536.2076999999999
 21
1068.6686
  0
LINE
  8
_0-0_LAYER001
  6
CONTINUOUS
 62
    4
 10
1535.6822000000002
 20
1086.8324
 11
1532.3191999999999
 21
1085.5062
  0
LINE
  8
_0-0_LAYER001
  6
CONTINUOUS
 62
    4
 10
1535.6822000000002
 20
1088.3210999999999
 11
1535.6822000000002
 21
1086.8324
  0
ARC
  8
_0-0_LAYER001
  6
CONTINUOUS
 62
    4
 10
1715.5994000000001
 20
1254.4937
 40
199.38050999999999
 50
231.7756
 51
268.38173
  0
ARC
  8
_0-0_LAYER001
  6
CONTINUOUS
 62
    4
 10
1715.5994000000001
 20
1254.4937
 40
199.38050999999999
 50
231.7756
 51
268.38173
  0
ARC
  8
_0-0_LAYER001
  6
CONTINUOUS
 62
    4
 10
1715.5994000000001
 20
1254.4937
 40
197.38050999999999
 50
231.7756
 51
268.38173
  0
LINE
  8
_0-0_LAYER001
  6
CONTINUOUS
 62
    4
 10
1535.9371999999998
 20
1088.5454999999999
 11
1566.2170999999998
 21
1102.5929000000001
  0
ARC
  8
_0-0_LAYER001
  6
CONTINUOUS
 62
    4
 10
1715.5994000000001
 20
1254.4937
 40
182.38050999999999
 50
231.7756
 51
268.38173
  0
LINE
  8
_0-0_LAYER001
  6
CONTINUOUS
 62
    4
 10
1532.2022999999999
 20
1103.3484000000001
 11
1559.9045999999998
 21
1116.1999000000001
  0
ARC
  8
_0-0_LAYER001
  6
CONTINUOUS
 62
    4
 10
1715.5994000000001
 20
1254.4937
 40
214.38050999999999
 50
231.7756
 51
268.38173
  0
ARC
  8
_0-0_LAYER001
  6
CONTINUOUS
 62
    4
 10
1577.0133999999998
 20
1077.1007
 40
27.732966999999999
 50
54.176177000000003
 51
112.93031000000001
  0
ARC
  8
_0-0_LAYER001
  6
CONTINUOUS
 62
    4
 10
1577.3613
 20
1079.3741
 40
40.679594999999999
 50
51.535313000000002
 51
115.27963000000001
  0
ARC
  8
_0-0_LAYER001
  6
CONTINUOUS
 62
    4
 10
1576.9998999999998
 20
1076.6027999999999
 40
26.213477999999995
 50
54.56426900000001
 51
111.2666
  0
ARC
  8
_0-0_LAYER001
  6
CONTINUOUS
 62
    4
 10
1577.5106999999998
 20
1074.1414
 40
13.076713
 50
65.553432000000001
 51
112.83269999999999
  0
LINE
  8
_0-0_LAYER001
  6
CONTINUOUS
 62
    4
 10
1787.2022999999999
 20
1068.6783
 11
1787.2022999999999
 21
1084.3373999999999
  0
ARC
  8
_0-0_LAYER001
  6
CONTINUOUS
 62
    4
 10
1706.0558000000001
 20
1347.3809000000001
 40
290.27562
 50
270.90795000000003
 51
294.66739000000001
  0
ARC
  8
_0-0_LAYER001
  6
CONTINUOUS
 62
    4
 10
1706.0558000000001
 20
1347.3809000000001
 40
275.27562
 50
270.90795000000003
 51
294.18137000000002
  0
LINE
  8
_0-0_LAYER001
  6
CONTINUOUS
 62
    4
 10
1818.8159999999998
 20
1099.9437
 11
1818.8159999999998
 21
1096.2599
  0
ARC
  8
_0-0_LAYER001
  6
CONTINUOUS
 62
    4
 10
1706.0558000000001
 20
1347.3809000000001
 40
292.27562
 50
270.90795000000003
 51
294.48746
  0
ARC
  8
_0-0_LAYER001
  6
CONTINUOUS
 62
    4
 10
1692.2107999999998
 20
1071.1085
 40
69.674484000000007
 50
321.65733
 51
337.34946000000002
  0
ARC
  8
_0-0_LAYER001
  6
CONTINUOUS
 62
    4
 10
1706.0558000000001
 20
1347.3809000000001
 40
307.27562
 50
270.90795000000003
 51
293.21983
  0
LINE
  8
_0-0_LAYER001
  6
CONTINUOUS
 62
    4
 10
1827.2022999999999
 20
1064.9949999999999
 11
1827.2022999999999
 21
1103.3484000000001
  0
ARC
  8
_0-0_LAYER001
  6
CONTINUOUS
 62
    4
 10
1451.1689000000001
 20
1347.3692000000001
 40
275.27562
 50
270.90795000000003
 51
287.11988000000002
  0
ARC
  8
_0-0_LAYER001
  6
CONTINUOUS
 62
    4
 10
1451.1689000000001
 20
1347.3692000000001
 40
290.27562
 50
270.90795000000003
 51
286.21008999999998
  0
LINE
  8
_0-0_LAYER001
  6
CONTINUOUS
 62
    4
 10
1532.2022999999999
 20
1068.6337000000001
 11
1532.2022999999999
 21
1103.3484000000001
  0
LINE
  8
_0-0_LAYER001
  6
CONTINUOUS
 62
    4
 10
1536.2076999999999
 20
1068.6686
 11
1532.3154
 21
1066.8397
  0
LINE
  8
_0-0_LAYER001
  6
CONTINUOUS
 62
    4
 10
1532.3154
 20
1066.8397
 11
1532.3154
 21
1084.3257000000001
  0
ARC
  8
_0-0_LAYER001
  6
CONTINUOUS
 62
    4
 10
1451.1689000000001
 20
1347.3692000000001
 40
292.27562
 50
270.90795000000003
 51
292.69346000000002
  0
LINE
  8
_0-0_LAYER001
  6
CONTINUOUS
 62
    4
 10
1563.9290000000001
 20
1080.1457
 11
1563.9290000000001
 21
1077.721
  0
LINE
  8
_0-0_LAYER001
  6
CONTINUOUS
 62
    4
 10
1572.3154
 20
1064.9833000000001
 11
1572.3154
 21
1083.2906
  0
LINE
  8
_0-0_LAYER001
  6
CONTINUOUS
 62
    4
 10
1563.9290000000001
 20
1080.1457
 11
1572.3154
 21
1083.2906
  0
LINE
  8
_0-0_LAYER001
  6
CONTINUOUS
 62
    4
 10
1532.6075999999998
 20
1084.7826
 11
1567.6536999999998
 21
1101.1650999999999
  0
LINE
  8
_0-0_LAYER001
  6
CONTINUOUS
 62
    4
 10
1309.4301999999998
 20
1077.77
 11
1309.4301999999998
 21
1075.5849000000001
  0
LINE
  8
_0-0_LAYER001
  6
CONTINUOUS
 62
    4
 10
1309.4301999999998
 20
1078.3943999999999
 11
1309.4301999999998
 21
1075.5849000000001
  0
LINE
  8
_0-0_LAYER001
  6
CONTINUOUS
 62
    4
 10
1309.4301999999998
 20
1078.7065
 11
1317.5464999999999
 21
1081.8281999999999
  0
LINE
  8
_0-0_LAYER001
  6
CONTINUOUS
 62
    4
 10
1317.5464999999999
 20
1063.0983000000001
 11
1317.5464999999999
 21
1081.8281999999999
  0
LINE
  8
_0-2_LAYER004
  6
CONTINUOUS
 62
    2
 10
1132.1699000000001
 20
1037.7251000000001
 11
833.03490000000011
 21
1037.7251000000001
  0
LINE
  8
_0-2_LAYER004
  6
CONTINUOUS
 62
    2
 10
1842.1489000000001
 20
1017.8351
 11
1842.1489000000001
 21
1075.2157
  0
LINE
  8
_0-2_LAYER004
  6
CONTINUOUS
 62
    2
 10
1857.1489000000001
 20
1075.2157
 11
1857.1489000000001
 21
1017.8351
  0
LINE
  8
_0-2_LAYER004
  6
CONTINUOUS
 62
    2
 10
1132.1699000000001
 20
1037.7251000000001
 11
1750.9484000000002
 21
1037.7251000000001
  0
LINE
  8
_0-2_LAYER004
  6
CONTINUOUS
 62
    2
 10
833.03490000000011
 20
1022.7251000000001
 11
1750.9484000000002
 21
1022.7251000000001
  0
LINE
  8
_0-2_LAYER004
  6
CONTINUOUS
 62
    2
 10
1750.9484000000002
 20
1037.7251000000001
 11
1750.9484000000002
 21
1022.7251000000001
  0
LINE
  8
_0-2_LAYER004
  6
CONTINUOUS
 62
    2
 10
1756.2233999999999
 20
1018.4611
 11
1756.2233999999999
 21
1037.7251000000001
  0
LINE
  8
_0-2_LAYER004
  6
CONTINUOUS
 62
    2
 10
1756.2233999999999
 20
1037.7251000000001
 11
1776.7674000000002
 21
1037.7251000000001
  0
LINE
  8
_0-2_LAYER004
  6
CONTINUOUS
 62
    2
 10
1839.6179000000002
 20
1018.4611
 11
1839.6179000000002
 21
1075.2157
  0
LINE
  8
_0-2_LAYER004
  6
CONTINUOUS
 62
    2
 10
1861.9549000000002
 20
1013.5890999999999
 11
833.03490000000011
 21
1013.5890999999999
  0
LINE
  8
_0-2_LAYER004
  6
CONTINUOUS
 62
    2
 10
1756.2233999999999
 20
1018.4611
 11
1839.6179000000002
 21
1018.4611
  0
LINE
  8
_0-2_LAYER004
  6
DASHED3
 62
    2
 10
1859.6318999999999
 20
1016.0861
 11
833.03490000000011
 21
1016.0861
  0
LINE
  8
_0-2_LAYER004
  6
DASHED3
 62
    2
 10
1859.6318999999999
 20
1016.0861
 11
1859.6318999999999
 21
1213.5890999999999
  0
LINE
  8
_0-2_LAYER004
  6
CONTINUOUS
 62
    2
 10
1857.1489000000001
 20
1017.8351
 11
1842.1489000000001
 21
1017.8351
  0
LINE
  8
_0-2_LAYER004
  6
CONTINUOUS
 62
    2
 10
1836.9549000000002
 20
1250.558
 11
1836.9549000000002
 21
1431.7511
  0
LINE
  8
_0-2_LAYER004
  6
CONTINUOUS
 62
    2
 10
1861.9549000000002
 20
1250.558
 11
1861.9549000000002
 21
973.58909999999992
  0
LINE
  8
_0-2_LAYER004
  6
CONTINUOUS
 62
    2
 10
1836.9549000000002
 20
1230.558
 11
1836.9549000000002
 21
1131.0233000000001
  0
LINE
  8
_0-5_LAYER007
  6
CONTINUOUS
 62
    2
 10
1861.9549000000002
 20
1250.558
 11
1861.9549000000002
 21
983.58909999999992
  0
LINE
  8
_0-2_LAYER004
  6
CONTINUOUS
 62
    2
 10
1836.9549000000002
 20
1336.5960999999998
 11
1919.5219000000002
 21
1419.1631000000002
  0
LINE
  8
_0-2_LAYER004
  6
CONTINUOUS
 62
    2
 10
1836.9549000000002
 20
1347.9101000000001
 11
1919.5219000000002
 21
1430.4771000000001
  0
LINE
  8
_0-2_LAYER004
  6
CONTINUOUS
 62
    2
 10
1836.9549000000002
 20
1359.2230999999997
 11
1919.5219000000002
 21
1441.7910999999999
  0
LINE
  8
_0-2_LAYER004
  6
CONTINUOUS
 62
    2
 10
1861.9549000000002
 20
843.58909999999992
 11
1060.7199000000001
 21
843.58909999999992
  0
LINE
  8
_0-2_LAYER004
  6
CONTINUOUS
 62
    2
 10
1060.7199000000001
 20
843.58909999999992
 11
833.03490000000011
 21
843.58909999999992
  0
LINE
  8
_0-2_LAYER004
  6
CONTINUOUS
 62
    2
 10
1035.3208999999999
 20
973.58909999999992
 11
905.32089999999994
 21
843.58909999999992
  0
LINE
  8
_0-2_LAYER004
  6
CONTINUOUS
 62
    2
 10
1012.6939
 20
973.58909999999992
 11
882.69389999999999
 21
843.58909999999992
  0
LINE
  8
_0-2_LAYER004
  6
CONTINUOUS
 62
    2
 10
1024.0079000000001
 20
973.58909999999992
 11
894.00790000000006
 21
843.58909999999992
  0
LINE
  8
_0-2_LAYER004
  6
CONTINUOUS
 62
    2
 10
1476.9868999999999
 20
973.58909999999992
 11
1346.9868999999999
 21
843.58909999999992
  0
LINE
  8
_0-2_LAYER004
  6
CONTINUOUS
 62
    2
 10
1454.3589000000002
 20
973.58909999999992
 11
1324.3588999999999
 21
843.58909999999992
  0
LINE
  8
_0-2_LAYER004
  6
CONTINUOUS
 62
    2
 10
1465.6729
 20
973.58909999999992
 11
1335.6729
 21
843.58909999999992
  0
LINE
  8
_0-1_LAYER003
  6
CONTINUOUS
 62
    7
 10
833.03490000000011
 20
1037.7251000000001
 11
1750.9484000000002
 21
1037.7251000000001
  0
LINE
  8
_0-1_LAYER003
  6
CONTINUOUS
 62
    7
 10
1750.9484000000002
 20
1037.7251000000001
 11
1750.9484000000002
 21
1022.7251000000001
  0
LINE
  8
_0-1_LAYER003
  6
CONTINUOUS
 62
    7
 10
1750.9484000000002
 20
1022.7251000000001
 11
833.03490000000011
 21
1022.7251000000001
  0
LINE
  8
_0-1_LAYER003
  6
CONTINUOUS
 62
    7
 10
833.03490000000011
 20
1016.0861
 11
1859.6318999999999
 21
1016.0861
  0
LINE
  8
_0-1_LAYER003
  6
CONTINUOUS
 62
    7
 10
1859.6318999999999
 20
1016.0861
 11
1859.6318999999999
 21
1213.5890999999999
  0
LINE
  8
_0-1_LAYER003
  6
CONTINUOUS
 62
    7
 10
1837.4281542749557
 20
1250.5579996653159
 11
1837.4281542749557
 21
1431.7511
  0
LINE
  8
_0-1_LAYER003
  6
CONTINUOUS
 62
    7
 10
1760.7858000000001
 20
1378.2309
 11
1679.7858000000001
 21
1378.2309
  0
LINE
  8
_0-1_LAYER003
  6
CONTINUOUS
 62
    7
 10
1630.5556999999999
 20
1322.2118
 11
1711.5556999999999
 21
1322.2118
  0
LINE
  8
_0-1_LAYER003
  6
CONTINUOUS
 62
    7
 10
1712.4956999999999
 20
1276.3642
 11
1478.4956999999999
 21
1276.3642
  0
LINE
  8
_0-1_LAYER003
  6
CONTINUOUS
 62
    7
 10
1577.3400999999999
 20
1237.1265000000001
 11
1707.8400999999999
 21
1237.1265000000001
  0
LINE
  8
_0-1_LAYER003
  6
CONTINUOUS
 62
    7
 10
1836.9549000000002
 20
1250.558
 11
1836.9549000000002
 21
1431.7511
  0
LINE
  8
_0-1_LAYER003
  6
CONTINUOUS
 62
    7
 10
1836.9549000000002
 20
1250.558
 11
1861.9549000000002
 21
1250.558
  0
LINE
  8
_0-1_LAYER003
  6
CONTINUOUS
 62
    7
 10
1861.9549000000002
 20
1250.558
 11
1861.9549000000002
 21
974.61860000000001
  0
LINE
  8
_0-1_LAYER003
  6
CONTINUOUS
 62
    7
 10
1861.9549000000002
 20
973.58909999999992
 11
1861.9549000000002
 21
974.61860000000001
  0
LINE
  8
_0-1_LAYER003
  6
CONTINUOUS
 62
    7
 10
1861.9549000000002
 20
974.61860000000001
 11
1861.9549000000002
 21
973.58909999999992
  0
LINE
  8
_0-1_LAYER003
  6
CONTINUOUS
 62
    7
 10
1861.9549000000002
 20
973.58909999999992
 11
833.03490000000011
 21
973.58909999999992
  0
LINE
  8
_0-1_LAYER003
  6
CONTINUOUS
 62
    7
 10
833.03490000000011
 20
1013.5890999999999
 11
1861.9549000000002
 21
1013.5890999999999
  0
LINE
  8
_0-1_LAYER003
  6
CONTINUOUS
 62
    7
 10
1776.7674000000002
 20
1037.7251000000001
 11
1756.2233999999999
 21
1037.7251000000001
  0
LINE
  8
_0-1_LAYER003
  6
CONTINUOUS
 62
    7
 10
1756.2233999999999
 20
1037.7251000000001
 11
1756.2233999999999
 21
1018.4611
  0
LINE
  8
_0-1_LAYER003
  6
CONTINUOUS
 62
    7
 10
1756.2233999999999
 20
1018.4611
 11
1839.6179000000002
 21
1018.4611
  0
LINE
  8
_0-1_LAYER003
  6
CONTINUOUS
 62
    7
 10
1839.6179000000002
 20
1018.4611
 11
1839.6179000000002
 21
1075.2157
  0
LINE
  8
_0-1_LAYER003
  6
CONTINUOUS
 62
    7
 10
1839.6179000000002
 20
1075.2157
 11
1831.9549000000002
 21
1075.2157
  0
LINE
  8
_0-1_LAYER003
  6
CONTINUOUS
 62
    7
 10
1831.9549000000002
 20
1075.2157
 11
1861.9549000000002
 21
1075.2157
  0
LINE
  8
_0-1_LAYER003
  6
CONTINUOUS
 62
    7
 10
1857.1489000000001
 20
1075.2157
 11
1857.1489000000001
 21
1017.8351
  0
LINE
  8
_0-1_LAYER003
  6
CONTINUOUS
 62
    7
 10
1857.1489000000001
 20
1017.8351
 11
1842.1489000000001
 21
1017.8351
  0
LINE
  8
_0-1_LAYER003
  6
CONTINUOUS
 62
    7
 10
1842.1489000000001
 20
1017.8351
 11
1842.1489000000001
 21
1075.2157
  0
LINE
  8
_0-1_LAYER003
  6
CONTINUOUS
 62
    7
 10
1831.9549000000002
 20
1075.2157
 11
1831.9549000000002
 21
1112.1648163735358
  0
LINE
  8
_0-1_LAYER003
  6
CONTINUOUS
 62
    7
 10
1837.9548
 20
1098.2156
 11
1837.9548
 21
1092.2157
  0
LINE
  8
_0-1_LAYER003
  6
CONTINUOUS
 62
    7
 10
1837.9548
 20
1092.2157
 11
1861.9549000000002
 21
1092.2157
  0
LINE
  8
_0-1_LAYER003
  6
CONTINUOUS
 62
    7
 10
1861.9549000000002
 20
1098.2156
 11
1837.9548
 21
1098.2156
  0
LINE
  8
_0-1_LAYER003
  6
CONTINUOUS
 62
    7
 10
1861.9549000000002
 20
1099.4657
 11
1880.1547999999998
 21
1099.4657
  0
LINE
  8
_0-1_LAYER003
  6
CONTINUOUS
 62
    7
 10
1861.9549000000002
 20
1090.9657
 11
1880.1547999999998
 21
1090.9657
  0
LINE
  8
_0-1_LAYER003
  6
CONTINUOUS
 62
    7
 10
1836.9549000000002
 20
1131.0233000000001
 11
1836.9549000000002
 21
1230.558
  0
LINE
  8
_0-1_LAYER003
  6
CONTINUOUS
 62
    7
 10
1836.9549000000002
 20
1230.558
 11
1861.9549000000002
 21
1230.558
  0
LINE
  8
_0-1_LAYER003
  6
CONTINUOUS
 62
    7
 10
1857.8998999999999
 20
1230.558
 11
1857.8998999999999
 21
1250.558
  0
LINE
  8
_0-1_LAYER003
  6
CONTINUOUS
 62
    7
 10
1852.4378999999999
 20
1230.558
 11
1852.4378999999999
 21
1249.5940000000001
  0
LINE
  8
_0-1_LAYER003
  6
CONTINUOUS
 62
    7
 10
1852.4378999999999
 20
1249.5940000000001
 11
1852.4378999999999
 21
1250.558
  0
LINE
  8
_0-1_LAYER003
  6
CONTINUOUS
 62
    7
 10
1836.9549000000002
 20
1201.7057
 11
1746.9549000000002
 21
1201.7057
  0
LINE
  8
_0-1_LAYER003
  6
CONTINUOUS
 62
    7
 10
1746.9549000000002
 20
1203.4057
 11
1746.9549000000002
 21
1150.1697999999999
  0
LINE
  8
_0-1_LAYER003
  6
CONTINUOUS
 62
    7
 10
1931.2664
 20
1251.0233000000001
 11
1982.9664
 21
1251.0233000000001
  0
LINE
  8
_0-1_LAYER003
  6
CONTINUOUS
 62
    7
 10
1981.2664
 20
1251.0233000000001
 11
1981.2664
 21
1013.5890999999999
  0
LINE
  8
_0-1_LAYER003
  6
CONTINUOUS
 62
    7
 10
1982.9664
 20
1013.5890999999999
 11
1931.2664
 21
1013.5890999999999
  0
LINE
  8
_0-1_LAYER003
  6
CONTINUOUS
 62
    7
 10
1931.2664
 20
1075.2157
 11
1982.9664
 21
1075.2157
  0
LINE
  8
_0-1_LAYER003
  6
CONTINUOUS
 62
    7
 10
1931.2664
 20
1131.0233000000001
 11
1982.9664
 21
1131.0233000000001
  0
LINE
  8
_0-1_LAYER003
  6
CONTINUOUS
 62
    7
 10
1931.2664
 20
1231.0233000000001
 11
1982.9664
 21
1231.0233000000001
  0
LINE
  8
_0-1_LAYER003
  6
CONTINUOUS
 62
    7
 10
2013.4843999999998
 20
1213.5890999999999
 11
2065.1844000000001
 21
1213.5890999999999
  0
LINE
  8
_0-1_LAYER003
  6
CONTINUOUS
 62
    7
 10
2063.4843999999998
 20
1213.5890999999999
 11
2063.4843999999998
 21
1013.5890999999999
  0
LINE
  8
_0-1_LAYER003
  6
CONTINUOUS
 62
    7
 10
2063.4843999999998
 20
1013.5890999999999
 11
2065.1844000000001
 21
1013.5890999999999
  0
LINE
  8
_0-1_LAYER003
  6
CONTINUOUS
 62
    7
 10
2063.4843999999998
 20
1013.5890999999999
 11
2013.4843999999998
 21
1013.5890999999999
  0
LINE
  8
_0-1_LAYER003
  6
CONTINUOUS
 62
    7
 10
1861.9549000000002
 20
843.58909999999992
 11
833.03490000000011
 21
843.58909999999992
  0
LINE
  8
_0-1_LAYER003
  6
CONTINUOUS
 62
    7
 10
1025.7601999999999
 20
810.26250000000005
 11
1025.7601999999999
 21
760.26250000000005
  0
LINE
  8
_0-1_LAYER003
  6
CONTINUOUS
 62
    7
 10
1025.7601999999999
 20
760.26250000000005
 11
1025.7601999999999
 21
758.5625
  0
LINE
  8
_0-1_LAYER003
  6
CONTINUOUS
 62
    7
 10
1025.7601999999999
 20
760.26250000000005
 11
1830.7602000000002
 21
760.26250000000005
  0
LINE
  8
_0-1_LAYER003
  6
CONTINUOUS
 62
    7
 10
1830.7602000000002
 20
758.5625
 11
1830.7602000000002
 21
810.26250000000005
  0
LINE
  8
_0-1_LAYER003
  6
CONTINUOUS
 62
    7
 10
1535.7602000000002
 20
758.5625
 11
1535.7602000000002
 21
810.26250000000005
  0
LINE
  8
_0-1_LAYER003
  6
CONTINUOUS
 62
    7
 10
1280.7601999999999
 20
760.26250000000005
 11
1280.7601999999999
 21
810.26250000000005
  0
LINE
  8
_0-1_LAYER003
  6
CONTINUOUS
 62
    7
 10
1339.4016999999999
 20
718.1706999999999
 11
1544.2244000000001
 21
718.1706999999999
  0
LINE
  8
_0-1_LAYER003
  6
CONTINUOUS
 62
    7
 10
1544.2244000000001
 20
718.1706999999999
 11
1339.7871504989707
 21
718.1706999999999
  0
LINE
  8
_0-1_LAYER003
  6
CONTINUOUS
 62
    7
 10
1356.6278
 20
658.41619999999989
 11
1613.9484000000002
 21
658.41619999999989
  0
LINE
  8
_0-1_LAYER003
  6
CONTINUOUS
 62
    7
 10
1501.1487000000002
 20
920.18389999999999
 11
1568.7987000000001
 21
920.18389999999999
  0
LINE
  8
_0-1_LAYER003
  6
CONTINUOUS
 62
    7
 10
1180.4429
 20
906.63490000000002
 11
1248.0929000000001
 21
906.63490000000002
  0
LINE
  8
_0-1_LAYER003
  6
CONTINUOUS
 62
    7
 10
1150.7122999999999
 20
990.0313000000001
 11
1160.7122999999999
 21
990.0313000000001
  0
LINE
  8
_0-1_LAYER003
  6
CONTINUOUS
 62
    7
 10
1160.7122999999999
 20
990.0313000000001
 11
1160.7122999999999
 21
926.01260000000002
  0
LINE
  8
_0-1_LAYER003
  6
CONTINUOUS
 62
    7
 10
1160.7122999999999
 20
926.01260000000002
 11
1129.3422
 21
926.01260000000002
  0
LINE
  8
_0-1_LAYER003
  6
CONTINUOUS
 62
    7
 10
1129.3422
 20
926.01260000000002
 11
1129.3422
 21
936.01260000000002
  0
LINE
  8
_0-1_LAYER003
  6
CONTINUOUS
 62
    7
 10
1129.3422
 20
936.01260000000002
 11
1150.7122999999999
 21
936.01260000000002
  0
LINE
  8
_0-1_LAYER003
  6
CONTINUOUS
 62
    7
 10
1150.7122999999999
 20
936.01260000000002
 11
1150.7122999999999
 21
990.0313000000001
  0
LINE
  8
_0-1_LAYER003
  6
CONTINUOUS
 62
    7
 10
1750.7123000000001
 20
990.0313000000001
 11
1760.7123000000001
 21
990.0313000000001
  0
LINE
  8
_0-1_LAYER003
  6
CONTINUOUS
 62
    7
 10
1760.7123000000001
 20
990.0313000000001
 11
1760.7123000000001
 21
926.01260000000002
  0
LINE
  8
_0-1_LAYER003
  6
CONTINUOUS
 62
    7
 10
1760.7123000000001
 20
926.01260000000002
 11
1729.3422
 21
926.01260000000002
  0
LINE
  8
_0-1_LAYER003
  6
CONTINUOUS
 62
    7
 10
1729.3422
 20
926.01260000000002
 11
1729.3422
 21
936.01260000000002
  0
LINE
  8
_0-1_LAYER003
  6
CONTINUOUS
 62
    7
 10
1729.3422
 20
936.01260000000002
 11
1750.7123000000001
 21
936.01260000000002
  0
LINE
  8
_0-1_LAYER003
  6
CONTINUOUS
 62
    7
 10
1750.7123000000001
 20
936.01260000000002
 11
1750.7123000000001
 21
990.0313000000001
  0
LINE
  8
_0-1_LAYER003
  6
CONTINUOUS
 62
    7
 10
1915.7487999999998
 20
929.91810000000009
 11
2067.6992
 21
929.91810000000009
  0
LINE
  8
_0-1_LAYER003
  6
CONTINUOUS
 62
    7
 10
1902.9650000000001
 20
871.95669999999996
 11
2136.9650000000001
 21
871.95669999999996
  0
LINE
  8
_0-1_LAYER003
  6
CONTINUOUS
 62
    7
 10
1348.9488000000001
 20
1161.9362000000001
 11
1389.4487999999999
 21
1161.9362000000001
  0
LINE
  8
_0-1_LAYER003
  6
CONTINUOUS
 62
    7
 10
882.69389999999999
 20
843.58909999999992
 11
1012.6939
 21
973.58909999999992
  0
LINE
  8
_0-1_LAYER003
  6
CONTINUOUS
 62
    7
 10
894.00790000000006
 20
843.58909999999992
 11
1024.0079000000001
 21
973.58909999999992
  0
LINE
  8
_0-1_LAYER003
  6
CONTINUOUS
 62
    7
 10
905.32089999999994
 20
843.58909999999992
 11
1035.3208999999999
 21
973.58909999999992
  0
LINE
  8
_0-1_LAYER003
  6
CONTINUOUS
 62
    7
 10
1155.8145999999999
 20
949.29230000000007
 11
1157.7556999999999
 21
942.04790000000003
  0
LINE
  8
_0-1_LAYER003
  6
CONTINUOUS
 62
    7
 10
1155.8145999999999
 20
949.29230000000007
 11
1160.7122999999999
 21
944.39460000000008
  0
LINE
  8
_0-1_LAYER003
  6
CONTINUOUS
 62
    7
 10
1155.8145999999999
 20
949.29230000000007
 11
1180.4429
 21
906.63490000000002
  0
LINE
  8
_0-1_LAYER003
  6
CONTINUOUS
 62
    7
 10
1257.3887999999999
 20
1025.6854000000001
 11
1257.3887999999999
 21
1018.1854000000001
  0
LINE
  8
_0-1_LAYER003
  6
CONTINUOUS
 62
    7
 10
1257.3887999999999
 20
1025.6854000000001
 11
1261.1387999999999
 21
1019.1902
  0
LINE
  8
_0-1_LAYER003
  6
CONTINUOUS
 62
    7
 10
1257.3887999999999
 20
1025.6854000000001
 11
1355.8539000000001
 21
658.20880000000011
  0
LINE
  8
_0-1_LAYER003
  6
CONTINUOUS
 62
    7
 10
1324.3588999999999
 20
843.58909999999992
 11
1454.3589000000002
 21
973.58909999999992
  0
LINE
  8
_0-1_LAYER003
  6
CONTINUOUS
 62
    7
 10
1465.6729
 20
973.58909999999992
 11
1335.6729
 21
843.58909999999992
  0
LINE
  8
_0-1_LAYER003
  6
CONTINUOUS
 62
    7
 10
1346.9868999999999
 20
843.58909999999992
 11
1476.9868999999999
 21
973.58909999999992
  0
LINE
  8
_0-1_LAYER003
  6
CONTINUOUS
 62
    7
 10
1463.6860999999999
 20
985.07099999999991
 11
1465.6273000000001
 21
977.8266000000001
  0
LINE
  8
_0-1_LAYER003
  6
CONTINUOUS
 62
    7
 10
1463.6860999999999
 20
985.07099999999991
 11
1468.9893999999999
 21
979.7677000000001
  0
LINE
  8
_0-1_LAYER003
  6
CONTINUOUS
 62
    7
 10
1463.6860999999999
 20
985.07099999999991
 11
1501.1487000000002
 21
920.18389999999999
  0
LINE
  8
_0-1_LAYER003
  6
CONTINUOUS
 62
    7
 10
1451.2975999999999
 20
1058.6931
 11
1453.2388000000001
 21
1051.4486999999999
  0
LINE
  8
_0-1_LAYER003
  6
CONTINUOUS
 62
    7
 10
1453.2388000000001
 20
1051.4486999999999
 11
1447.9355
 21
1056.752
  0
LINE
  8
_0-1_LAYER003
  6
CONTINUOUS
 62
    7
 10
1453.2388000000001
 20
1051.4486999999999
 11
1389.4487999999999
 21
1161.9362000000001
  0
LINE
  8
_0-1_LAYER003
  6
CONTINUOUS
 62
    7
 10
1749.8708999999999
 20
1094.9056
 11
1744.5738999999999
 21
1088.9466
  0
LINE
  8
_0-1_LAYER003
  6
CONTINUOUS
 62
    7
 10
1744.5738999999999
 20
1088.9466
 11
1746.9549000000002
 21
1114.5376000000001
  0
LINE
  8
_0-1_LAYER003
  6
CONTINUOUS
 62
    7
 10
1746.9549000000002
 20
1114.5376000000001
 11
1836.9549000000002
 21
1131.0233000000001
  0
LINE
  8
_0-1_LAYER003
  6
CONTINUOUS
 62
    7
 10
1847.0198999999998
 20
1130.1732999999999
 11
1758.4919
 21
1113.9583
  0
LINE
  8
_0-1_LAYER003
  6
CONTINUOUS
 62
    7
 10
1758.4919
 20
1113.9583
 11
1761.1949
 21
1099.2032999999999
  0
LINE
  8
_0-1_LAYER003
  6
CONTINUOUS
 62
    7
 10
1761.1949
 20
1099.2032999999999
 11
1849.7219
 21
1115.4193
  0
LINE
  8
_0-1_LAYER003
  6
CONTINUOUS
 62
    7
 10
1849.7219
 20
1115.4193
 11
1847.0198999999998
 21
1130.1732999999999
  0
LINE
  8
_0-1_LAYER003
  6
CONTINUOUS
 62
    7
 10
1849.7219
 20
1115.4193
 11
1758.4919
 21
1113.9583
  0
LINE
  8
_0-1_LAYER003
  6
CONTINUOUS
 62
    7
 10
1775.808
 20
1115.5202999999999
 11
1781.1113
 21
1110.2170000000001
  0
LINE
  8
_0-1_LAYER003
  6
CONTINUOUS
 62
    7
 10
1781.1113
 20
1110.2170000000001
 11
1779.1702
 21
1117.4614999999999
  0
LINE
  8
_0-1_LAYER003
  6
CONTINUOUS
 62
    7
 10
1781.1113
 20
1110.2170000000001
 11
1707.8400999999999
 21
1237.1265000000001
  0
LINE
  8
_0-1_LAYER003
  6
CONTINUOUS
 62
    7
 10
1798.1743000000001
 20
1131.8468
 11
1800.1154000000001
 21
1124.6024
  0
LINE
  8
_0-1_LAYER003
  6
CONTINUOUS
 62
    7
 10
1800.1154000000001
 20
1124.6024
 11
1794.8121000000001
 21
1129.9057
  0
LINE
  8
_0-1_LAYER003
  6
CONTINUOUS
 62
    7
 10
1832.8647999999998
 20
1108.2158999999999
 11
1838.1680999999999
 21
1102.9126000000001
  0
LINE
  8
_0-1_LAYER003
  6
CONTINUOUS
 62
    7
 10
1838.1680999999999
 20
1102.9126000000001
 11
1836.2269999999999
 21
1110.1569999999999
  0
LINE
  8
_0-1_LAYER003
  6
CONTINUOUS
 62
    7
 10
1838.1680999999999
 20
1102.9126000000001
 11
1711.5556999999999
 21
1322.2118
  0
LINE
  8
_0-1_LAYER003
  6
CONTINUOUS
 62
    7
 10
1712.4956999999999
 20
1276.3642
 11
1800.1154000000001
 21
1124.6024
  0
LINE
  8
_0-1_LAYER003
  6
CONTINUOUS
 62
    7
 10
1760.7858000000001
 20
1378.2309
 11
1841.4654822047423
 21
1238.6216764257895
  0
LINE
  8
_0-1_LAYER003
  6
CONTINUOUS
 62
    7
 10
1841.4654822047423
 20
1238.6216764257895
 11
1836.2282
 21
1243.6786
  0
LINE
  8
_0-1_LAYER003
  6
CONTINUOUS
 62
    7
 10
1841.2932285383317
 20
1238.7879981156209
 11
1839.8485000000001
 21
1245.4878000000001
  0
LINE
  8
_0-1_LAYER003
  6
CONTINUOUS
 62
    7
 10
1852.4378999999999
 20
1250.558
 11
1857.8998999999999
 21
1230.558
  0
LINE
  8
_0-1_LAYER003
  6
CONTINUOUS
 62
    7
 10
1852.4378999999999
 20
1230.558
 11
1857.8998999999999
 21
1250.558
  0
ARC
  8
_0-1_LAYER003
  6
CONTINUOUS
 62
    7
 10
1820.1358000000002
 20
1239.1905999999999
 40
20.694039999999916
 50
335.49167999999992
 51
33.319545000000069
  0
LINE
  8
_0-1_LAYER003
  6
CONTINUOUS
 62
    7
 10
1829.4648000000002
 20
1125.0102999999999
 11
1837.5355
 21
1128.7729999999999
  0
LINE
  8
_0-1_LAYER003
  6
CONTINUOUS
 62
    7
 10
1837.5355
 20
1128.7729999999999
 11
1835.8530999999998
 21
1126.2284
  0
LINE
  8
_0-1_LAYER003
  6
CONTINUOUS
 62
    7
 10
1835.8530999999998
 20
1126.2284
 11
1847.2637
 21
1101.7556
  0
LINE
  8
_0-1_LAYER003
  6
CONTINUOUS
 62
    7
 10
1847.2637
 20
1101.7556
 11
1849.3609000000001
 21
1093.1215
  0
LINE
  8
_0-1_LAYER003
  6
CONTINUOUS
 62
    7
 10
1849.3609000000001
 20
1093.1215
 11
1843.9045999999998
 21
1100.1893
  0
LINE
  8
_0-1_LAYER003
  6
CONTINUOUS
 62
    7
 10
1843.9045999999998
 20
1100.1893
 11
1832.4935999999998
 21
1124.6636000000001
  0
LINE
  8
_0-1_LAYER003
  6
CONTINUOUS
 62
    7
 10
1832.4935999999998
 20
1124.6636000000001
 11
1829.4648000000002
 21
1125.0102999999999
  0
LINE
  8
_0-1_LAYER003
  6
CONTINUOUS
 62
    7
 10
1849.7219
 20
1115.2157
 11
1861.9549000000002
 21
1115.2157
  0
LINE
  8
_0-1_LAYER003
  6
CONTINUOUS
 62
    7
 10
1861.9549000000002
 20
1075.2157
 11
1834.1695
 21
1112.2628999999999
  0
LINE
  8
_0-1_LAYER003
  6
CONTINUOUS
 62
    7
 10
1880.1547999999998
 20
1099.4657
 11
1889.2487000000001
 21
1101.0697
  0
LINE
  8
_0-1_LAYER003
  6
CONTINUOUS
 62
    7
 10
1889.2487000000001
 20
1101.0697
 11
1889.2487000000001
 21
1101.0707
  0
LINE
  8
_0-1_LAYER003
  6
CONTINUOUS
 62
    7
 10
1889.2487000000001
 20
1101.0707
 11
1889.5448000000001
 21
1099.3967
  0
LINE
  8
_0-1_LAYER003
  6
CONTINUOUS
 62
    7
 10
1889.5448000000001
 20
1099.3967
 11
1891.2188000000001
 21
1099.6917000000001
  0
LINE
  8
_0-1_LAYER003
  6
CONTINUOUS
 62
    7
 10
1891.2188000000001
 20
1099.6917000000001
 11
1890.9229543355514
 21
1101.3647272220285
  0
LINE
  8
_0-1_LAYER003
  6
CONTINUOUS
 62
    7
 10
1890.9229543355514
 20
1101.3647272220285
 11
1893.5817999999999
 21
1101.8347000000001
  0
LINE
  8
_0-1_LAYER003
  6
CONTINUOUS
 62
    7
 10
1893.5817999999999
 20
1101.8347000000001
 11
1893.8778000000002
 21
1100.1606999999999
  0
LINE
  8
_0-1_LAYER003
  6
CONTINUOUS
 62
    7
 10
1893.8778000000002
 20
1100.1606999999999
 11
1895.5518999999999
 21
1100.4557
  0
LINE
  8
_0-1_LAYER003
  6
CONTINUOUS
 62
    7
 10
1895.5518999999999
 20
1100.4557
 11
1895.2559715202533
 21
1102.1288302531023
  0
LINE
  8
_0-1_LAYER003
  6
CONTINUOUS
 62
    7
 10
1895.2559715202533
 20
1102.1288302531023
 11
1897.9148
 21
1102.5978
  0
LINE
  8
_0-1_LAYER003
  6
CONTINUOUS
 62
    7
 10
1897.9148
 20
1102.5978
 11
1898.2107000000001
 21
1100.9247
  0
LINE
  8
_0-1_LAYER003
  6
CONTINUOUS
 62
    7
 10
1898.2107000000001
 20
1100.9247
 11
1899.8847999999998
 21
1101.2197000000001
  0
LINE
  8
_0-1_LAYER003
  6
CONTINUOUS
 62
    7
 10
1899.8847999999998
 20
1101.2197000000001
 11
1899.589088549938
 21
1102.8926333132958
  0
LINE
  8
_0-1_LAYER003
  6
CONTINUOUS
 62
    7
 10
1899.589088549938
 20
1102.8926333132958
 11
1901.066841138907
 21
1103.1554593242563
  0
LINE
  8
_0-1_LAYER003
  6
CONTINUOUS
 62
    7
 10
1901.066841138907
 20
1103.1554593242563
 11
1902.7988313622893
 21
1101.9447057996454
  0
LINE
  8
_0-1_LAYER003
  6
CONTINUOUS
 62
    7
 10
1902.7988313622893
 20
1101.9447057996454
 11
1903.2037999999998
 21
1099.6727000000001
  0
LINE
  8
_0-1_LAYER003
  6
CONTINUOUS
 62
    7
 10
1903.2037999999998
 20
1099.6727000000001
 11
1877.9308999999998
 21
1095.2167999999999
  0
LINE
  8
_0-1_LAYER003
  6
CONTINUOUS
 62
    7
 10
1877.9308999999998
 20
1095.2167999999999
 11
1903.0288
 21
1090.7907
  0
LINE
  8
_0-1_LAYER003
  6
CONTINUOUS
 62
    7
 10
1903.0288
 20
1090.7907
 11
1902.6309000000001
 21
1088.5257999999999
  0
LINE
  8
_0-1_LAYER003
  6
CONTINUOUS
 62
    7
 10
1902.6309000000001
 20
1088.5257999999999
 11
1900.8919000000001
 21
1087.3097
  0
LINE
  8
_0-1_LAYER003
  6
CONTINUOUS
 62
    7
 10
1900.8919000000001
 20
1087.3097
 11
1899.4148
 21
1087.5708
  0
LINE
  8
_0-1_LAYER003
  6
CONTINUOUS
 62
    7
 10
1899.4148
 20
1087.5708
 11
1899.7107999999998
 21
1089.2437
  0
LINE
  8
_0-1_LAYER003
  6
CONTINUOUS
 62
    7
 10
1899.7107999999998
 20
1089.2437
 11
1898.0367999999999
 21
1089.5386000000001
  0
LINE
  8
_0-1_LAYER003
  6
CONTINUOUS
 62
    7
 10
1898.0367999999999
 20
1089.5386000000001
 11
1897.7408999999998
 21
1087.8657000000001
  0
LINE
  8
_0-1_LAYER003
  6
CONTINUOUS
 62
    7
 10
1897.7408999999998
 20
1087.8657000000001
 11
1895.0817999999999
 21
1088.3347000000001
  0
LINE
  8
_0-1_LAYER003
  6
CONTINUOUS
 62
    7
 10
1895.0817999999999
 20
1088.3347000000001
 11
1895.3768
 21
1090.0077000000001
  0
LINE
  8
_0-1_LAYER003
  6
CONTINUOUS
 62
    7
 10
1895.3768
 20
1090.0077000000001
 11
1893.7038697520679
 21
1090.3025290956091
  0
LINE
  8
_0-1_LAYER003
  6
CONTINUOUS
 62
    7
 10
1893.7038697520679
 20
1090.3025290956091
 11
1893.4078
 21
1088.6297
  0
LINE
  8
_0-1_LAYER003
  6
CONTINUOUS
 62
    7
 10
1893.4078
 20
1088.6297
 11
1890.7487000000001
 21
1089.0987
  0
LINE
  8
_0-1_LAYER003
  6
CONTINUOUS
 62
    7
 10
1890.7487000000001
 20
1089.0987
 11
1891.0437999999999
 21
1090.7716
  0
LINE
  8
_0-1_LAYER003
  6
CONTINUOUS
 62
    7
 10
1891.0437999999999
 20
1090.7716
 11
1889.3708000000001
 21
1091.0667000000001
  0
LINE
  8
_0-1_LAYER003
  6
CONTINUOUS
 62
    7
 10
1889.3708000000001
 20
1091.0667000000001
 11
1889.0747999999999
 21
1089.3938000000001
  0
LINE
  8
_0-1_LAYER003
  6
CONTINUOUS
 62
    7
 10
1889.0747999999999
 20
1089.3938000000001
 11
1880.1547999999998
 21
1090.9657
  0
LINE
  8
_0-1_LAYER003
  6
CONTINUOUS
 62
    7
 10
1837.9548
 20
1098.2156
 11
1831.9549000000002
 21
1101.2157
  0
LINE
  8
_0-1_LAYER003
  6
CONTINUOUS
 62
    7
 10
1837.9548
 20
1092.2157
 11
1831.9549000000002
 21
1089.2156
  0
LINE
  8
_0-1_LAYER003
  6
CONTINUOUS
 62
    7
 10
1839.6179000000002
 20
1075.2157
 11
1833.2168000000001
 21
1064.617
  0
LINE
  8
_0-1_LAYER003
  6
CONTINUOUS
 62
    7
 10
1857.1489000000001
 20
1075.2157
 11
1842.1489000000001
 21
1017.8351
  0
LINE
  8
_0-1_LAYER003
  6
CONTINUOUS
 62
    7
 10
1849.9569999999999
 20
1043.8729000000001
 11
1855.2602999999999
 21
1038.5696
  0
LINE
  8
_0-1_LAYER003
  6
CONTINUOUS
 62
    7
 10
1849.9569999999999
 20
1043.8729000000001
 11
1851.8980999999999
 21
1036.6285
  0
LINE
  8
_0-1_LAYER003
  6
CONTINUOUS
 62
    7
 10
1849.9569999999999
 20
1043.8729000000001
 11
1915.7487999999998
 21
929.91810000000009
  0
LINE
  8
_0-1_LAYER003
  6
CONTINUOUS
 62
    7
 10
1818.3139000000001
 20
1018.5768
 11
1820.2550999999999
 21
1011.3323
  0
LINE
  8
_0-1_LAYER003
  6
CONTINUOUS
 62
    7
 10
1823.6172000000001
 20
1013.2735
 11
1818.3139000000001
 21
1018.5768
  0
LINE
  8
_0-1_LAYER003
  6
CONTINUOUS
 62
    7
 10
1818.34490239354
 20
1018.4611
 11
1902.9650000000001
 21
871.95669999999996
  0
LINE
  8
_0-1_LAYER003
  6
CONTINUOUS
 62
    7
 10
1836.9549000000002
 20
1359.2230999999997
 11
1919.5219000000002
 21
1441.7910999999999
  0
LINE
  8
_0-1_LAYER003
  6
CONTINUOUS
 62
    7
 10
1919.5219000000002
 20
1430.4771000000001
 11
1836.9549000000002
 21
1347.9101000000001
  0
LINE
  8
_0-1_LAYER003
  6
CONTINUOUS
 62
    7
 10
1919.5219000000002
 20
1419.1631000000002
 11
1837.4281542749557
 21
1337.0693542749555
  0
LINE
  8
_0-0_LAYER001
  6
CONTINUOUS
 62
    7
 10
1478.4956999999999
 20
1276.3642
 11
1375.5909898506957
 21
1276.3642
  0
LINE
  8
_0-0_LAYER001
  6
CONTINUOUS
 62
    7
 10
1679.7858000000001
 20
1378.2309
 11
1668.9888544379305
 21
1378.2309
  0
LINE
  8
_0-0_LAYER001
  6
CONTINUOUS
 62
    7
 10
1348.9488000000001
 20
1161.9362000000001
 11
1329.2650112316585
 21
1161.9362000000001
  0
LINE
  8
_0-0_LAYER001
  6
CONTINUOUS
 62
    7
 10
2136.9650000000001
 20
871.95669999999996
 11
2231.0773950155813
 21
871.95669999999996
  0
LINE
  8
_0-0_LAYER001
  6
CONTINUOUS
 62
    7
 10
1630.5556999999999
 20
1322.2118
 11
1616.4860786696886
 21
1322.2118
  0
LINE
  8
_0-0_LAYER001
  6
CONTINUOUS
 62
    7
 10
1568.7987000000001
 20
920.18389999999999
 11
1587.1462922109652
 21
920.18389999999999
  0
LINE
  8
_0-0_LAYER001
  6
CONTINUOUS
 62
    7
 10
1248.0929000000001
 20
906.63490000000002
 11
1275.2180361761152
 21
906.63490000000002
  0
TEXT
  8
_0-2_LAYER004
 62
    7
 10
2092.6662268817845
 20
1002.3904801795879
 40
20
 41
1
 50
90
  1
下葺き材立上がり寸法
  0
TEXT
  8
_0-2_LAYER004
 62
    7
 10
2054.0612446992541
 20
1091.9540388430596
 40
20
 41
1
 50
90
  1
200
  0
TEXT
  8
_0-2_LAYER004
 62
    7
 10
1961.4092874611797
 20
1155.2662096224103
 40
20
 41
1
 50
90
  1
100
  0
TEXT
  8
_0-2_LAYER004
 62
    7
 10
1969.1302838976858
 20
1036.3628645002152
 40
20
 41
1
 50
90
  1
60
  0
TEXT
  8
_0-2_LAYER004
 62
    7
 10
1962.9534867484808
 20
1091.9540388430596
 40
20
 41
1
 50
90
  1
56
  0
TEXT
  8
_0-2_LAYER004
 62
    7
 10
1652.569430000932
 20
764.58378993519716
 40
20
 41
1
 50
0
  1
295
  0
TEXT
  8
_0-2_LAYER004
 62
    7
 10
1390.0555511597213
 20
770.76058708440212
 40
20
 41
1
 50
0
  1
255
  0
TEXT
  8
_0-2_LAYER004
 62
    7
 10
1161.5140566391383
 20
769.21638779710088
 40
20
 41
1
 50
0
  1
255
  0
TEXT
  8
_0-2_LAYER004
 62
    7
 10
1907.3623124056367
 20
880.39873648279013
 40
20
 41
1
 50
0
  1
捨谷水切カラー鋼板0.35ｍｍ以上
  0
TEXT
  8
_0-2_LAYER004
 62
    7
 10
1349.9063696898895
 20
724.43460846536505
 40
20
 41
1
 50
0
  1
瓦桟：15x30以上
  0
TEXT
  8
_0-2_LAYER004
 62
    7
 10
1371.5251597121069
 20
1281.8905511811117
 40
20
 41
1
 50
0
  1
雨押水切カラー鋼板0.35ｍｍ以上
  0
TEXT
  8
_0-2_LAYER004
 62
    7
 10
1664.9230242993419
 20
1386.896102717596
 40
20
 41
1
 50
0
  1
シーリング
  0
TEXT
  8
_0-2_LAYER004
 62
    7
 10
1615.5086471057025
 20
1329.7607290874503
 40
20
 41
1
 50
0
  1
４０ｘ３０
  0
TEXT
  8
_0-2_LAYER004
 62
    7
 10
1584.6246613596777
 20
1243.2855689985811
 40
20
 41
1
 50
0
  1
笠木：15x90
  0
TEXT
  8
_0-2_LAYER004
 62
    7
 10
1780.7379708469348
 20
1207.7689853906527
 40
20
 41
1
 50
0
  1
90
  0
TEXT
  8
_0-2_LAYER004
 62
    7
 10
1325.1991810930695
 20
1167.6198039208205
 40
20
 41
1
 50
0
  1
桟　瓦
  0
TEXT
  8
_0-2_LAYER004
 62
    7
 10
2006.1910667929155
 20
1027.0976687764078
 40
20
 41
1
 50
90
  1
水切り立上がり寸法
  0
TEXT
  8
_0-2_LAYER004
 62
    7
 10
1183.1328466613559
 20
911.28272222881492
 40
20
 41
1
 50
0
  1
アンカー
  0
TEXT
  8
_0-2_LAYER004
 62
    7
 10
1501.2378998454105
 20
926.72471510182731
 40
20
 41
1
 50
0
  1
溶接金網
  0
TEXT
  8
_0-2_LAYER004
 62
    7
 10
1913.5391095548412
 20
935.98991082563452
 40
20
 41
1
 50
0
  1
下地材：15x60
  0
TEXT
  8
_0-2_LAYER004
 62
    7
 10
1961.4092874611797
 20
1229.3877754128698
 40
20
 41
1
 50
90
  1
20
  0
TEXT
  8
_0-2_LAYER004
 62
    7
 10
1359.2058731118905
 20
659.53343612714082
 40
20
 41
1
 50
0
  1
パーライト系モルタルｔ＝４０
  0
TEXT
  8
_0-2_LAYER004
 62
    7
 10
1352.1922195747288
 20
691.09487704436879
 40
20
 41
1
 50
0
  1
下葺材：ルーフィング
  0
LINE
  8
_0-2_LAYER004
  6
CONTINUOUS
 62
    7
 10
1349.7722506906453
 20
687.07122275029246
 11
1573.4187217820049
 21
687.07122275029246
  0
ENDSEC
  0
EOF
