  0
SECTION
  2
HEADER
  9
$ACADVER
  1
AC1009
  9
$INSBASE
 10
0
 20
0
 30
0
  9
$EXTMIN
 10
0
 20
0
  9
$EXTMAX
 10
2970
 20
2100
  9
$LIMMIN
 10
0
 20
0
  9
$LIMMAX
 10
2970
 20
2100
  9
$LTSCALE
 40
10
  0
ENDSEC
  0
SECTION
  2
TABLES
  0
TABLE
  2
LTYPE
 70
     9
  0
LTYPE
  2
CONTINUOUS
 70
    64
  3
実線
 72
    65
 73
     0
 40
0.0
  0
LTYPE
  2
DASHED1
 70
    64
  3
--  --  --  --  --  --  --  --  
 72
    65
 73
     2
 40
2.5
 49
1.25
 49
-1.25
  0
LTYPE
  2
DASHED2
 70
    64
  3
----    ----    ----    ----    
 72
    65
 73
     2
 40
5.0
 49
2.5
 49
-2.5
  0
LTYPE
  2
DASHED3
 70
    64
  3
------  ------  ------  ------  
 72
    65
 73
     2
 40
5.0
 49
3.75
 49
-1.25
  0
LTYPE
  2
CENTER1
 70
    64
  3
----- - ----- - ----- - ----- - 
 72
    65
 73
     4
 40
10.0
 49
6.25
 49
-1.25
 49
1.25
 49
-1.25
  0
LTYPE
  2
CENTER2
 70
    64
  3
----------  --  ----------  --  
 72
    65
 73
     4
 40
20.0
 49
12.5
 49
-2.5
 49
2.5
 49
-2.5
  0
LTYPE
  2
PHANTOM1
 70
    64
  3
--- - - --- - - --- - - --- - - 
 72
    65
 73
     6
 40
10.0
 49
3.25
 49
-1.25
 49
1.25
 49
-1.25
 49
1.25
 49
-1.25
  0
LTYPE
  2
PHANTOM2
 70
    64
  3
--------  -  -  --------  -  -  
 72
    65
 73
     6
 40
20.0
 49
10.0
 49
-2.5
 49
1.25
 49
-2.5
 49
1.25
 49
-2.5
  0
LTYPE
  2
DOT
 70
    64
  3
-   -   -   -   -   -   -   -   
 72
    65
 73
     2
 40
2.5
 49
0.625
 49
-1.875
  0
LTYPE
  2
DUMMY
 70
    64
  3
ダミー
 72
    65
 73
     0
 40
0.0
  0
LTYPE
  2
RAND1
 70
    64
  3
ランダム線1
 72
    65
 73
     4
 40
10.0
 49
1.0
 49
-2.0
 49
3.0
 49
-4.0
  0
LTYPE
  2
RAND2
 70
    64
  3
ランダム線2
 72
    65
 73
     4
 40
14.0
 49
2.0
 49
-3.0
 49
4.0
 49
-5.0
  0
LTYPE
  2
RAND3
 70
    64
  3
ランダム線3
 72
    65
 73
     4
 40
18.0
 49
3.0
 49
-4.0
 49
5.0
 49
-6.0
  0
LTYPE
  2
RAND4
 70
    64
  3
ランダム線4
 72
    65
 73
     4
 40
22.0
 49
4.0
 49
-5.0
 49
6.0
 49
-7.0
  0
LTYPE
  2
RAND5
 70
    64
  3
ランダム線5
 72
    65
 73
     4
 40
26.0
 49
5.0
 49
-6.0
 49
7.0
 49
-8.0
  0
LTYPE
  2
LONG1
 70
    64
  3
----------  --  ----------  --  
 72
    65
 73
     4
 40
40.0
 49
32.5
 49
-2.5
 49
2.5
 49
-2.5
  0
LTYPE
  2
LONG2
 70
    64
  3
--------  -  -  --------  -  -  
 72
    65
 73
     6
 40
40.0
 49
30.0
 49
-2.5
 49
1.25
 49
-2.5
 49
1.25
 49
-2.5
  0
LTYPE
  2
LONG3
 70
    64
  3
+++++++++++++++..+++++++++++++++
 72
    65
 73
     2
 40
40.0
 49
37.5
 49
-2.5
  0
LTYPE
  2
LONG4
 70
    64
  3
+++++++++++++++..+++++++++++++++
 72
    65
 73
     2
 40
80.0
 49
75.0
 49
-5.0
  0
LTYPE
  2
LONG5
 70
    64
  3
----------  --  ----------  --  
 72
    65
 73
     4
 40
60.0
 49
37.5
 49
-7.5
 49
7.5
 49
-7.5
  0
LTYPE
  2
dashed
 70
   64
  3
-------   -------------   ------
 72
   65
 73
    2
 40
7.5
 49
6
 49
-1.5
  0
LTYPE
  2
dashed_spaced
 70
   64
  3
----        --------        ----
 72
   65
 73
    2
 40
12
 49
6
 49
-6
  0
LTYPE
  2
long_dashed_dotted
 70
   64
  3
------------- --- --------------
 72
   65
 73
    4
 40
15.25
 49
12
 49
-1.5
 49
0.25
 49
-1.5
  0
LTYPE
  2
long_dashed_double-dotted
 70
   64
  3
----------- --- --- ------------
 72
   65
 73
    6
 40
17
 49
12
 49
-1.5
 49
0.25
 49
-1.5
 49
0.25
 49
-1.5
  0
LTYPE
  2
long_dashed_triplicate-dotted
 70
   64
  3
--------- --- --- --- ----------
 72
   65
 73
    8
 40
18.75
 49
12
 49
-1.5
 49
0.25
 49
-1.5
 49
0.25
 49
-1.5
 49
0.25
 49
-1.5
  0
LTYPE
  2
dotted
 70
   64
  3
   -       -       -       -    
 72
   65
 73
    2
 40
1.75
 49
0.25
 49
-1.5
  0
LTYPE
  2
chain
 70
   64
  3
-------------- -- --------------
 72
   65
 73
    4
 40
18.5
 49
12
 49
-1.5
 49
3.5
 49
-1.5
  0
LTYPE
  2
chain_double_dash
 70
   64
  3
------------ -- -- -------------
 72
   65
 73
    6
 40
23.5
 49
12
 49
-1.5
 49
3.5
 49
-1.5
 49
3.5
 49
-1.5
  0
LTYPE
  2
dashed_dotted
 70
   64
  3
-----------     -     ----------
 72
   65
 73
    4
 40
9.25
 49
6
 49
-1.5
 49
0.25
 49
-1.5
  0
LTYPE
  2
double-dashed_dotted
 70
   64
  3
------   -----------   -   -----
 72
   65
 73
    6
 40
16.75
 49
6
 49
-1.5
 49
6
 49
-1.5
 49
0.25
 49
-1.5
  0
LTYPE
  2
dashed_double-dotted
 70
   64
  3
---------    -    -    ---------
 72
   65
 73
    6
 40
11
 49
6
 49
-1.5
 49
0.25
 49
-1.5
 49
0.25
 49
-1.5
  0
LTYPE
  2
double-dashed_double-dotted
 70
   64
  3
-----   ---------   -   -   ----
 72
   65
 73
    8
 40
18.5
 49
6
 49
-1.5
 49
6
 49
-1.5
 49
0.25
 49
-1.5
 49
0.25
 49
-1.5
  0
LTYPE
  2
dashed_triplicate-dotted
 70
   64
  3
-------    -    -    -    ------
 72
   65
 73
    8
 40
12.75
 49
6
 49
-1.5
 49
0.25
 49
-1.5
 49
0.25
 49
-1.5
 49
0.25
 49
-1.5
  0
LTYPE
  2
double-dashed_triplicate-dotted
 70
   64
  3
-----  ---------  -  -  -  -----
 72
   65
 73
   10
 40
20.25
 49
6
 49
-1.5
 49
6
 49
-1.5
 49
0.25
 49
-1.5
 49
0.25
 49
-1.5
 49
0.25
 49
-1.5
  0
LTYPE
  2
undefined
 70
   64
  3
--------------------------------
 72
   65
 73
    0
 40
0
  0
ENDTAB
  0
TABLE
  2
STYLE
  5
3
100
AcDbSymbolTable
 70
     1
  0
STYLE
  5
10
100
AcDbSymbolTableRecord
100
AcDbTextStyleTableRecord
  2
STANDARD
 70
     0
 40
0.0
 41
1.0
 50
0.0
 71
     0
 42
0.2
  3
txt
  4
bigfont.shx
  0
STYLE
  5
26
100
AcDbSymbolTableRecord
100
AcDbTextStyleTableRecord
  2
TATEGAKI
 70
    68
 40
0.0
 41
1.0
 50
0.0
 71
     0
 42
1.0
  3
txt
  4
bigfont.shx
  0
ENDTAB
  0
TABLE
  2
LAYER
 70
    6
  0
LAYER
  2
_0-0_LAYER001
 70
   64
 62
    7
  6
CONTINUOUS
  0
LAYER
  2
_0-1_LAYER003
 70
   64
 62
    7
  6
CONTINUOUS
  0
LAYER
  2
_0-2_LAYER004
 70
   64
 62
    7
  6
CONTINUOUS
  0
LAYER
  2
_0-3_LAYER005
 70
   64
 62
    7
  6
CONTINUOUS
  0
LAYER
  2
_0-4_LAYER007
 70
   64
 62
    7
  6
CONTINUOUS
  0
LAYER
  2
ADD_LINE
 70
   64
 62
    7
  6
CONTINUOUS
  0
ENDTAB
  0
ENDSEC
  0
SECTION
  2
BLOCKS
  0
ENDSEC
  0
SECTION
  2
ENTITIES
  0
LINE
  8
_0-0_LAYER001
  6
CONTINUOUS
 62
    2
 10
843.47090000000003
 20
942.2186999999999
 11
1872.3908999999999
 21
942.2186999999999
  0
LINE
  8
_0-0_LAYER001
  6
CONTINUOUS
 62
    2
 10
1832.2745
 20
981.4543000000001
 11
1830.3334
 21
988.69869999999992
  0
LINE
  8
_0-0_LAYER001
  6
CONTINUOUS
 62
    2
 10
1830.3334
 20
988.69869999999992
 11
1835.6367
 21
983.39540000000011
  0
LINE
  8
_0-0_LAYER001
  6
CONTINUOUS
 62
    2
 10
1830.3334
 20
988.69869999999992
 11
1892.529
 21
880.97280000000001
  0
LINE
  8
_0-0_LAYER001
  6
CONTINUOUS
 62
    2
 10
1892.529
 20
880.97280000000001
 11
2126.529
 21
880.97280000000001
  0
LINE
  8
_0-0_LAYER001
  6
CONTINUOUS
 62
    1
 10
1860.6752000000001
 20
942.2186999999999
 11
1872.3908999999999
 21
953.9344000000001
  0
LINE
  8
_0-0_LAYER001
  6
CONTINUOUS
 62
    1
 10
1846.5331000000001
 20
942.2186999999999
 11
1872.3908999999999
 21
968.0764999999999
  0
LINE
  8
_0-0_LAYER001
  6
CONTINUOUS
 62
    1
 10
1832.3908999999999
 20
942.2186999999999
 11
1872.3908999999999
 21
982.2186999999999
  0
LINE
  8
_0-0_LAYER001
  6
CONTINUOUS
 62
    1
 10
1818.2487999999998
 20
942.2186999999999
 11
1858.2487999999998
 21
982.2186999999999
  0
LINE
  8
_0-0_LAYER001
  6
CONTINUOUS
 62
    1
 10
1804.1066999999998
 20
942.2186999999999
 11
1844.1066999999998
 21
982.2186999999999
  0
LINE
  8
_0-0_LAYER001
  6
CONTINUOUS
 62
    1
 10
1789.9645
 20
942.2186999999999
 11
1829.9645
 21
982.2186999999999
  0
LINE
  8
_0-0_LAYER001
  6
CONTINUOUS
 62
    1
 10
1775.8224
 20
942.2186999999999
 11
1815.8224
 21
982.2186999999999
  0
LINE
  8
_0-0_LAYER001
  6
CONTINUOUS
 62
    1
 10
1761.6801999999998
 20
942.2186999999999
 11
1801.6801999999998
 21
982.2186999999999
  0
LINE
  8
_0-0_LAYER001
  6
CONTINUOUS
 62
    1
 10
1747.5381000000002
 20
942.2186999999999
 11
1787.5381000000002
 21
982.2186999999999
  0
LINE
  8
_0-0_LAYER001
  6
CONTINUOUS
 62
    1
 10
1733.3960000000002
 20
942.2186999999999
 11
1773.3960000000002
 21
982.2186999999999
  0
LINE
  8
_0-0_LAYER001
  6
CONTINUOUS
 62
    1
 10
1719.2538
 20
942.2186999999999
 11
1759.2538
 21
982.2186999999999
  0
LINE
  8
_0-0_LAYER001
  6
CONTINUOUS
 62
    1
 10
1705.1116999999999
 20
942.2186999999999
 11
1745.1116999999999
 21
982.2186999999999
  0
LINE
  8
_0-0_LAYER001
  6
CONTINUOUS
 62
    1
 10
1690.9695999999999
 20
942.2186999999999
 11
1730.9695999999999
 21
982.2186999999999
  0
LINE
  8
_0-0_LAYER001
  6
CONTINUOUS
 62
    1
 10
1676.8274000000001
 20
942.2186999999999
 11
1716.8274000000001
 21
982.2186999999999
  0
LINE
  8
_0-0_LAYER001
  6
CONTINUOUS
 62
    1
 10
1662.6853000000001
 20
942.2186999999999
 11
1702.6853000000001
 21
982.2186999999999
  0
LINE
  8
_0-0_LAYER001
  6
CONTINUOUS
 62
    1
 10
1648.5432000000001
 20
942.2186999999999
 11
1688.5432000000001
 21
982.2186999999999
  0
LINE
  8
_0-0_LAYER001
  6
CONTINUOUS
 62
    1
 10
1634.4009999999998
 20
942.2186999999999
 11
1674.4009999999998
 21
982.2186999999999
  0
LINE
  8
_0-0_LAYER001
  6
CONTINUOUS
 62
    1
 10
1620.2588999999998
 20
942.2186999999999
 11
1660.2588999999998
 21
982.2186999999999
  0
LINE
  8
_0-0_LAYER001
  6
CONTINUOUS
 62
    1
 10
1606.1167999999998
 20
942.2186999999999
 11
1646.1167999999998
 21
982.2186999999999
  0
LINE
  8
_0-0_LAYER001
  6
CONTINUOUS
 62
    1
 10
1591.9746
 20
942.2186999999999
 11
1631.9746
 21
982.2186999999999
  0
LINE
  8
_0-0_LAYER001
  6
CONTINUOUS
 62
    1
 10
1577.8325
 20
942.2186999999999
 11
1617.8325
 21
982.2186999999999
  0
LINE
  8
_0-0_LAYER001
  6
CONTINUOUS
 62
    1
 10
1563.6903000000002
 20
942.2186999999999
 11
1603.6903000000002
 21
982.2186999999999
  0
LINE
  8
_0-0_LAYER001
  6
CONTINUOUS
 62
    1
 10
1549.5482000000002
 20
942.2186999999999
 11
1589.5482000000002
 21
982.2186999999999
  0
LINE
  8
_0-0_LAYER001
  6
CONTINUOUS
 62
    1
 10
1535.4061000000002
 20
942.2186999999999
 11
1575.4061000000002
 21
982.2186999999999
  0
LINE
  8
_0-0_LAYER001
  6
CONTINUOUS
 62
    1
 10
1521.2638999999999
 20
942.2186999999999
 11
1561.2638999999999
 21
982.2186999999999
  0
LINE
  8
_0-0_LAYER001
  6
CONTINUOUS
 62
    1
 10
1507.1217999999999
 20
942.2186999999999
 11
1547.1217999999999
 21
982.2186999999999
  0
LINE
  8
_0-0_LAYER001
  6
CONTINUOUS
 62
    1
 10
1492.9796999999999
 20
942.2186999999999
 11
1532.9796999999999
 21
982.2186999999999
  0
LINE
  8
_0-0_LAYER001
  6
CONTINUOUS
 62
    1
 10
1478.8375000000001
 20
942.2186999999999
 11
1518.8375000000001
 21
982.2186999999999
  0
LINE
  8
_0-0_LAYER001
  6
CONTINUOUS
 62
    1
 10
1464.6954000000001
 20
942.2186999999999
 11
1504.6954000000001
 21
982.2186999999999
  0
LINE
  8
_0-0_LAYER001
  6
CONTINUOUS
 62
    1
 10
1450.5533
 20
942.2186999999999
 11
1490.5533
 21
982.2186999999999
  0
LINE
  8
_0-0_LAYER001
  6
CONTINUOUS
 62
    1
 10
1436.4110999999998
 20
942.2186999999999
 11
1476.4110999999998
 21
982.2186999999999
  0
LINE
  8
_0-0_LAYER001
  6
CONTINUOUS
 62
    1
 10
1422.269
 20
942.2186999999999
 11
1462.2689999999998
 21
982.2186999999999
  0
LINE
  8
_0-0_LAYER001
  6
CONTINUOUS
 62
    1
 10
1408.1269
 20
942.2186999999999
 11
1448.1269000000002
 21
982.2186999999999
  0
LINE
  8
_0-0_LAYER001
  6
CONTINUOUS
 62
    1
 10
1393.9847
 20
942.2186999999999
 11
1433.9847
 21
982.2186999999999
  0
LINE
  8
_0-0_LAYER001
  6
CONTINUOUS
 62
    1
 10
1379.8425999999999
 20
942.2186999999999
 11
1419.8425999999999
 21
982.2186999999999
  0
LINE
  8
_0-0_LAYER001
  6
CONTINUOUS
 62
    1
 10
1365.7004999999999
 20
942.2186999999999
 11
1405.7004999999999
 21
982.2186999999999
  0
LINE
  8
_0-0_LAYER001
  6
CONTINUOUS
 62
    1
 10
1351.5582999999997
 20
942.2186999999999
 11
1391.5582999999997
 21
982.2186999999999
  0
LINE
  8
_0-0_LAYER001
  6
CONTINUOUS
 62
    1
 10
1337.4161999999999
 20
942.2186999999999
 11
1377.4161999999999
 21
982.2186999999999
  0
LINE
  8
_0-0_LAYER001
  6
CONTINUOUS
 62
    1
 10
1323.2739999999999
 20
942.2186999999999
 11
1363.2739999999999
 21
982.2186999999999
  0
LINE
  8
_0-0_LAYER001
  6
CONTINUOUS
 62
    1
 10
1309.1319000000001
 20
942.2186999999999
 11
1349.1319000000001
 21
982.2186999999999
  0
LINE
  8
_0-0_LAYER001
  6
CONTINUOUS
 62
    1
 10
1294.9898000000003
 20
942.2186999999999
 11
1334.9898000000003
 21
982.2186999999999
  0
LINE
  8
_0-0_LAYER001
  6
CONTINUOUS
 62
    1
 10
1280.8476000000001
 20
942.2186999999999
 11
1320.8476000000001
 21
982.2186999999999
  0
LINE
  8
_0-0_LAYER001
  6
CONTINUOUS
 62
    1
 10
1266.7055
 20
942.2186999999999
 11
1306.7055
 21
982.2186999999999
  0
LINE
  8
_0-0_LAYER001
  6
CONTINUOUS
 62
    1
 10
1252.5634
 20
942.2186999999999
 11
1292.5634
 21
982.2186999999999
  0
LINE
  8
_0-0_LAYER001
  6
CONTINUOUS
 62
    1
 10
1238.4212
 20
942.2186999999999
 11
1278.4212
 21
982.2186999999999
  0
LINE
  8
_0-0_LAYER001
  6
CONTINUOUS
 62
    1
 10
1224.2791
 20
942.2186999999999
 11
1264.2791
 21
982.2186999999999
  0
LINE
  8
_0-0_LAYER001
  6
CONTINUOUS
 62
    1
 10
1210.1369999999999
 20
942.2186999999999
 11
1250.1369999999999
 21
982.2186999999999
  0
LINE
  8
_0-0_LAYER001
  6
CONTINUOUS
 62
    1
 10
1195.9947999999999
 20
942.2186999999999
 11
1235.9947999999999
 21
982.2186999999999
  0
LINE
  8
_0-0_LAYER001
  6
CONTINUOUS
 62
    1
 10
1181.8526999999999
 20
942.2186999999999
 11
1221.8526999999999
 21
982.2186999999999
  0
LINE
  8
_0-0_LAYER001
  6
CONTINUOUS
 62
    1
 10
1167.7106000000001
 20
942.2186999999999
 11
1207.7106000000001
 21
982.2186999999999
  0
LINE
  8
_0-0_LAYER001
  6
CONTINUOUS
 62
    1
 10
1153.5684000000001
 20
942.2186999999999
 11
1193.5684000000001
 21
982.2186999999999
  0
LINE
  8
_0-0_LAYER001
  6
CONTINUOUS
 62
    1
 10
1139.4263000000001
 20
942.2186999999999
 11
1179.4263000000001
 21
982.2186999999999
  0
LINE
  8
_0-0_LAYER001
  6
CONTINUOUS
 62
    1
 10
1125.2841000000001
 20
942.2186999999999
 11
1165.2841000000001
 21
982.2186999999999
  0
LINE
  8
_0-0_LAYER001
  6
CONTINUOUS
 62
    1
 10
1111.1420000000001
 20
942.2186999999999
 11
1151.1420000000001
 21
982.2186999999999
  0
LINE
  8
_0-0_LAYER001
  6
CONTINUOUS
 62
    1
 10
1096.9999
 20
942.2186999999999
 11
1136.9999
 21
982.2186999999999
  0
LINE
  8
_0-0_LAYER001
  6
CONTINUOUS
 62
    1
 10
1082.8577
 20
942.2186999999999
 11
1122.8577
 21
982.2186999999999
  0
LINE
  8
_0-0_LAYER001
  6
CONTINUOUS
 62
    1
 10
1068.7156
 20
942.2186999999999
 11
1108.7156
 21
982.2186999999999
  0
LINE
  8
_0-0_LAYER001
  6
CONTINUOUS
 62
    1
 10
1054.5735
 20
942.2186999999999
 11
1094.5735
 21
982.2186999999999
  0
LINE
  8
_0-0_LAYER001
  6
CONTINUOUS
 62
    1
 10
1040.4313
 20
942.2186999999999
 11
1080.4313
 21
982.2186999999999
  0
LINE
  8
_0-0_LAYER001
  6
CONTINUOUS
 62
    1
 10
1026.2891999999999
 20
942.2186999999999
 11
1066.2891999999999
 21
982.2186999999999
  0
LINE
  8
_0-0_LAYER001
  6
CONTINUOUS
 62
    1
 10
1012.1470999999999
 20
942.2186999999999
 11
1052.1470999999999
 21
982.2186999999999
  0
LINE
  8
_0-0_LAYER001
  6
CONTINUOUS
 62
    1
 10
998.00489999999991
 20
942.2186999999999
 11
1038.0048999999999
 21
982.2186999999999
  0
LINE
  8
_0-0_LAYER001
  6
CONTINUOUS
 62
    1
 10
983.86280000000011
 20
942.2186999999999
 11
1023.8628000000001
 21
982.2186999999999
  0
LINE
  8
_0-0_LAYER001
  6
CONTINUOUS
 62
    1
 10
969.72070000000008
 20
942.2186999999999
 11
1009.7207000000001
 21
982.2186999999999
  0
LINE
  8
_0-0_LAYER001
  6
CONTINUOUS
 62
    1
 10
955.57850000000008
 20
942.2186999999999
 11
995.57850000000008
 21
982.2186999999999
  0
LINE
  8
_0-0_LAYER001
  6
CONTINUOUS
 62
    1
 10
941.43640000000005
 20
942.2186999999999
 11
981.43640000000005
 21
982.2186999999999
  0
LINE
  8
_0-0_LAYER001
  6
CONTINUOUS
 62
    1
 10
927.29420000000005
 20
942.2186999999999
 11
967.29420000000005
 21
982.2186999999999
  0
LINE
  8
_0-0_LAYER001
  6
CONTINUOUS
 62
    1
 10
913.15210000000002
 20
942.2186999999999
 11
953.15210000000002
 21
982.2186999999999
  0
LINE
  8
_0-0_LAYER001
  6
CONTINUOUS
 62
    1
 10
899.00999999999999
 20
942.2186999999999
 11
939.00999999999999
 21
982.2186999999999
  0
LINE
  8
_0-0_LAYER001
  6
CONTINUOUS
 62
    1
 10
884.86779999999999
 20
942.2186999999999
 11
924.86779999999999
 21
982.2186999999999
  0
LINE
  8
_0-0_LAYER001
  6
CONTINUOUS
 62
    1
 10
870.72569999999996
 20
942.2186999999999
 11
910.72569999999996
 21
982.2186999999999
  0
LINE
  8
_0-0_LAYER001
  6
CONTINUOUS
 62
    1
 10
856.58359999999993
 20
942.2186999999999
 11
896.58359999999993
 21
982.2186999999999
  0
LINE
  8
_0-0_LAYER001
  6
CONTINUOUS
 62
    1
 10
843.47090000000003
 20
943.2482
 11
882.44139999999993
 21
982.2186999999999
  0
LINE
  8
_0-0_LAYER001
  6
CONTINUOUS
 62
    1
 10
843.47090000000003
 20
957.39030000000002
 11
868.2992999999999
 21
982.2186999999999
  0
LINE
  8
_0-0_LAYER001
  6
CONTINUOUS
 62
    1
 10
843.47090000000003
 20
971.53240000000005
 11
854.1572000000001
 21
982.2186999999999
  0
LINE
  8
_0-0_LAYER001
  6
CONTINUOUS
 62
    1
 10
843.47090000000003
 20
950.47849999999994
 11
851.73080000000004
 21
942.2186999999999
  0
LINE
  8
_0-0_LAYER001
  6
CONTINUOUS
 62
    1
 10
843.47090000000003
 20
964.62059999999997
 11
865.87290000000007
 21
942.2186999999999
  0
LINE
  8
_0-0_LAYER001
  6
CONTINUOUS
 62
    1
 10
843.47090000000003
 20
978.76279999999997
 11
880.0150000000001
 21
942.2186999999999
  0
LINE
  8
_0-0_LAYER001
  6
CONTINUOUS
 62
    1
 10
854.1572000000001
 20
982.2186999999999
 11
894.1572000000001
 21
942.2186999999999
  0
LINE
  8
_0-0_LAYER001
  6
CONTINUOUS
 62
    1
 10
868.2992999999999
 20
982.2186999999999
 11
908.2992999999999
 21
942.2186999999999
  0
LINE
  8
_0-0_LAYER001
  6
CONTINUOUS
 62
    1
 10
882.44139999999993
 20
982.2186999999999
 11
922.44139999999993
 21
942.2186999999999
  0
LINE
  8
_0-0_LAYER001
  6
CONTINUOUS
 62
    1
 10
896.58359999999993
 20
982.2186999999999
 11
936.58359999999993
 21
942.2186999999999
  0
LINE
  8
_0-0_LAYER001
  6
CONTINUOUS
 62
    1
 10
910.72569999999996
 20
982.2186999999999
 11
950.72569999999996
 21
942.2186999999999
  0
LINE
  8
_0-0_LAYER001
  6
CONTINUOUS
 62
    1
 10
924.86779999999999
 20
982.2186999999999
 11
964.86779999999999
 21
942.2186999999999
  0
LINE
  8
_0-0_LAYER001
  6
CONTINUOUS
 62
    1
 10
939.00999999999999
 20
982.2186999999999
 11
979.00999999999999
 21
942.2186999999999
  0
LINE
  8
_0-0_LAYER001
  6
CONTINUOUS
 62
    1
 10
953.15210000000002
 20
982.2186999999999
 11
993.15210000000002
 21
942.2186999999999
  0
LINE
  8
_0-0_LAYER001
  6
CONTINUOUS
 62
    1
 10
967.29420000000005
 20
982.2186999999999
 11
1007.2942
 21
942.2186999999999
  0
LINE
  8
_0-0_LAYER001
  6
CONTINUOUS
 62
    1
 10
981.43640000000005
 20
982.2186999999999
 11
1021.4364
 21
942.2186999999999
  0
LINE
  8
_0-0_LAYER001
  6
CONTINUOUS
 62
    1
 10
995.57850000000008
 20
982.2186999999999
 11
1035.5785000000001
 21
942.2186999999999
  0
LINE
  8
_0-0_LAYER001
  6
CONTINUOUS
 62
    1
 10
1009.7207000000001
 20
982.2186999999999
 11
1049.7207000000001
 21
942.2186999999999
  0
LINE
  8
_0-0_LAYER001
  6
CONTINUOUS
 62
    1
 10
1023.8628000000001
 20
982.2186999999999
 11
1063.8628000000001
 21
942.2186999999999
  0
LINE
  8
_0-0_LAYER001
  6
CONTINUOUS
 62
    1
 10
1038.0048999999999
 20
982.2186999999999
 11
1078.0048999999999
 21
942.2186999999999
  0
LINE
  8
_0-0_LAYER001
  6
CONTINUOUS
 62
    1
 10
1052.1470999999999
 20
982.2186999999999
 11
1092.1470999999999
 21
942.2186999999999
  0
LINE
  8
_0-0_LAYER001
  6
CONTINUOUS
 62
    1
 10
1066.2891999999999
 20
982.2186999999999
 11
1106.2891999999999
 21
942.2186999999999
  0
LINE
  8
_0-0_LAYER001
  6
CONTINUOUS
 62
    1
 10
1080.4313
 20
982.2186999999999
 11
1120.4313
 21
942.2186999999999
  0
LINE
  8
_0-0_LAYER001
  6
CONTINUOUS
 62
    1
 10
1094.5735
 20
982.2186999999999
 11
1134.5735
 21
942.2186999999999
  0
LINE
  8
_0-0_LAYER001
  6
CONTINUOUS
 62
    1
 10
1108.7156
 20
982.2186999999999
 11
1148.7156
 21
942.2186999999999
  0
LINE
  8
_0-0_LAYER001
  6
CONTINUOUS
 62
    1
 10
1122.8577
 20
982.2186999999999
 11
1162.8577
 21
942.2186999999999
  0
LINE
  8
_0-0_LAYER001
  6
CONTINUOUS
 62
    1
 10
1136.9999
 20
982.2186999999999
 11
1176.9999
 21
942.2186999999999
  0
LINE
  8
_0-0_LAYER001
  6
CONTINUOUS
 62
    1
 10
1151.1420000000001
 20
982.2186999999999
 11
1191.1420000000001
 21
942.2186999999999
  0
LINE
  8
_0-0_LAYER001
  6
CONTINUOUS
 62
    1
 10
1165.2841000000001
 20
982.2186999999999
 11
1205.2841000000001
 21
942.2186999999999
  0
LINE
  8
_0-0_LAYER001
  6
CONTINUOUS
 62
    1
 10
1179.4263000000001
 20
982.2186999999999
 11
1219.4263000000001
 21
942.2186999999999
  0
LINE
  8
_0-0_LAYER001
  6
CONTINUOUS
 62
    1
 10
1193.5684000000001
 20
982.2186999999999
 11
1233.5684000000001
 21
942.2186999999999
  0
LINE
  8
_0-0_LAYER001
  6
CONTINUOUS
 62
    1
 10
1207.7106000000001
 20
982.2186999999999
 11
1247.7106000000001
 21
942.2186999999999
  0
LINE
  8
_0-0_LAYER001
  6
CONTINUOUS
 62
    1
 10
1221.8526999999999
 20
982.2186999999999
 11
1261.8526999999999
 21
942.2186999999999
  0
LINE
  8
_0-0_LAYER001
  6
CONTINUOUS
 62
    1
 10
1235.9947999999999
 20
982.2186999999999
 11
1275.9947999999999
 21
942.2186999999999
  0
LINE
  8
_0-0_LAYER001
  6
CONTINUOUS
 62
    1
 10
1250.1369999999999
 20
982.2186999999999
 11
1290.1369999999999
 21
942.2186999999999
  0
LINE
  8
_0-0_LAYER001
  6
CONTINUOUS
 62
    1
 10
1264.2791
 20
982.2186999999999
 11
1304.2791
 21
942.2186999999999
  0
LINE
  8
_0-0_LAYER001
  6
CONTINUOUS
 62
    1
 10
1278.4212
 20
982.2186999999999
 11
1318.4212
 21
942.2186999999999
  0
LINE
  8
_0-0_LAYER001
  6
CONTINUOUS
 62
    1
 10
1292.5634
 20
982.2186999999999
 11
1332.5634
 21
942.2186999999999
  0
LINE
  8
_0-0_LAYER001
  6
CONTINUOUS
 62
    1
 10
1306.7055
 20
982.2186999999999
 11
1346.7055
 21
942.2186999999999
  0
LINE
  8
_0-0_LAYER001
  6
CONTINUOUS
 62
    1
 10
1320.8476000000001
 20
982.2186999999999
 11
1360.8476000000001
 21
942.2186999999999
  0
LINE
  8
_0-0_LAYER001
  6
CONTINUOUS
 62
    1
 10
1334.9898000000003
 20
982.2186999999999
 11
1374.9898000000003
 21
942.2186999999999
  0
LINE
  8
_0-0_LAYER001
  6
CONTINUOUS
 62
    1
 10
1349.1319000000001
 20
982.2186999999999
 11
1389.1319000000001
 21
942.2186999999999
  0
LINE
  8
_0-0_LAYER001
  6
CONTINUOUS
 62
    1
 10
1363.2739999999999
 20
982.2186999999999
 11
1403.2739999999999
 21
942.2186999999999
  0
LINE
  8
_0-0_LAYER001
  6
CONTINUOUS
 62
    1
 10
1377.4161999999999
 20
982.2186999999999
 11
1417.4161999999999
 21
942.2186999999999
  0
LINE
  8
_0-0_LAYER001
  6
CONTINUOUS
 62
    1
 10
1391.5582999999997
 20
982.2186999999999
 11
1431.5583000000001
 21
942.2186999999999
  0
LINE
  8
_0-0_LAYER001
  6
CONTINUOUS
 62
    1
 10
1405.7004999999999
 20
982.2186999999999
 11
1445.7004999999999
 21
942.2186999999999
  0
LINE
  8
_0-0_LAYER001
  6
CONTINUOUS
 62
    1
 10
1419.8425999999999
 20
982.2186999999999
 11
1459.8425999999999
 21
942.2186999999999
  0
LINE
  8
_0-0_LAYER001
  6
CONTINUOUS
 62
    1
 10
1433.9847
 20
982.2186999999999
 11
1473.9847
 21
942.2186999999999
  0
LINE
  8
_0-0_LAYER001
  6
CONTINUOUS
 62
    1
 10
1448.1269000000002
 20
982.2186999999999
 11
1488.1269000000002
 21
942.2186999999999
  0
LINE
  8
_0-0_LAYER001
  6
CONTINUOUS
 62
    1
 10
1462.2689999999998
 20
982.2186999999999
 11
1502.2689999999998
 21
942.2186999999999
  0
LINE
  8
_0-0_LAYER001
  6
CONTINUOUS
 62
    1
 10
1476.4110999999998
 20
982.2186999999999
 11
1516.4110999999998
 21
942.2186999999999
  0
LINE
  8
_0-0_LAYER001
  6
CONTINUOUS
 62
    1
 10
1490.5533
 20
982.2186999999999
 11
1530.5533
 21
942.2186999999999
  0
LINE
  8
_0-0_LAYER001
  6
CONTINUOUS
 62
    1
 10
1504.6954000000001
 20
982.2186999999999
 11
1544.6954000000001
 21
942.2186999999999
  0
LINE
  8
_0-0_LAYER001
  6
CONTINUOUS
 62
    1
 10
1518.8375000000001
 20
982.2186999999999
 11
1558.8375000000001
 21
942.2186999999999
  0
LINE
  8
_0-0_LAYER001
  6
CONTINUOUS
 62
    1
 10
1532.9796999999999
 20
982.2186999999999
 11
1572.9796999999999
 21
942.2186999999999
  0
LINE
  8
_0-0_LAYER001
  6
CONTINUOUS
 62
    1
 10
1547.1217999999999
 20
982.2186999999999
 11
1587.1217999999999
 21
942.2186999999999
  0
LINE
  8
_0-0_LAYER001
  6
CONTINUOUS
 62
    1
 10
1561.2638999999999
 20
982.2186999999999
 11
1601.2638999999999
 21
942.2186999999999
  0
LINE
  8
_0-0_LAYER001
  6
CONTINUOUS
 62
    1
 10
1575.4061000000002
 20
982.2186999999999
 11
1615.4061000000002
 21
942.2186999999999
  0
LINE
  8
_0-0_LAYER001
  6
CONTINUOUS
 62
    1
 10
1589.5482000000002
 20
982.2186999999999
 11
1629.5482000000002
 21
942.2186999999999
  0
LINE
  8
_0-0_LAYER001
  6
CONTINUOUS
 62
    1
 10
1603.6903000000002
 20
982.2186999999999
 11
1643.6903000000002
 21
942.2186999999999
  0
LINE
  8
_0-0_LAYER001
  6
CONTINUOUS
 62
    1
 10
1617.8325
 20
982.2186999999999
 11
1657.8325
 21
942.2186999999999
  0
LINE
  8
_0-0_LAYER001
  6
CONTINUOUS
 62
    1
 10
1631.9746
 20
982.2186999999999
 11
1671.9746
 21
942.2186999999999
  0
LINE
  8
_0-0_LAYER001
  6
CONTINUOUS
 62
    1
 10
1646.1167999999998
 20
982.2186999999999
 11
1686.1167999999998
 21
942.2186999999999
  0
LINE
  8
_0-0_LAYER001
  6
CONTINUOUS
 62
    1
 10
1660.2588999999998
 20
982.2186999999999
 11
1700.2588999999998
 21
942.2186999999999
  0
LINE
  8
_0-0_LAYER001
  6
CONTINUOUS
 62
    1
 10
1674.4009999999998
 20
982.2186999999999
 11
1714.4009999999998
 21
942.2186999999999
  0
LINE
  8
_0-0_LAYER001
  6
CONTINUOUS
 62
    1
 10
1688.5432000000001
 20
982.2186999999999
 11
1728.5432000000001
 21
942.2186999999999
  0
LINE
  8
_0-0_LAYER001
  6
CONTINUOUS
 62
    1
 10
1702.6853000000001
 20
982.2186999999999
 11
1742.6853000000001
 21
942.2186999999999
  0
LINE
  8
_0-0_LAYER001
  6
CONTINUOUS
 62
    1
 10
1716.8274000000001
 20
982.2186999999999
 11
1756.8274000000001
 21
942.2186999999999
  0
LINE
  8
_0-0_LAYER001
  6
CONTINUOUS
 62
    1
 10
1730.9695999999999
 20
982.2186999999999
 11
1770.9695999999999
 21
942.2186999999999
  0
LINE
  8
_0-0_LAYER001
  6
CONTINUOUS
 62
    1
 10
1745.1116999999999
 20
982.2186999999999
 11
1785.1116999999999
 21
942.2186999999999
  0
LINE
  8
_0-0_LAYER001
  6
CONTINUOUS
 62
    1
 10
1759.2538
 20
982.2186999999999
 11
1799.2538
 21
942.2186999999999
  0
LINE
  8
_0-0_LAYER001
  6
CONTINUOUS
 62
    1
 10
1773.3960000000002
 20
982.2186999999999
 11
1813.3960000000002
 21
942.2186999999999
  0
LINE
  8
_0-0_LAYER001
  6
CONTINUOUS
 62
    1
 10
1787.5381000000002
 20
982.2186999999999
 11
1827.5381000000002
 21
942.2186999999999
  0
LINE
  8
_0-0_LAYER001
  6
CONTINUOUS
 62
    1
 10
1801.6801999999998
 20
982.2186999999999
 11
1841.6801999999998
 21
942.2186999999999
  0
LINE
  8
_0-0_LAYER001
  6
CONTINUOUS
 62
    1
 10
1815.8224
 20
982.2186999999999
 11
1855.8224
 21
942.2186999999999
  0
LINE
  8
_0-0_LAYER001
  6
CONTINUOUS
 62
    1
 10
1829.9645
 20
982.2186999999999
 11
1869.9645
 21
942.2186999999999
  0
LINE
  8
_0-0_LAYER001
  6
CONTINUOUS
 62
    1
 10
1844.1066999999998
 20
982.2186999999999
 11
1872.3908999999999
 21
953.9344000000001
  0
LINE
  8
_0-0_LAYER001
  6
CONTINUOUS
 62
    1
 10
1858.2487999999998
 20
982.2186999999999
 11
1872.3908999999999
 21
968.0764999999999
  0
LINE
  8
_0-1_LAYER003
  6
CONTINUOUS
 62
    2
 10
2095.7492000000002
 20
982.2186999999999
 11
2043.2492000000002
 21
982.2186999999999
  0
CIRCLE
  8
_0-1_LAYER003
  6
CONTINUOUS
 62
    2
 10
2093.2492000000002
 20
982.2186999999999
 40
1.6999999999999997
  0
LINE
  8
_0-1_LAYER003
  6
CONTINUOUS
 62
    2
 10
2093.2492000000002
 20
982.2186999999999
 11
2093.2492000000002
 21
1232.2186999999999
  0
CIRCLE
  8
_0-1_LAYER003
  6
CONTINUOUS
 62
    2
 10
2093.2492000000002
 20
1232.2186999999999
 40
1.6999999999999997
  0
LINE
  8
_0-1_LAYER003
  6
CONTINUOUS
 62
    2
 10
2095.7492000000002
 20
1232.2186999999999
 11
2043.2492000000002
 21
1232.2186999999999
  0
LINE
  8
_0-1_LAYER003
  6
CONTINUOUS
 62
    2
 10
1752.7415999999998
 20
1121.5818999999999
 11
1754.6826999999998
 21
1114.3375000000001
  0
LINE
  8
_0-1_LAYER003
  6
CONTINUOUS
 62
    2
 10
1754.6826999999998
 20
1114.3375000000001
 11
1749.3793999999998
 21
1119.6407999999999
  0
LINE
  8
_0-1_LAYER003
  6
CONTINUOUS
 62
    2
 10
1754.6826999999998
 20
1114.3375000000001
 11
1704.1417000000001
 21
1201.8770999999999
  0
LINE
  8
_0-1_LAYER003
  6
CONTINUOUS
 62
    2
 10
1704.1417000000001
 20
1201.8770999999999
 11
1590.1417000000001
 21
1201.8770999999999
  0
LINE
  8
_0-0_LAYER001
  6
CONTINUOUS
 62
    2
 10
1858.0432000000001
 20
1153.3685
 11
1859.9843000000001
 21
1146.124
  0
LINE
  8
_0-0_LAYER001
  6
CONTINUOUS
 62
    2
 10
1859.9843000000001
 20
1146.124
 11
1854.681
 21
1151.4273000000001
  0
LINE
  8
_0-0_LAYER001
  6
CONTINUOUS
 62
    2
 10
1859.9843000000001
 20
1146.124
 11
1750.8476000000001
 21
1335.1543999999999
  0
LINE
  8
_0-0_LAYER001
  6
CONTINUOUS
 62
    2
 10
1750.8476000000001
 20
1335.1543999999999
 11
1669.8476000000001
 21
1335.1543999999999
  0
LINE
  8
_0-0_LAYER001
  6
CONTINUOUS
 62
    2
 10
1872.3908999999999
 20
837.48180000000002
 11
1872.3908999999999
 21
889.98180000000002
  0
CIRCLE
  8
_0-0_LAYER001
  6
CONTINUOUS
 62
    2
 10
1872.3908999999999
 20
839.98180000000002
 40
1.6999999999999997
  0
LINE
  8
_0-0_LAYER001
  6
CONTINUOUS
 62
    2
 10
1872.3908999999999
 20
839.98180000000002
 11
1722.3908999999999
 21
839.98180000000002
  0
CIRCLE
  8
_0-0_LAYER001
  6
CONTINUOUS
 62
    2
 10
1722.3908999999999
 20
839.98180000000002
 40
1.6999999999999997
  0
LINE
  8
_0-0_LAYER001
  6
CONTINUOUS
 62
    2
 10
1722.3908999999999
 20
837.48180000000002
 11
1722.3908999999999
 21
889.98180000000002
  0
LINE
  8
_0-1_LAYER003
  6
CONTINUOUS
 62
    2
 10
1436.5183999999999
 20
1027.4367999999999
 11
1438.4596000000001
 21
1020.1923999999999
  0
LINE
  8
_0-1_LAYER003
  6
CONTINUOUS
 62
    2
 10
1438.4596000000001
 20
1020.1923999999999
 11
1433.1563000000001
 21
1025.4956999999999
  0
LINE
  8
_0-1_LAYER003
  6
CONTINUOUS
 62
    2
 10
1438.4596000000001
 20
1020.1923999999999
 11
1377.4458
 21
1125.8713
  0
LINE
  8
_0-1_LAYER003
  6
CONTINUOUS
 62
    2
 10
1377.4458
 20
1125.8713
 11
1336.9458
 21
1125.8713
  0
LINE
  8
_0-0_LAYER001
  6
CONTINUOUS
 62
    2
 10
1824.1365999999998
 20
1071.5278000000001
 11
1822.1954999999998
 21
1078.7722000000001
  0
LINE
  8
_0-0_LAYER001
  6
CONTINUOUS
 62
    2
 10
1822.1954999999998
 20
1078.7722000000001
 11
1827.4987999999998
 21
1073.4689000000001
  0
LINE
  8
_0-0_LAYER001
  6
CONTINUOUS
 62
    2
 10
1822.1954999999998
 20
1078.7722000000001
 11
1904.0630000000001
 21
936.97340000000008
  0
LINE
  8
_0-0_LAYER001
  6
CONTINUOUS
 62
    2
 10
1904.0630000000001
 20
936.97340000000008
 11
1984.4591999999998
 21
936.97340000000008
  0
LINE
  8
_0-2_LAYER004
  6
CONTINUOUS
 62
    3
 10
1851.3964999999998
 20
953.98180000000002
 11
861.24319999999989
 21
953.98180000000002
  0
CIRCLE
  8
_0-2_LAYER004
  6
CONTINUOUS
 62
    3
 10
1845.9232000000002
 20
955.20700000000011
 40
1.3049219999999999
  0
CIRCLE
  8
_0-2_LAYER004
  6
CONTINUOUS
 62
    3
 10
1695.9232000000002
 20
955.20700000000011
 40
1.3049219999999999
  0
CIRCLE
  8
_0-2_LAYER004
  6
CONTINUOUS
 62
    3
 10
1545.9232000000002
 20
955.20700000000011
 40
1.3049219999999999
  0
CIRCLE
  8
_0-2_LAYER004
  6
CONTINUOUS
 62
    3
 10
1395.9232
 20
955.20700000000011
 40
1.3049219999999999
  0
CIRCLE
  8
_0-2_LAYER004
  6
CONTINUOUS
 62
    3
 10
1095.9232
 20
955.20700000000011
 40
1.3049219999999999
  0
CIRCLE
  8
_0-2_LAYER004
  6
CONTINUOUS
 62
    3
 10
945.92319999999995
 20
955.20700000000011
 40
1.3049219999999999
  0
CIRCLE
  8
_0-2_LAYER004
  6
CONTINUOUS
 62
    3
 10
1245.9232
 20
955.20700000000011
 40
1.3049219999999999
  0
LINE
  8
_0-2_LAYER004
  6
DASHED1
 62
    2
 10
1761.1482999999998
 20
958.66090000000008
 11
1771.1482999999998
 21
958.66090000000008
  0
LINE
  8
_0-2_LAYER004
  6
DASHED1
 62
    2
 10
1739.7782999999999
 20
904.6422
 11
1739.7782999999999
 21
894.6422
  0
LINE
  8
_0-2_LAYER004
  6
DASHED1
 62
    2
 10
1761.1482999999998
 20
958.66090000000008
 11
1761.1482999999998
 21
904.6422
  0
LINE
  8
_0-2_LAYER004
  6
DASHED1
 62
    2
 10
1771.1482999999998
 20
958.66090000000008
 11
1771.1482999999998
 21
894.6422
  0
LINE
  8
_0-2_LAYER004
  6
DASHED1
 62
    2
 10
1761.1482999999998
 20
904.6422
 11
1739.7782999999999
 21
904.6422
  0
LINE
  8
_0-2_LAYER004
  6
DASHED1
 62
    2
 10
1771.1482999999998
 20
894.6422
 11
1739.7782999999999
 21
894.6422
  0
LINE
  8
_0-2_LAYER004
  6
DASHED1
 62
    2
 10
1161.1483000000001
 20
958.66090000000008
 11
1171.1483000000001
 21
958.66090000000008
  0
LINE
  8
_0-2_LAYER004
  6
DASHED1
 62
    2
 10
1139.7782999999999
 20
904.6422
 11
1139.7782999999999
 21
894.6422
  0
LINE
  8
_0-2_LAYER004
  6
DASHED1
 62
    2
 10
1161.1483000000001
 20
958.66090000000008
 11
1161.1483000000001
 21
904.6422
  0
LINE
  8
_0-2_LAYER004
  6
DASHED1
 62
    2
 10
1171.1483000000001
 20
958.66090000000008
 11
1171.1483000000001
 21
894.6422
  0
LINE
  8
_0-2_LAYER004
  6
DASHED1
 62
    2
 10
1161.1483000000001
 20
904.6422
 11
1139.7782999999999
 21
904.6422
  0
LINE
  8
_0-2_LAYER004
  6
DASHED1
 62
    2
 10
1171.1483000000001
 20
894.6422
 11
1139.7782999999999
 21
894.6422
  0
LINE
  8
_0-2_LAYER004
  6
CONTINUOUS
 62
    2
 10
1168.1918000000001
 20
910.67750000000001
 11
1166.2506000000001
 21
917.92200000000003
  0
LINE
  8
_0-2_LAYER004
  6
CONTINUOUS
 62
    2
 10
1166.2506000000001
 20
917.92200000000003
 11
1171.5539000000001
 21
912.61869999999999
  0
LINE
  8
_0-2_LAYER004
  6
CONTINUOUS
 62
    2
 10
1166.2506000000001
 20
917.92200000000003
 11
1190.8788999999999
 21
875.2645
  0
LINE
  8
_0-2_LAYER004
  6
CONTINUOUS
 62
    2
 10
1190.8788999999999
 20
875.2645
 11
1250.8788999999999
 21
875.2645
  0
LINE
  8
_0-2_LAYER004
  6
CONTINUOUS
 62
    2
 10
1476.0632999999998
 20
946.45620000000008
 11
1474.1221999999998
 21
953.70059999999989
  0
LINE
  8
_0-2_LAYER004
  6
CONTINUOUS
 62
    2
 10
1474.1221999999998
 20
953.70059999999989
 11
1479.4254999999998
 21
948.39730000000009
  0
LINE
  8
_0-2_LAYER004
  6
CONTINUOUS
 62
    2
 10
1474.1221999999998
 20
953.70059999999989
 11
1511.5848000000001
 21
888.81349999999998
  0
LINE
  8
_0-2_LAYER004
  6
CONTINUOUS
 62
    2
 10
1511.5848000000001
 20
888.81349999999998
 11
1571.5848000000001
 21
888.81349999999998
  0
LINE
  8
_0-0_LAYER001
  6
CONTINUOUS
 62
    2
 10
1155.8055999999999
 20
683.09850000000006
 11
1360.6283000000003
 21
683.09850000000006
  0
LINE
  8
_0-0_LAYER001
  6
CONTINUOUS
 62
    2
 10
1172.2578000000001
 20
623.13660000000004
 11
1425.1907000000001
 21
623.13660000000004
  0
LINE
  8
_0-0_LAYER001
  6
CONTINUOUS
 62
    2
 10
1162.7147
 20
653.2319
 11
1499.9515000000001
 21
653.2319
  0
LINE
  8
_0-0_LAYER001
  6
CONTINUOUS
 62
    2
 10
1072.6110000000001
 20
984.42740000000003
 11
1072.6110000000001
 21
991.92740000000003
  0
LINE
  8
_0-0_LAYER001
  6
CONTINUOUS
 62
    2
 10
1072.6110000000001
 20
991.92740000000003
 11
1076.3610000000001
 21
985.43219999999997
  0
LINE
  8
_0-0_LAYER001
  6
CONTINUOUS
 62
    2
 10
1072.6110000000001
 20
991.92740000000003
 11
1171.4838
 21
622.92920000000004
  0
LINE
  8
_0-0_LAYER001
  6
CONTINUOUS
 62
    2
 10
959.5607
 20
733.33860000000004
 11
959.5607
 21
785.83860000000004
  0
CIRCLE
  8
_0-0_LAYER001
  6
CONTINUOUS
 62
    2
 10
959.5607
 20
735.83860000000004
 40
1.6999999999999997
  0
LINE
  8
_0-0_LAYER001
  6
CONTINUOUS
 62
    2
 10
959.5607
 20
735.83860000000004
 11
1214.5607
 21
735.83860000000004
  0
CIRCLE
  8
_0-0_LAYER001
  6
CONTINUOUS
 62
    2
 10
1214.5607
 20
735.83860000000004
 40
1.6999999999999997
  0
LINE
  8
_0-0_LAYER001
  6
CONTINUOUS
 62
    2
 10
1214.5607
 20
733.33860000000004
 11
1214.5607
 21
785.83860000000004
  0
CIRCLE
  8
_0-0_LAYER001
  6
CONTINUOUS
 62
    2
 10
1214.5607
 20
735.83860000000004
 40
1.6999999999999997
  0
LINE
  8
_0-0_LAYER001
  6
CONTINUOUS
 62
    2
 10
1214.5607
 20
735.83860000000004
 11
1469.5607
 21
735.83860000000004
  0
CIRCLE
  8
_0-0_LAYER001
  6
CONTINUOUS
 62
    2
 10
1469.5607
 20
735.83860000000004
 40
1.6999999999999997
  0
LINE
  8
_0-0_LAYER001
  6
CONTINUOUS
 62
    2
 10
1469.5607
 20
733.33860000000004
 11
1469.5607
 21
785.83860000000004
  0
CIRCLE
  8
_0-0_LAYER001
  6
CONTINUOUS
 62
    2
 10
1469.5607
 20
735.83860000000004
 40
1.6999999999999997
  0
LINE
  8
_0-0_LAYER001
  6
CONTINUOUS
 62
    2
 10
1469.5607
 20
735.83860000000004
 11
1724.5607
 21
735.83860000000004
  0
CIRCLE
  8
_0-0_LAYER001
  6
CONTINUOUS
 62
    2
 10
1724.5607
 20
735.83860000000004
 40
1.6999999999999997
  0
LINE
  8
_0-0_LAYER001
  6
CONTINUOUS
 62
    2
 10
1724.5607
 20
733.33860000000004
 11
1724.5607
 21
785.83860000000004
  0
CIRCLE
  8
_0-0_LAYER001
  6
CONTINUOUS
 62
    2
 10
1724.5607
 20
735.83860000000004
 40
1.6999999999999997
  0
LINE
  8
_0-0_LAYER001
  6
CONTINUOUS
 62
    2
 10
1724.5607
 20
735.83860000000004
 11
1860.5077000000001
 21
735.83860000000004
  0
CIRCLE
  8
_0-0_LAYER001
  6
CONTINUOUS
 62
    2
 10
1860.5077000000001
 20
735.83860000000004
 40
1.6999999999999997
  0
LINE
  8
_0-0_LAYER001
  6
CONTINUOUS
 62
    2
 10
1860.5077000000001
 20
733.33860000000004
 11
1860.5077000000001
 21
785.83860000000004
  0
LINE
  8
_0-0_LAYER001
  6
CONTINUOUS
 62
    2
 10
1920.3908999999999
 20
1152.0255
 11
1915.3908999999999
 21
1155.0254
  0
LINE
  8
_0-0_LAYER001
  6
CONTINUOUS
 62
    2
 10
1915.3908999999999
 20
1149.0255
 11
1920.3908999999999
 21
1152.0255
  0
LINE
  8
_0-0_LAYER001
  6
CONTINUOUS
 62
    2
 10
1914.3159000000001
 20
1149.0255
 11
1917.1649000000002
 21
1153.9616000000001
  0
LINE
  8
_0-0_LAYER001
  6
CONTINUOUS
 62
    2
 10
1848.3908000000001
 20
1149.0255
 11
1848.3908000000001
 21
1155.0254
  0
LINE
  8
_0-0_LAYER001
  6
CONTINUOUS
 62
    2
 10
1842.3908999999999
 20
1146.0254
 11
1842.3908999999999
 21
1158.0255
  0
LINE
  8
_0-0_LAYER001
  6
CONTINUOUS
 62
    2
 10
1851.2779
 20
1149.0255
 11
1854.7408999999998
 21
1155.0254
  0
LINE
  8
_0-0_LAYER001
  6
CONTINUOUS
 62
    2
 10
1842.3908999999999
 20
1146.0254
 11
1848.3908000000001
 21
1149.0255
  0
LINE
  8
_0-0_LAYER001
  6
CONTINUOUS
 62
    2
 10
1848.3908000000001
 20
1155.0254
 11
1842.3908999999999
 21
1158.0255
  0
LINE
  8
_0-0_LAYER001
  6
CONTINUOUS
 62
    2
 10
1915.3908999999999
 20
1155.0254
 11
1905.3759
 21
1155.0254
  0
LINE
  8
_0-0_LAYER001
  6
CONTINUOUS
 62
    2
 10
1896.7239
 20
1150.5526
 11
1898.6179000000002
 21
1153.8335
  0
LINE
  8
_0-0_LAYER001
  6
CONTINUOUS
 62
    2
 10
1905.1079
 20
1149.0744999999999
 11
1908.5428999999999
 21
1155.0254
  0
LINE
  8
_0-0_LAYER001
  6
CONTINUOUS
 62
    2
 10
1915.3908999999999
 20
1149.0255
 11
1905.384
 21
1149.0255
  0
LINE
  8
_0-0_LAYER001
  6
CONTINUOUS
 62
    2
 10
1913.2399
 20
1158.7484999999999
 11
1913.6399000000001
 21
1156.4825000000001
  0
LINE
  8
_0-0_LAYER001
  6
CONTINUOUS
 62
    2
 10
1913.0668999999998
 20
1145.3356000000001
 11
1913.4648000000002
 21
1147.6005
  0
LINE
  8
_0-0_LAYER001
  6
CONTINUOUS
 62
    2
 10
1908.6468
 20
1157.7345
 11
1910.3209000000002
 21
1158.0295000000001
  0
LINE
  8
_0-0_LAYER001
  6
CONTINUOUS
 62
    2
 10
1904.3139000000001
 20
1156.9704999999999
 11
1905.9868000000001
 21
1157.2655
  0
LINE
  8
_0-0_LAYER001
  6
CONTINUOUS
 62
    2
 10
1899.9809
 20
1156.2065
 11
1901.6538
 21
1156.5015000000001
  0
LINE
  8
_0-0_LAYER001
  6
CONTINUOUS
 62
    2
 10
1899.6848
 20
1157.8795
 11
1890.5907999999999
 21
1156.2765999999999
  0
LINE
  8
_0-0_LAYER001
  6
CONTINUOUS
 62
    2
 10
1904.0178000000001
 20
1158.6434999999999
 11
1901.3588
 21
1158.1745000000001
  0
LINE
  8
_0-0_LAYER001
  6
CONTINUOUS
 62
    2
 10
1908.3508000000002
 20
1159.4076
 11
1905.6918999999998
 21
1158.9386
  0
LINE
  8
_0-0_LAYER001
  6
CONTINUOUS
 62
    2
 10
1911.5028000000002
 20
1159.9635000000001
 11
1910.0248999999999
 21
1159.7023999999999
  0
LINE
  8
_0-0_LAYER001
  6
CONTINUOUS
 62
    2
 10
1910.3209000000002
 20
1158.0295000000001
 11
1910.0248999999999
 21
1159.7035000000001
  0
LINE
  8
_0-0_LAYER001
  6
CONTINUOUS
 62
    2
 10
1908.6468
 20
1157.7345
 11
1908.3508000000002
 21
1159.4086
  0
LINE
  8
_0-0_LAYER001
  6
CONTINUOUS
 62
    2
 10
1905.9879000000001
 20
1157.2655
 11
1905.6918999999998
 21
1158.9395999999999
  0
LINE
  8
_0-0_LAYER001
  6
CONTINUOUS
 62
    2
 10
1904.3139000000001
 20
1156.9704999999999
 11
1904.0178000000001
 21
1158.6445000000001
  0
LINE
  8
_0-0_LAYER001
  6
CONTINUOUS
 62
    2
 10
1901.6549
 20
1156.5015000000001
 11
1901.3588
 21
1158.1754000000001
  0
LINE
  8
_0-0_LAYER001
  6
CONTINUOUS
 62
    2
 10
1899.9809
 20
1156.2065
 11
1899.6848
 21
1157.8805
  0
LINE
  8
_0-0_LAYER001
  6
CONTINUOUS
 62
    2
 10
1908.4719
 20
1146.3484000000001
 11
1910.1459
 21
1146.0535
  0
LINE
  8
_0-0_LAYER001
  6
CONTINUOUS
 62
    2
 10
1904.1388999999999
 20
1147.1125
 11
1905.8128999999999
 21
1146.8175000000001
  0
LINE
  8
_0-0_LAYER001
  6
CONTINUOUS
 62
    2
 10
1899.8058999999998
 20
1147.8765000000001
 11
1901.4798000000001
 21
1147.5814
  0
LINE
  8
_0-0_LAYER001
  6
CONTINUOUS
 62
    2
 10
1899.8069
 20
1147.8765000000001
 11
1899.5108
 21
1146.2036000000001
  0
LINE
  8
_0-0_LAYER001
  6
CONTINUOUS
 62
    2
 10
1901.4807999999998
 20
1147.5814
 11
1901.1848
 21
1145.9085
  0
LINE
  8
_0-0_LAYER001
  6
CONTINUOUS
 62
    2
 10
1904.1399000000001
 20
1147.1125
 11
1903.8438999999998
 21
1145.4395
  0
LINE
  8
_0-0_LAYER001
  6
CONTINUOUS
 62
    2
 10
1905.8139000000001
 20
1146.8175000000001
 11
1905.5178000000001
 21
1145.1445000000001
  0
LINE
  8
_0-0_LAYER001
  6
CONTINUOUS
 62
    2
 10
1908.4728
 20
1146.3484000000001
 11
1908.1768999999999
 21
1144.6755000000001
  0
LINE
  8
_0-0_LAYER001
  6
CONTINUOUS
 62
    2
 10
1910.1469000000002
 20
1146.0535
 11
1909.8508999999999
 21
1144.3806
  0
LINE
  8
_0-0_LAYER001
  6
CONTINUOUS
 62
    2
 10
1899.5108
 20
1146.2036000000001
 11
1890.5907999999999
 21
1147.7755
  0
LINE
  8
_0-0_LAYER001
  6
CONTINUOUS
 62
    2
 10
1903.8438999999998
 20
1145.4395
 11
1901.1848
 21
1145.9085
  0
LINE
  8
_0-0_LAYER001
  6
CONTINUOUS
 62
    2
 10
1908.1768999999999
 20
1144.6755000000001
 11
1905.5178000000001
 21
1145.1445000000001
  0
LINE
  8
_0-0_LAYER001
  6
CONTINUOUS
 62
    2
 10
1911.328
 20
1144.1195
 11
1909.8508999999999
 21
1144.3795
  0
LINE
  8
_0-0_LAYER001
  6
CONTINUOUS
 62
    2
 10
1888.3669
 20
1152.0265999999999
 11
1913.6399000000001
 21
1156.4825000000001
  0
LINE
  8
_0-0_LAYER001
  6
CONTINUOUS
 62
    2
 10
1888.3669
 20
1152.0265999999999
 11
1913.4648000000002
 21
1147.6005
  0
LINE
  8
_0-0_LAYER001
  6
CONTINUOUS
 62
    2
 10
1872.3908999999999
 20
1156.2755
 11
1890.5907999999999
 21
1156.2755
  0
LINE
  8
_0-0_LAYER001
  6
CONTINUOUS
 62
    2
 10
1872.3908999999999
 20
1147.7755
 11
1890.5907999999999
 21
1147.7755
  0
LINE
  8
_0-0_LAYER001
  6
CONTINUOUS
 62
    2
 10
1872.3908999999999
 20
1147.7755
 11
1872.3908999999999
 21
1156.2755
  0
LINE
  8
_0-0_LAYER001
  6
CONTINUOUS
 62
    2
 10
1842.3908999999999
 20
1132.0255
 11
1872.3908999999999
 21
1132.0255
  0
LINE
  8
_0-0_LAYER001
  6
CONTINUOUS
 62
    2
 10
1872.3908999999999
 20
1155.0254
 11
1848.3908000000001
 21
1155.0254
  0
LINE
  8
_0-0_LAYER001
  6
CONTINUOUS
 62
    2
 10
1872.3908999999999
 20
1149.0255
 11
1848.3908000000001
 21
1149.0255
  0
LINE
  8
_0-0_LAYER001
  6
CONTINUOUS
 62
    2
 10
1857.0010000000002
 20
1149.0255
 11
1860.4641000000001
 21
1155.0254
  0
LINE
  8
_0-0_LAYER001
  6
CONTINUOUS
 62
    2
 10
1862.7240999999999
 20
1149.0255
 11
1866.1871999999998
 21
1155.0254
  0
LINE
  8
_0-0_LAYER001
  6
CONTINUOUS
 62
    2
 10
1868.4472999999998
 20
1149.0255
 11
1871.9103
 21
1155.0254
  0
ARC
  8
_0-0_LAYER001
  6
CONTINUOUS
 62
    2
 10
1911.7548999999999
 20
1158.4815000000001
 40
1.5049999999999999
 50
10.451269999999999
 51
99.637527999999989
  0
ARC
  8
_0-0_LAYER001
  6
CONTINUOUS
 62
    2
 10
1911.5868999999998
 20
1145.5985000000001
 40
1.4969999999999999
 50
259.83899000000008
 51
350.14733000000001
  0
LINE
  8
_0-0_LAYER001
  6
CONTINUOUS
 62
    2
 10
1839.9009000000001
 20
1181.8200999999999
 11
1847.9715999999999
 21
1185.5827999999999
  0
LINE
  8
_0-0_LAYER001
  6
CONTINUOUS
 62
    2
 10
1854.3406
 20
1156.9991
 11
1859.7968999999998
 21
1149.9313
  0
LINE
  8
_0-0_LAYER001
  6
CONTINUOUS
 62
    2
 10
1846.2892000000002
 20
1183.0382
 11
1857.6997999999999
 21
1158.5654
  0
LINE
  8
_0-0_LAYER001
  6
CONTINUOUS
 62
    2
 10
1859.7968999999998
 20
1149.9313
 11
1857.6997999999999
 21
1158.5654
  0
LINE
  8
_0-0_LAYER001
  6
CONTINUOUS
 62
    2
 10
1842.9297000000001
 20
1181.4734000000001
 11
1839.9009000000001
 21
1181.8200999999999
  0
LINE
  8
_0-0_LAYER001
  6
CONTINUOUS
 62
    2
 10
1846.2892000000002
 20
1183.0382
 11
1847.9715999999999
 21
1185.5827999999999
  0
LINE
  8
_0-0_LAYER001
  6
CONTINUOUS
 62
    2
 10
1842.9297000000001
 20
1181.4734000000001
 11
1854.3406
 21
1156.9991
  0
LINE
  8
_0-2_LAYER004
  6
CONTINUOUS
 62
    2
 10
1756.3879000000002
 20
1152.8986
 11
1760.6821
 21
1159.2691
  0
LINE
  8
_0-2_LAYER004
  6
CONTINUOUS
 62
    2
 10
1774.3699000000001
 20
1156.9793999999999
 11
1771.6669000000002
 21
1171.7334000000001
  0
LINE
  8
_0-2_LAYER004
  6
CONTINUOUS
 62
    2
 10
1862.8969000000002
 20
1173.1944000000001
 11
1774.3699000000001
 21
1156.9793999999999
  0
LINE
  8
_0-2_LAYER004
  6
CONTINUOUS
 62
    2
 10
1771.6669000000002
 20
1171.7334000000001
 11
1862.8969000000002
 21
1173.1944000000001
  0
LINE
  8
_0-2_LAYER004
  6
CONTINUOUS
 62
    2
 10
1756.9358999999999
 20
1170.9775999999999
 11
1756.3879000000002
 21
1152.8986
  0
LINE
  8
_0-2_LAYER004
  6
CONTINUOUS
 62
    2
 10
1756.9358999999999
 20
1170.9775999999999
 11
1846.9358999999999
 21
1187.4623999999999
  0
LINE
  8
_0-2_LAYER004
  6
CONTINUOUS
 62
    2
 10
1860.1949
 20
1187.9494
 11
1862.8969000000002
 21
1173.1944000000001
  0
LINE
  8
_0-2_LAYER004
  6
CONTINUOUS
 62
    2
 10
1771.6669000000002
 20
1171.7334000000001
 11
1860.1949
 21
1187.9494
  0
ARC
  8
_0-0_LAYER001
  6
CONTINUOUS
 62
    2
 10
1830.1169
 20
1296.095
 40
20.694040000000001
 50
335.49168000000003
 51
33.319545000000062
  0
LINE
  8
_0-0_LAYER001
  6
CONTINUOUS
 62
    2
 10
1862.4189000000001
 20
1307.4623999999999
 11
1862.4189000000001
 21
1287.4623999999999
  0
LINE
  8
_0-2_LAYER004
  6
CONTINUOUS
 62
    2
 10
1867.8809000000001
 20
1307.4623999999999
 11
1862.4189000000001
 21
1287.4623999999999
  0
LINE
  8
_0-2_LAYER004
  6
CONTINUOUS
 62
    2
 10
1867.8809000000001
 20
1287.4623999999999
 11
1862.4189000000001
 21
1307.4623999999999
  0
LINE
  8
_0-2_LAYER004
  6
CONTINUOUS
 62
    2
 10
1869.9427999999998
 20
1287.5640000000001
 11
1869.9427999999998
 21
1304.5068000000001
  0
LINE
  8
_0-3_LAYER005
  6
CONTINUOUS
 62
    2
 10
1846.9358999999999
 20
1287.4623999999999
 11
1871.9358999999999
 21
1287.4623999999999
  0
LINE
  8
_0-3_LAYER005
  6
CONTINUOUS
 62
    2
 10
1867.8809000000001
 20
1287.4623999999999
 11
1867.8809000000001
 21
1307.4623999999999
  0
LINE
  8
_0-3_LAYER005
  6
CONTINUOUS
 62
    2
 10
1856.1109000000001
 20
1287.4623999999999
 11
1862.4189000000001
 21
1293.7704000000003
  0
LINE
  8
_0-3_LAYER005
  6
CONTINUOUS
 62
    2
 10
1851.8679000000002
 20
1287.4623999999999
 11
1862.4189000000001
 21
1298.0134
  0
LINE
  8
_0-3_LAYER005
  6
CONTINUOUS
 62
    2
 10
1849.7665999999999
 20
1289.6043
 11
1862.4189000000001
 21
1302.2557000000002
  0
LINE
  8
_0-3_LAYER005
  6
CONTINUOUS
 62
    2
 10
1850.7736
 20
1294.8531
 11
1862.4189000000001
 21
1306.4983999999999
  0
LINE
  8
_0-3_LAYER005
  6
CONTINUOUS
 62
    2
 10
1850.6149
 20
1298.9362000000001
 11
1859.1397999999999
 21
1307.4623999999999
  0
LINE
  8
_0-3_LAYER005
  6
CONTINUOUS
 62
    2
 10
1849.8294999999998
 20
1302.3921999999998
 11
1854.8962999999999
 21
1307.4623999999999
  0
LINE
  8
_0-0_LAYER001
  6
CONTINUOUS
 62
    3
 10
1827.5949000000001
 20
1126.5283999999999
 11
1827.5722999999998
 21
1126.0632000000001
  0
LINE
  8
_0-0_LAYER001
  6
CONTINUOUS
 62
    3
 10
1827.5722999999998
 20
1126.0632000000001
 11
1827.5108
 21
1124.8005000000001
  0
LINE
  8
_0-0_LAYER001
  6
CONTINUOUS
 62
    3
 10
1827.5108
 20
1124.8005000000001
 11
1827.4202
 21
1122.9395
  0
LINE
  8
_0-0_LAYER001
  6
CONTINUOUS
 62
    3
 10
1827.4202
 20
1122.9395
 11
1827.3101999999999
 21
1120.6799000000001
  0
LINE
  8
_0-0_LAYER001
  6
CONTINUOUS
 62
    3
 10
1827.3101999999999
 20
1120.6799000000001
 11
1827.1905000000002
 21
1118.2208000000001
  0
LINE
  8
_0-0_LAYER001
  6
CONTINUOUS
 62
    3
 10
1827.1905000000002
 20
1118.2208000000001
 11
1827.0708
 21
1115.7617
  0
LINE
  8
_0-0_LAYER001
  6
CONTINUOUS
 62
    3
 10
1827.0708
 20
1115.7617
 11
1826.9607999999998
 21
1113.502
  0
LINE
  8
_0-0_LAYER001
  6
CONTINUOUS
 62
    3
 10
1826.9607999999998
 20
1113.502
 11
1826.8701999999998
 21
1111.6411000000001
  0
LINE
  8
_0-0_LAYER001
  6
CONTINUOUS
 62
    3
 10
1826.8701999999998
 20
1111.6411000000001
 11
1826.8087
 21
1110.3784000000001
  0
LINE
  8
_0-0_LAYER001
  6
CONTINUOUS
 62
    3
 10
1826.8087
 20
1110.3784000000001
 11
1826.7860000000001
 21
1109.9131
  0
LINE
  8
_0-0_LAYER001
  6
CONTINUOUS
 62
    3
 10
1826.7860000000001
 20
1109.9131
 11
1825.6408999999999
 21
1109.9888000000001
  0
LINE
  8
_0-0_LAYER001
  6
CONTINUOUS
 62
    3
 10
1825.6408999999999
 20
1109.9888000000001
 11
1822.2656000000002
 21
1110.0574999999999
  0
LINE
  8
_0-0_LAYER001
  6
CONTINUOUS
 62
    3
 10
1822.2656000000002
 20
1110.0574999999999
 11
1816.7505999999998
 21
1109.8815
  0
LINE
  8
_0-0_LAYER001
  6
CONTINUOUS
 62
    3
 10
1816.7505999999998
 20
1109.8815
 11
1809.1860999999999
 21
1109.2234000000001
  0
LINE
  8
_0-0_LAYER001
  6
CONTINUOUS
 62
    3
 10
1809.1860999999999
 20
1109.2234000000001
 11
1799.6624999999999
 21
1107.8454999999999
  0
LINE
  8
_0-0_LAYER001
  6
CONTINUOUS
 62
    3
 10
1799.6624999999999
 20
1107.8454999999999
 11
1788.27
 21
1105.5103999999999
  0
LINE
  8
_0-0_LAYER001
  6
CONTINUOUS
 62
    3
 10
1788.27
 20
1105.5103999999999
 11
1775.0990999999999
 21
1101.9803999999999
  0
LINE
  8
_0-0_LAYER001
  6
CONTINUOUS
 62
    3
 10
1775.0990999999999
 20
1101.9803999999999
 11
1760.2399999999998
 21
1097.0181
  0
LINE
  8
_0-0_LAYER001
  6
CONTINUOUS
 62
    3
 10
1760.2399999999998
 20
1097.0181
 11
1743.7829999999999
 21
1090.3857
  0
LINE
  8
_0-0_LAYER001
  6
CONTINUOUS
 62
    3
 10
1743.7829999999999
 20
1090.3857
 11
1725.8184999999999
 21
1081.8458000000001
  0
LINE
  8
_0-0_LAYER001
  6
CONTINUOUS
 62
    3
 10
1725.8184999999999
 20
1081.8458000000001
 11
1725.8553999999999
 21
1082.6029000000001
  0
LINE
  8
_0-0_LAYER001
  6
CONTINUOUS
 62
    3
 10
1725.8553999999999
 20
1082.6029000000001
 11
1725.9553999999998
 21
1084.6579999999999
  0
LINE
  8
_0-0_LAYER001
  6
CONTINUOUS
 62
    3
 10
1725.9553999999998
 20
1084.6579999999999
 11
1726.1028000000001
 21
1087.6866
  0
LINE
  8
_0-0_LAYER001
  6
CONTINUOUS
 62
    3
 10
1726.1028000000001
 20
1087.6866
 11
1726.2819
 21
1091.3642
  0
LINE
  8
_0-0_LAYER001
  6
CONTINUOUS
 62
    3
 10
1726.2819
 20
1091.3642
 11
1726.4767000000002
 21
1095.3661999999999
  0
LINE
  8
_0-0_LAYER001
  6
CONTINUOUS
 62
    3
 10
1726.4767000000002
 20
1095.3661999999999
 11
1726.6714999999999
 21
1099.3683000000001
  0
LINE
  8
_0-0_LAYER001
  6
CONTINUOUS
 62
    3
 10
1726.6714999999999
 20
1099.3683000000001
 11
1726.8506000000002
 21
1103.0458000000001
  0
LINE
  8
_0-0_LAYER001
  6
CONTINUOUS
 62
    3
 10
1726.8506000000002
 20
1103.0458000000001
 11
1726.998
 21
1106.0744
  0
LINE
  8
_0-0_LAYER001
  6
CONTINUOUS
 62
    3
 10
1726.998
 20
1106.0744
 11
1727.0981000000002
 21
1108.1295
  0
LINE
  8
_0-0_LAYER001
  6
CONTINUOUS
 62
    3
 10
1727.0981000000002
 20
1108.1295
 11
1727.1349
 21
1108.8867
  0
LINE
  8
_0-0_LAYER001
  6
CONTINUOUS
 62
    3
 10
1727.1349
 20
1108.8867
 11
1728.8285000000001
 21
1109.3911000000001
  0
LINE
  8
_0-0_LAYER001
  6
CONTINUOUS
 62
    3
 10
1728.8285000000001
 20
1109.3911000000001
 11
1733.6030999999998
 21
1110.7583999999999
  0
LINE
  8
_0-0_LAYER001
  6
CONTINUOUS
 62
    3
 10
1733.6030999999998
 20
1110.7583999999999
 11
1740.9994000000002
 21
1112.7701999999999
  0
LINE
  8
_0-0_LAYER001
  6
CONTINUOUS
 62
    3
 10
1740.9994000000002
 20
1112.7701999999999
 11
1750.558
 21
1115.2076
  0
LINE
  8
_0-0_LAYER001
  6
CONTINUOUS
 62
    3
 10
1750.558
 20
1115.2076
 11
1761.8195000000001
 21
1117.8521000000001
  0
LINE
  8
_0-0_LAYER001
  6
CONTINUOUS
 62
    3
 10
1761.8195000000001
 20
1117.8521000000001
 11
1774.3247000000001
 21
1120.4851000000001
  0
LINE
  8
_0-0_LAYER001
  6
CONTINUOUS
 62
    3
 10
1774.3247000000001
 20
1120.4851000000001
 11
1787.6140999999998
 21
1122.8878
  0
LINE
  8
_0-0_LAYER001
  6
CONTINUOUS
 62
    3
 10
1787.6140999999998
 20
1122.8878
 11
1801.2285999999999
 21
1124.8416999999999
  0
LINE
  8
_0-0_LAYER001
  6
CONTINUOUS
 62
    3
 10
1801.2285999999999
 20
1124.8416999999999
 11
1814.7085999999999
 21
1126.1282000000001
  0
LINE
  8
_0-0_LAYER001
  6
CONTINUOUS
 62
    3
 10
1827.5949000000001
 20
1126.5283999999999
 11
1814.5956000000001
 21
1126.1174000000001
  0
LINE
  8
_0-0_LAYER001
  6
CONTINUOUS
 62
    3
 10
1838.6959000000002
 20
1158.5645999999999
 11
1838.6732999999999
 21
1158.0994000000001
  0
LINE
  8
_0-0_LAYER001
  6
CONTINUOUS
 62
    3
 10
1838.6732999999999
 20
1158.0994000000001
 11
1838.6118000000001
 21
1156.8366000000001
  0
LINE
  8
_0-0_LAYER001
  6
CONTINUOUS
 62
    3
 10
1838.6118000000001
 20
1156.8366000000001
 11
1838.5212000000001
 21
1154.9757
  0
LINE
  8
_0-0_LAYER001
  6
CONTINUOUS
 62
    3
 10
1838.5212000000001
 20
1154.9757
 11
1838.4112
 21
1152.7161000000001
  0
LINE
  8
_0-0_LAYER001
  6
CONTINUOUS
 62
    3
 10
1838.4112
 20
1152.7161000000001
 11
1838.2914999999998
 21
1150.2570000000001
  0
LINE
  8
_0-0_LAYER001
  6
CONTINUOUS
 62
    3
 10
1838.2914999999998
 20
1150.2570000000001
 11
1838.1718000000001
 21
1147.7979
  0
LINE
  8
_0-0_LAYER001
  6
CONTINUOUS
 62
    3
 10
1838.1718000000001
 20
1147.7979
 11
1838.0617999999999
 21
1145.5382
  0
LINE
  8
_0-0_LAYER001
  6
CONTINUOUS
 62
    3
 10
1838.0617999999999
 20
1145.5382
 11
1837.9712
 21
1143.6773000000001
  0
LINE
  8
_0-0_LAYER001
  6
CONTINUOUS
 62
    3
 10
1837.9712
 20
1143.6773000000001
 11
1837.9097000000002
 21
1142.4146000000001
  0
LINE
  8
_0-0_LAYER001
  6
CONTINUOUS
 62
    3
 10
1837.9097000000002
 20
1142.4146000000001
 11
1837.8870000000002
 21
1141.9493
  0
LINE
  8
_0-0_LAYER001
  6
CONTINUOUS
 62
    3
 10
1837.8870000000002
 20
1141.9493
 11
1836.7419
 21
1142.0250000000001
  0
LINE
  8
_0-0_LAYER001
  6
CONTINUOUS
 62
    3
 10
1836.7419
 20
1142.0250000000001
 11
1833.3665999999998
 21
1142.0935999999999
  0
LINE
  8
_0-0_LAYER001
  6
CONTINUOUS
 62
    3
 10
1833.3665999999998
 20
1142.0935999999999
 11
1827.8516
 21
1141.9177
  0
LINE
  8
_0-0_LAYER001
  6
CONTINUOUS
 62
    3
 10
1827.8516
 20
1141.9177
 11
1820.2871
 21
1141.2596000000001
  0
LINE
  8
_0-0_LAYER001
  6
CONTINUOUS
 62
    3
 10
1820.2871
 20
1141.2596000000001
 11
1810.7635
 21
1139.8816999999999
  0
LINE
  8
_0-0_LAYER001
  6
CONTINUOUS
 62
    3
 10
1810.7635
 20
1139.8816999999999
 11
1799.3710000000001
 21
1137.5465999999999
  0
LINE
  8
_0-0_LAYER001
  6
CONTINUOUS
 62
    3
 10
1799.3710000000001
 20
1137.5465999999999
 11
1786.2001
 21
1134.0165999999999
  0
LINE
  8
_0-0_LAYER001
  6
CONTINUOUS
 62
    3
 10
1786.2001
 20
1134.0165999999999
 11
1771.3409999999999
 21
1129.0542
  0
LINE
  8
_0-0_LAYER001
  6
CONTINUOUS
 62
    3
 10
1771.3409999999999
 20
1129.0542
 11
1754.884
 21
1122.4219000000001
  0
LINE
  8
_0-0_LAYER001
  6
CONTINUOUS
 62
    3
 10
1754.884
 20
1122.4219000000001
 11
1736.9195
 21
1113.8820000000001
  0
LINE
  8
_0-0_LAYER001
  6
CONTINUOUS
 62
    3
 10
1736.9195
 20
1113.8820000000001
 11
1736.9564
 21
1114.6391000000001
  0
LINE
  8
_0-0_LAYER001
  6
CONTINUOUS
 62
    3
 10
1736.9564
 20
1114.6391000000001
 11
1737.0563999999999
 21
1116.6941999999999
  0
LINE
  8
_0-0_LAYER001
  6
CONTINUOUS
 62
    3
 10
1737.0563999999999
 20
1116.6941999999999
 11
1737.2037999999998
 21
1119.7228
  0
LINE
  8
_0-0_LAYER001
  6
CONTINUOUS
 62
    3
 10
1737.2037999999998
 20
1119.7228
 11
1737.3829000000001
 21
1123.4004
  0
LINE
  8
_0-0_LAYER001
  6
CONTINUOUS
 62
    3
 10
1737.3829000000001
 20
1123.4004
 11
1737.5776999999998
 21
1127.4023999999999
  0
LINE
  8
_0-0_LAYER001
  6
CONTINUOUS
 62
    3
 10
1737.5776999999998
 20
1127.4023999999999
 11
1737.7725
 21
1131.4045000000001
  0
LINE
  8
_0-0_LAYER001
  6
CONTINUOUS
 62
    3
 10
1737.7725
 20
1131.4045000000001
 11
1737.9515999999999
 21
1135.0820000000001
  0
LINE
  8
_0-0_LAYER001
  6
CONTINUOUS
 62
    3
 10
1737.9515999999999
 20
1135.0820000000001
 11
1738.0990000000002
 21
1138.1106
  0
LINE
  8
_0-0_LAYER001
  6
CONTINUOUS
 62
    3
 10
1738.0990000000002
 20
1138.1106
 11
1738.1990999999998
 21
1140.1657
  0
LINE
  8
_0-0_LAYER001
  6
CONTINUOUS
 62
    3
 10
1738.1990999999998
 20
1140.1657
 11
1738.2359000000001
 21
1140.9229
  0
LINE
  8
_0-0_LAYER001
  6
CONTINUOUS
 62
    3
 10
1738.2359000000001
 20
1140.9229
 11
1739.9295000000002
 21
1141.4273000000001
  0
LINE
  8
_0-0_LAYER001
  6
CONTINUOUS
 62
    3
 10
1739.9295000000002
 20
1141.4273000000001
 11
1744.7040999999999
 21
1142.7945999999999
  0
LINE
  8
_0-0_LAYER001
  6
CONTINUOUS
 62
    3
 10
1744.7040999999999
 20
1142.7945999999999
 11
1752.1003999999998
 21
1144.8063999999999
  0
LINE
  8
_0-0_LAYER001
  6
CONTINUOUS
 62
    3
 10
1752.1003999999998
 20
1144.8063999999999
 11
1761.6590000000001
 21
1147.2438
  0
LINE
  8
_0-0_LAYER001
  6
CONTINUOUS
 62
    3
 10
1761.6590000000001
 20
1147.2438
 11
1772.9205000000002
 21
1149.8883000000001
  0
LINE
  8
_0-0_LAYER001
  6
CONTINUOUS
 62
    3
 10
1772.9205000000002
 20
1149.8883000000001
 11
1785.4256999999998
 21
1152.5213000000001
  0
LINE
  8
_0-0_LAYER001
  6
CONTINUOUS
 62
    3
 10
1785.4256999999998
 20
1152.5213000000001
 11
1798.7150999999999
 21
1154.924
  0
LINE
  8
_0-0_LAYER001
  6
CONTINUOUS
 62
    3
 10
1798.7150999999999
 20
1154.924
 11
1812.3296
 21
1156.8779
  0
LINE
  8
_0-0_LAYER001
  6
CONTINUOUS
 62
    3
 10
1812.3296
 20
1156.8779
 11
1825.8096
 21
1158.1643999999999
  0
LINE
  8
_0-0_LAYER001
  6
CONTINUOUS
 62
    3
 10
1838.6959000000002
 20
1158.5645999999999
 11
1825.6966000000002
 21
1158.1536000000001
  0
ARC
  8
_0-0_LAYER001
  6
CONTINUOUS
 62
    2
 10
1762.8946000000001
 20
1130.027
 40
20.926341999999998
 50
337.07353999999998
 51
8.9643380000000246
  0
ARC
  8
_0-0_LAYER001
  6
CONTINUOUS
 62
    2
 10
1770.4641000000001
 20
1102.8445999999999
 40
12.524853999999998
 50
320.09210999999999
 51
8.017092999999992
  0
LINE
  8
_0-0_LAYER001
  6
CONTINUOUS
 62
    4
 10
1724.0826999999999
 20
1076.5273
 11
1724.0826999999999
 21
1058.8113000000001
  0
ARC
  8
_0-0_LAYER001
  6
CONTINUOUS
 62
    4
 10
1899.2386999999999
 20
1217.5693000000001
 40
171.72701000000001
 50
228.22927000000001
 51
257.34244999999999
  0
LINE
  8
_0-0_LAYER001
  6
CONTINUOUS
 62
    4
 10
1727.8063000000002
 20
1061.5123000000001
 11
1763.9964
 21
1077.6686
  0
LINE
  8
_0-0_LAYER001
  6
CONTINUOUS
 62
    4
 10
1727.8063000000002
 20
1061.5123000000001
 11
1727.8063000000002
 21
1059.8991000000001
  0
LINE
  8
_0-0_LAYER001
  6
CONTINUOUS
 62
    4
 10
1724.0826999999999
 20
1058.8113000000001
 11
1727.7982999999999
 21
1059.9259
  0
ARC
  8
_0-0_LAYER001
  6
CONTINUOUS
 62
    4
 10
1769.6732000000002
 20
1061.1702
 40
17.566393000000001
 50
69.918021999999993
 51
110.08197
  0
ARC
  8
_0-0_LAYER001
  6
CONTINUOUS
 62
    4
 10
1905.4802
 20
1231.0911000000001
 40
200.99046999999999
 50
229.91572000000002
 51
257.44371999999998
  0
LINE
  8
_0-0_LAYER001
  6
CONTINUOUS
 62
    4
 10
1724.0826999999999
 20
1076.5273
 11
1758.3195000000001
 21
1091.5059000000001
  0
ARC
  8
_0-0_LAYER001
  6
CONTINUOUS
 62
    4
 10
1769.9328999999998
 20
1069.0268000000001
 40
25.304210000000001
 50
53.942641000000009
 51
117.01753000000001
  0
LINE
  8
_0-0_LAYER001
  6
CONTINUOUS
 62
    4
 10
1861.6093000000001
 20
1050.0157999999999
 11
1861.6093000000001
 21
1034.9077
  0
LINE
  8
_0-0_LAYER001
  6
CONTINUOUS
 62
    2
 10
2007.8114
 20
1187.4623999999999
 11
1955.3114
 21
1187.4623999999999
  0
CIRCLE
  8
_0-0_LAYER001
  6
CONTINUOUS
 62
    2
 10
2005.3114
 20
1187.4623999999999
 40
1.6999999999999997
  0
LINE
  8
_0-0_LAYER001
  6
CONTINUOUS
 62
    2
 10
2005.3114
 20
1187.4623999999999
 11
2005.3114
 21
1287.4623999999999
  0
CIRCLE
  8
_0-0_LAYER001
  6
CONTINUOUS
 62
    2
 10
2005.3114
 20
1287.4623999999999
 40
1.6999999999999997
  0
LINE
  8
_0-0_LAYER001
  6
CONTINUOUS
 62
    2
 10
2007.8114
 20
1287.4623999999999
 11
1955.3114
 21
1287.4623999999999
  0
CIRCLE
  8
_0-0_LAYER001
  6
CONTINUOUS
 62
    2
 10
2005.3114
 20
1287.4623999999999
 40
1.6999999999999997
  0
LINE
  8
_0-0_LAYER001
  6
CONTINUOUS
 62
    2
 10
2005.3114
 20
1287.4623999999999
 11
2005.3114
 21
1307.4623999999999
  0
CIRCLE
  8
_0-0_LAYER001
  6
CONTINUOUS
 62
    2
 10
2005.3114
 20
1307.4623999999999
 40
1.6999999999999997
  0
LINE
  8
_0-0_LAYER001
  6
CONTINUOUS
 62
    2
 10
2007.8114
 20
1307.4623999999999
 11
1955.3114
 21
1307.4623999999999
  0
LINE
  8
_0-0_LAYER001
  6
CONTINUOUS
 62
    2
 10
2007.8114
 20
987.09069999999997
 11
1955.3114
 21
987.09069999999997
  0
CIRCLE
  8
_0-0_LAYER001
  6
CONTINUOUS
 62
    2
 10
2005.3114
 20
987.09069999999997
 40
1.6999999999999997
  0
LINE
  8
_0-0_LAYER001
  6
CONTINUOUS
 62
    2
 10
2005.3114
 20
987.09069999999997
 11
2005.3114
 21
1102.2186999999999
  0
CIRCLE
  8
_0-0_LAYER001
  6
CONTINUOUS
 62
    2
 10
2005.3114
 20
1102.2186999999999
 40
1.6999999999999997
  0
LINE
  8
_0-0_LAYER001
  6
CONTINUOUS
 62
    2
 10
2007.8114
 20
1102.2186999999999
 11
1955.3114
 21
1102.2186999999999
  0
LINE
  8
_0-0_LAYER001
  6
CONTINUOUS
 62
    2
 10
2007.8114
 20
1187.4623999999999
 11
1955.3114
 21
1187.4623999999999
  0
LINE
  8
_0-2_LAYER004
  6
CONTINUOUS
 62
    2
 10
843.47090000000003
 20
1004.0612000000001
 11
1725.2049000000002
 21
1004.0612000000001
  0
LINE
  8
_0-2_LAYER004
  6
CONTINUOUS
 62
    2
 10
843.47090000000003
 20
989.0612000000001
 11
1725.2049000000002
 21
989.0612000000001
  0
LINE
  8
_0-2_LAYER004
  6
CONTINUOUS
 62
    2
 10
1725.2049000000002
 20
1004.0612000000001
 11
1725.2049000000002
 21
989.0612000000001
  0
LINE
  8
_0-2_LAYER004
  6
CONTINUOUS
 62
    2
 10
1730.4798999999998
 20
987.09069999999997
 11
1730.4798999999998
 21
1004.0612000000001
  0
LINE
  8
_0-2_LAYER004
  6
CONTINUOUS
 62
    2
 10
1730.4798999999998
 20
1004.0612000000001
 11
1751.0239000000001
 21
1004.0612000000001
  0
LINE
  8
_0-2_LAYER004
  6
CONTINUOUS
 62
    2
 10
1872.3908999999999
 20
982.2186999999999
 11
843.47090000000003
 21
982.2186999999999
  0
LINE
  8
_0-2_LAYER004
  6
CONTINUOUS
 62
    2
 10
1730.4798999999998
 20
987.09069999999997
 11
1866.3989000000001
 21
987.09069999999997
  0
LINE
  8
_0-2_LAYER004
  6
DASHED3
 62
    2
 10
1870.0679
 20
984.71569999999997
 11
843.47090000000003
 21
984.71569999999997
  0
LINE
  8
_0-2_LAYER004
  6
CONTINUOUS
 62
    2
 10
1847.3908999999999
 20
1307.4623999999999
 11
1847.3908999999999
 21
1476.0736999999999
  0
LINE
  8
_0-2_LAYER004
  6
CONTINUOUS
 62
    2
 10
1846.9358999999999
 20
1187.4623999999999
 11
1846.9358999999999
 21
1287.4623999999999
  0
LINE
  8
_0-2_LAYER004
  6
DASHED3
 62
    2
 10
1870.0679
 20
984.71569999999997
 11
1870.0679
 21
1232.2186999999999
  0
LINE
  8
_0-4_LAYER007
  6
CONTINUOUS
 62
    2
 10
1847.3908999999999
 20
1333.6927000000001
 11
1990.7689
 21
1477.0706999999998
  0
LINE
  8
_0-4_LAYER007
  6
CONTINUOUS
 62
    2
 10
1847.3908999999999
 20
1322.3786999999998
 11
1990.7689
 21
1465.7566999999999
  0
LINE
  8
_0-4_LAYER007
  6
CONTINUOUS
 62
    2
 10
1847.3908999999999
 20
1311.0657000000001
 11
1990.7689
 21
1454.4436999999998
  0
LINE
  8
_0-2_LAYER004
  6
CONTINUOUS
 62
    2
 10
1866.3989000000001
 20
1102.2186999999999
 11
1866.3989000000001
 21
987.09069999999997
  0
LINE
  8
_0-4_LAYER007
  6
CONTINUOUS
 62
    2
 10
843.47090000000003
 20
812.2186999999999
 11
1872.3908999999999
 21
812.2186999999999
  0
LINE
  8
_0-4_LAYER007
  6
CONTINUOUS
 62
    2
 10
1048.8489
 20
942.2186999999999
 11
918.84889999999996
 21
812.2186999999999
  0
LINE
  8
_0-4_LAYER007
  6
CONTINUOUS
 62
    2
 10
1026.2209
 20
942.2186999999999
 11
896.22090000000003
 21
812.2186999999999
  0
LINE
  8
_0-4_LAYER007
  6
CONTINUOUS
 62
    2
 10
1037.5349000000001
 20
942.2186999999999
 11
907.53490000000011
 21
812.2186999999999
  0
LINE
  8
_0-4_LAYER007
  6
CONTINUOUS
 62
    2
 10
1458.4789000000001
 20
942.2186999999999
 11
1328.4789000000001
 21
812.2186999999999
  0
LINE
  8
_0-4_LAYER007
  6
CONTINUOUS
 62
    2
 10
1469.7928999999999
 20
942.2186999999999
 11
1339.7928999999999
 21
812.2186999999999
  0
LINE
  8
_0-4_LAYER007
  6
CONTINUOUS
 62
    2
 10
1481.1059
 20
942.2186999999999
 11
1351.1059
 21
812.2186999999999
  0
CIRCLE
  8
_0-3_LAYER005
  6
CONTINUOUS
 62
    2
 10
1795.6808999999998
 20
1105.6796999999999
 40
1.1619999999999999
  0
CIRCLE
  8
_0-3_LAYER005
  6
CONTINUOUS
 62
    2
 10
1803.8989000000001
 20
1105.6796999999999
 40
1.1619999999999999
  0
CIRCLE
  8
_0-3_LAYER005
  6
CONTINUOUS
 62
    2
 10
1800.6118999999999
 20
1087.6007
 40
1.1619999999999999
  0
CIRCLE
  8
_0-3_LAYER005
  6
CONTINUOUS
 62
    2
 10
1805.0749000000001
 20
1133.415
 40
1.1619999999999999
  0
CIRCLE
  8
_0-3_LAYER005
  6
CONTINUOUS
 62
    2
 10
1830.3507
 20
1132.9029
 40
1.1619999999999999
  0
CIRCLE
  8
_0-3_LAYER005
  6
CONTINUOUS
 62
    2
 10
1797.6788999999999
 20
1132.5940000000001
 40
1.1619999999999999
  0
CIRCLE
  8
_0-3_LAYER005
  6
CONTINUOUS
 62
    2
 10
1814.5819000000001
 20
1076.9177
 40
1.1619999999999999
  0
CIRCLE
  8
_0-3_LAYER005
  6
CONTINUOUS
 62
    2
 10
1817.8688999999999
 20
1084.3136999999999
 40
1.1619999999999999
  0
CIRCLE
  8
_0-3_LAYER005
  6
CONTINUOUS
 62
    2
 10
1826.9079000000002
 20
1089.2447
 40
1.1619999999999999
  0
CIRCLE
  8
_0-3_LAYER005
  6
CONTINUOUS
 62
    2
 10
1815.4038999999998
 20
1096.6406999999999
 40
1.1619999999999999
  0
CIRCLE
  8
_0-3_LAYER005
  6
CONTINUOUS
 62
    2
 10
1818.6909000000001
 20
1104.8587
 40
1.1619999999999999
  0
CIRCLE
  8
_0-3_LAYER005
  6
CONTINUOUS
 62
    2
 10
1830.1949
 20
1113.0757000000001
 40
1.1619999999999999
  0
CIRCLE
  8
_0-3_LAYER005
  6
CONTINUOUS
 62
    2
 10
1828.5518999999999
 20
1115.5417
 40
1.1619999999999999
  0
CIRCLE
  8
_0-3_LAYER005
  6
CONTINUOUS
 62
    2
 10
1835.9479000000001
 20
1119.6496999999999
 40
1.1619999999999999
  0
CIRCLE
  8
_0-3_LAYER005
  6
CONTINUOUS
 62
    2
 10
1838.4128999999998
 20
1127.8677
 40
1.1619999999999999
  0
CIRCLE
  8
_0-3_LAYER005
  6
CONTINUOUS
 62
    2
 10
1752.9488999999999
 20
1141.8377
 40
1.1619999999999999
  0
CIRCLE
  8
_0-3_LAYER005
  6
CONTINUOUS
 62
    2
 10
1831.0169000000001
 20
1144.3027
 40
1.1619999999999999
  0
CIRCLE
  8
_0-3_LAYER005
  6
CONTINUOUS
 62
    2
 10
1836.1291000000001
 20
1091.3362
 40
1.1619999999999999
  0
CIRCLE
  8
_0-3_LAYER005
  6
CONTINUOUS
 62
    2
 10
1836.9443000000001
 20
1105.3414
 40
1.1619999999999999
  0
CIRCLE
  8
_0-3_LAYER005
  6
CONTINUOUS
 62
    2
 10
1794.0378999999998
 20
1098.2837
 40
1.1619999999999999
  0
CIRCLE
  8
_0-3_LAYER005
  6
CONTINUOUS
 62
    2
 10
1808.0079000000001
 20
1090.0667000000001
 40
1.1619999999999999
  0
CIRCLE
  8
_0-3_LAYER005
  6
CONTINUOUS
 62
    2
 10
1828.5120000000002
 20
1097.8814
 40
1.1619999999999999
  0
CIRCLE
  8
_0-3_LAYER005
  6
CONTINUOUS
 62
    2
 10
1812.1563000000001
 20
1132.9889000000001
 40
1.1619999999999999
  0
CIRCLE
  8
_0-3_LAYER005
  6
CONTINUOUS
 62
    2
 10
1808.3618999999999
 20
1135.8810000000001
 40
1.1619999999999999
  0
CIRCLE
  8
_0-3_LAYER005
  6
CONTINUOUS
 62
    2
 10
1808.8289
 20
1084.3136999999999
 40
1.1619999999999999
  0
CIRCLE
  8
_0-3_LAYER005
  6
CONTINUOUS
 62
    2
 10
1817.0468999999998
 20
1088.4227000000001
 40
1.1619999999999999
  0
CIRCLE
  8
_0-3_LAYER005
  6
CONTINUOUS
 62
    2
 10
1826.0859
 20
1094.1757
 40
1.1619999999999999
  0
CIRCLE
  8
_0-3_LAYER005
  6
CONTINUOUS
 62
    2
 10
1826.0859
 20
1101.5717
 40
1.1619999999999999
  0
CIRCLE
  8
_0-3_LAYER005
  6
CONTINUOUS
 62
    2
 10
1826.0859
 20
1107.3236999999999
 40
1.1619999999999999
  0
CIRCLE
  8
_0-3_LAYER005
  6
CONTINUOUS
 62
    2
 10
1826.0859
 20
1113.0757000000001
 40
1.1619999999999999
  0
CIRCLE
  8
_0-3_LAYER005
  6
CONTINUOUS
 62
    2
 10
1832.6496000000002
 20
1137.4502
 40
1.1619999999999999
  0
CIRCLE
  8
_0-3_LAYER005
  6
CONTINUOUS
 62
    2
 10
1831.0056
 20
1139.0932
 40
1.1619999999999999
  0
CIRCLE
  8
_0-3_LAYER005
  6
CONTINUOUS
 62
    2
 10
1826.0756000000001
 20
1139.0932
 40
1.1619999999999999
  0
CIRCLE
  8
_0-3_LAYER005
  6
CONTINUOUS
 62
    2
 10
1834.4861000000001
 20
1091.3362
 40
1.1619999999999999
  0
CIRCLE
  8
_0-3_LAYER005
  6
CONTINUOUS
 62
    2
 10
1818.7651000000001
 20
1135.4612999999999
 40
1.1619999999999999
  0
CIRCLE
  8
_0-3_LAYER005
  6
CONTINUOUS
 62
    2
 10
1797.3249000000001
 20
1096.6406999999999
 40
1.1619999999999999
  0
CIRCLE
  8
_0-3_LAYER005
  6
CONTINUOUS
 62
    2
 10
1798.1459
 20
1094.1757
 40
1.1619999999999999
  0
CIRCLE
  8
_0-3_LAYER005
  6
CONTINUOUS
 62
    2
 10
1808.8289
 20
1100.7497000000001
 40
1.1619999999999999
  0
CIRCLE
  8
_0-3_LAYER005
  6
CONTINUOUS
 62
    2
 10
1830.9780000000001
 20
1098.7034000000001
 40
1.1619999999999999
  0
ARC
  8
_0-0_LAYER001
  6
CONTINUOUS
 62
    4
 10
888.07009999999991
 20
1218.0532000000001
 40
214.38050999999999
 50
257.99261999999999
 51
268.38173000000006
  0
ARC
  8
_0-0_LAYER001
  6
CONTINUOUS
 62
    4
 10
942.53929999999991
 20
1034.5507
 40
52.178303999999997
 50
215.53766999999999
 51
234.46232000000001
  0
ARC
  8
_0-0_LAYER001
  6
CONTINUOUS
 62
    4
 10
916.21060000000011
 20
996.84690000000001
 40
6.2695089999999993
 50
234.10575000000003
 51
303.29033000000004
  0
ARC
  8
_0-0_LAYER001
  6
CONTINUOUS
 62
    4
 10
884.74980000000005
 20
1040.8529000000001
 40
58.841383
 50
225.45023
 51
234.31144000000003
  0
ARC
  8
_0-0_LAYER001
  6
CONTINUOUS
 62
    4
 10
854.87419999999997
 20
999.69560000000001
 40
7.947610000000001
 50
234.52014000000003
 51
301.23766000000001
  0
ARC
  8
_0-0_LAYER001
  6
CONTINUOUS
 62
    4
 10
838.3726999999999
 20
1032.1649
 40
44.132803000000003
 50
297.62160999999998
 51
318.23129999999998
  0
ARC
  8
_0-0_LAYER001
  6
CONTINUOUS
 62
    4
 10
888.07009999999991
 20
1218.0532000000001
 40
199.38050999999999
 50
257.07420000000002
 51
268.38173
  0
ARC
  8
_0-0_LAYER001
  6
CONTINUOUS
 62
    4
 10
888.07009999999991
 20
1218.0532000000001
 40
199.38050999999999
 50
257.07420000000002
 51
268.38173
  0
ARC
  8
_0-0_LAYER001
  6
CONTINUOUS
 62
    4
 10
888.07009999999991
 20
1218.0532000000001
 40
197.38050999999999
 50
256.94092999999998
 51
268.38172999999995
  0
ARC
  8
_0-0_LAYER001
  6
CONTINUOUS
 62
    4
 10
888.07009999999991
 20
1218.0532000000001
 40
182.38050999999999
 50
255.84538000000003
 51
268.38173
  0
ARC
  8
_0-0_LAYER001
  6
CONTINUOUS
 62
    4
 10
888.07009999999991
 20
1218.0532000000001
 40
214.38050999999999
 50
257.99261999999999
 51
268.38173000000006
  0
ARC
  8
_0-0_LAYER001
  6
CONTINUOUS
 62
    4
 10
864.68159999999989
 20
1034.6679999999999
 40
69.674484000000007
 50
321.65733
 51
337.34946000000002
  0
ARC
  8
_0-0_LAYER001
  6
CONTINUOUS
 62
    4
 10
878.52649999999994
 20
1310.9404
 40
307.27562
 50
270.90795000000003
 51
293.21983
  0
ARC
  8
_0-0_LAYER001
  6
CONTINUOUS
 62
    4
 10
878.52649999999994
 20
1310.9404
 40
275.27562
 50
270.90795000000003
 51
287.11988000000002
  0
ARC
  8
_0-0_LAYER001
  6
CONTINUOUS
 62
    4
 10
878.52649999999994
 20
1310.9404
 40
292.27562
 50
270.90795000000003
 51
292.69346000000002
  0
LINE
  8
_0-0_LAYER001
  6
CONTINUOUS
 62
    4
 10
991.28670000000011
 20
1043.7168999999999
 11
991.28670000000011
 21
1041.2922000000001
  0
LINE
  8
_0-0_LAYER001
  6
CONTINUOUS
 62
    4
 10
999.673
 20
1028.5545
 11
999.673
 21
1046.8617999999999
  0
LINE
  8
_0-0_LAYER001
  6
CONTINUOUS
 62
    4
 10
991.28670000000011
 20
1043.7168999999999
 11
999.673
 21
1046.8617999999999
  0
ARC
  8
_0-0_LAYER001
  6
CONTINUOUS
 62
    4
 10
878.52649999999994
 20
1310.9404
 40
290.27562
 50
270.90795000000003
 51
286.23334
  0
LINE
  8
_0-0_LAYER001
  6
CONTINUOUS
 62
    4
 10
959.673
 20
1032.2378000000001
 11
959.673
 21
1047.8969
  0
ARC
  8
_0-0_LAYER001
  6
CONTINUOUS
 62
    4
 10
1142.9570000000001
 20
1217.6568
 40
214.38050999999999
 50
231.7756
 51
268.38173
  0
LINE
  8
_0-0_LAYER001
  6
CONTINUOUS
 62
    4
 10
963.56539999999995
 20
1033.2516000000001
 11
999.75540000000001
 21
1049.4078
  0
ARC
  8
_0-0_LAYER001
  6
CONTINUOUS
 62
    4
 10
1197.4262000000001
 20
1034.1542999999999
 40
52.178303999999997
 50
215.53766999999999
 51
234.46232000000001
  0
ARC
  8
_0-0_LAYER001
  6
CONTINUOUS
 62
    4
 10
1171.0975000000001
 20
996.45049999999992
 40
6.2695089999999993
 50
234.10575000000003
 51
303.29033000000004
  0
ARC
  8
_0-0_LAYER001
  6
CONTINUOUS
 62
    4
 10
1139.6368
 20
1040.4566
 40
58.841383
 50
213.2508
 51
234.31144
  0
ARC
  8
_0-0_LAYER001
  6
CONTINUOUS
 62
    4
 10
1109.7610999999999
 20
999.29919999999993
 40
7.947610000000001
 50
234.52014000000003
 51
301.23766000000001
  0
ARC
  8
_0-0_LAYER001
  6
CONTINUOUS
 62
    4
 10
1093.2596000000001
 20
1031.7684999999999
 40
44.132803000000003
 50
297.62160999999998
 51
318.23129999999998
  0
LINE
  8
_0-0_LAYER001
  6
CONTINUOUS
 62
    4
 10
963.56539999999995
 20
1031.8317
 11
959.55999999999995
 21
1029.9496999999999
  0
LINE
  8
_0-0_LAYER001
  6
CONTINUOUS
 62
    4
 10
963.56539999999995
 20
1033.2516000000001
 11
963.56539999999995
 21
1031.8317
  0
LINE
  8
_0-0_LAYER001
  6
CONTINUOUS
 62
    4
 10
963.03980000000001
 20
1049.9955
 11
959.67689999999993
 21
1048.6693
  0
LINE
  8
_0-0_LAYER001
  6
CONTINUOUS
 62
    4
 10
963.03980000000001
 20
1051.4842000000001
 11
963.03980000000001
 21
1049.9955
  0
ARC
  8
_0-0_LAYER001
  6
CONTINUOUS
 62
    4
 10
1142.9570000000001
 20
1217.6568
 40
199.38050999999999
 50
231.7756
 51
268.38173
  0
ARC
  8
_0-0_LAYER001
  6
CONTINUOUS
 62
    4
 10
1142.9570000000001
 20
1217.6568
 40
199.38050999999999
 50
231.7756
 51
268.38173
  0
ARC
  8
_0-0_LAYER001
  6
CONTINUOUS
 62
    4
 10
1142.9570000000001
 20
1217.6568
 40
197.38050999999999
 50
231.7756
 51
268.38173
  0
LINE
  8
_0-0_LAYER001
  6
CONTINUOUS
 62
    4
 10
963.2947999999999
 20
1051.7085999999999
 11
993.5748000000001
 21
1065.7560000000001
  0
LINE
  8
_0-0_LAYER001
  6
CONTINUOUS
 62
    4
 10
994.82339999999999
 20
1064.1952000000001
 11
960.17319999999995
 21
1048.587
  0
ARC
  8
_0-0_LAYER001
  6
CONTINUOUS
 62
    4
 10
1142.9570000000001
 20
1217.6568
 40
182.38050999999999
 50
231.7756
 51
268.38173
  0
LINE
  8
_0-0_LAYER001
  6
CONTINUOUS
 62
    4
 10
959.55999999999995
 20
1029.9496999999999
 11
959.55999999999995
 21
1066.5115000000001
  0
LINE
  8
_0-0_LAYER001
  6
CONTINUOUS
 62
    4
 10
959.55999999999995
 20
1066.5115000000001
 11
987.26219999999989
 21
1079.3631
  0
ARC
  8
_0-0_LAYER001
  6
CONTINUOUS
 62
    4
 10
1142.9570000000001
 20
1217.6568
 40
214.38050999999999
 50
231.7756
 51
268.38173
  0
ARC
  8
_0-0_LAYER001
  6
CONTINUOUS
 62
    4
 10
1004.3711000000001
 20
1040.2637999999999
 40
27.732966999999999
 50
54.176177000000003
 51
112.93031000000001
  0
ARC
  8
_0-0_LAYER001
  6
CONTINUOUS
 62
    4
 10
1004.7190000000001
 20
1042.5372
 40
40.679594999999999
 50
51.535313000000002
 51
115.27963000000001
  0
ARC
  8
_0-0_LAYER001
  6
CONTINUOUS
 62
    4
 10
1004.3576
 20
1039.7659000000001
 40
26.213477999999995
 50
54.56426900000001
 51
111.2666
  0
ARC
  8
_0-0_LAYER001
  6
CONTINUOUS
 62
    4
 10
1004.8684000000001
 20
1037.3045
 40
13.076713
 50
65.553432000000001
 51
112.83269999999999
  0
ARC
  8
_0-0_LAYER001
  6
CONTINUOUS
 62
    4
 10
1119.5685000000001
 20
1034.2716
 40
69.674484000000007
 50
321.65733
 51
337.34946000000002
  0
ARC
  8
_0-0_LAYER001
  6
CONTINUOUS
 62
    4
 10
1133.4133999999999
 20
1310.5441000000001
 40
307.27562
 50
270.90795000000003
 51
293.21983
  0
ARC
  8
_0-0_LAYER001
  6
CONTINUOUS
 62
    4
 10
1133.4133999999999
 20
1310.5441000000001
 40
275.27562
 50
270.90795000000003
 51
287.11988000000002
  0
ARC
  8
_0-0_LAYER001
  6
CONTINUOUS
 62
    4
 10
1133.4133999999999
 20
1310.5441000000001
 40
292.27562
 50
270.90795000000003
 51
292.69346000000002
  0
ARC
  8
_0-0_LAYER001
  6
CONTINUOUS
 62
    4
 10
1133.4133999999999
 20
1310.5441000000001
 40
290.27562
 50
270.90795000000003
 51
286.23334
  0
ARC
  8
_0-0_LAYER001
  6
CONTINUOUS
 62
    4
 10
1397.5929000000001
 20
1220.0931
 40
214.38050999999999
 50
231.7756
 51
268.38173
  0
LINE
  8
_0-0_LAYER001
  6
CONTINUOUS
 62
    4
 10
1218.2012
 20
1035.6878999999999
 11
1254.3912
 21
1051.8441
  0
ARC
  8
_0-0_LAYER001
  6
CONTINUOUS
 62
    4
 10
1452.0621000000001
 20
1036.5906
 40
52.178303999999997
 50
215.53766999999999
 51
234.46232000000001
  0
ARC
  8
_0-0_LAYER001
  6
CONTINUOUS
 62
    4
 10
1425.7332999999999
 20
998.88679999999999
 40
6.2695089999999993
 50
234.10575000000003
 51
303.29033000000004
  0
ARC
  8
_0-0_LAYER001
  6
CONTINUOUS
 62
    4
 10
1394.2725999999998
 20
1042.8929000000001
 40
58.841383
 50
213.2508
 51
234.31144
  0
ARC
  8
_0-0_LAYER001
  6
CONTINUOUS
 62
    4
 10
1364.3968999999997
 20
1001.7355
 40
7.947610000000001
 50
234.52014000000003
 51
301.23766000000001
  0
ARC
  8
_0-0_LAYER001
  6
CONTINUOUS
 62
    4
 10
1347.8954000000001
 20
1034.2048
 40
44.132803000000003
 50
297.62160999999998
 51
318.23129999999998
  0
LINE
  8
_0-0_LAYER001
  6
CONTINUOUS
 62
    4
 10
1218.2012
 20
1034.268
 11
1214.1958
 21
1032.386
  0
LINE
  8
_0-0_LAYER001
  6
CONTINUOUS
 62
    4
 10
1218.2012
 20
1035.6878999999999
 11
1218.2012
 21
1034.268
  0
LINE
  8
_0-0_LAYER001
  6
CONTINUOUS
 62
    4
 10
1217.6757
 20
1052.4318000000001
 11
1214.3126999999999
 21
1051.1056000000001
  0
LINE
  8
_0-0_LAYER001
  6
CONTINUOUS
 62
    4
 10
1217.6757
 20
1053.9204999999999
 11
1217.6757
 21
1052.4318000000001
  0
ARC
  8
_0-0_LAYER001
  6
CONTINUOUS
 62
    4
 10
1397.5929000000001
 20
1220.0931
 40
199.38050999999999
 50
231.7756
 51
268.38173
  0
ARC
  8
_0-0_LAYER001
  6
CONTINUOUS
 62
    4
 10
1397.5929000000001
 20
1220.0931
 40
199.38050999999999
 50
231.7756
 51
268.38173
  0
ARC
  8
_0-0_LAYER001
  6
CONTINUOUS
 62
    4
 10
1397.5929000000001
 20
1220.0931
 40
197.38050999999999
 50
231.7756
 51
268.38173
  0
LINE
  8
_0-0_LAYER001
  6
CONTINUOUS
 62
    4
 10
1217.9306999999999
 20
1054.1449
 11
1248.2106000000001
 21
1068.1922999999999
  0
LINE
  8
_0-0_LAYER001
  6
CONTINUOUS
 62
    4
 10
1249.4593
 20
1066.6315
 11
1214.809
 21
1051.0233000000001
  0
ARC
  8
_0-0_LAYER001
  6
CONTINUOUS
 62
    4
 10
1397.5929000000001
 20
1220.0931
 40
182.38050999999999
 50
231.7756
 51
268.38173
  0
LINE
  8
_0-0_LAYER001
  6
CONTINUOUS
 62
    4
 10
1214.1958
 20
1032.386
 11
1214.1958
 21
1068.9477999999999
  0
LINE
  8
_0-0_LAYER001
  6
CONTINUOUS
 62
    4
 10
1214.1958
 20
1068.9477999999999
 11
1241.8981000000001
 21
1081.7994000000001
  0
ARC
  8
_0-0_LAYER001
  6
CONTINUOUS
 62
    4
 10
1397.5929000000001
 20
1220.0931
 40
214.38050999999999
 50
231.7756
 51
268.38173
  0
ARC
  8
_0-0_LAYER001
  6
CONTINUOUS
 62
    4
 10
1259.0069000000001
 20
1042.7001
 40
27.732966999999999
 50
54.176177000000003
 51
112.93031000000001
  0
ARC
  8
_0-0_LAYER001
  6
CONTINUOUS
 62
    4
 10
1259.3548000000001
 20
1044.9735000000001
 40
40.679594999999999
 50
51.535313000000002
 51
115.27963000000001
  0
ARC
  8
_0-0_LAYER001
  6
CONTINUOUS
 62
    4
 10
1258.9934000000001
 20
1042.2021999999999
 40
26.213477999999995
 50
54.56426900000001
 51
111.2666
  0
ARC
  8
_0-0_LAYER001
  6
CONTINUOUS
 62
    4
 10
1259.5042000000001
 20
1039.7408
 40
13.076713
 50
65.553432000000001
 51
112.83269999999999
  0
ARC
  8
_0-0_LAYER001
  6
CONTINUOUS
 62
    4
 10
1374.2043000000001
 20
1036.7079000000001
 40
69.674484000000007
 50
321.65733
 51
337.34946000000002
  0
ARC
  8
_0-0_LAYER001
  6
CONTINUOUS
 62
    4
 10
1388.0492999999999
 20
1312.9803999999999
 40
307.27562
 50
270.90795000000003
 51
293.21983
  0
ARC
  8
_0-0_LAYER001
  6
CONTINUOUS
 62
    4
 10
1652.4798000000001
 20
1220.1049
 40
214.38050999999999
 50
231.7756
 51
268.38173
  0
LINE
  8
_0-0_LAYER001
  6
CONTINUOUS
 62
    4
 10
1473.0880999999999
 20
1035.6995999999999
 11
1509.2782000000002
 21
1051.8559
  0
ARC
  8
_0-0_LAYER001
  6
CONTINUOUS
 62
    4
 10
1706.9490000000001
 20
1036.6024
 40
52.178303999999997
 50
215.53766999999999
 51
234.46232000000001
  0
ARC
  8
_0-0_LAYER001
  6
CONTINUOUS
 62
    4
 10
1680.6201999999998
 20
998.89859999999999
 40
6.2695089999999993
 50
234.10575000000003
 51
303.29033000000004
  0
ARC
  8
_0-0_LAYER001
  6
CONTINUOUS
 62
    4
 10
1649.1595000000002
 20
1042.9046000000001
 40
58.841383
 50
213.2508
 51
234.31144
  0
ARC
  8
_0-0_LAYER001
  6
CONTINUOUS
 62
    4
 10
1619.2838999999999
 20
1001.7473
 40
7.947610000000001
 50
234.52014000000003
 51
301.23766000000001
  0
ARC
  8
_0-0_LAYER001
  6
CONTINUOUS
 62
    4
 10
1602.7822999999999
 20
1034.2166
 40
44.132803000000003
 50
297.62160999999998
 51
318.23129999999998
  0
LINE
  8
_0-0_LAYER001
  6
CONTINUOUS
 62
    4
 10
1473.0880999999999
 20
1035.6995999999999
 11
1473.0880999999999
 21
1034.2798
  0
LINE
  8
_0-0_LAYER001
  6
CONTINUOUS
 62
    4
 10
1472.5626000000002
 20
1052.4436000000001
 11
1469.1995999999999
 21
1051.1172999999999
  0
LINE
  8
_0-0_LAYER001
  6
CONTINUOUS
 62
    4
 10
1472.5626000000002
 20
1053.9322
 11
1472.5626000000002
 21
1052.4436000000001
  0
ARC
  8
_0-0_LAYER001
  6
CONTINUOUS
 62
    4
 10
1652.4798000000001
 20
1220.1049
 40
199.38050999999999
 50
231.7756
 51
268.38173
  0
ARC
  8
_0-0_LAYER001
  6
CONTINUOUS
 62
    4
 10
1652.4798000000001
 20
1220.1049
 40
199.38050999999999
 50
231.7756
 51
268.38173
  0
ARC
  8
_0-0_LAYER001
  6
CONTINUOUS
 62
    4
 10
1652.4798000000001
 20
1220.1049
 40
197.38050999999999
 50
231.7756
 51
268.38173
  0
LINE
  8
_0-0_LAYER001
  6
CONTINUOUS
 62
    4
 10
1472.8175999999999
 20
1054.1567
 11
1503.0974999999999
 21
1068.2040999999999
  0
ARC
  8
_0-0_LAYER001
  6
CONTINUOUS
 62
    4
 10
1652.4798000000001
 20
1220.1049
 40
182.38050999999999
 50
231.7756
 51
268.38173
  0
LINE
  8
_0-0_LAYER001
  6
CONTINUOUS
 62
    4
 10
1469.0826999999999
 20
1068.9594999999999
 11
1496.7849999999999
 21
1081.8110999999999
  0
ARC
  8
_0-0_LAYER001
  6
CONTINUOUS
 62
    4
 10
1652.4798000000001
 20
1220.1049
 40
214.38050999999999
 50
231.7756
 51
268.38173
  0
ARC
  8
_0-0_LAYER001
  6
CONTINUOUS
 62
    4
 10
1513.8937999999998
 20
1042.7119
 40
27.732966999999999
 50
54.176177000000003
 51
112.93031000000001
  0
ARC
  8
_0-0_LAYER001
  6
CONTINUOUS
 62
    4
 10
1514.2417
 20
1044.9853000000001
 40
40.679594999999999
 50
51.535313000000002
 51
115.27963000000001
  0
ARC
  8
_0-0_LAYER001
  6
CONTINUOUS
 62
    4
 10
1513.8802999999998
 20
1042.2139999999999
 40
26.213477999999995
 50
54.56426900000001
 51
111.2666
  0
ARC
  8
_0-0_LAYER001
  6
CONTINUOUS
 62
    4
 10
1514.3910999999998
 20
1039.7526
 40
13.076713
 50
65.553432000000001
 51
112.83269999999999
  0
LINE
  8
_0-0_LAYER001
  6
CONTINUOUS
 62
    4
 10
1724.0826999999999
 20
1034.2895000000001
 11
1724.0826999999999
 21
1049.9485999999999
  0
ARC
  8
_0-0_LAYER001
  6
CONTINUOUS
 62
    4
 10
1642.9362000000001
 20
1312.9920999999999
 40
290.27562
 50
270.90795000000003
 51
294.66737999999998
  0
ARC
  8
_0-0_LAYER001
  6
CONTINUOUS
 62
    4
 10
1642.9362000000001
 20
1312.9920999999999
 40
275.27562
 50
270.90795000000003
 51
296.10971999999998
  0
ARC
  8
_0-0_LAYER001
  6
CONTINUOUS
 62
    4
 10
1642.9362000000001
 20
1312.9920999999999
 40
292.27562
 50
270.90795000000003
 51
294.48746
  0
ARC
  8
_0-0_LAYER001
  6
CONTINUOUS
 62
    4
 10
1629.0911999999998
 20
1036.7195999999999
 40
69.674484000000007
 50
321.65733
 51
337.34946000000002
  0
ARC
  8
_0-0_LAYER001
  6
CONTINUOUS
 62
    4
 10
1642.9362000000001
 20
1312.9920999999999
 40
307.27562
 50
270.90795000000003
 51
293.21983
  0
LINE
  8
_0-0_LAYER001
  6
CONTINUOUS
 62
    4
 10
1764.0826999999999
 20
1030.6061999999999
 11
1764.0826999999999
 21
1065.8076000000001
  0
ARC
  8
_0-0_LAYER001
  6
CONTINUOUS
 62
    4
 10
1388.0492999999999
 20
1312.9803999999999
 40
275.27562
 50
270.90795000000003
 51
287.11988000000002
  0
ARC
  8
_0-0_LAYER001
  6
CONTINUOUS
 62
    4
 10
1388.0492999999999
 20
1312.9803999999999
 40
290.27562
 50
270.90795000000003
 51
286.21008999999998
  0
LINE
  8
_0-0_LAYER001
  6
CONTINUOUS
 62
    4
 10
1469.0826999999999
 20
1034.2447999999999
 11
1469.0826999999999
 21
1068.9594999999999
  0
LINE
  8
_0-0_LAYER001
  6
CONTINUOUS
 62
    4
 10
1473.0880999999999
 20
1034.2798
 11
1469.1958
 21
1032.4508000000001
  0
LINE
  8
_0-0_LAYER001
  6
CONTINUOUS
 62
    4
 10
1469.1958
 20
1032.4508000000001
 11
1469.1958
 21
1049.9368999999999
  0
ARC
  8
_0-0_LAYER001
  6
CONTINUOUS
 62
    4
 10
1388.0492999999999
 20
1312.9803999999999
 40
292.27562
 50
270.90795000000003
 51
292.69346000000002
  0
LINE
  8
_0-0_LAYER001
  6
CONTINUOUS
 62
    4
 10
1500.8094000000001
 20
1045.7569000000001
 11
1500.8094000000001
 21
1043.3322000000001
  0
LINE
  8
_0-0_LAYER001
  6
CONTINUOUS
 62
    4
 10
1509.1958
 20
1030.5944999999999
 11
1509.1958
 21
1048.9018000000001
  0
LINE
  8
_0-0_LAYER001
  6
CONTINUOUS
 62
    4
 10
1500.8094000000001
 20
1045.7569000000001
 11
1509.1958
 21
1048.9018000000001
  0
LINE
  8
_0-0_LAYER001
  6
CONTINUOUS
 62
    4
 10
1469.4879999999998
 20
1050.3938000000001
 11
1504.5340999999999
 21
1066.7763
  0
LINE
  8
_0-0_LAYER001
  6
CONTINUOUS
 62
    4
 10
1246.3106
 20
1043.3812
 11
1246.3106
 21
1041.1960999999999
  0
LINE
  8
_0-0_LAYER001
  6
CONTINUOUS
 62
    4
 10
1246.3106
 20
1044.0055
 11
1246.3106
 21
1041.1960999999999
  0
LINE
  8
_0-0_LAYER001
  6
CONTINUOUS
 62
    4
 10
1246.3106
 20
1044.3177000000001
 11
1254.4268999999999
 21
1047.4393
  0
LINE
  8
_0-0_LAYER001
  6
CONTINUOUS
 62
    4
 10
1254.4268999999999
 20
1028.7094999999999
 11
1254.4268999999999
 21
1047.4393
  0
LINE
  8
_0-0_LAYER001
  6
CONTINUOUS
 62
    2
 10
1866.3989000000001
 20
1102.2186999999999
 11
1856.8335000000002
 21
1089.8965000000001
  0
LINE
  8
_0-0_LAYER001
  6
CONTINUOUS
 62
    2
 10
1849.1271999999999
 20
1300.4928999999997
 11
1851.0682999999999
 21
1293.2483999999999
  0
LINE
  8
_0-0_LAYER001
  6
CONTINUOUS
 62
    2
 10
1851.0682999999999
 20
1293.2483999999999
 11
1845.7649999999999
 21
1298.5517
  0
LINE
  8
_0-0_LAYER001
  6
CONTINUOUS
 62
    2
 10
1851.0682999999999
 20
1293.2483999999999
 11
1792.6700999999998
 21
1394.3970999999999
  0
LINE
  8
_0-0_LAYER001
  6
CONTINUOUS
 62
    2
 10
1792.6700999999998
 20
1394.3970999999999
 11
1711.6700999999998
 21
1394.3970999999999
  0
LINE
  8
_0-1_LAYER003
  6
CONTINUOUS
 62
    2
 10
1805.9580000000001
 20
1187.7155
 11
1807.8991000000001
 21
1180.471
  0
LINE
  8
_0-1_LAYER003
  6
CONTINUOUS
 62
    2
 10
1807.8991000000001
 20
1180.471
 11
1802.5958000000001
 21
1185.7743
  0
LINE
  8
_0-1_LAYER003
  6
CONTINUOUS
 62
    2
 10
1807.8991000000001
 20
1180.471
 11
1736.9749000000002
 21
1303.3152
  0
LINE
  8
_0-1_LAYER003
  6
CONTINUOUS
 62
    2
 10
1736.9749000000002
 20
1303.3152
 11
1502.9749000000002
 21
1303.3152
  0
LINE
  8
_0-1_LAYER003
  6
CONTINUOUS
 62
    2
 10
1788.2118
 20
1174.4290000000001
 11
1790.1529
 21
1167.1845000000001
  0
LINE
  8
_0-1_LAYER003
  6
CONTINUOUS
 62
    2
 10
1790.1529
 20
1167.1845000000001
 11
1784.8496
 21
1172.4878000000001
  0
LINE
  8
_0-1_LAYER003
  6
CONTINUOUS
 62
    2
 10
1790.1529
 20
1167.1845000000001
 11
1733.2204000000002
 21
1265.7945999999999
  0
LINE
  8
_0-1_LAYER003
  6
CONTINUOUS
 62
    2
 10
1733.2204000000002
 20
1265.7945999999999
 11
1602.7204000000002
 21
1265.7945999999999
  0
LINE
  8
_0-1_LAYER003
  6
CONTINUOUS
 62
    2
 10
1846.9358999999999
 20
1275.0839000000001
 11
1846.9358999999999
 21
1247.5839000000001
  0
CIRCLE
  8
_0-1_LAYER003
  6
CONTINUOUS
 62
    2
 10
1846.9358999999999
 20
1272.5839000000001
 40
1.6999999999999997
  0
LINE
  8
_0-1_LAYER003
  6
CONTINUOUS
 62
    2
 10
1846.9358999999999
 20
1272.5839000000001
 11
1756.9358999999999
 21
1272.5839000000001
  0
CIRCLE
  8
_0-1_LAYER003
  6
CONTINUOUS
 62
    2
 10
1756.9358999999999
 20
1272.5839000000001
 40
1.6999999999999997
  0
LINE
  8
_0-1_LAYER003
  6
CONTINUOUS
 62
    2
 10
1756.9358999999999
 20
1275.0839000000001
 11
1756.9358999999999
 21
1247.5839000000001
  0
LINE
  8
_0-1_LAYER003
  6
CONTINUOUS
 62
    7
 10
843.47090000000003
 20
1004.0612000000001
 11
1725.2049000000002
 21
1004.0612000000001
  0
LINE
  8
_0-1_LAYER003
  6
CONTINUOUS
 62
    7
 10
1725.2049000000002
 20
1004.0612000000001
 11
1725.2049000000002
 21
989.0612000000001
  0
LINE
  8
_0-1_LAYER003
  6
CONTINUOUS
 62
    7
 10
1751.0239000000001
 20
1004.0612000000001
 11
1730.4798999999998
 21
1004.0612000000001
  0
LINE
  8
_0-1_LAYER003
  6
CONTINUOUS
 62
    7
 10
1730.4798999999998
 20
1004.0612000000001
 11
1730.4798999999998
 21
987.09069999999997
  0
LINE
  8
_0-1_LAYER003
  6
CONTINUOUS
 62
    7
 10
1725.2049000000002
 20
989.0612000000001
 11
843.47090000000003
 21
989.0612000000001
  0
LINE
  8
_0-1_LAYER003
  6
CONTINUOUS
 62
    7
 10
843.47090000000003
 20
984.71569999999997
 11
1866.3989000000001
 21
984.71569999999997
  0
LINE
  8
_0-1_LAYER003
  6
CONTINUOUS
 62
    7
 10
1866.3989000000001
 20
987.09069999999997
 11
1866.3989000000001
 21
1102.2186999999999
  0
LINE
  8
_0-1_LAYER003
  6
CONTINUOUS
 62
    7
 10
1872.3908999999999
 20
982.2186999999999
 11
1872.3908999999999
 21
942.2186999999999
  0
LINE
  8
_0-1_LAYER003
  6
CONTINUOUS
 62
    7
 10
1872.3908999999999
 20
942.2186999999999
 11
843.47090000000003
 21
942.2186999999999
  0
LINE
  8
_0-1_LAYER003
  6
CONTINUOUS
 62
    7
 10
843.47090000000003
 20
982.2186999999999
 11
1872.3908999999999
 21
982.2186999999999
  0
LINE
  8
_0-1_LAYER003
  6
CONTINUOUS
 62
    7
 10
1847.4092542749556
 20
1307.4623996653158
 11
1847.4092542749556
 21
1476.0736999999999
  0
LINE
  8
_0-1_LAYER003
  6
CONTINUOUS
 62
    7
 10
1792.6700999999998
 20
1394.3970999999999
 11
1711.6700999999998
 21
1394.3970999999999
  0
LINE
  8
_0-1_LAYER003
  6
CONTINUOUS
 62
    7
 10
1750.8476000000001
 20
1335.1543999999999
 11
1669.8476000000001
 21
1335.1543999999999
  0
LINE
  8
_0-1_LAYER003
  6
CONTINUOUS
 62
    7
 10
1736.9749000000002
 20
1303.3152
 11
1503.9493159980636
 21
1303.3152
  0
LINE
  8
_0-1_LAYER003
  6
CONTINUOUS
 62
    7
 10
1602.7204000000002
 20
1265.7945999999999
 11
1733.2204000000002
 21
1265.7945999999999
  0
LINE
  8
_0-1_LAYER003
  6
CONTINUOUS
 62
    7
 10
1756.9358999999999
 20
1247.5839000000001
 11
1756.9358999999999
 21
1274.2839000000001
  0
LINE
  8
_0-1_LAYER003
  6
CONTINUOUS
 62
    7
 10
1756.9358999999999
 20
1272.5839000000001
 11
1846.9358999999999
 21
1272.5839000000001
  0
LINE
  8
_0-1_LAYER003
  6
CONTINUOUS
 62
    7
 10
1846.9358999999999
 20
1287.4623999999999
 11
1871.9358999999999
 21
1287.4623999999999
  0
LINE
  8
_0-1_LAYER003
  6
CONTINUOUS
 62
    7
 10
1867.8809000000001
 20
1287.4623999999999
 11
1867.8809000000001
 21
1307.4623999999999
  0
LINE
  8
_0-1_LAYER003
  6
CONTINUOUS
 62
    7
 10
1867.8809000000001
 20
1307.4623999999999
 11
1862.4189000000001
 21
1307.4623999999999
  0
LINE
  8
_0-1_LAYER003
  6
CONTINUOUS
 62
    7
 10
1862.4189000000001
 20
1307.4623999999999
 11
1862.4189000000001
 21
1287.4623999999999
  0
LINE
  8
_0-1_LAYER003
  6
CONTINUOUS
 62
    7
 10
1872.3908999999999
 20
982.2186999999999
 11
1872.3908999999999
 21
1307.4623999999999
  0
LINE
  8
_0-3_LAYER005
  6
CONTINUOUS
 62
    2
 10
1846.9358999999999
 20
1307.4623999999999
 11
1872.3908999999999
 21
1307.4623999999999
  0
LINE
  8
_0-1_LAYER003
  6
CONTINUOUS
 62
    7
 10
1872.3908999999999
 20
1307.4623999999999
 11
1847.4092542749556
 21
1307.4623999999999
  0
LINE
  8
_0-2_LAYER004
  6
CONTINUOUS
 62
    2
 10
1872.3908999999999
 20
1307.4623999999999
 11
1872.3908999999999
 21
942.2186999999999
  0
LINE
  8
_0-1_LAYER003
  6
CONTINUOUS
 62
    7
 10
1955.3114
 20
1307.4623999999999
 11
2007.0114000000001
 21
1307.4623999999999
  0
LINE
  8
_0-1_LAYER003
  6
CONTINUOUS
 62
    7
 10
2005.3114
 20
1307.4623999999999
 11
2005.3114
 21
987.09069999999997
  0
LINE
  8
_0-1_LAYER003
  6
CONTINUOUS
 62
    7
 10
2007.0114000000001
 20
987.09069999999997
 11
1955.3114
 21
987.09069999999997
  0
LINE
  8
_0-1_LAYER003
  6
CONTINUOUS
 62
    7
 10
1955.3114
 20
1102.2186999999999
 11
2007.0114000000001
 21
1102.2186999999999
  0
LINE
  8
_0-1_LAYER003
  6
CONTINUOUS
 62
    7
 10
2043.2492000000002
 20
982.2186999999999
 11
2094.9492000000005
 21
982.2186999999999
  0
LINE
  8
_0-1_LAYER003
  6
CONTINUOUS
 62
    7
 10
2093.2492000000002
 20
982.2186999999999
 11
2093.2492000000002
 21
1232.2186999999999
  0
LINE
  8
_0-1_LAYER003
  6
CONTINUOUS
 62
    7
 10
2043.2492000000002
 20
1232.2186999999999
 11
2094.9492000000005
 21
1232.2186999999999
  0
LINE
  8
_0-1_LAYER003
  6
CONTINUOUS
 62
    7
 10
2007.0114000000001
 20
1187.4623999999999
 11
1955.3114
 21
1187.4623999999999
  0
LINE
  8
_0-1_LAYER003
  6
CONTINUOUS
 62
    7
 10
1872.3908999999999
 20
1307.4623999999999
 11
1872.3908999999999
 21
942.2186999999999
  0
LINE
  8
_0-1_LAYER003
  6
CONTINUOUS
 62
    7
 10
1904.0630000000001
 20
936.97340000000008
 11
1984.4591999999998
 21
936.97340000000008
  0
LINE
  8
_0-1_LAYER003
  6
CONTINUOUS
 62
    7
 10
1892.529
 20
880.97280000000001
 11
2126.529
 21
880.97280000000001
  0
LINE
  8
_0-1_LAYER003
  6
CONTINUOUS
 62
    7
 10
1872.3908999999999
 20
1132.0255
 11
1842.3908999999999
 21
1132.0255
  0
LINE
  8
_0-1_LAYER003
  6
CONTINUOUS
 62
    7
 10
1848.3908000000001
 20
1155.0254
 11
1871.9103
 21
1155.0254
  0
LINE
  8
_0-1_LAYER003
  6
CONTINUOUS
 62
    7
 10
1872.3908999999999
 20
1147.7755
 11
1890.5907999999999
 21
1147.7755
  0
LINE
  8
_0-1_LAYER003
  6
CONTINUOUS
 62
    7
 10
1890.5907999999999
 20
1156.2755
 11
1872.3908999999999
 21
1156.2755
  0
LINE
  8
_0-1_LAYER003
  6
CONTINUOUS
 62
    7
 10
1872.3908999999999
 20
1149.0255
 11
1848.3908000000001
 21
1149.0255
  0
LINE
  8
_0-1_LAYER003
  6
CONTINUOUS
 62
    7
 10
1848.3908000000001
 20
1149.0255
 11
1848.3908000000001
 21
1155.0254
  0
LINE
  8
_0-1_LAYER003
  6
CONTINUOUS
 62
    7
 10
1866.3989000000001
 20
984.71569999999997
 11
1870.0679
 21
984.71569999999997
  0
LINE
  8
_0-1_LAYER003
  6
CONTINUOUS
 62
    7
 10
1870.0679
 20
984.71569999999997
 11
1870.0679
 21
1232.2186999999999
  0
LINE
  8
_0-1_LAYER003
  6
CONTINUOUS
 62
    7
 10
1846.9358999999999
 20
1287.4623999999999
 11
1846.9358999999999
 21
1187.4623999999999
  0
LINE
  8
_0-1_LAYER003
  6
CONTINUOUS
 62
    7
 10
1730.4798999999998
 20
987.09069999999997
 11
1866.3989000000001
 21
987.09069999999997
  0
LINE
  8
_0-1_LAYER003
  6
CONTINUOUS
 62
    7
 10
1955.3114
 20
1287.4623999999999
 11
2007.0114000000001
 21
1287.4623999999999
  0
LINE
  8
_0-1_LAYER003
  6
CONTINUOUS
 62
    7
 10
1590.1417000000001
 20
1201.8770999999999
 11
1704.1417000000001
 21
1201.8770999999999
  0
LINE
  8
_0-1_LAYER003
  6
CONTINUOUS
 62
    7
 10
1336.9458
 20
1125.8713
 11
1377.4458
 21
1125.8713
  0
LINE
  8
_0-1_LAYER003
  6
CONTINUOUS
 62
    7
 10
1511.5848000000001
 20
888.81349999999998
 11
1586.5345311461826
 21
888.81349999999998
  0
LINE
  8
_0-1_LAYER003
  6
CONTINUOUS
 62
    7
 10
1872.3908999999999
 20
812.2186999999999
 11
843.47090000000003
 21
812.2186999999999
  0
LINE
  8
_0-1_LAYER003
  6
CONTINUOUS
 62
    7
 10
1190.8788999999999
 20
875.2645
 11
1260.3668705968469
 21
875.2645
  0
LINE
  8
_0-1_LAYER003
  6
CONTINUOUS
 62
    7
 10
959.5607
 20
785.83860000000004
 11
959.5607
 21
734.1386
  0
LINE
  8
_0-1_LAYER003
  6
CONTINUOUS
 62
    7
 10
959.5607
 20
735.83860000000004
 11
1860.5077000000001
 21
735.83860000000004
  0
LINE
  8
_0-1_LAYER003
  6
CONTINUOUS
 62
    7
 10
1860.5077000000001
 20
734.1386
 11
1860.5077000000001
 21
785.83860000000004
  0
LINE
  8
_0-1_LAYER003
  6
CONTINUOUS
 62
    7
 10
1724.5607
 20
734.1386
 11
1724.5607
 21
785.83860000000004
  0
LINE
  8
_0-1_LAYER003
  6
CONTINUOUS
 62
    7
 10
1469.5607
 20
734.1386
 11
1469.5607
 21
785.83860000000004
  0
LINE
  8
_0-1_LAYER003
  6
CONTINUOUS
 62
    7
 10
1214.5607
 20
734.1386
 11
1214.5607
 21
785.83860000000004
  0
LINE
  8
_0-1_LAYER003
  6
CONTINUOUS
 62
    7
 10
1155.8055999999999
 20
683.09850000000006
 11
1360.6283000000003
 21
683.09850000000006
  0
LINE
  8
_0-1_LAYER003
  6
CONTINUOUS
 62
    7
 10
1163.3642135181146
 20
653.2319
 11
1499.9515000000001
 21
653.2319
  0
LINE
  8
_0-1_LAYER003
  6
CONTINUOUS
 62
    7
 10
1425.1907000000001
 20
623.13660000000004
 11
1171.4838
 21
623.13660000000004
  0
LINE
  8
_0-1_LAYER003
  6
CONTINUOUS
 62
    7
 10
1161.1483000000001
 20
958.66090000000008
 11
1170.0106000000003
 21
958.66090000000008
  0
LINE
  8
_0-1_LAYER003
  6
CONTINUOUS
 62
    7
 10
1170.0106000000003
 20
958.66090000000008
 11
1171.1483000000001
 21
958.66090000000008
  0
LINE
  8
_0-1_LAYER003
  6
CONTINUOUS
 62
    7
 10
1171.1483000000001
 20
958.66090000000008
 11
1171.1483000000001
 21
894.6422
  0
LINE
  8
_0-1_LAYER003
  6
CONTINUOUS
 62
    7
 10
1171.1483000000001
 20
894.6422
 11
1139.7782999999999
 21
894.6422
  0
LINE
  8
_0-1_LAYER003
  6
CONTINUOUS
 62
    7
 10
1139.7782999999999
 20
894.6422
 11
1139.7782999999999
 21
904.6422
  0
LINE
  8
_0-1_LAYER003
  6
CONTINUOUS
 62
    7
 10
1139.7782999999999
 20
904.6422
 11
1161.1483000000001
 21
904.6422
  0
LINE
  8
_0-1_LAYER003
  6
CONTINUOUS
 62
    7
 10
1161.1483000000001
 20
904.6422
 11
1161.1483000000001
 21
958.66090000000008
  0
LINE
  8
_0-1_LAYER003
  6
CONTINUOUS
 62
    7
 10
1761.1482999999998
 20
958.66090000000008
 11
1771.1482999999998
 21
958.66090000000008
  0
LINE
  8
_0-1_LAYER003
  6
CONTINUOUS
 62
    7
 10
1771.1482999999998
 20
958.66090000000008
 11
1771.1482999999998
 21
894.6422
  0
LINE
  8
_0-1_LAYER003
  6
CONTINUOUS
 62
    7
 10
1771.1482999999998
 20
894.6422
 11
1739.7782999999999
 21
894.6422
  0
LINE
  8
_0-1_LAYER003
  6
CONTINUOUS
 62
    7
 10
1739.7782999999999
 20
894.6422
 11
1739.7782999999999
 21
904.6422
  0
LINE
  8
_0-1_LAYER003
  6
CONTINUOUS
 62
    7
 10
1739.7782999999999
 20
904.6422
 11
1761.1482999999998
 21
904.6422
  0
LINE
  8
_0-1_LAYER003
  6
CONTINUOUS
 62
    7
 10
1761.1482999999998
 20
904.6422
 11
1761.1482999999998
 21
958.66090000000008
  0
LINE
  8
_0-1_LAYER003
  6
CONTINUOUS
 62
    7
 10
1847.3908999999999
 20
1333.6927000000001
 11
1990.7689
 21
1477.0706999999998
  0
LINE
  8
_0-1_LAYER003
  6
CONTINUOUS
 62
    7
 10
1990.7689
 20
1465.7566999999999
 11
1847.3908999999999
 21
1322.3786999999998
  0
LINE
  8
_0-1_LAYER003
  6
CONTINUOUS
 62
    7
 10
1847.3908999999999
 20
1311.0657000000001
 11
1990.7689
 21
1454.4436999999998
  0
LINE
  8
_0-1_LAYER003
  6
CONTINUOUS
 62
    7
 10
1792.6700999999998
 20
1394.3970999999999
 11
1851.0682999999999
 21
1293.2483999999999
  0
LINE
  8
_0-1_LAYER003
  6
CONTINUOUS
 62
    7
 10
1851.0682999999999
 20
1293.2483999999999
 11
1849.1271999999999
 21
1300.4928999999997
  0
LINE
  8
_0-1_LAYER003
  6
CONTINUOUS
 62
    7
 10
1851.0682999999999
 20
1293.2483999999999
 11
1845.7649999999999
 21
1298.5517
  0
LINE
  8
_0-1_LAYER003
  6
CONTINUOUS
 62
    7
 10
1862.4189000000001
 20
1307.4623999999999
 11
1867.8809000000001
 21
1287.4623999999999
  0
LINE
  8
_0-1_LAYER003
  6
CONTINUOUS
 62
    7
 10
1867.8809000000001
 20
1287.4623999999999
 11
1862.4189000000001
 21
1287.4623999999999
  0
LINE
  8
_0-1_LAYER003
  6
CONTINUOUS
 62
    7
 10
1867.8809000000001
 20
1307.4623999999999
 11
1862.4189000000001
 21
1287.4623999999999
  0
LINE
  8
_0-1_LAYER003
  6
CONTINUOUS
 62
    7
 10
1750.8476000000001
 20
1335.1543999999999
 11
1859.9843000000001
 21
1146.124
  0
LINE
  8
_0-1_LAYER003
  6
CONTINUOUS
 62
    7
 10
1859.9843000000001
 20
1146.124
 11
1858.0432000000001
 21
1153.3685
  0
LINE
  8
_0-1_LAYER003
  6
CONTINUOUS
 62
    7
 10
1854.681
 20
1151.4273000000001
 11
1859.9843000000001
 21
1146.124
  0
LINE
  8
_0-1_LAYER003
  6
CONTINUOUS
 62
    7
 10
1872.3908999999999
 20
1132.0255
 11
1845.8948999999998
 21
1167.3534999999999
  0
LINE
  8
_0-0_LAYER001
  6
CONTINUOUS
 62
    2
 10
1872.3908999999999
 20
1132.0255
 11
1844.0968506424531
 21
1169.7508991433956
  0
LINE
  8
_0-1_LAYER003
  6
CONTINUOUS
 62
    7
 10
1844.0968506424531
 20
1169.7508991433956
 11
1872.3908999999999
 21
1132.0255
  0
LINE
  8
_0-1_LAYER003
  6
CONTINUOUS
 62
    7
 10
1842.3908999999999
 20
1169.4384296180826
 11
1844.0968506424531
 21
1169.7508991433956
  0
LINE
  8
_0-1_LAYER003
  6
CONTINUOUS
 62
    7
 10
1859.7968999999998
 20
1149.9313
 11
1857.6997999999999
 21
1158.5654
  0
LINE
  8
_0-1_LAYER003
  6
CONTINUOUS
 62
    7
 10
1857.6997999999999
 20
1158.5654
 11
1846.2892000000002
 21
1183.0382
  0
LINE
  8
_0-1_LAYER003
  6
CONTINUOUS
 62
    7
 10
1846.2892000000002
 20
1183.0382
 11
1847.9715999999999
 21
1185.5827999999999
  0
LINE
  8
_0-1_LAYER003
  6
CONTINUOUS
 62
    7
 10
1847.9715999999999
 20
1185.5827999999999
 11
1839.9009000000001
 21
1181.8200999999999
  0
LINE
  8
_0-1_LAYER003
  6
CONTINUOUS
 62
    7
 10
1839.9009000000001
 20
1181.8200999999999
 11
1842.9297000000001
 21
1181.4734000000001
  0
LINE
  8
_0-1_LAYER003
  6
CONTINUOUS
 62
    7
 10
1842.9297000000001
 20
1181.4734000000001
 11
1854.3406
 21
1156.9991
  0
LINE
  8
_0-1_LAYER003
  6
CONTINUOUS
 62
    7
 10
1854.3406
 20
1156.9991
 11
1859.7968999999998
 21
1149.9313
  0
LINE
  8
_0-1_LAYER003
  6
CONTINUOUS
 62
    7
 10
1848.3908000000001
 20
1155.0254
 11
1842.3908999999999
 21
1158.0255
  0
LINE
  8
_0-1_LAYER003
  6
CONTINUOUS
 62
    7
 10
1848.3908000000001
 20
1149.0255
 11
1842.3908999999999
 21
1146.0254
  0
LINE
  8
_0-1_LAYER003
  6
CONTINUOUS
 62
    7
 10
1860.1949
 20
1187.9494
 11
1862.8969000000002
 21
1173.1944000000001
  0
LINE
  8
_0-1_LAYER003
  6
CONTINUOUS
 62
    7
 10
1862.8969000000002
 20
1173.1944000000001
 11
1774.3699000000001
 21
1156.9793999999999
  0
LINE
  8
_0-1_LAYER003
  6
CONTINUOUS
 62
    7
 10
1774.3699000000001
 20
1156.9793999999999
 11
1771.6669000000002
 21
1171.7334000000001
  0
LINE
  8
_0-1_LAYER003
  6
CONTINUOUS
 62
    7
 10
1771.6669000000002
 20
1171.7334000000001
 11
1860.1949
 21
1187.9494
  0
LINE
  8
_0-0_LAYER001
  6
CONTINUOUS
 62
    2
 10
1856.5152034042549
 20
1172.0255
 11
1872.3908999999999
 21
1172.0255
  0
LINE
  8
_0-1_LAYER003
  6
CONTINUOUS
 62
    7
 10
1872.3908999999999
 20
1172.0255
 11
1856.5152034042549
 21
1172.0255
  0
LINE
  8
_0-0_LAYER001
  6
CONTINUOUS
 62
    2
 10
1842.3908999999999
 20
1132.0255
 11
1842.3908999999999
 21
1169.4384296180826
  0
LINE
  8
_0-1_LAYER003
  6
CONTINUOUS
 62
    7
 10
1842.3908999999999
 20
1132.0255
 11
1842.3908999999999
 21
1169.4384296180826
  0
LINE
  8
_0-1_LAYER003
  6
CONTINUOUS
 62
    7
 10
1771.6669000000002
 20
1171.7334000000001
 11
1862.8969000000002
 21
1173.1944000000001
  0
LINE
  8
_0-1_LAYER003
  6
CONTINUOUS
 62
    7
 10
1846.9358999999999
 20
1187.4623999999999
 11
1756.9358999999999
 21
1170.9775999999999
  0
LINE
  8
_0-1_LAYER003
  6
CONTINUOUS
 62
    7
 10
1756.9358999999999
 20
1170.9775999999999
 11
1756.3879000000002
 21
1152.8986
  0
LINE
  8
_0-1_LAYER003
  6
CONTINUOUS
 62
    7
 10
1756.3879000000002
 20
1152.8986
 11
1760.6821
 21
1159.2691
  0
LINE
  8
_0-1_LAYER003
  6
CONTINUOUS
 62
    7
 10
1785.3843227594914
 20
1171.9530772405087
 11
1790.1529
 21
1167.1845000000001
  0
LINE
  8
_0-1_LAYER003
  6
CONTINUOUS
 62
    7
 10
1790.1529
 20
1167.1845000000001
 11
1788.2118
 21
1174.4290000000001
  0
LINE
  8
_0-1_LAYER003
  6
CONTINUOUS
 62
    7
 10
1802.5958000000001
 20
1185.7743
 11
1807.8991000000001
 21
1180.471
  0
LINE
  8
_0-1_LAYER003
  6
CONTINUOUS
 62
    7
 10
1807.8991000000001
 20
1180.471
 11
1805.9580000000001
 21
1187.7155
  0
LINE
  8
_0-1_LAYER003
  6
CONTINUOUS
 62
    7
 10
1790.1529
 20
1167.1845000000001
 11
1733.2204000000002
 21
1265.7945999999999
  0
LINE
  8
_0-1_LAYER003
  6
CONTINUOUS
 62
    7
 10
1807.8991000000001
 20
1180.471
 11
1736.9749000000002
 21
1303.3152
  0
LINE
  8
_0-1_LAYER003
  6
CONTINUOUS
 62
    7
 10
1754.6826999999998
 20
1114.3375000000001
 11
1752.7415999999998
 21
1121.5818999999999
  0
LINE
  8
_0-1_LAYER003
  6
CONTINUOUS
 62
    7
 10
1754.6826999999998
 20
1114.3375000000001
 11
1749.3793999999998
 21
1119.6407999999999
  0
LINE
  8
_0-1_LAYER003
  6
CONTINUOUS
 62
    7
 10
1754.6826999999998
 20
1114.3375000000001
 11
1704.1417000000001
 21
1201.8770999999999
  0
ARC
  8
_0-1_LAYER003
  6
CONTINUOUS
 62
    7
 10
1768.3731233887966
 20
1133.2104391079092
 40
17.845195165094875
 50
320.69091234659533
 51
2.5892315206576453
  0
ARC
  8
_0-1_LAYER003
  6
CONTINUOUS
 62
    7
 10
1769.0398205095148
 20
1101.0111186040328
 40
14.222926924635086
 50
319.54898448459886
 51
12.455203849914021
  0
LINE
  8
_0-1_LAYER003
  6
CONTINUOUS
 62
    7
 10
1866.3989000000001
 20
1102.2186999999999
 11
1856.8335000000002
 21
1089.8965000000001
  0
LINE
  8
_0-1_LAYER003
  6
CONTINUOUS
 62
    7
 10
1824.1365999999998
 20
1071.5278000000001
 11
1822.1954999999998
 21
1078.7722000000001
  0
LINE
  8
_0-1_LAYER003
  6
CONTINUOUS
 62
    7
 10
1822.1954999999998
 20
1078.7722000000001
 11
1827.4987999999998
 21
1073.4689000000001
  0
LINE
  8
_0-1_LAYER003
  6
CONTINUOUS
 62
    7
 10
1822.1954999999998
 20
1078.7722000000001
 11
1904.0630000000001
 21
936.97340000000008
  0
LINE
  8
_0-1_LAYER003
  6
CONTINUOUS
 62
    7
 10
1832.2745
 20
981.4543000000001
 11
1830.3334
 21
988.69869999999992
  0
LINE
  8
_0-1_LAYER003
  6
CONTINUOUS
 62
    7
 10
1830.3334
 20
988.69869999999992
 11
1835.6367
 21
983.39540000000011
  0
LINE
  8
_0-1_LAYER003
  6
CONTINUOUS
 62
    7
 10
1830.3334
 20
988.69869999999992
 11
1892.529
 21
880.97280000000001
  0
LINE
  8
_0-1_LAYER003
  6
CONTINUOUS
 62
    7
 10
1890.5907999999999
 20
1156.2755
 11
1899.6848
 21
1157.8805
  0
LINE
  8
_0-1_LAYER003
  6
CONTINUOUS
 62
    7
 10
1899.6848
 20
1157.8795
 11
1899.9809
 21
1156.2065
  0
LINE
  8
_0-1_LAYER003
  6
CONTINUOUS
 62
    7
 10
1899.9809
 20
1156.2065
 11
1901.6538
 21
1156.5015000000001
  0
LINE
  8
_0-1_LAYER003
  6
CONTINUOUS
 62
    7
 10
1901.6538
 20
1156.5015000000001
 11
1901.3589543861144
 21
1158.174527230947
  0
LINE
  8
_0-1_LAYER003
  6
CONTINUOUS
 62
    7
 10
1901.3589543861144
 20
1158.174527230947
 11
1904.0178000000001
 21
1158.6434999999999
  0
LINE
  8
_0-1_LAYER003
  6
CONTINUOUS
 62
    7
 10
1904.0178000000001
 20
1158.6434999999999
 11
1904.3139000000001
 21
1156.9704999999999
  0
LINE
  8
_0-1_LAYER003
  6
CONTINUOUS
 62
    7
 10
1904.3139000000001
 20
1156.9704999999999
 11
1905.9868000000001
 21
1157.2655
  0
LINE
  8
_0-1_LAYER003
  6
CONTINUOUS
 62
    7
 10
1905.9868000000001
 20
1157.2655
 11
1905.6920714638838
 21
1158.938630244297
  0
LINE
  8
_0-1_LAYER003
  6
CONTINUOUS
 62
    7
 10
1905.6920714638929
 20
1158.9386302442454
 11
1908.3508000000002
 21
1159.4076
  0
LINE
  8
_0-1_LAYER003
  6
CONTINUOUS
 62
    7
 10
1908.3508000000002
 20
1159.4076
 11
1908.6468
 21
1157.7345
  0
LINE
  8
_0-1_LAYER003
  6
CONTINUOUS
 62
    7
 10
1908.6468
 20
1157.7345
 11
1910.3209000000002
 21
1158.0295000000001
  0
LINE
  8
_0-1_LAYER003
  6
CONTINUOUS
 62
    7
 10
1910.3209000000002
 20
1158.0295000000001
 11
1910.0248999999999
 21
1159.7035000000001
  0
LINE
  8
_0-1_LAYER003
  6
CONTINUOUS
 62
    7
 10
1910.0248999999999
 20
1159.7035000000001
 11
1911.5028000000002
 21
1159.9635000000001
  0
LINE
  8
_0-1_LAYER003
  6
CONTINUOUS
 62
    7
 10
1911.5028000000002
 20
1159.9635000000001
 11
1913.2349313622894
 21
1158.7545057996451
  0
LINE
  8
_0-1_LAYER003
  6
CONTINUOUS
 62
    7
 10
1913.2349313622894
 20
1158.7545057996451
 11
1913.6399000000001
 21
1156.4825000000001
  0
LINE
  8
_0-1_LAYER003
  6
CONTINUOUS
 62
    7
 10
1913.6399000000001
 20
1156.4825000000001
 11
1888.3669
 21
1152.0265999999999
  0
LINE
  8
_0-1_LAYER003
  6
CONTINUOUS
 62
    7
 10
1888.3669
 20
1152.0265999999999
 11
1913.4648000000002
 21
1147.6005
  0
LINE
  8
_0-1_LAYER003
  6
CONTINUOUS
 62
    7
 10
1913.4648000000002
 20
1147.6005
 11
1913.0618207687451
 21
1145.3423404287878
  0
LINE
  8
_0-1_LAYER003
  6
CONTINUOUS
 62
    7
 10
1913.0668999999998
 20
1145.3356000000001
 11
1911.328
 21
1144.1195
  0
LINE
  8
_0-1_LAYER003
  6
CONTINUOUS
 62
    7
 10
1911.328
 20
1144.1195
 11
1909.8508999999999
 21
1144.3806
  0
LINE
  8
_0-1_LAYER003
  6
CONTINUOUS
 62
    7
 10
1909.8508999999999
 20
1144.3806
 11
1910.1459
 21
1146.0535
  0
LINE
  8
_0-1_LAYER003
  6
CONTINUOUS
 62
    7
 10
1910.1459
 20
1146.0535
 11
1908.4719
 21
1146.3484000000001
  0
LINE
  8
_0-1_LAYER003
  6
CONTINUOUS
 62
    7
 10
1908.4719
 20
1146.3484000000001
 11
1908.1768999999999
 21
1144.6755000000001
  0
LINE
  8
_0-1_LAYER003
  6
CONTINUOUS
 62
    7
 10
1908.1768999999999
 20
1144.6755000000001
 11
1905.5178000000001
 21
1145.1445000000001
  0
LINE
  8
_0-1_LAYER003
  6
CONTINUOUS
 62
    7
 10
1905.5178000000001
 20
1145.1445000000001
 11
1905.8128999999999
 21
1146.8175000000001
  0
LINE
  8
_0-1_LAYER003
  6
CONTINUOUS
 62
    7
 10
1905.8128999999999
 20
1146.8175000000001
 11
1904.1399000000001
 21
1147.1125
  0
LINE
  8
_0-1_LAYER003
  6
CONTINUOUS
 62
    7
 10
1904.1399000000001
 20
1147.1125
 11
1903.8438999999998
 21
1145.4395
  0
LINE
  8
_0-1_LAYER003
  6
CONTINUOUS
 62
    7
 10
1903.8438999999998
 20
1145.4395
 11
1901.1848
 21
1145.9085
  0
LINE
  8
_0-1_LAYER003
  6
CONTINUOUS
 62
    7
 10
1901.1848
 20
1145.9085
 11
1901.4798000000001
 21
1147.5814
  0
LINE
  8
_0-1_LAYER003
  6
CONTINUOUS
 62
    7
 10
1901.4798000000001
 20
1147.5814
 11
1899.8069
 21
1147.8765000000001
  0
LINE
  8
_0-1_LAYER003
  6
CONTINUOUS
 62
    7
 10
1899.8069
 20
1147.8765000000001
 11
1899.5108
 21
1146.2036000000001
  0
LINE
  8
_0-1_LAYER003
  6
CONTINUOUS
 62
    7
 10
1899.5108
 20
1146.2036000000001
 11
1890.5907999999999
 21
1147.7755
  0
LINE
  8
_0-1_LAYER003
  6
CONTINUOUS
 62
    7
 10
1438.4596000000001
 20
1020.1923999999999
 11
1436.5183999999999
 21
1027.4367999999999
  0
LINE
  8
_0-1_LAYER003
  6
CONTINUOUS
 62
    7
 10
1433.1563000000001
 20
1025.4956999999999
 11
1438.4596000000001
 21
1020.1923999999999
  0
LINE
  8
_0-1_LAYER003
  6
CONTINUOUS
 62
    7
 10
1438.4596000000001
 20
1020.1923999999999
 11
1377.4458
 21
1125.8713
  0
LINE
  8
_0-1_LAYER003
  6
CONTINUOUS
 62
    7
 10
1474.1221999999998
 20
953.70059999999989
 11
1476.0632999999998
 21
946.45620000000008
  0
LINE
  8
_0-1_LAYER003
  6
CONTINUOUS
 62
    7
 10
1474.1221999999998
 20
953.70059999999989
 11
1479.4254999999998
 21
948.39730000000009
  0
LINE
  8
_0-1_LAYER003
  6
CONTINUOUS
 62
    7
 10
1474.1221999999998
 20
953.70059999999989
 11
1511.5848000000001
 21
888.81349999999998
  0
LINE
  8
_0-1_LAYER003
  6
CONTINUOUS
 62
    7
 10
1481.1059
 20
942.2186999999999
 11
1351.1059
 21
812.2186999999999
  0
LINE
  8
_0-1_LAYER003
  6
CONTINUOUS
 62
    7
 10
1339.7928999999999
 20
812.2186999999999
 11
1469.7928999999999
 21
942.2186999999999
  0
LINE
  8
_0-1_LAYER003
  6
CONTINUOUS
 62
    7
 10
1458.4789000000001
 20
942.2186999999999
 11
1328.4789000000001
 21
812.2186999999999
  0
LINE
  8
_0-1_LAYER003
  6
CONTINUOUS
 62
    7
 10
1190.8788999999999
 20
875.2645
 11
1166.2506000000001
 21
917.92200000000003
  0
LINE
  8
_0-1_LAYER003
  6
CONTINUOUS
 62
    7
 10
1166.2506000000001
 20
917.92200000000003
 11
1168.1918000000001
 21
910.67750000000001
  0
LINE
  8
_0-1_LAYER003
  6
CONTINUOUS
 62
    7
 10
1166.2506000000001
 20
917.92200000000003
 11
1171.1483000000001
 21
913.02430000000004
  0
LINE
  8
_0-1_LAYER003
  6
CONTINUOUS
 62
    7
 10
1072.6110000000001
 20
991.92740000000003
 11
1072.6110000000001
 21
984.42740000000003
  0
LINE
  8
_0-1_LAYER003
  6
CONTINUOUS
 62
    7
 10
1072.6110000000001
 20
991.92740000000003
 11
1076.3610000000001
 21
985.43219999999997
  0
LINE
  8
_0-1_LAYER003
  6
CONTINUOUS
 62
    7
 10
1072.6110000000001
 20
991.92740000000003
 11
1171.4838
 21
622.92920000000004
  0
LINE
  8
_0-1_LAYER003
  6
CONTINUOUS
 62
    7
 10
896.22090000000003
 20
812.2186999999999
 11
1026.2209
 21
942.2186999999999
  0
LINE
  8
_0-1_LAYER003
  6
CONTINUOUS
 62
    7
 10
1037.5349000000001
 20
942.2186999999999
 11
907.53490000000011
 21
812.2186999999999
  0
LINE
  8
_0-1_LAYER003
  6
CONTINUOUS
 62
    7
 10
918.84889999999996
 20
812.2186999999999
 11
1048.8489
 21
942.2186999999999
  0
LINE
  8
_0-1_LAYER003
  6
CONTINUOUS
 62
    7
 10
1722.3908999999999
 20
889.98180000000002
 11
1722.3908999999999
 21
838.28179999999998
  0
LINE
  8
_0-1_LAYER003
  6
CONTINUOUS
 62
    7
 10
1722.3908999999999
 20
839.98180000000002
 11
1872.3908999999999
 21
839.98180000000002
  0
LINE
  8
_0-1_LAYER003
  6
CONTINUOUS
 62
    7
 10
1872.3908999999999
 20
838.28179999999998
 11
1872.3908999999999
 21
889.98180000000002
  0
ARC
  8
_0-1_LAYER003
  6
CONTINUOUS
 62
    7
 10
1831.7080800393489
 20
1296.2175914219965
 40
19.312498150314429
 50
333.20188572178711
 51
35.609339278212893
  0
TEXT
  8
_0-2_LAYER004
 62
    7
 10
1174.9878794248764
 20
628.72915098949284
 40
20
 41
1
 50
0
  1
パーライト系モルタルｔ＝４０
  0
TEXT
  8
_0-2_LAYER004
 62
    7
 10
1311.6744227911536
 20
1131.5403640868701
 40
20
 41
1
 50
0
  1
桟　瓦
  0
TEXT
  8
_0-2_LAYER004
 62
    7
 10
1197.7689699859227
 20
880.9483679153617
 40
20
 41
1
 50
0
  1
アンカー
  0
TEXT
  8
_0-2_LAYER004
 62
    7
 10
1586.6747302780689
 20
744.26182454908439
 40
20
 41
1
 50
0
  1
255
  0
TEXT
  8
_0-2_LAYER004
 62
    7
 10
1318.1833058085954
 20
745.88904530344485
 40
20
 41
1
 50
0
  1
255
  0
TEXT
  8
_0-2_LAYER004
 62
    7
 10
1069.2185303914475
 20
747.5162660578053
 40
20
 41
1
 50
0
  1
255
  0
TEXT
  8
_0-2_LAYER004
 62
    7
 10
1773.8051170295198
 20
742.63460379472394
 40
20
 41
1
 50
0
  1
135
  0
TEXT
  8
_0-2_LAYER004
 62
    7
 10
1781.9412208013223
 20
848.4039528281528
 40
20
 41
1
 50
0
  1
150
  0
TEXT
  8
_0-2_LAYER004
 62
    7
 10
1890.9650113434718
 20
887.45725093280362
 40
20
 41
1
 50
0
  1
捨谷水切カラー鋼板0.35ｍｍ以上
  0
TEXT
  8
_0-2_LAYER004
 62
    7
 10
1518.3314585949302
 20
893.96613395024531
 40
20
 41
1
 50
0
  1
溶接金網
  0
TEXT
  8
_0-1_LAYER003
 62
    7
 10
1549.2486529277787
 20
1203.1380772787295
 40
20
 41
1
 50
0
  1
熨斗瓦２段積み
  0
TEXT
  8
_0-2_LAYER004
 62
    7
 10
1685.9351962940559
 20
1396.7773470476227
 40
20
 41
1
 50
0
  1
シーリング
  0
TEXT
  8
_0-2_LAYER004
 62
    7
 10
1640.3730151719633
 20
1341.4518413993674
 40
20
 41
1
 50
0
  1
４０ｘ３０
  0
TEXT
  8
_0-2_LAYER004
 62
    7
 10
1399.5443435266177
 20
1307.2802055577981
 40
20
 41
1
 50
0
  1
雨押水切カラー鋼板0.35ｍｍ以上
  0
TEXT
  8
_0-2_LAYER004
 62
    7
 10
1617.5919246109172
 20
1266.5996866987869
 40
20
 41
1
 50
0
  1
笠木：15x90
  0
TEXT
  8
_0-2_LAYER004
 62
    7
 10
1785.195662310043
 20
1276.3630112249496
 40
20
 41
1
 50
0
  1
90
  0
TEXT
  8
_0-2_LAYER004
 62
    7
 10
1983.7165943420173
 20
1286.1263357511123
 40
20
 41
1
 50
90
  1
20
  0
TEXT
  8
_0-2_LAYER004
 62
    7
 10
1990.2254773594589
 20
1222.6647263310549
 40
20
 41
1
 50
90
  1
100
  0
TEXT
  8
_0-2_LAYER004
 62
    7
 10
1988.5982566050984
 20
1131.5403640868701
 40
20
 41
1
 50
90
  1
85
  0
TEXT
  8
_0-2_LAYER004
 62
    7
 10
1991.8526981138193
 20
1030.6526773165226
 40
20
 41
1
 50
90
  1
115
  0
TEXT
  8
_0-2_LAYER004
 62
    7
 10
2035.7876584815515
 20
1069.7059754211732
 40
20
 41
1
 50
90
  1
水切り立上がり寸法
  0
TEXT
  8
_0-2_LAYER004
 62
    7
 10
2084.6042811123648
 20
1107.1320527714633
 40
20
 41
1
 50
90
  1
250
  0
TEXT
  8
_0-2_LAYER004
 62
    7
 10
2128.5392414800967
 20
1001.3627037380345
 40
20
 41
1
 50
90
  1
下葺き材立上がり寸法
  0
TEXT
  8
_0-0_LAYER001
 62
    7
 10
1890.9650113434718
 20
941.15553582669804
 40
20
 41
1
 50
0
  1
　葺　土
  0
TEXT
  8
_0-2_LAYER004
 62
    7
 10
1168.4789964074346
 20
687.30909814646884
 40
20
 41
1
 50
0
  1
瓦桟：15x30以上
  0
LINE
  8
_0-2_LAYER004
  6
CONTINUOUS
 62
    7
 10
1336.9458
 20
1125.8713
 11
1313.3016435455143
 21
1125.8713
  0
LINE
  8
_0-2_LAYER004
  6
CONTINUOUS
 62
    7
 10
1250.8788999999999
 20
875.2645
 11
1267.7394624234219
 21
875.2645
  0
LINE
  8
_0-2_LAYER004
  6
CONTINUOUS
 62
    7
 10
1267.7394624234219
 20
875.2645
 11
1285.6388907213866
 21
875.2645
  0
LINE
  8
_0-2_LAYER004
  6
CONTINUOUS
 62
    7
 10
1586.5345311461826
 20
888.81349999999998
 11
1614.3374831021965
 21
888.81349999999998
  0
LINE
  8
_0-2_LAYER004
  6
CONTINUOUS
 62
    7
 10
2126.529
 20
880.97280000000001
 11
2216.4091622155606
 21
880.97280000000001
  0
LINE
  8
_0-2_LAYER004
  6
CONTINUOUS
 62
    7
 10
1669.8476000000001
 20
1335.1543999999999
 11
1648.5091189437658
 21
1335.1543999999999
  0
LINE
  8
_0-2_LAYER004
  6
CONTINUOUS
 62
    7
 10
1503.9493159980636
 20
1303.3152
 11
1407.6804472984199
 21
1303.3152
  0
LINE
  8
_0-2_LAYER004
  6
CONTINUOUS
 62
    7
 10
1590.1417000000001
 20
1201.8770999999999
 11
1554.1303151908598
 21
1201.8770999999999
  0
TEXT
  8
_0-2_LAYER004
 62
    7
 10
1168.4789964074346
 20
658.01912456798073
 40
20
 41
1
 50
0
  1
下葺材：ルーフィング
  0
ENDSEC
  0
EOF
