  0
SECTION
  2
HEADER
  9
$ACADVER
  1
AC1009
  9
$INSBASE
 10
0
 20
0
 30
0
  9
$EXTMIN
 10
0
 20
0
  9
$EXTMAX
 10
2970
 20
2100
  9
$LIMMIN
 10
0
 20
0
  9
$LIMMAX
 10
2970
 20
2100
  9
$LTSCALE
 40
10
  0
ENDSEC
  0
SECTION
  2
TABLES
  0
TABLE
  2
LTYPE
 70
     9
  0
LTYPE
  2
CONTINUOUS
 70
    64
  3
実線
 72
    65
 73
     0
 40
0.0
  0
LTYPE
  2
DASHED1
 70
    64
  3
--  --  --  --  --  --  --  --  
 72
    65
 73
     2
 40
2.5
 49
1.25
 49
-1.25
  0
LTYPE
  2
DASHED2
 70
    64
  3
----    ----    ----    ----    
 72
    65
 73
     2
 40
5.0
 49
2.5
 49
-2.5
  0
LTYPE
  2
DASHED3
 70
    64
  3
------  ------  ------  ------  
 72
    65
 73
     2
 40
5.0
 49
3.75
 49
-1.25
  0
LTYPE
  2
CENTER1
 70
    64
  3
----- - ----- - ----- - ----- - 
 72
    65
 73
     4
 40
10.0
 49
6.25
 49
-1.25
 49
1.25
 49
-1.25
  0
LTYPE
  2
CENTER2
 70
    64
  3
----------  --  ----------  --  
 72
    65
 73
     4
 40
20.0
 49
12.5
 49
-2.5
 49
2.5
 49
-2.5
  0
LTYPE
  2
PHANTOM1
 70
    64
  3
--- - - --- - - --- - - --- - - 
 72
    65
 73
     6
 40
10.0
 49
3.25
 49
-1.25
 49
1.25
 49
-1.25
 49
1.25
 49
-1.25
  0
LTYPE
  2
PHANTOM2
 70
    64
  3
--------  -  -  --------  -  -  
 72
    65
 73
     6
 40
20.0
 49
10.0
 49
-2.5
 49
1.25
 49
-2.5
 49
1.25
 49
-2.5
  0
LTYPE
  2
DOT
 70
    64
  3
-   -   -   -   -   -   -   -   
 72
    65
 73
     2
 40
2.5
 49
0.625
 49
-1.875
  0
LTYPE
  2
DUMMY
 70
    64
  3
ダミー
 72
    65
 73
     0
 40
0.0
  0
LTYPE
  2
RAND1
 70
    64
  3
ランダム線1
 72
    65
 73
     4
 40
10.0
 49
1.0
 49
-2.0
 49
3.0
 49
-4.0
  0
LTYPE
  2
RAND2
 70
    64
  3
ランダム線2
 72
    65
 73
     4
 40
14.0
 49
2.0
 49
-3.0
 49
4.0
 49
-5.0
  0
LTYPE
  2
RAND3
 70
    64
  3
ランダム線3
 72
    65
 73
     4
 40
18.0
 49
3.0
 49
-4.0
 49
5.0
 49
-6.0
  0
LTYPE
  2
RAND4
 70
    64
  3
ランダム線4
 72
    65
 73
     4
 40
22.0
 49
4.0
 49
-5.0
 49
6.0
 49
-7.0
  0
LTYPE
  2
RAND5
 70
    64
  3
ランダム線5
 72
    65
 73
     4
 40
26.0
 49
5.0
 49
-6.0
 49
7.0
 49
-8.0
  0
LTYPE
  2
LONG1
 70
    64
  3
----------  --  ----------  --  
 72
    65
 73
     4
 40
40.0
 49
32.5
 49
-2.5
 49
2.5
 49
-2.5
  0
LTYPE
  2
LONG2
 70
    64
  3
--------  -  -  --------  -  -  
 72
    65
 73
     6
 40
40.0
 49
30.0
 49
-2.5
 49
1.25
 49
-2.5
 49
1.25
 49
-2.5
  0
LTYPE
  2
LONG3
 70
    64
  3
+++++++++++++++..+++++++++++++++
 72
    65
 73
     2
 40
40.0
 49
37.5
 49
-2.5
  0
LTYPE
  2
LONG4
 70
    64
  3
+++++++++++++++..+++++++++++++++
 72
    65
 73
     2
 40
80.0
 49
75.0
 49
-5.0
  0
LTYPE
  2
LONG5
 70
    64
  3
----------  --  ----------  --  
 72
    65
 73
     4
 40
60.0
 49
37.5
 49
-7.5
 49
7.5
 49
-7.5
  0
LTYPE
  2
dashed
 70
   64
  3
-------   -------------   ------
 72
   65
 73
    2
 40
7.5
 49
6
 49
-1.5
  0
LTYPE
  2
dashed_spaced
 70
   64
  3
----        --------        ----
 72
   65
 73
    2
 40
12
 49
6
 49
-6
  0
LTYPE
  2
long_dashed_dotted
 70
   64
  3
------------- --- --------------
 72
   65
 73
    4
 40
15.25
 49
12
 49
-1.5
 49
0.25
 49
-1.5
  0
LTYPE
  2
long_dashed_double-dotted
 70
   64
  3
----------- --- --- ------------
 72
   65
 73
    6
 40
17
 49
12
 49
-1.5
 49
0.25
 49
-1.5
 49
0.25
 49
-1.5
  0
LTYPE
  2
long_dashed_triplicate-dotted
 70
   64
  3
--------- --- --- --- ----------
 72
   65
 73
    8
 40
18.75
 49
12
 49
-1.5
 49
0.25
 49
-1.5
 49
0.25
 49
-1.5
 49
0.25
 49
-1.5
  0
LTYPE
  2
dotted
 70
   64
  3
   -       -       -       -    
 72
   65
 73
    2
 40
1.75
 49
0.25
 49
-1.5
  0
LTYPE
  2
chain
 70
   64
  3
-------------- -- --------------
 72
   65
 73
    4
 40
18.5
 49
12
 49
-1.5
 49
3.5
 49
-1.5
  0
LTYPE
  2
chain_double_dash
 70
   64
  3
------------ -- -- -------------
 72
   65
 73
    6
 40
23.5
 49
12
 49
-1.5
 49
3.5
 49
-1.5
 49
3.5
 49
-1.5
  0
LTYPE
  2
dashed_dotted
 70
   64
  3
-----------     -     ----------
 72
   65
 73
    4
 40
9.25
 49
6
 49
-1.5
 49
0.25
 49
-1.5
  0
LTYPE
  2
double-dashed_dotted
 70
   64
  3
------   -----------   -   -----
 72
   65
 73
    6
 40
16.75
 49
6
 49
-1.5
 49
6
 49
-1.5
 49
0.25
 49
-1.5
  0
LTYPE
  2
dashed_double-dotted
 70
   64
  3
---------    -    -    ---------
 72
   65
 73
    6
 40
11
 49
6
 49
-1.5
 49
0.25
 49
-1.5
 49
0.25
 49
-1.5
  0
LTYPE
  2
double-dashed_double-dotted
 70
   64
  3
-----   ---------   -   -   ----
 72
   65
 73
    8
 40
18.5
 49
6
 49
-1.5
 49
6
 49
-1.5
 49
0.25
 49
-1.5
 49
0.25
 49
-1.5
  0
LTYPE
  2
dashed_triplicate-dotted
 70
   64
  3
-------    -    -    -    ------
 72
   65
 73
    8
 40
12.75
 49
6
 49
-1.5
 49
0.25
 49
-1.5
 49
0.25
 49
-1.5
 49
0.25
 49
-1.5
  0
LTYPE
  2
double-dashed_triplicate-dotted
 70
   64
  3
-----  ---------  -  -  -  -----
 72
   65
 73
   10
 40
20.25
 49
6
 49
-1.5
 49
6
 49
-1.5
 49
0.25
 49
-1.5
 49
0.25
 49
-1.5
 49
0.25
 49
-1.5
  0
LTYPE
  2
undefined
 70
   64
  3
--------------------------------
 72
   65
 73
    0
 40
0
  0
ENDTAB
  0
TABLE
  2
STYLE
  5
3
100
AcDbSymbolTable
 70
     1
  0
STYLE
  5
10
100
AcDbSymbolTableRecord
100
AcDbTextStyleTableRecord
  2
STANDARD
 70
     0
 40
0.0
 41
1.0
 50
0.0
 71
     0
 42
0.2
  3
txt
  4
bigfont.shx
  0
STYLE
  5
26
100
AcDbSymbolTableRecord
100
AcDbTextStyleTableRecord
  2
TATEGAKI
 70
    68
 40
0.0
 41
1.0
 50
0.0
 71
     0
 42
1.0
  3
txt
  4
bigfont.shx
  0
ENDTAB
  0
TABLE
  2
LAYER
 70
    6
  0
LAYER
  2
_0-0_LAYER001
 70
   64
 62
    7
  6
CONTINUOUS
  0
LAYER
  2
_0-1_LAYER003
 70
   64
 62
    7
  6
CONTINUOUS
  0
LAYER
  2
_0-2_LAYER004
 70
   64
 62
    7
  6
CONTINUOUS
  0
LAYER
  2
_0-3_LAYER005
 70
   64
 62
    7
  6
CONTINUOUS
  0
LAYER
  2
_0-4_LAYER006
 70
   64
 62
    7
  6
CONTINUOUS
  0
LAYER
  2
ADD_LINE
 70
   64
 62
    7
  6
CONTINUOUS
  0
ENDTAB
  0
ENDSEC
  0
SECTION
  2
BLOCKS
  0
ENDSEC
  0
SECTION
  2
ENTITIES
  0
LINE
  8
_0-1_LAYER003
  6
CONTINUOUS
 62
    2
 10
1193.9068
 20
1109.5662
 11
1148.9068
 21
1083.9747
  0
LINE
  8
_0-4_LAYER006
  6
CONTINUOUS
 62
    2
 10
1153.9068
 20
1043.9747
 11
2188.5482999999999
 21
1043.9747
  0
LINE
  8
_0-0_LAYER001
  6
DASHED1
 62
    2
 10
1163.9068
 20
1043.6198999999999
 11
1163.9068
 21
913.97469999999998
  0
LINE
  8
_0-4_LAYER006
  6
CONTINUOUS
 62
    1
 10
2185.3742000000002
 20
1043.9747
 11
2188.5482999999999
 21
1047.1487999999999
  0
LINE
  8
_0-4_LAYER006
  6
CONTINUOUS
 62
    1
 10
2171.232
 20
1043.9747
 11
2188.5482999999999
 21
1061.2909999999999
  0
LINE
  8
_0-4_LAYER006
  6
CONTINUOUS
 62
    1
 10
2157.0898999999999
 20
1043.9747
 11
2188.5482999999999
 21
1075.4331
  0
LINE
  8
_0-4_LAYER006
  6
CONTINUOUS
 62
    1
 10
2142.9477999999999
 20
1043.9747
 11
2182.9477999999999
 21
1083.9747
  0
LINE
  8
_0-4_LAYER006
  6
CONTINUOUS
 62
    1
 10
2128.8056000000001
 20
1043.9747
 11
2168.8056000000001
 21
1083.9747
  0
LINE
  8
_0-4_LAYER006
  6
CONTINUOUS
 62
    1
 10
2114.6635000000001
 20
1043.9747
 11
2154.6635000000001
 21
1083.9747
  0
LINE
  8
_0-4_LAYER006
  6
CONTINUOUS
 62
    1
 10
2100.5214000000001
 20
1043.9747
 11
2140.5214000000001
 21
1083.9747
  0
LINE
  8
_0-4_LAYER006
  6
CONTINUOUS
 62
    1
 10
2086.3791999999999
 20
1043.9747
 11
2126.3791999999999
 21
1083.9747
  0
LINE
  8
_0-4_LAYER006
  6
CONTINUOUS
 62
    1
 10
2072.2370999999998
 20
1043.9747
 11
2112.2370999999998
 21
1083.9747
  0
LINE
  8
_0-4_LAYER006
  6
CONTINUOUS
 62
    1
 10
2058.0949000000001
 20
1043.9747
 11
2098.0949000000001
 21
1083.9747
  0
LINE
  8
_0-4_LAYER006
  6
CONTINUOUS
 62
    1
 10
2043.9528
 20
1043.9747
 11
2083.9528
 21
1083.9747
  0
LINE
  8
_0-4_LAYER006
  6
CONTINUOUS
 62
    1
 10
2029.8107
 20
1043.9747
 11
2069.8107
 21
1083.9747
  0
LINE
  8
_0-4_LAYER006
  6
CONTINUOUS
 62
    1
 10
2015.6685000000002
 20
1043.9747
 11
2055.6685000000002
 21
1083.9747
  0
LINE
  8
_0-4_LAYER006
  6
CONTINUOUS
 62
    1
 10
2001.5264000000002
 20
1043.9747
 11
2041.5264000000002
 21
1083.9747
  0
LINE
  8
_0-4_LAYER006
  6
CONTINUOUS
 62
    1
 10
1987.3843000000002
 20
1043.9747
 11
2027.3843000000002
 21
1083.9747
  0
LINE
  8
_0-4_LAYER006
  6
CONTINUOUS
 62
    1
 10
1973.2420999999999
 20
1043.9747
 11
2013.2420999999999
 21
1083.9747
  0
LINE
  8
_0-4_LAYER006
  6
CONTINUOUS
 62
    1
 10
1959.0999999999999
 20
1043.9747
 11
1999.0999999999999
 21
1083.9747
  0
LINE
  8
_0-4_LAYER006
  6
CONTINUOUS
 62
    1
 10
1944.9578999999999
 20
1043.9747
 11
1984.9578999999999
 21
1083.9747
  0
LINE
  8
_0-4_LAYER006
  6
CONTINUOUS
 62
    1
 10
1930.8157000000001
 20
1043.9747
 11
1970.8157000000001
 21
1083.9747
  0
LINE
  8
_0-4_LAYER006
  6
CONTINUOUS
 62
    1
 10
1916.6736000000001
 20
1043.9747
 11
1956.6736000000001
 21
1083.9747
  0
LINE
  8
_0-4_LAYER006
  6
CONTINUOUS
 62
    1
 10
1902.5315000000001
 20
1043.9747
 11
1942.5315000000001
 21
1083.9747
  0
LINE
  8
_0-4_LAYER006
  6
CONTINUOUS
 62
    1
 10
1888.3892999999998
 20
1043.9747
 11
1928.3892999999998
 21
1083.9747
  0
LINE
  8
_0-4_LAYER006
  6
CONTINUOUS
 62
    1
 10
1874.2471999999998
 20
1043.9747
 11
1914.2471999999998
 21
1083.9747
  0
LINE
  8
_0-4_LAYER006
  6
CONTINUOUS
 62
    1
 10
1860.105
 20
1043.9747
 11
1900.105
 21
1083.9747
  0
LINE
  8
_0-4_LAYER006
  6
CONTINUOUS
 62
    1
 10
1845.9629
 20
1043.9747
 11
1885.9629
 21
1083.9747
  0
LINE
  8
_0-4_LAYER006
  6
CONTINUOUS
 62
    1
 10
1831.8208
 20
1043.9747
 11
1871.8208
 21
1083.9747
  0
LINE
  8
_0-4_LAYER006
  6
CONTINUOUS
 62
    1
 10
1817.6786000000002
 20
1043.9747
 11
1857.6786000000002
 21
1083.9747
  0
LINE
  8
_0-4_LAYER006
  6
CONTINUOUS
 62
    1
 10
1803.5365000000002
 20
1043.9747
 11
1843.5365000000002
 21
1083.9747
  0
LINE
  8
_0-4_LAYER006
  6
CONTINUOUS
 62
    1
 10
1789.3944000000001
 20
1043.9747
 11
1829.3944000000001
 21
1083.9747
  0
LINE
  8
_0-4_LAYER006
  6
CONTINUOUS
 62
    1
 10
1775.2521999999999
 20
1043.9747
 11
1815.2521999999999
 21
1083.9747
  0
LINE
  8
_0-4_LAYER006
  6
CONTINUOUS
 62
    1
 10
1761.1100999999999
 20
1043.9747
 11
1801.1100999999999
 21
1083.9747
  0
LINE
  8
_0-4_LAYER006
  6
CONTINUOUS
 62
    1
 10
1746.9679999999998
 20
1043.9747
 11
1786.9679999999998
 21
1083.9747
  0
LINE
  8
_0-4_LAYER006
  6
CONTINUOUS
 62
    1
 10
1732.8258000000001
 20
1043.9747
 11
1772.8258000000001
 21
1083.9747
  0
LINE
  8
_0-4_LAYER006
  6
CONTINUOUS
 62
    1
 10
1718.6837
 20
1043.9747
 11
1758.6837
 21
1083.9747
  0
LINE
  8
_0-4_LAYER006
  6
CONTINUOUS
 62
    1
 10
1704.5416
 20
1043.9747
 11
1744.5416
 21
1083.9747
  0
LINE
  8
_0-4_LAYER006
  6
CONTINUOUS
 62
    1
 10
1690.3993999999998
 20
1043.9747
 11
1730.3993999999998
 21
1083.9747
  0
LINE
  8
_0-4_LAYER006
  6
CONTINUOUS
 62
    1
 10
1676.2573000000002
 20
1043.9747
 11
1716.2573000000002
 21
1083.9747
  0
LINE
  8
_0-4_LAYER006
  6
CONTINUOUS
 62
    1
 10
1662.1151
 20
1043.9747
 11
1702.1151
 21
1083.9747
  0
LINE
  8
_0-4_LAYER006
  6
CONTINUOUS
 62
    1
 10
1647.973
 20
1043.9747
 11
1687.973
 21
1083.9747
  0
LINE
  8
_0-4_LAYER006
  6
CONTINUOUS
 62
    1
 10
1633.8308999999999
 20
1043.9747
 11
1673.8308999999999
 21
1083.9747
  0
LINE
  8
_0-4_LAYER006
  6
CONTINUOUS
 62
    1
 10
1619.6887000000002
 20
1043.9747
 11
1659.6887000000002
 21
1083.9747
  0
LINE
  8
_0-4_LAYER006
  6
CONTINUOUS
 62
    1
 10
1605.5466000000001
 20
1043.9747
 11
1645.5466000000001
 21
1083.9747
  0
LINE
  8
_0-4_LAYER006
  6
CONTINUOUS
 62
    1
 10
1591.4045000000001
 20
1043.9747
 11
1631.4045000000001
 21
1083.9747
  0
LINE
  8
_0-4_LAYER006
  6
CONTINUOUS
 62
    1
 10
1577.2622999999999
 20
1043.9747
 11
1617.2622999999999
 21
1083.9747
  0
LINE
  8
_0-4_LAYER006
  6
CONTINUOUS
 62
    1
 10
1563.1201999999998
 20
1043.9747
 11
1603.1201999999998
 21
1083.9747
  0
LINE
  8
_0-4_LAYER006
  6
CONTINUOUS
 62
    1
 10
1548.9780999999998
 20
1043.9747
 11
1588.9780999999998
 21
1083.9747
  0
LINE
  8
_0-4_LAYER006
  6
CONTINUOUS
 62
    1
 10
1534.8359
 20
1043.9747
 11
1574.8359
 21
1083.9747
  0
LINE
  8
_0-4_LAYER006
  6
CONTINUOUS
 62
    1
 10
1520.6938
 20
1043.9747
 11
1560.6938
 21
1083.9747
  0
LINE
  8
_0-4_LAYER006
  6
CONTINUOUS
 62
    1
 10
1506.5517
 20
1043.9747
 11
1546.5517
 21
1083.9747
  0
LINE
  8
_0-4_LAYER006
  6
CONTINUOUS
 62
    1
 10
1492.4095000000002
 20
1043.9747
 11
1532.4095000000002
 21
1083.9747
  0
LINE
  8
_0-4_LAYER006
  6
CONTINUOUS
 62
    1
 10
1478.2674000000002
 20
1043.9747
 11
1518.2674000000002
 21
1083.9747
  0
LINE
  8
_0-4_LAYER006
  6
CONTINUOUS
 62
    1
 10
1464.1253000000002
 20
1043.9747
 11
1504.1253000000002
 21
1083.9747
  0
LINE
  8
_0-4_LAYER006
  6
CONTINUOUS
 62
    1
 10
1449.9830999999999
 20
1043.9747
 11
1489.9830999999999
 21
1083.9747
  0
LINE
  8
_0-4_LAYER006
  6
CONTINUOUS
 62
    1
 10
1435.8409999999999
 20
1043.9747
 11
1475.8409999999999
 21
1083.9747
  0
LINE
  8
_0-4_LAYER006
  6
CONTINUOUS
 62
    1
 10
1421.6987999999997
 20
1043.9747
 11
1461.6988000000001
 21
1083.9747
  0
LINE
  8
_0-4_LAYER006
  6
CONTINUOUS
 62
    1
 10
1407.5567000000001
 20
1043.9747
 11
1447.5567000000001
 21
1083.9747
  0
LINE
  8
_0-4_LAYER006
  6
CONTINUOUS
 62
    1
 10
1393.4146000000001
 20
1043.9747
 11
1433.4146000000001
 21
1083.9747
  0
LINE
  8
_0-4_LAYER006
  6
CONTINUOUS
 62
    1
 10
1379.2724000000001
 20
1043.9747
 11
1419.2724000000001
 21
1083.9747
  0
LINE
  8
_0-4_LAYER006
  6
CONTINUOUS
 62
    1
 10
1365.1303000000003
 20
1043.9747
 11
1405.1303000000003
 21
1083.9747
  0
LINE
  8
_0-4_LAYER006
  6
CONTINUOUS
 62
    1
 10
1350.9881999999998
 20
1043.9747
 11
1390.9881999999998
 21
1083.9747
  0
LINE
  8
_0-4_LAYER006
  6
CONTINUOUS
 62
    1
 10
1336.846
 20
1043.9747
 11
1376.846
 21
1083.9747
  0
LINE
  8
_0-4_LAYER006
  6
CONTINUOUS
 62
    1
 10
1322.7039
 20
1043.9747
 11
1362.7039
 21
1083.9747
  0
LINE
  8
_0-4_LAYER006
  6
CONTINUOUS
 62
    1
 10
1308.5617999999999
 20
1043.9747
 11
1348.5617999999999
 21
1083.9747
  0
LINE
  8
_0-4_LAYER006
  6
CONTINUOUS
 62
    1
 10
1294.4195999999999
 20
1043.9747
 11
1334.4195999999999
 21
1083.9747
  0
LINE
  8
_0-4_LAYER006
  6
CONTINUOUS
 62
    1
 10
1280.2774999999999
 20
1043.9747
 11
1320.2774999999999
 21
1083.9747
  0
LINE
  8
_0-4_LAYER006
  6
CONTINUOUS
 62
    1
 10
1266.1353999999999
 20
1043.9747
 11
1306.1354000000001
 21
1083.9747
  0
LINE
  8
_0-4_LAYER006
  6
CONTINUOUS
 62
    1
 10
1251.9931999999999
 20
1043.9747
 11
1291.9931999999999
 21
1083.9747
  0
LINE
  8
_0-4_LAYER006
  6
CONTINUOUS
 62
    1
 10
1237.8511000000001
 20
1043.9747
 11
1277.8511000000001
 21
1083.9747
  0
LINE
  8
_0-4_LAYER006
  6
CONTINUOUS
 62
    1
 10
1223.7089000000001
 20
1043.9747
 11
1263.7089000000001
 21
1083.9747
  0
LINE
  8
_0-4_LAYER006
  6
CONTINUOUS
 62
    1
 10
1209.5668000000001
 20
1043.9747
 11
1219.5668000000001
 21
1053.9747
  0
LINE
  8
_0-4_LAYER006
  6
CONTINUOUS
 62
    1
 10
1228.9068
 20
1063.3148000000001
 11
1249.5668000000001
 21
1083.9747
  0
LINE
  8
_0-4_LAYER006
  6
CONTINUOUS
 62
    1
 10
1195.4247
 20
1043.9747
 11
1205.4247
 21
1053.9747
  0
LINE
  8
_0-4_LAYER006
  6
CONTINUOUS
 62
    1
 10
1228.9068
 20
1077.4568999999999
 11
1235.4247
 21
1083.9747
  0
LINE
  8
_0-4_LAYER006
  6
CONTINUOUS
 62
    1
 10
1181.2825
 20
1043.9747
 11
1191.2825
 21
1053.9747
  0
LINE
  8
_0-4_LAYER006
  6
CONTINUOUS
 62
    1
 10
1167.1404
 20
1043.9747
 11
1177.1404
 21
1053.9747
  0
LINE
  8
_0-4_LAYER006
  6
CONTINUOUS
 62
    1
 10
1153.9068
 20
1044.8833
 11
1162.9983
 21
1053.9747
  0
LINE
  8
_0-4_LAYER006
  6
CONTINUOUS
 62
    1
 10
1153.9068
 20
1047.5216
 11
1157.4537
 21
1043.9747
  0
LINE
  8
_0-4_LAYER006
  6
CONTINUOUS
 62
    1
 10
1161.5958000000001
 20
1053.9747
 11
1171.5958000000001
 21
1043.9747
  0
LINE
  8
_0-4_LAYER006
  6
CONTINUOUS
 62
    1
 10
1175.7380000000001
 20
1053.9747
 11
1185.7380000000001
 21
1043.9747
  0
LINE
  8
_0-4_LAYER006
  6
CONTINUOUS
 62
    1
 10
1189.8801000000001
 20
1053.9747
 11
1199.8801000000001
 21
1043.9747
  0
LINE
  8
_0-4_LAYER006
  6
CONTINUOUS
 62
    1
 10
1204.0222000000001
 20
1053.9747
 11
1214.0222000000001
 21
1043.9747
  0
LINE
  8
_0-4_LAYER006
  6
CONTINUOUS
 62
    1
 10
1218.1643999999999
 20
1053.9747
 11
1228.1643999999999
 21
1043.9747
  0
LINE
  8
_0-4_LAYER006
  6
CONTINUOUS
 62
    1
 10
1228.9068
 20
1057.3743999999999
 11
1242.3064999999999
 21
1043.9747
  0
LINE
  8
_0-4_LAYER006
  6
CONTINUOUS
 62
    1
 10
1228.9068
 20
1071.5165
 11
1256.4485999999999
 21
1043.9747
  0
LINE
  8
_0-4_LAYER006
  6
CONTINUOUS
 62
    1
 10
1230.5907999999999
 20
1083.9747
 11
1270.5907999999999
 21
1043.9747
  0
LINE
  8
_0-4_LAYER006
  6
CONTINUOUS
 62
    1
 10
1244.7329
 20
1083.9747
 11
1284.7329
 21
1043.9747
  0
LINE
  8
_0-4_LAYER006
  6
CONTINUOUS
 62
    1
 10
1258.875
 20
1083.9747
 11
1298.875
 21
1043.9747
  0
LINE
  8
_0-4_LAYER006
  6
CONTINUOUS
 62
    1
 10
1273.0172
 20
1083.9747
 11
1313.0171999999998
 21
1043.9747
  0
LINE
  8
_0-4_LAYER006
  6
CONTINUOUS
 62
    1
 10
1287.1593000000003
 20
1083.9747
 11
1327.1593000000003
 21
1043.9747
  0
LINE
  8
_0-4_LAYER006
  6
CONTINUOUS
 62
    1
 10
1301.3015
 20
1083.9747
 11
1341.3015
 21
1043.9747
  0
LINE
  8
_0-4_LAYER006
  6
CONTINUOUS
 62
    1
 10
1315.4436000000001
 20
1083.9747
 11
1355.4436000000001
 21
1043.9747
  0
LINE
  8
_0-4_LAYER006
  6
CONTINUOUS
 62
    1
 10
1329.5857000000001
 20
1083.9747
 11
1369.5857000000001
 21
1043.9747
  0
LINE
  8
_0-4_LAYER006
  6
CONTINUOUS
 62
    1
 10
1343.7279000000001
 20
1083.9747
 11
1383.7279000000001
 21
1043.9747
  0
LINE
  8
_0-4_LAYER006
  6
CONTINUOUS
 62
    1
 10
1357.8699999999999
 20
1083.9747
 11
1397.8699999999999
 21
1043.9747
  0
LINE
  8
_0-4_LAYER006
  6
CONTINUOUS
 62
    1
 10
1372.0120999999999
 20
1083.9747
 11
1412.0120999999999
 21
1043.9747
  0
LINE
  8
_0-4_LAYER006
  6
CONTINUOUS
 62
    1
 10
1386.1543000000001
 20
1083.9747
 11
1426.1543000000001
 21
1043.9747
  0
LINE
  8
_0-4_LAYER006
  6
CONTINUOUS
 62
    1
 10
1400.2963999999999
 20
1083.9747
 11
1440.2964000000002
 21
1043.9747
  0
LINE
  8
_0-4_LAYER006
  6
CONTINUOUS
 62
    1
 10
1414.4385
 20
1083.9747
 11
1454.4385000000002
 21
1043.9747
  0
LINE
  8
_0-4_LAYER006
  6
CONTINUOUS
 62
    1
 10
1428.5807
 20
1083.9747
 11
1468.5807
 21
1043.9747
  0
LINE
  8
_0-4_LAYER006
  6
CONTINUOUS
 62
    1
 10
1442.7228
 20
1083.9747
 11
1482.7228
 21
1043.9747
  0
LINE
  8
_0-4_LAYER006
  6
CONTINUOUS
 62
    1
 10
1456.8649
 20
1083.9747
 11
1496.8649
 21
1043.9747
  0
LINE
  8
_0-4_LAYER006
  6
CONTINUOUS
 62
    1
 10
1471.0070999999998
 20
1083.9747
 11
1511.0070999999998
 21
1043.9747
  0
LINE
  8
_0-4_LAYER006
  6
CONTINUOUS
 62
    1
 10
1485.1491999999998
 20
1083.9747
 11
1525.1491999999998
 21
1043.9747
  0
LINE
  8
_0-4_LAYER006
  6
CONTINUOUS
 62
    1
 10
1499.2914000000001
 20
1083.9747
 11
1539.2914000000001
 21
1043.9747
  0
LINE
  8
_0-4_LAYER006
  6
CONTINUOUS
 62
    1
 10
1513.4335000000001
 20
1083.9747
 11
1553.4335000000001
 21
1043.9747
  0
LINE
  8
_0-4_LAYER006
  6
CONTINUOUS
 62
    1
 10
1527.5756000000001
 20
1083.9747
 11
1567.5756000000001
 21
1043.9747
  0
LINE
  8
_0-4_LAYER006
  6
CONTINUOUS
 62
    1
 10
1541.7177999999999
 20
1083.9747
 11
1581.7177999999999
 21
1043.9747
  0
LINE
  8
_0-4_LAYER006
  6
CONTINUOUS
 62
    1
 10
1555.8598999999999
 20
1083.9747
 11
1595.8598999999999
 21
1043.9747
  0
LINE
  8
_0-4_LAYER006
  6
CONTINUOUS
 62
    1
 10
1570.002
 20
1083.9747
 11
1610.002
 21
1043.9747
  0
LINE
  8
_0-4_LAYER006
  6
CONTINUOUS
 62
    1
 10
1584.1442000000002
 20
1083.9747
 11
1624.1442000000002
 21
1043.9747
  0
LINE
  8
_0-4_LAYER006
  6
CONTINUOUS
 62
    1
 10
1598.2863000000002
 20
1083.9747
 11
1638.2863000000002
 21
1043.9747
  0
LINE
  8
_0-4_LAYER006
  6
CONTINUOUS
 62
    1
 10
1612.4283999999998
 20
1083.9747
 11
1652.4283999999998
 21
1043.9747
  0
LINE
  8
_0-4_LAYER006
  6
CONTINUOUS
 62
    1
 10
1626.5706
 20
1083.9747
 11
1666.5706
 21
1043.9747
  0
LINE
  8
_0-4_LAYER006
  6
CONTINUOUS
 62
    1
 10
1640.7127
 20
1083.9747
 11
1680.7127
 21
1043.9747
  0
LINE
  8
_0-4_LAYER006
  6
CONTINUOUS
 62
    1
 10
1654.8548000000001
 20
1083.9747
 11
1694.8548000000001
 21
1043.9747
  0
LINE
  8
_0-4_LAYER006
  6
CONTINUOUS
 62
    1
 10
1668.9969999999998
 20
1083.9747
 11
1708.9969999999998
 21
1043.9747
  0
LINE
  8
_0-4_LAYER006
  6
CONTINUOUS
 62
    1
 10
1683.1390999999999
 20
1083.9747
 11
1723.1390999999999
 21
1043.9747
  0
LINE
  8
_0-4_LAYER006
  6
CONTINUOUS
 62
    1
 10
1697.2813000000001
 20
1083.9747
 11
1737.2813000000001
 21
1043.9747
  0
LINE
  8
_0-4_LAYER006
  6
CONTINUOUS
 62
    1
 10
1711.4234000000001
 20
1083.9747
 11
1751.4234000000001
 21
1043.9747
  0
LINE
  8
_0-4_LAYER006
  6
CONTINUOUS
 62
    1
 10
1725.5655000000002
 20
1083.9747
 11
1765.5655000000002
 21
1043.9747
  0
LINE
  8
_0-4_LAYER006
  6
CONTINUOUS
 62
    1
 10
1739.7076999999999
 20
1083.9747
 11
1779.7076999999999
 21
1043.9747
  0
LINE
  8
_0-4_LAYER006
  6
CONTINUOUS
 62
    1
 10
1753.8498
 20
1083.9747
 11
1793.8498
 21
1043.9747
  0
LINE
  8
_0-4_LAYER006
  6
CONTINUOUS
 62
    1
 10
1767.9919
 20
1083.9747
 11
1807.9919
 21
1043.9747
  0
LINE
  8
_0-4_LAYER006
  6
CONTINUOUS
 62
    1
 10
1782.1341000000002
 20
1083.9747
 11
1822.1341000000002
 21
1043.9747
  0
LINE
  8
_0-4_LAYER006
  6
CONTINUOUS
 62
    1
 10
1796.2761999999998
 20
1083.9747
 11
1836.2761999999998
 21
1043.9747
  0
LINE
  8
_0-4_LAYER006
  6
CONTINUOUS
 62
    1
 10
1810.4182999999998
 20
1083.9747
 11
1850.4182999999998
 21
1043.9747
  0
LINE
  8
_0-4_LAYER006
  6
CONTINUOUS
 62
    1
 10
1824.5605
 20
1083.9747
 11
1864.5605
 21
1043.9747
  0
LINE
  8
_0-4_LAYER006
  6
CONTINUOUS
 62
    1
 10
1838.7026000000001
 20
1083.9747
 11
1878.7026000000001
 21
1043.9747
  0
LINE
  8
_0-4_LAYER006
  6
CONTINUOUS
 62
    1
 10
1852.8447000000001
 20
1083.9747
 11
1892.8447000000001
 21
1043.9747
  0
LINE
  8
_0-4_LAYER006
  6
CONTINUOUS
 62
    1
 10
1866.9868999999999
 20
1083.9747
 11
1906.9868999999999
 21
1043.9747
  0
LINE
  8
_0-4_LAYER006
  6
CONTINUOUS
 62
    1
 10
1881.1289999999999
 20
1083.9747
 11
1921.1289999999999
 21
1043.9747
  0
LINE
  8
_0-4_LAYER006
  6
CONTINUOUS
 62
    1
 10
1895.2712000000001
 20
1083.9747
 11
1935.2712000000001
 21
1043.9747
  0
LINE
  8
_0-4_LAYER006
  6
CONTINUOUS
 62
    1
 10
1909.4133000000002
 20
1083.9747
 11
1949.4133000000002
 21
1043.9747
  0
LINE
  8
_0-4_LAYER006
  6
CONTINUOUS
 62
    1
 10
1923.5554000000002
 20
1083.9747
 11
1963.5554000000002
 21
1043.9747
  0
LINE
  8
_0-4_LAYER006
  6
CONTINUOUS
 62
    1
 10
1937.6976
 20
1083.9747
 11
1977.6976
 21
1043.9747
  0
LINE
  8
_0-4_LAYER006
  6
CONTINUOUS
 62
    1
 10
1951.8397
 20
1083.9747
 11
1991.8397
 21
1043.9747
  0
LINE
  8
_0-4_LAYER006
  6
CONTINUOUS
 62
    1
 10
1965.9818
 20
1083.9747
 11
2005.9818
 21
1043.9747
  0
LINE
  8
_0-4_LAYER006
  6
CONTINUOUS
 62
    1
 10
1980.1239999999998
 20
1083.9747
 11
2020.1239999999998
 21
1043.9747
  0
LINE
  8
_0-4_LAYER006
  6
CONTINUOUS
 62
    1
 10
1994.2660999999998
 20
1083.9747
 11
2034.2660999999998
 21
1043.9747
  0
LINE
  8
_0-4_LAYER006
  6
CONTINUOUS
 62
    1
 10
2008.4081999999999
 20
1083.9747
 11
2048.4081999999999
 21
1043.9747
  0
LINE
  8
_0-4_LAYER006
  6
CONTINUOUS
 62
    1
 10
2022.5504000000001
 20
1083.9747
 11
2062.5504000000001
 21
1043.9747
  0
LINE
  8
_0-4_LAYER006
  6
CONTINUOUS
 62
    1
 10
2036.6925000000001
 20
1083.9747
 11
2076.6925000000001
 21
1043.9747
  0
LINE
  8
_0-4_LAYER006
  6
CONTINUOUS
 62
    1
 10
2050.8346000000001
 20
1083.9747
 11
2090.8346000000001
 21
1043.9747
  0
LINE
  8
_0-4_LAYER006
  6
CONTINUOUS
 62
    1
 10
2064.9767999999999
 20
1083.9747
 11
2104.9767999999999
 21
1043.9747
  0
LINE
  8
_0-4_LAYER006
  6
CONTINUOUS
 62
    1
 10
2079.1188999999999
 20
1083.9747
 11
2119.1188999999999
 21
1043.9747
  0
LINE
  8
_0-4_LAYER006
  6
CONTINUOUS
 62
    1
 10
2093.261
 20
1083.9747
 11
2133.261
 21
1043.9747
  0
LINE
  8
_0-4_LAYER006
  6
CONTINUOUS
 62
    1
 10
2107.4032000000002
 20
1083.9747
 11
2147.4032000000002
 21
1043.9747
  0
LINE
  8
_0-4_LAYER006
  6
CONTINUOUS
 62
    1
 10
2121.5453000000002
 20
1083.9747
 11
2161.5453000000002
 21
1043.9747
  0
LINE
  8
_0-4_LAYER006
  6
CONTINUOUS
 62
    1
 10
2135.6875
 20
1083.9747
 11
2175.6875
 21
1043.9747
  0
LINE
  8
_0-4_LAYER006
  6
CONTINUOUS
 62
    1
 10
2149.8296
 20
1083.9747
 11
2188.5482999999999
 21
1045.2560000000001
  0
LINE
  8
_0-4_LAYER006
  6
CONTINUOUS
 62
    1
 10
2163.9717000000001
 20
1083.9747
 11
2188.5482999999999
 21
1059.3982000000001
  0
LINE
  8
_0-4_LAYER006
  6
CONTINUOUS
 62
    1
 10
2178.1138999999998
 20
1083.9747
 11
2188.5482999999999
 21
1073.5402999999999
  0
LINE
  8
_0-0_LAYER001
  6
CONTINUOUS
 62
    2
 10
992.1703
 20
1053.9747
 11
1009.6703
 21
1053.9747
  0
CIRCLE
  8
_0-0_LAYER001
  6
CONTINUOUS
 62
    2
 10
994.6703
 20
1053.9747
 40
1.6999999999999997
  0
LINE
  8
_0-0_LAYER001
  6
CONTINUOUS
 62
    2
 10
994.6703
 20
1053.9747
 11
994.6703
 21
903.97469999999998
  0
CIRCLE
  8
_0-0_LAYER001
  6
CONTINUOUS
 62
    2
 10
994.6703
 20
903.97469999999998
 40
1.6999999999999997
  0
LINE
  8
_0-0_LAYER001
  6
CONTINUOUS
 62
    2
 10
992.1703
 20
903.97469999999998
 11
1044.6703
 21
903.97469999999998
  0
LINE
  8
_0-0_LAYER001
  6
CONTINUOUS
 62
    2
 10
992.1703
 20
1053.9747
 11
1044.6703
 21
1053.9747
  0
CIRCLE
  8
_0-0_LAYER001
  6
CONTINUOUS
 62
    2
 10
994.6703
 20
1053.9747
 40
1.6999999999999997
  0
LINE
  8
_0-0_LAYER001
  6
CONTINUOUS
 62
    2
 10
994.6703
 20
1053.9747
 11
994.6703
 21
1083.9747
  0
CIRCLE
  8
_0-0_LAYER001
  6
CONTINUOUS
 62
    2
 10
994.6703
 20
1083.9747
 40
1.6999999999999997
  0
LINE
  8
_0-0_LAYER001
  6
CONTINUOUS
 62
    2
 10
992.1703
 20
1083.9747
 11
1044.6703
 21
1083.9747
  0
LINE
  8
_0-3_LAYER005
  6
CONTINUOUS
 62
    2
 10
1158.934
 20
1059.8269
 11
1164.2373
 21
1065.1302000000001
  0
LINE
  8
_0-3_LAYER005
  6
CONTINUOUS
 62
    2
 10
1164.2373
 20
1065.1302000000001
 11
1162.2962
 21
1057.8858
  0
LINE
  8
_0-3_LAYER005
  6
CONTINUOUS
 62
    2
 10
1164.2373
 20
1065.1302000000001
 11
1027.4516000000001
 21
828.21049999999991
  0
LINE
  8
_0-3_LAYER005
  6
CONTINUOUS
 62
    2
 10
1027.4516000000001
 20
828.21049999999991
 11
781.4516000000001
 21
828.21049999999991
  0
LINE
  8
_0-0_LAYER001
  6
CONTINUOUS
 62
    2
 10
1103.6406999999999
 20
1330.3233
 11
1103.6406999999999
 21
1277.8233
  0
CIRCLE
  8
_0-0_LAYER001
  6
CONTINUOUS
 62
    2
 10
1103.6406999999999
 20
1327.8233
 40
1.6999999999999997
  0
LINE
  8
_0-0_LAYER001
  6
CONTINUOUS
 62
    2
 10
1103.6406999999999
 20
1327.8233
 11
1328.6406999999999
 21
1327.8233
  0
CIRCLE
  8
_0-0_LAYER001
  6
CONTINUOUS
 62
    2
 10
1328.6406999999999
 20
1327.8233
 40
1.6999999999999997
  0
LINE
  8
_0-0_LAYER001
  6
CONTINUOUS
 62
    2
 10
1328.6406999999999
 20
1330.3233
 11
1328.6406999999999
 21
1277.8233
  0
CIRCLE
  8
_0-0_LAYER001
  6
CONTINUOUS
 62
    2
 10
1328.6406999999999
 20
1327.8233
 40
1.6999999999999997
  0
LINE
  8
_0-0_LAYER001
  6
CONTINUOUS
 62
    2
 10
1328.6406999999999
 20
1327.8233
 11
1593.6406999999999
 21
1327.8233
  0
CIRCLE
  8
_0-0_LAYER001
  6
CONTINUOUS
 62
    2
 10
1593.6406999999999
 20
1327.8233
 40
1.6999999999999997
  0
LINE
  8
_0-0_LAYER001
  6
CONTINUOUS
 62
    2
 10
1593.6406999999999
 20
1330.3233
 11
1593.6406999999999
 21
1277.8233
  0
CIRCLE
  8
_0-0_LAYER001
  6
CONTINUOUS
 62
    2
 10
1593.6406999999999
 20
1327.8233
 40
1.6999999999999997
  0
LINE
  8
_0-0_LAYER001
  6
CONTINUOUS
 62
    2
 10
1593.6406999999999
 20
1327.8233
 11
1858.6406999999999
 21
1327.8233
  0
CIRCLE
  8
_0-0_LAYER001
  6
CONTINUOUS
 62
    2
 10
1858.6406999999999
 20
1327.8233
 40
1.6999999999999997
  0
LINE
  8
_0-0_LAYER001
  6
CONTINUOUS
 62
    2
 10
1858.6406999999999
 20
1330.3233
 11
1858.6406999999999
 21
1277.8233
  0
CIRCLE
  8
_0-0_LAYER001
  6
CONTINUOUS
 62
    2
 10
1858.6406999999999
 20
1327.8233
 40
1.6999999999999997
  0
LINE
  8
_0-0_LAYER001
  6
CONTINUOUS
 62
    2
 10
1858.6406999999999
 20
1327.8233
 11
2123.6406999999999
 21
1327.8233
  0
CIRCLE
  8
_0-0_LAYER001
  6
CONTINUOUS
 62
    2
 10
2123.6406999999999
 20
1327.8233
 40
1.6999999999999997
  0
LINE
  8
_0-0_LAYER001
  6
CONTINUOUS
 62
    2
 10
2123.6406999999999
 20
1330.3233
 11
2123.6406999999999
 21
1277.8233
  0
LINE
  8
_0-2_LAYER004
  6
CONTINUOUS
 62
    3
 10
1243.6773000000001
 20
1057.3324
 11
2188.5482999999999
 21
1057.3324
  0
CIRCLE
  8
_0-2_LAYER004
  6
CONTINUOUS
 62
    3
 10
1249.1505999999999
 20
1058.5574999999999
 40
1.3049219999999999
  0
CIRCLE
  8
_0-2_LAYER004
  6
CONTINUOUS
 62
    3
 10
1399.1505999999999
 20
1058.5574999999999
 40
1.3049219999999999
  0
CIRCLE
  8
_0-2_LAYER004
  6
CONTINUOUS
 62
    3
 10
1549.1505999999999
 20
1058.5574999999999
 40
1.3049219999999999
  0
CIRCLE
  8
_0-2_LAYER004
  6
CONTINUOUS
 62
    3
 10
1699.1505999999999
 20
1058.5574999999999
 40
1.3049219999999999
  0
CIRCLE
  8
_0-2_LAYER004
  6
CONTINUOUS
 62
    3
 10
1999.1505999999999
 20
1058.5574999999999
 40
1.3049219999999999
  0
CIRCLE
  8
_0-2_LAYER004
  6
CONTINUOUS
 62
    3
 10
2149.1505999999999
 20
1058.5574999999999
 40
1.3049219999999999
  0
CIRCLE
  8
_0-2_LAYER004
  6
CONTINUOUS
 62
    3
 10
1849.1505999999999
 20
1058.5574999999999
 40
1.3049219999999999
  0
LINE
  8
_0-2_LAYER004
  6
DASHED1
 62
    2
 10
1333.9255000000001
 20
1062.0114000000001
 11
1323.9255000000001
 21
1062.0114000000001
  0
LINE
  8
_0-2_LAYER004
  6
DASHED1
 62
    2
 10
1355.2955999999999
 20
1007.9928
 11
1355.2955999999999
 21
997.99279999999999
  0
LINE
  8
_0-2_LAYER004
  6
DASHED1
 62
    2
 10
1333.9255000000001
 20
1062.0114000000001
 11
1333.9255000000001
 21
1007.9928
  0
LINE
  8
_0-2_LAYER004
  6
DASHED1
 62
    2
 10
1323.9255000000001
 20
1062.0114000000001
 11
1323.9255000000001
 21
997.99279999999999
  0
LINE
  8
_0-2_LAYER004
  6
DASHED1
 62
    2
 10
1333.9255000000001
 20
1007.9928
 11
1355.2955999999999
 21
1007.9928
  0
LINE
  8
_0-2_LAYER004
  6
DASHED1
 62
    2
 10
1323.9255000000001
 20
997.99279999999999
 11
1355.2955999999999
 21
997.99279999999999
  0
LINE
  8
_0-2_LAYER004
  6
DASHED1
 62
    2
 10
1933.9254999999998
 20
1062.0114000000001
 11
1923.9254999999998
 21
1062.0114000000001
  0
LINE
  8
_0-2_LAYER004
  6
DASHED1
 62
    2
 10
1955.2955999999999
 20
1007.9928
 11
1955.2955999999999
 21
997.99279999999999
  0
LINE
  8
_0-2_LAYER004
  6
DASHED1
 62
    2
 10
1933.9254999999998
 20
1062.0114000000001
 11
1933.9254999999998
 21
1007.9928
  0
LINE
  8
_0-2_LAYER004
  6
DASHED1
 62
    2
 10
1923.9254999999998
 20
1062.0114000000001
 11
1923.9254999999998
 21
997.99279999999999
  0
LINE
  8
_0-2_LAYER004
  6
DASHED1
 62
    2
 10
1933.9254999999998
 20
1007.9928
 11
1955.2955999999999
 21
1007.9928
  0
LINE
  8
_0-2_LAYER004
  6
DASHED1
 62
    2
 10
1923.9254999999998
 20
997.99279999999999
 11
1955.2955999999999
 21
997.99279999999999
  0
LINE
  8
_0-2_LAYER004
  6
CONTINUOUS
 62
    2
 10
1337.2923000000001
 20
996.00530000000003
 11
1335.3511000000001
 21
1003.2498000000001
  0
LINE
  8
_0-2_LAYER004
  6
CONTINUOUS
 62
    2
 10
1335.3511000000001
 20
1003.2498000000001
 11
1340.6543999999999
 21
997.94650000000001
  0
LINE
  8
_0-2_LAYER004
  6
CONTINUOUS
 62
    2
 10
1335.3511000000001
 20
1003.2498000000001
 11
1359.9793999999999
 21
960.59230000000002
  0
LINE
  8
_0-2_LAYER004
  6
CONTINUOUS
 62
    2
 10
1359.9793999999999
 20
960.59230000000002
 11
1419.9793999999999
 21
960.59230000000002
  0
LINE
  8
_0-2_LAYER004
  6
CONTINUOUS
 62
    2
 10
1470.8146999999999
 20
1049.8067000000001
 11
1468.8735999999999
 21
1057.0512000000001
  0
LINE
  8
_0-2_LAYER004
  6
CONTINUOUS
 62
    2
 10
1468.8735999999999
 20
1057.0512000000001
 11
1474.1768999999999
 21
1051.7479000000001
  0
LINE
  8
_0-2_LAYER004
  6
CONTINUOUS
 62
    2
 10
1468.8735999999999
 20
1057.0512000000001
 11
1506.3362000000002
 21
992.16399999999999
  0
LINE
  8
_0-2_LAYER004
  6
CONTINUOUS
 62
    2
 10
1506.3362000000002
 20
992.16399999999999
 11
1566.3362000000002
 21
992.16399999999999
  0
LINE
  8
_0-0_LAYER001
  6
CONTINUOUS
 62
    2
 10
992.1703
 20
1083.9747
 11
1044.6703
 21
1083.9747
  0
LINE
  8
_0-2_LAYER004
  6
CONTINUOUS
 62
    3
 10
1228.9068
 20
1053.9747
 11
1138.9068
 21
1053.9747
  0
LINE
  8
_0-2_LAYER004
  6
CONTINUOUS
 62
    2
 10
1228.9068
 20
1083.9747
 11
2188.5482999999999
 21
1083.9747
  0
LINE
  8
_0-2_LAYER004
  6
CONTINUOUS
 62
    3
 10
1138.9068
 20
1083.9747
 11
1138.9068
 21
1053.9747
  0
LINE
  8
_0-2_LAYER004
  6
CONTINUOUS
 62
    3
 10
1228.9068
 20
1083.9747
 11
1138.9068
 21
1083.9747
  0
LINE
  8
_0-2_LAYER004
  6
CONTINUOUS
 62
    2
 10
1148.9068
 20
1119.9747
 11
1148.9068
 21
1083.9747
  0
LINE
  8
_0-2_LAYER004
  6
CONTINUOUS
 62
    2
 10
1193.9068
 20
1109.5662
 11
1193.9068
 21
1083.9747
  0
LINE
  8
_0-2_LAYER004
  6
DASHED3
 62
    2
 10
1195.5678
 20
1086.4537
 11
2188.5482999999999
 21
1086.4537
  0
LINE
  8
_0-2_LAYER004
  6
CONTINUOUS
 62
    2
 10
1195.5678
 20
1089.4537
 11
2188.5482999999999
 21
1089.4537
  0
LINE
  8
_0-2_LAYER004
  6
CONTINUOUS
 62
    2
 10
1195.5678
 20
1084.7537
 11
1195.7908
 21
1084.7537
  0
LINE
  8
_0-2_LAYER004
  6
CONTINUOUS
 62
    3
 10
1228.9068
 20
1083.9747
 11
1228.9068
 21
1053.9747
  0
LINE
  8
_0-2_LAYER004
  6
CONTINUOUS
 62
    2
 10
1220.9638
 20
1053.9747
 11
1228.9068
 21
1061.9167
  0
LINE
  8
_0-2_LAYER004
  6
CONTINUOUS
 62
    2
 10
1209.6507999999999
 20
1053.9747
 11
1228.9068
 21
1073.2307000000001
  0
LINE
  8
_0-2_LAYER004
  6
CONTINUOUS
 62
    2
 10
1198.3368
 20
1053.9747
 11
1228.3368
 21
1083.9747
  0
LINE
  8
_0-2_LAYER004
  6
CONTINUOUS
 62
    2
 10
1187.0228
 20
1053.9747
 11
1217.0228
 21
1083.9747
  0
LINE
  8
_0-2_LAYER004
  6
CONTINUOUS
 62
    2
 10
1175.7098000000001
 20
1053.9747
 11
1205.7098000000001
 21
1083.9747
  0
LINE
  8
_0-2_LAYER004
  6
CONTINUOUS
 62
    2
 10
1164.3958
 20
1053.9747
 11
1194.3958
 21
1083.9747
  0
LINE
  8
_0-2_LAYER004
  6
CONTINUOUS
 62
    2
 10
1153.0817999999999
 20
1053.9747
 11
1183.0817999999999
 21
1083.9747
  0
LINE
  8
_0-2_LAYER004
  6
CONTINUOUS
 62
    2
 10
1141.7688000000001
 20
1053.9747
 11
1171.7678000000001
 21
1083.9747
  0
LINE
  8
_0-2_LAYER004
  6
CONTINUOUS
 62
    2
 10
1138.9068
 20
1062.4267
 11
1160.4548
 21
1083.9747
  0
LINE
  8
_0-2_LAYER004
  6
CONTINUOUS
 62
    2
 10
1138.9068
 20
1073.7407000000001
 11
1149.1407999999999
 21
1083.9747
  0
LINE
  8
_0-2_LAYER004
  6
CONTINUOUS
 62
    2
 10
1153.9068
 20
913.97469999999998
 11
1163.9068
 21
913.97469999999998
  0
LINE
  8
_0-2_LAYER004
  6
CONTINUOUS
 62
    2
 10
1163.9068
 20
913.97469999999998
 11
1163.9068
 21
903.97469999999998
  0
LINE
  8
_0-2_LAYER004
  6
CONTINUOUS
 62
    2
 10
1163.9068
 20
903.97469999999998
 11
2188.5482999999999
 21
903.97469999999998
  0
LINE
  8
_0-2_LAYER004
  6
DASHED1
 62
    2
 10
1163.9068
 20
913.97469999999998
 11
2188.5482999999999
 21
913.97469999999998
  0
LINE
  8
_0-2_LAYER004
  6
CONTINUOUS
 62
    2
 10
1349.6738
 20
1043.9747
 11
1209.6738
 21
903.97469999999998
  0
LINE
  8
_0-2_LAYER004
  6
CONTINUOUS
 62
    2
 10
1327.0468000000001
 20
1043.9747
 11
1187.0468000000001
 21
903.97469999999998
  0
LINE
  8
_0-2_LAYER004
  6
CONTINUOUS
 62
    2
 10
1338.3598000000002
 20
1043.9747
 11
1198.3598
 21
903.97469999999998
  0
LINE
  8
_0-2_LAYER004
  6
CONTINUOUS
 62
    2
 10
1899.5767999999998
 20
1043.9747
 11
1759.5767999999998
 21
903.97469999999998
  0
LINE
  8
_0-2_LAYER004
  6
CONTINUOUS
 62
    2
 10
1876.9497999999999
 20
1043.9747
 11
1736.9497999999999
 21
903.97469999999998
  0
LINE
  8
_0-2_LAYER004
  6
CONTINUOUS
 62
    2
 10
1888.2638000000002
 20
1043.9747
 11
1748.2638000000002
 21
903.97469999999998
  0
LINE
  8
_0-2_LAYER004
  6
CONTINUOUS
 62
    2
 10
1153.9068
 20
1053.9747
 11
1153.9068
 21
913.97469999999998
  0
LINE
  8
_0-2_LAYER004
  6
CONTINUOUS
 62
    2
 10
1195.5678
 20
1103.4537
 11
1195.5678
 21
1089.4537
  0
LINE
  8
_0-4_LAYER006
  6
CONTINUOUS
 62
    2
 10
1195.5678
 20
1103.4537
 11
2188.5482999999999
 21
1103.4537
  0
LINE
  8
_0-0_LAYER001
  6
CONTINUOUS
 62
    2
 10
1193.9068
 20
1109.5662
 11
1148.4863
 21
1119.9747
  0
LINE
  8
_0-0_LAYER001
  6
CONTINUOUS
 62
    2
 10
1148.9068
 20
1119.9747
 11
1193.9068
 21
1083.9747
  0
LINE
  8
_0-0_LAYER001
  6
CONTINUOUS
 62
    2
 10
992.1703
 20
1083.9747
 11
1044.6703
 21
1083.9747
  0
CIRCLE
  8
_0-0_LAYER001
  6
CONTINUOUS
 62
    2
 10
994.6703
 20
1083.9747
 40
1.6999999999999997
  0
LINE
  8
_0-0_LAYER001
  6
CONTINUOUS
 62
    2
 10
994.6703
 20
1083.9747
 11
994.6703
 21
1119.9747
  0
CIRCLE
  8
_0-0_LAYER001
  6
CONTINUOUS
 62
    2
 10
994.6703
 20
1119.9747
 40
1.6999999999999997
  0
LINE
  8
_0-0_LAYER001
  6
CONTINUOUS
 62
    2
 10
992.1703
 20
1119.9747
 11
1044.6703
 21
1119.9747
  0
LINE
  8
_0-3_LAYER005
  6
CONTINUOUS
 62
    2
 10
1162.2962
 20
1099.9376
 11
1164.2373
 21
1092.6931999999999
  0
LINE
  8
_0-3_LAYER005
  6
CONTINUOUS
 62
    2
 10
1164.2373
 20
1092.6931999999999
 11
1158.934
 21
1097.9965
  0
LINE
  8
_0-3_LAYER005
  6
CONTINUOUS
 62
    2
 10
1164.2373
 20
1092.6931999999999
 11
1075.6062999999999
 21
1246.2065
  0
LINE
  8
_0-3_LAYER005
  6
CONTINUOUS
 62
    2
 10
1075.6062999999999
 20
1246.2065
 11
823.52040000000011
 21
1246.2065
  0
LINE
  8
_0-0_LAYER001
  6
CONTINUOUS
 62
    2
 10
1306.8091999999999
 20
1125.873
 11
1308.7503999999999
 21
1118.6286
  0
LINE
  8
_0-0_LAYER001
  6
CONTINUOUS
 62
    2
 10
1308.7503999999999
 20
1118.6286
 11
1303.4471000000003
 21
1123.9319
  0
LINE
  8
_0-0_LAYER001
  6
CONTINUOUS
 62
    2
 10
1308.7503999999999
 20
1118.6286
 11
1257.9192
 21
1206.6708000000001
  0
LINE
  8
_0-0_LAYER001
  6
CONTINUOUS
 62
    2
 10
1257.9192
 20
1206.6708000000001
 11
1209.9192
 21
1206.6708000000001
  0
LINE
  8
_0-0_LAYER001
  6
CONTINUOUS
 62
    2
 10
1713.0282000000002
 20
1134.7872
 11
1709.2782000000002
 21
1128.2919999999999
  0
LINE
  8
_0-0_LAYER001
  6
CONTINUOUS
 62
    2
 10
1709.2782000000002
 20
1128.2919999999999
 11
1709.2782000000002
 21
1135.7919999999999
  0
LINE
  8
_0-0_LAYER001
  6
CONTINUOUS
 62
    2
 10
1709.2782000000002
 20
1128.2919999999999
 11
1735.6030999999998
 21
1226.5377000000001
  0
LINE
  8
_0-0_LAYER001
  6
CONTINUOUS
 62
    2
 10
1735.6030999999998
 20
1226.5377000000001
 11
1776.1030999999998
 21
1226.5377000000001
  0
LINE
  8
_0-0_LAYER001
  6
CONTINUOUS
 62
    2
 10
1750.8391999999999
 20
816.84590000000003
 11
1955.6619000000001
 21
816.84590000000003
  0
LINE
  8
_0-0_LAYER001
  6
CONTINUOUS
 62
    2
 10
1766.6417999999999
 20
756.88400000000001
 11
2020.4524000000001
 21
756.88400000000001
  0
LINE
  8
_0-0_LAYER001
  6
CONTINUOUS
 62
    2
 10
1674.6062000000002
 20
1089.7699
 11
1674.6062000000002
 21
1097.2699
  0
LINE
  8
_0-0_LAYER001
  6
CONTINUOUS
 62
    2
 10
1674.6062000000002
 20
1097.2699
 11
1678.3562000000002
 21
1090.7746999999999
  0
LINE
  8
_0-0_LAYER001
  6
CONTINUOUS
 62
    2
 10
1674.6062000000002
 20
1097.2699
 11
1765.8678
 21
756.67660000000001
  0
LINE
  8
_0-0_LAYER001
  6
DASHED1
 62
    2
 10
1160.4157
 20
1147.0726
 11
1176.4157
 21
1147.0726
  0
LINE
  8
_0-0_LAYER001
  6
DASHED1
 62
    2
 10
1176.4157
 20
1147.0726
 11
1176.4157
 21
1144.0726
  0
LINE
  8
_0-0_LAYER001
  6
DASHED1
 62
    2
 10
1160.4157
 20
1147.0726
 11
1160.4157
 21
1144.0726
  0
LINE
  8
_0-0_LAYER001
  6
DASHED1
 62
    2
 10
1160.4157
 20
1144.0726
 11
1176.4157
 21
1144.0726
  0
LINE
  8
_0-0_LAYER001
  6
DASHED1
 62
    2
 10
1171.4157
 20
1089.1765
 11
1168.3656000000001
 21
1074.6676
  0
LINE
  8
_0-0_LAYER001
  6
DASHED1
 62
    2
 10
1171.4157
 20
1144.0726
 11
1171.4157
 21
1089.1765
  0
LINE
  8
_0-0_LAYER001
  6
DASHED1
 62
    2
 10
1168.3656000000001
 20
1074.6676
 11
1165.4157
 21
1088.9250999999999
  0
LINE
  8
_0-0_LAYER001
  6
DASHED1
 62
    2
 10
1165.4157
 20
1144.0726
 11
1165.4157
 21
1088.9250999999999
  0
LINE
  8
_0-0_LAYER001
  6
CONTINUOUS
 62
    4
 10
1998.2691
 20
1096.3903
 11
1989.7336
 21
1110.9237000000001
  0
LINE
  8
_0-0_LAYER001
  6
CONTINUOUS
 62
    4
 10
2006.4369000000002
 20
1095.74
 11
2014.7431000000001
 21
1105.8054999999999
  0
ARC
  8
_0-0_LAYER001
  6
CONTINUOUS
 62
    4
 10
2002.5805
 20
1098.9223999999999
 40
5
 50
210.42578
 51
320.47001
  0
LINE
  8
_0-0_LAYER001
  6
CONTINUOUS
 62
    4
 10
2082.3825000000002
 20
1095.2701999999999
 11
2075.0572000000002
 21
1106.5762
  0
LINE
  8
_0-0_LAYER001
  6
CONTINUOUS
 62
    4
 10
2090.8921
 20
1095.4601
 11
2099.8305
 21
1110.7058
  0
ARC
  8
_0-0_LAYER001
  6
CONTINUOUS
 62
    4
 10
2086.5787999999998
 20
1097.989
 40
5
 50
212.93986000000001
 51
329.61716000000001
  0
LINE
  8
_0-0_LAYER001
  6
CONTINUOUS
 62
    4
 10
2130.1741000000002
 20
1135.0177000000001
 11
2132.6021999999998
 21
1135.4215999999999
  0
LINE
  8
_0-0_LAYER001
  6
CONTINUOUS
 62
    4
 10
2125.9850999999999
 20
1134.3215
 11
2130.1741000000002
 21
1135.0177000000001
  0
LINE
  8
_0-0_LAYER001
  6
CONTINUOUS
 62
    4
 10
2121.7912999999999
 20
1133.6259
 11
2125.9850999999999
 21
1134.3215
  0
LINE
  8
_0-0_LAYER001
  6
CONTINUOUS
 62
    4
 10
2117.5925000000002
 20
1132.932
 11
2121.7912999999999
 21
1133.6259
  0
LINE
  8
_0-0_LAYER001
  6
CONTINUOUS
 62
    4
 10
2113.3885
 20
1132.2405000000001
 11
2117.5925000000002
 21
1132.932
  0
LINE
  8
_0-0_LAYER001
  6
CONTINUOUS
 62
    4
 10
2109.1815999999999
 20
1131.5527999999999
 11
2113.3885
 21
1132.2405000000001
  0
LINE
  8
_0-0_LAYER001
  6
CONTINUOUS
 62
    4
 10
2106.7293
 20
1131.1542999999999
 11
2109.1815999999999
 21
1131.5527999999999
  0
LINE
  8
_0-0_LAYER001
  6
CONTINUOUS
 62
    4
 10
2101.9965999999999
 20
1130.3919000000001
 11
2106.7293
 21
1131.1542999999999
  0
LINE
  8
_0-0_LAYER001
  6
CONTINUOUS
 62
    4
 10
2093.7921000000001
 20
1129.1079999999999
 11
2101.9965999999999
 21
1130.3919000000001
  0
LINE
  8
_0-0_LAYER001
  6
CONTINUOUS
 62
    4
 10
2085.4847
 20
1127.8882000000001
 11
2093.7921000000001
 21
1129.1079999999999
  0
LINE
  8
_0-0_LAYER001
  6
CONTINUOUS
 62
    4
 10
2077.0763999999999
 20
1126.7718
 11
2085.4847
 21
1127.8882000000001
  0
LINE
  8
_0-0_LAYER001
  6
CONTINUOUS
 62
    4
 10
2068.5637999999999
 20
1125.7983999999999
 11
2077.0763999999999
 21
1126.7718
  0
LINE
  8
_0-0_LAYER001
  6
CONTINUOUS
 62
    4
 10
2060.0047
 20
1125.0144
 11
2068.5637999999999
 21
1125.7983999999999
  0
LINE
  8
_0-0_LAYER001
  6
CONTINUOUS
 62
    4
 10
2054.9431
 20
1124.6564000000001
 11
2060.0047
 21
1125.0144
  0
LINE
  8
_0-0_LAYER001
  6
CONTINUOUS
 62
    4
 10
2052.1405
 20
1124.4947999999999
 11
2054.9431
 21
1124.6564000000001
  0
LINE
  8
_0-0_LAYER001
  6
CONTINUOUS
 62
    4
 10
2047.4195
 20
1124.2908
 11
2052.1405
 21
1124.4947999999999
  0
LINE
  8
_0-0_LAYER001
  6
CONTINUOUS
 62
    4
 10
2042.5902999999998
 20
1124.1854000000001
 11
2047.4195
 21
1124.2908
  0
LINE
  8
_0-0_LAYER001
  6
CONTINUOUS
 62
    4
 10
2037.6887000000002
 20
1124.2008000000001
 11
2042.5902999999998
 21
1124.1854000000001
  0
LINE
  8
_0-0_LAYER001
  6
CONTINUOUS
 62
    4
 10
2032.7175999999999
 20
1124.3586
 11
2037.6887000000002
 21
1124.2008000000001
  0
LINE
  8
_0-0_LAYER001
  6
CONTINUOUS
 62
    4
 10
2027.7602000000002
 20
1124.6764000000001
 11
2032.7175999999999
 21
1124.3586
  0
LINE
  8
_0-0_LAYER001
  6
CONTINUOUS
 62
    4
 10
2024.7085999999999
 20
1124.9577999999999
 11
2027.7602000000002
 21
1124.6764000000001
  0
LINE
  8
_0-0_LAYER001
  6
CONTINUOUS
 62
    4
 10
2020.7797
 20
1125.4201
 11
2024.7085999999999
 21
1124.9577999999999
  0
LINE
  8
_0-0_LAYER001
  6
CONTINUOUS
 62
    4
 10
2014.2658000000001
 20
1126.4426000000001
 11
2020.7797
 21
1125.4201
  0
LINE
  8
_0-0_LAYER001
  6
CONTINUOUS
 62
    4
 10
2007.7192
 20
1127.7946999999999
 11
2014.2658000000001
 21
1126.4426000000001
  0
LINE
  8
_0-0_LAYER001
  6
CONTINUOUS
 62
    4
 10
2001.2561999999998
 20
1129.4505999999999
 11
2007.7192
 21
1127.7946999999999
  0
LINE
  8
_0-0_LAYER001
  6
CONTINUOUS
 62
    4
 10
1994.8903
 20
1131.4013
 11
2001.2561999999998
 21
1129.4505999999999
  0
LINE
  8
_0-0_LAYER001
  6
CONTINUOUS
 62
    4
 10
1988.7255
 20
1133.6062999999999
 11
1994.8903
 21
1131.4013
  0
LINE
  8
_0-0_LAYER001
  6
CONTINUOUS
 62
    4
 10
1985.0389
 20
1135.078
 11
1988.7255
 21
1133.6062999999999
  0
LINE
  8
_0-0_LAYER001
  6
CONTINUOUS
 62
    4
 10
1980.6745999999998
 20
1136.9706000000001
 11
1985.0389
 21
1135.078
  0
LINE
  8
_0-0_LAYER001
  6
CONTINUOUS
 62
    4
 10
1973.6055999999999
 20
1140.3855000000001
 11
1980.6745999999998
 21
1136.9706000000001
  0
LINE
  8
_0-0_LAYER001
  6
CONTINUOUS
 62
    4
 10
1966.7127
 20
1144.1152
 11
1973.6055999999999
 21
1140.3855000000001
  0
LINE
  8
_0-0_LAYER001
  6
CONTINUOUS
 62
    4
 10
1960.0756999999999
 20
1148.0488
 11
1966.7127
 21
1144.1152
  0
LINE
  8
_0-0_LAYER001
  6
CONTINUOUS
 62
    4
 10
1953.6662999999999
 20
1152.1313
 11
1960.0756999999999
 21
1148.0488
  0
LINE
  8
_0-0_LAYER001
  6
CONTINUOUS
 62
    4
 10
1947.4821000000002
 20
1156.2934
 11
1953.6662999999999
 21
1152.1313
  0
LINE
  8
_0-0_LAYER001
  6
CONTINUOUS
 62
    4
 10
1943.9398000000001
 20
1158.7571
 11
1947.4821000000002
 21
1156.2934
  0
LINE
  8
_0-0_LAYER001
  6
CONTINUOUS
 62
    4
 10
1941.7078000000001
 20
1160.3306
 11
1943.9398000000001
 21
1158.7571
  0
LINE
  8
_0-0_LAYER001
  6
CONTINUOUS
 62
    4
 10
1938.0841999999998
 20
1162.8697999999999
 11
1941.7078000000001
 21
1160.3306
  0
LINE
  8
_0-0_LAYER001
  6
CONTINUOUS
 62
    4
 10
1934.7145999999998
 20
1165.1352999999999
 11
1938.0841999999998
 21
1162.8697999999999
  0
LINE
  8
_0-0_LAYER001
  6
CONTINUOUS
 62
    4
 10
1931.5996
 20
1167.0623000000001
 11
1934.7145999999998
 21
1165.1352999999999
  0
LINE
  8
_0-0_LAYER001
  6
CONTINUOUS
 62
    4
 10
1928.7323999999999
 20
1168.6180999999999
 11
1931.5996
 21
1167.0623000000001
  0
LINE
  8
_0-0_LAYER001
  6
CONTINUOUS
 62
    4
 10
1925.9011999999998
 20
1169.8865000000001
 11
1928.7323999999999
 21
1168.6180999999999
  0
LINE
  8
_0-0_LAYER001
  6
CONTINUOUS
 62
    4
 10
1924.4380000000001
 20
1170.4186999999999
 11
1925.9011999999998
 21
1169.8865000000001
  0
LINE
  8
_0-0_LAYER001
  6
CONTINUOUS
 62
    4
 10
1924.2568999999999
 20
1170.4766
 11
1924.4380000000001
 21
1170.4186999999999
  0
LINE
  8
_0-0_LAYER001
  6
CONTINUOUS
 62
    4
 10
1923.4686000000002
 20
1170.7046
 11
1924.2568999999999
 21
1170.4766
  0
LINE
  8
_0-0_LAYER001
  6
CONTINUOUS
 62
    4
 10
1922.8114999999998
 20
1170.8672999999999
 11
1923.4686000000002
 21
1170.7046
  0
LINE
  8
_0-0_LAYER001
  6
CONTINUOUS
 62
    4
 10
1922.2296999999999
 20
1170.9853000000001
 11
1922.8114999999998
 21
1170.8672999999999
  0
LINE
  8
_0-0_LAYER001
  6
CONTINUOUS
 62
    4
 10
1922.1896000000002
 20
1170.9915000000001
 11
1922.2296999999999
 21
1170.9853000000001
  0
LINE
  8
_0-0_LAYER001
  6
CONTINUOUS
 62
    4
 10
2126.1635000000001
 20
1115.8303000000001
 11
2127.7775999999999
 21
1116.0987
  0
LINE
  8
_0-0_LAYER001
  6
CONTINUOUS
 62
    4
 10
2121.9749000000002
 20
1115.1341
 11
2126.1635000000001
 21
1115.8303000000001
  0
LINE
  8
_0-0_LAYER001
  6
CONTINUOUS
 62
    4
 10
2117.7820000000002
 20
1114.4386999999999
 11
2121.9749000000002
 21
1115.1341
  0
LINE
  8
_0-0_LAYER001
  6
CONTINUOUS
 62
    4
 10
2113.5846000000001
 20
1113.7448999999999
 11
2117.7820000000002
 21
1114.4386999999999
  0
LINE
  8
_0-0_LAYER001
  6
CONTINUOUS
 62
    4
 10
2109.3823000000002
 20
1113.0536999999999
 11
2113.5846000000001
 21
1113.7448999999999
  0
LINE
  8
_0-0_LAYER001
  6
CONTINUOUS
 62
    4
 10
2105.1772999999998
 20
1112.3664000000001
 11
2109.3823000000002
 21
1113.0536999999999
  0
LINE
  8
_0-0_LAYER001
  6
CONTINUOUS
 62
    4
 10
2102.7273
 20
1111.9682
 11
2105.1772999999998
 21
1112.3664000000001
  0
LINE
  8
_0-0_LAYER001
  6
CONTINUOUS
 62
    4
 10
2098.0003000000002
 20
1111.2067
 11
2102.7273
 21
1111.9682
  0
LINE
  8
_0-0_LAYER001
  6
CONTINUOUS
 62
    4
 10
2089.8096999999998
 20
1109.925
 11
2098.0003000000002
 21
1111.2067
  0
LINE
  8
_0-0_LAYER001
  6
CONTINUOUS
 62
    4
 10
2081.5252
 20
1108.7085999999999
 11
2089.8096999999998
 21
1109.925
  0
LINE
  8
_0-0_LAYER001
  6
CONTINUOUS
 62
    4
 10
2073.1486
 20
1107.5963999999999
 11
2081.5252
 21
1108.7085999999999
  0
LINE
  8
_0-0_LAYER001
  6
CONTINUOUS
 62
    4
 10
2064.6763999999998
 20
1106.6276
 11
2073.1486
 21
1107.5963999999999
  0
LINE
  8
_0-0_LAYER001
  6
CONTINUOUS
 62
    4
 10
2056.1603
 20
1105.8476000000001
 11
2064.6763999999998
 21
1106.6276
  0
LINE
  8
_0-0_LAYER001
  6
CONTINUOUS
 62
    4
 10
2051.1324
 20
1105.4919
 11
2056.1603
 21
1105.8476000000001
  0
LINE
  8
_0-0_LAYER001
  6
CONTINUOUS
 62
    4
 10
2048.3571999999999
 20
1105.3318999999999
 11
2051.1324
 21
1105.4919
  0
LINE
  8
_0-0_LAYER001
  6
CONTINUOUS
 62
    4
 10
2043.6718999999998
 20
1105.1295
 11
2048.3571999999999
 21
1105.3318999999999
  0
LINE
  8
_0-0_LAYER001
  6
CONTINUOUS
 62
    4
 10
2038.8890000000001
 20
1105.0251000000001
 11
2043.6718999999998
 21
1105.1295
  0
LINE
  8
_0-0_LAYER001
  6
CONTINUOUS
 62
    4
 10
2034.0410000000002
 20
1105.0402999999999
 11
2038.8890000000001
 21
1105.0251000000001
  0
LINE
  8
_0-0_LAYER001
  6
CONTINUOUS
 62
    4
 10
2029.1307999999999
 20
1105.1962000000001
 11
2034.0410000000002
 21
1105.0402999999999
  0
LINE
  8
_0-0_LAYER001
  6
CONTINUOUS
 62
    4
 10
2024.2334999999998
 20
1105.5101
 11
2029.1307999999999
 21
1105.1962000000001
  0
LINE
  8
_0-0_LAYER001
  6
CONTINUOUS
 62
    4
 10
2021.2347
 20
1105.7865999999999
 11
2024.2334999999998
 21
1105.5101
  0
LINE
  8
_0-0_LAYER001
  6
CONTINUOUS
 62
    4
 10
2017.3692000000001
 20
1106.2414000000001
 11
2021.2347
 21
1105.7865999999999
  0
LINE
  8
_0-0_LAYER001
  6
CONTINUOUS
 62
    4
 10
2010.9407999999999
 20
1107.2506000000001
 11
2017.3692000000001
 21
1106.2414000000001
  0
LINE
  8
_0-0_LAYER001
  6
CONTINUOUS
 62
    4
 10
2004.4872999999998
 20
1108.5835
 11
2010.9407999999999
 21
1107.2506000000001
  0
LINE
  8
_0-0_LAYER001
  6
CONTINUOUS
 62
    4
 10
1998.1151
 20
1110.2161000000001
 11
2004.4872999999998
 21
1108.5835
  0
LINE
  8
_0-0_LAYER001
  6
CONTINUOUS
 62
    4
 10
1991.8377999999998
 20
1112.1396
 11
1998.1151
 21
1110.2161000000001
  0
LINE
  8
_0-0_LAYER001
  6
CONTINUOUS
 62
    4
 10
1985.7507000000001
 20
1114.3168000000001
 11
1991.8377999999998
 21
1112.1396
  0
LINE
  8
_0-0_LAYER001
  6
CONTINUOUS
 62
    4
 10
1982.1251000000002
 20
1115.7642000000001
 11
1985.7507000000001
 21
1114.3168000000001
  0
LINE
  8
_0-0_LAYER001
  6
CONTINUOUS
 62
    4
 10
1977.8252000000002
 20
1117.6288
 11
1982.1251000000002
 21
1115.7642000000001
  0
LINE
  8
_0-0_LAYER001
  6
CONTINUOUS
 62
    4
 10
1970.8343
 20
1121.0060000000001
 11
1977.8252000000002
 21
1117.6288
  0
LINE
  8
_0-0_LAYER001
  6
CONTINUOUS
 62
    4
 10
1964.0162
 20
1124.6952000000001
 11
1970.8343
 21
1121.0060000000001
  0
LINE
  8
_0-0_LAYER001
  6
CONTINUOUS
 62
    4
 10
1957.4404
 20
1128.5925999999999
 11
1964.0162
 21
1124.6952000000001
  0
LINE
  8
_0-0_LAYER001
  6
CONTINUOUS
 62
    4
 10
1951.0794999999998
 20
1132.6442
 11
1957.4404
 21
1128.5925999999999
  0
LINE
  8
_0-0_LAYER001
  6
CONTINUOUS
 62
    4
 10
1944.9288999999999
 20
1136.7837
 11
1951.0794999999998
 21
1132.6442
  0
LINE
  8
_0-0_LAYER001
  6
CONTINUOUS
 62
    4
 10
1941.4043999999999
 20
1139.2349999999999
 11
1944.9288999999999
 21
1136.7837
  0
LINE
  8
_0-0_LAYER001
  6
CONTINUOUS
 62
    4
 10
1939.1752999999999
 20
1140.8064999999999
 11
1941.4043999999999
 21
1139.2349999999999
  0
LINE
  8
_0-0_LAYER001
  6
CONTINUOUS
 62
    4
 10
1935.5336000000002
 20
1143.3584000000001
 11
1939.1752999999999
 21
1140.8064999999999
  0
LINE
  8
_0-0_LAYER001
  6
CONTINUOUS
 62
    4
 10
1932.1163999999999
 20
1145.6558
 11
1935.5336000000002
 21
1143.3584000000001
  0
LINE
  8
_0-0_LAYER001
  6
CONTINUOUS
 62
    4
 10
1928.9207999999999
 20
1147.6327000000001
 11
1932.1163999999999
 21
1145.6558
  0
LINE
  8
_0-0_LAYER001
  6
CONTINUOUS
 62
    4
 10
1925.9367999999999
 20
1149.2518
 11
1928.9207999999999
 21
1147.6327000000001
  0
LINE
  8
_0-0_LAYER001
  6
CONTINUOUS
 62
    4
 10
1922.9703
 20
1150.5808999999999
 11
1925.9367999999999
 21
1149.2518
  0
LINE
  8
_0-0_LAYER001
  6
CONTINUOUS
 62
    4
 10
1922.2203
 20
1150.8536999999999
 11
1922.9703
 21
1150.5808999999999
  0
LINE
  8
_0-0_LAYER001
  6
CONTINUOUS
 62
    4
 10
1922.5533999999998
 20
1170.8968
 11
1922.3773999999999
 21
1150.7234000000001
  0
LINE
  8
_0-0_LAYER001
  6
CONTINUOUS
 62
    4
 10
2122.8789999999999
 20
1105.4090000000001
 11
2120.6336000000001
 21
1113.9825000000001
  0
ARC
  8
_0-0_LAYER001
  6
CONTINUOUS
 62
    4
 10
2125.7811000000002
 20
1106.1691000000001
 40
3
 50
194.67639000000003
 51
270.00000000000006
  0
LINE
  8
_0-0_LAYER001
  6
CONTINUOUS
 62
    4
 10
2129.2235999999998
 20
1103.1648
 11
2125.8058000000001
 21
1103.1648
  0
LINE
  8
_0-0_LAYER001
  6
CONTINUOUS
 62
    4
 10
2132.1828
 20
1105.6715999999999
 11
2134.1167999999998
 21
1117.2757999999999
  0
ARC
  8
_0-0_LAYER001
  6
CONTINUOUS
 62
    4
 10
2129.2235999999998
 20
1106.1648
 40
3
 50
270
 51
350.53766999999999
  0
LINE
  8
_0-0_LAYER001
  6
CONTINUOUS
 62
    4
 10
1875.4571999999998
 20
1180.287
 11
1876.2712000000001
 21
1180.5936999999999
  0
LINE
  8
_0-0_LAYER001
  6
CONTINUOUS
 62
    4
 10
1876.2712000000001
 20
1180.5936999999999
 11
1879.8204000000001
 21
1181.9331999999999
  0
LINE
  8
_0-0_LAYER001
  6
CONTINUOUS
 62
    4
 10
1879.8204000000001
 20
1181.9331999999999
 11
1883.377
 21
1183.2820999999999
  0
LINE
  8
_0-0_LAYER001
  6
CONTINUOUS
 62
    4
 10
1883.377
 20
1183.2820999999999
 11
1886.9457000000002
 21
1184.6461999999999
  0
LINE
  8
_0-0_LAYER001
  6
CONTINUOUS
 62
    4
 10
1886.9457000000002
 20
1184.6461999999999
 11
1890.5309999999999
 21
1186.0311999999999
  0
LINE
  8
_0-0_LAYER001
  6
CONTINUOUS
 62
    4
 10
1890.5309999999999
 20
1186.0311999999999
 11
1894.1377000000002
 21
1187.4431999999999
  0
LINE
  8
_0-0_LAYER001
  6
CONTINUOUS
 62
    4
 10
1894.1377000000002
 20
1187.4431999999999
 11
1896.2413000000001
 21
1188.2768000000001
  0
LINE
  8
_0-0_LAYER001
  6
CONTINUOUS
 62
    4
 10
1896.2413000000001
 20
1188.2768000000001
 11
1898.3206
 21
1189.1057000000001
  0
LINE
  8
_0-0_LAYER001
  6
CONTINUOUS
 62
    4
 10
1898.3206
 20
1189.1057000000001
 11
1901.9272000000001
 21
1190.5071
  0
LINE
  8
_0-0_LAYER001
  6
CONTINUOUS
 62
    4
 10
1901.9272000000001
 20
1190.5071
 11
1905.5599000000002
 21
1191.7898
  0
LINE
  8
_0-0_LAYER001
  6
CONTINUOUS
 62
    4
 10
1905.5599000000002
 20
1191.7898
 11
1909.2177999999999
 21
1192.8565000000001
  0
LINE
  8
_0-0_LAYER001
  6
CONTINUOUS
 62
    4
 10
1909.2177999999999
 20
1192.8565000000001
 11
1912.8998999999999
 21
1193.6097
  0
LINE
  8
_0-0_LAYER001
  6
CONTINUOUS
 62
    4
 10
1912.8998999999999
 20
1193.6097
 11
1916.6052
 21
1193.9521999999999
  0
LINE
  8
_0-0_LAYER001
  6
CONTINUOUS
 62
    4
 10
1916.6052
 20
1193.9521999999999
 11
1918.7645000000002
 21
1193.9242999999999
  0
LINE
  8
_0-0_LAYER001
  6
CONTINUOUS
 62
    4
 10
1918.7645000000002
 20
1193.9242999999999
 11
1919.6136999999999
 21
1193.8630000000001
  0
LINE
  8
_0-0_LAYER001
  6
CONTINUOUS
 62
    4
 10
1919.6136999999999
 20
1193.8630000000001
 11
1921.078
 21
1193.6923999999999
  0
LINE
  8
_0-0_LAYER001
  6
CONTINUOUS
 62
    4
 10
1921.078
 20
1193.6923999999999
 11
1922.5391
 21
1193.4456
  0
LINE
  8
_0-0_LAYER001
  6
CONTINUOUS
 62
    4
 10
1922.5391
 20
1193.4456
 11
1923.9928
 21
1193.1296
  0
LINE
  8
_0-0_LAYER001
  6
CONTINUOUS
 62
    4
 10
1923.9928
 20
1193.1296
 11
1925.4349000000002
 21
1192.7511
  0
LINE
  8
_0-0_LAYER001
  6
CONTINUOUS
 62
    4
 10
1925.4349000000002
 20
1192.7511
 11
1926.8613
 21
1192.317
  0
LINE
  8
_0-0_LAYER001
  6
CONTINUOUS
 62
    4
 10
1926.8613
 20
1192.317
 11
1927.6797999999999
 21
1192.0424
  0
LINE
  8
_0-0_LAYER001
  6
CONTINUOUS
 62
    4
 10
1927.6797999999999
 20
1192.0424
 11
1930.1781000000001
 21
1191.0941
  0
LINE
  8
_0-0_LAYER001
  6
CONTINUOUS
 62
    4
 10
1930.1781000000001
 20
1191.0941
 11
1934.337
 21
1189.1605999999999
  0
LINE
  8
_0-0_LAYER001
  6
CONTINUOUS
 62
    4
 10
1934.337
 20
1189.1605999999999
 11
1938.3407999999999
 21
1186.9151999999999
  0
LINE
  8
_0-0_LAYER001
  6
CONTINUOUS
 62
    4
 10
1938.3407999999999
 20
1186.9151999999999
 11
1942.2276999999999
 21
1184.4349
  0
LINE
  8
_0-0_LAYER001
  6
CONTINUOUS
 62
    4
 10
1942.2276999999999
 20
1184.4349
 11
1946.0356999999999
 21
1181.7968000000001
  0
LINE
  8
_0-0_LAYER001
  6
CONTINUOUS
 62
    4
 10
1946.0356999999999
 20
1181.7968000000001
 11
1949.8029000000001
 21
1179.0777
  0
LINE
  8
_0-0_LAYER001
  6
CONTINUOUS
 62
    4
 10
1949.8029000000001
 20
1179.0777
 11
1951.9843000000001
 21
1177.4938999999999
  0
LINE
  8
_0-0_LAYER001
  6
CONTINUOUS
 62
    4
 10
1951.9843000000001
 20
1177.4938999999999
 11
1955.3157999999999
 21
1175.1070999999999
  0
LINE
  8
_0-0_LAYER001
  6
CONTINUOUS
 62
    4
 10
1955.3157999999999
 20
1175.1070999999999
 11
1961.1080999999999
 21
1171.0900999999999
  0
LINE
  8
_0-0_LAYER001
  6
CONTINUOUS
 62
    4
 10
1961.1080999999999
 20
1171.0900999999999
 11
1966.9802
 21
1167.2335
  0
LINE
  8
_0-0_LAYER001
  6
CONTINUOUS
 62
    4
 10
1966.9802
 20
1167.2335
 11
1972.9544000000001
 21
1163.5790999999999
  0
LINE
  8
_0-0_LAYER001
  6
CONTINUOUS
 62
    4
 10
1972.9544000000001
 20
1163.5790999999999
 11
1979.0526
 21
1160.1685
  0
LINE
  8
_0-0_LAYER001
  6
CONTINUOUS
 62
    4
 10
1979.0526
 20
1160.1685
 11
1985.2968999999998
 21
1157.0436999999999
  0
LINE
  8
_0-0_LAYER001
  6
CONTINUOUS
 62
    4
 10
1985.2968999999998
 20
1157.0436999999999
 11
1988.9942000000001
 21
1155.3787
  0
LINE
  8
_0-0_LAYER001
  6
CONTINUOUS
 62
    4
 10
1988.9942000000001
 20
1155.3787
 11
1992.0533999999998
 21
1154.1076
  0
LINE
  8
_0-0_LAYER001
  6
CONTINUOUS
 62
    4
 10
1992.0533999999998
 20
1154.1076
 11
1997.4139
 21
1152.1054999999999
  0
LINE
  8
_0-0_LAYER001
  6
CONTINUOUS
 62
    4
 10
1997.4139
 20
1152.1054999999999
 11
2002.8696
 21
1150.3499999999999
  0
LINE
  8
_0-0_LAYER001
  6
CONTINUOUS
 62
    4
 10
2002.8696
 20
1150.3499999999999
 11
2008.4045999999998
 21
1148.8492000000001
  0
LINE
  8
_0-0_LAYER001
  6
CONTINUOUS
 62
    4
 10
2008.4045999999998
 20
1148.8492000000001
 11
2014.0029
 21
1147.6112000000001
  0
LINE
  8
_0-0_LAYER001
  6
CONTINUOUS
 62
    4
 10
2014.0029
 20
1147.6112000000001
 11
2019.6486
 21
1146.644
  0
LINE
  8
_0-0_LAYER001
  6
CONTINUOUS
 62
    4
 10
2019.6486
 20
1146.644
 11
2022.9386
 21
1146.2102
  0
LINE
  8
_0-0_LAYER001
  6
CONTINUOUS
 62
    4
 10
2022.9386
 20
1146.2102
 11
2025.4578999999999
 21
1145.9423999999999
  0
LINE
  8
_0-0_LAYER001
  6
CONTINUOUS
 62
    4
 10
2025.4578999999999
 20
1145.9423999999999
 11
2029.8099999999999
 21
1145.6024
  0
LINE
  8
_0-0_LAYER001
  6
CONTINUOUS
 62
    4
 10
2029.8099999999999
 20
1145.6024
 11
2034.1702
 21
1145.4029
  0
LINE
  8
_0-0_LAYER001
  6
CONTINUOUS
 62
    4
 10
2034.1702
 20
1145.4029
 11
2038.5354000000002
 21
1145.3282999999999
  0
LINE
  8
_0-0_LAYER001
  6
CONTINUOUS
 62
    4
 10
2038.5354000000002
 20
1145.3282999999999
 11
2042.9025000000001
 21
1145.3625999999999
  0
LINE
  8
_0-0_LAYER001
  6
CONTINUOUS
 62
    4
 10
2042.9025000000001
 20
1145.3625999999999
 11
2047.2683999999999
 21
1145.4902
  0
LINE
  8
_0-0_LAYER001
  6
CONTINUOUS
 62
    4
 10
2047.2683999999999
 20
1145.4902
 11
2049.7988999999998
 21
1145.6007
  0
LINE
  8
_0-0_LAYER001
  6
CONTINUOUS
 62
    4
 10
2049.7988999999998
 20
1145.6007
 11
2054.5279999999998
 21
1145.8688999999999
  0
LINE
  8
_0-0_LAYER001
  6
CONTINUOUS
 62
    4
 10
2054.5279999999998
 20
1145.8688999999999
 11
2062.6660999999999
 21
1146.4999
  0
LINE
  8
_0-0_LAYER001
  6
CONTINUOUS
 62
    4
 10
2062.6660999999999
 20
1146.4999
 11
2070.7869000000001
 21
1147.3137999999999
  0
LINE
  8
_0-0_LAYER001
  6
CONTINUOUS
 62
    4
 10
2070.7869000000001
 20
1147.3137999999999
 11
2078.8926999999999
 21
1148.2750000000001
  0
LINE
  8
_0-0_LAYER001
  6
CONTINUOUS
 62
    4
 10
2078.8926999999999
 20
1148.2750000000001
 11
2086.9861999999998
 21
1149.3481999999999
  0
LINE
  8
_0-0_LAYER001
  6
CONTINUOUS
 62
    4
 10
2086.9861999999998
 20
1149.3481999999999
 11
2095.0697
 21
1150.4978000000001
  0
LINE
  8
_0-0_LAYER001
  6
CONTINUOUS
 62
    4
 10
2095.0697
 20
1150.4978000000001
 11
2099.7546000000002
 21
1151.1856
  0
LINE
  8
_0-0_LAYER001
  6
CONTINUOUS
 62
    4
 10
2099.7546000000002
 20
1151.1856
 11
2102.1895
 21
1151.5463999999999
  0
LINE
  8
_0-0_LAYER001
  6
CONTINUOUS
 62
    4
 10
2102.1895
 20
1151.5463999999999
 11
2106.3865000000001
 21
1152.1723999999999
  0
LINE
  8
_0-0_LAYER001
  6
CONTINUOUS
 62
    4
 10
2106.3865000000001
 20
1152.1723999999999
 11
2110.5823
 21
1152.8025
  0
LINE
  8
_0-0_LAYER001
  6
CONTINUOUS
 62
    4
 10
2110.5823
 20
1152.8025
 11
2114.7770999999998
 21
1153.4358
  0
LINE
  8
_0-0_LAYER001
  6
CONTINUOUS
 62
    4
 10
2114.7770999999998
 20
1153.4358
 11
2118.9713000000002
 21
1154.0714
  0
LINE
  8
_0-0_LAYER001
  6
CONTINUOUS
 62
    4
 10
2118.9713000000002
 20
1154.0714
 11
2123.165
 21
1154.7084
  0
LINE
  8
_0-0_LAYER001
  6
CONTINUOUS
 62
    4
 10
2123.165
 20
1154.7084
 11
2125.5972999999999
 21
1155.0780999999999
  0
LINE
  8
_0-0_LAYER001
  6
CONTINUOUS
 62
    4
 10
1880.5605
 20
1162.9745
 11
1882.6224000000002
 21
1163.7514000000001
  0
LINE
  8
_0-0_LAYER001
  6
CONTINUOUS
 62
    4
 10
1882.6224000000002
 20
1163.7514000000001
 11
1886.1898999999999
 21
1165.0979
  0
LINE
  8
_0-0_LAYER001
  6
CONTINUOUS
 62
    4
 10
1886.1898999999999
 20
1165.0979
 11
1889.7818000000002
 21
1166.4601
  0
LINE
  8
_0-0_LAYER001
  6
CONTINUOUS
 62
    4
 10
1889.7818000000002
 20
1166.4601
 11
1893.4022
 21
1167.8440000000001
  0
LINE
  8
_0-0_LAYER001
  6
CONTINUOUS
 62
    4
 10
1893.4022
 20
1167.8440000000001
 11
1897.0551999999998
 21
1169.2551000000001
  0
LINE
  8
_0-0_LAYER001
  6
CONTINUOUS
 62
    4
 10
1897.0551999999998
 20
1169.2551000000001
 11
1900.7343999999998
 21
1170.6955
  0
LINE
  8
_0-0_LAYER001
  6
CONTINUOUS
 62
    4
 10
1900.7343999999998
 20
1170.6955
 11
1902.8896
 21
1171.5496000000001
  0
LINE
  8
_0-0_LAYER001
  6
CONTINUOUS
 62
    4
 10
1902.8896
 20
1171.5496000000001
 11
1904.9132
 21
1172.3561999999999
  0
LINE
  8
_0-0_LAYER001
  6
CONTINUOUS
 62
    4
 10
1904.9132
 20
1172.3561999999999
 11
1908.1849999999999
 21
1173.6276
  0
LINE
  8
_0-0_LAYER001
  6
CONTINUOUS
 62
    4
 10
1908.1849999999999
 20
1173.6276
 11
1911.0801999999999
 21
1174.6498999999999
  0
LINE
  8
_0-0_LAYER001
  6
CONTINUOUS
 62
    4
 10
1911.0801999999999
 20
1174.6498999999999
 11
1913.5482999999999
 21
1175.3696
  0
LINE
  8
_0-0_LAYER001
  6
CONTINUOUS
 62
    4
 10
1913.5482999999999
 20
1175.3696
 11
1915.54
 21
1175.777
  0
LINE
  8
_0-0_LAYER001
  6
CONTINUOUS
 62
    4
 10
1915.54
 20
1175.777
 11
1917.3193000000001
 21
1175.9414999999999
  0
LINE
  8
_0-0_LAYER001
  6
CONTINUOUS
 62
    4
 10
1917.3193000000001
 20
1175.9414999999999
 11
1917.9989
 21
1175.9327000000001
  0
LINE
  8
_0-0_LAYER001
  6
CONTINUOUS
 62
    4
 10
1917.9989
 20
1175.9327000000001
 11
1917.9227999999998
 21
1175.9382000000001
  0
LINE
  8
_0-0_LAYER001
  6
CONTINUOUS
 62
    4
 10
1917.9227999999998
 20
1175.9382000000001
 11
1918.5364
 21
1175.8667
  0
LINE
  8
_0-0_LAYER001
  6
CONTINUOUS
 62
    4
 10
1918.5364
 20
1175.8667
 11
1919.1268
 21
1175.7670000000001
  0
LINE
  8
_0-0_LAYER001
  6
CONTINUOUS
 62
    4
 10
1919.1268
 20
1175.7670000000001
 11
1919.7943
 21
1175.6219000000001
  0
LINE
  8
_0-0_LAYER001
  6
CONTINUOUS
 62
    4
 10
1919.7943
 20
1175.6219000000001
 11
1920.5277999999998
 21
1175.4294
  0
LINE
  8
_0-0_LAYER001
  6
CONTINUOUS
 62
    4
 10
1920.5277999999998
 20
1175.4294
 11
1921.377
 21
1175.171
  0
LINE
  8
_0-0_LAYER001
  6
CONTINUOUS
 62
    4
 10
1921.377
 20
1175.171
 11
1921.6210999999998
 21
1175.0890999999999
  0
LINE
  8
_0-0_LAYER001
  6
CONTINUOUS
 62
    4
 10
1921.6210999999998
 20
1175.0890999999999
 11
1923.181
 21
1174.4970000000001
  0
LINE
  8
_0-0_LAYER001
  6
CONTINUOUS
 62
    4
 10
1923.181
 20
1174.4970000000001
 11
1926.1287000000002
 21
1173.1266000000001
  0
LINE
  8
_0-0_LAYER001
  6
CONTINUOUS
 62
    4
 10
1926.1287000000002
 20
1173.1266000000001
 11
1929.0897
 21
1171.4659999999999
  0
LINE
  8
_0-0_LAYER001
  6
CONTINUOUS
 62
    4
 10
1929.0897
 20
1171.4659999999999
 11
1932.2574
 21
1169.4446
  0
LINE
  8
_0-0_LAYER001
  6
CONTINUOUS
 62
    4
 10
1932.2574
 20
1169.4446
 11
1935.6421
 21
1167.0997
  0
LINE
  8
_0-0_LAYER001
  6
CONTINUOUS
 62
    4
 10
1935.6421
 20
1167.0997
 11
1939.2478999999998
 21
1164.4972
  0
LINE
  8
_0-0_LAYER001
  6
CONTINUOUS
 62
    4
 10
1939.2478999999998
 20
1164.4972
 11
1941.4548
 21
1162.8948
  0
LINE
  8
_0-0_LAYER001
  6
CONTINUOUS
 62
    4
 10
1941.4548
 20
1162.8948
 11
1944.9448000000002
 21
1160.3945000000001
  0
LINE
  8
_0-0_LAYER001
  6
CONTINUOUS
 62
    4
 10
1944.9448000000002
 20
1160.3945000000001
 11
1951.0369999999998
 21
1156.1695
  0
LINE
  8
_0-0_LAYER001
  6
CONTINUOUS
 62
    4
 10
1951.0369999999998
 20
1156.1695
 11
1957.3407000000002
 21
1152.0295000000001
  0
LINE
  8
_0-0_LAYER001
  6
CONTINUOUS
 62
    4
 10
1957.3407000000002
 20
1152.0295000000001
 11
1963.8613999999998
 21
1148.0407
  0
LINE
  8
_0-0_LAYER001
  6
CONTINUOUS
 62
    4
 10
1963.8613999999998
 20
1148.0407
 11
1970.6273999999999
 21
1144.2566999999999
  0
LINE
  8
_0-0_LAYER001
  6
CONTINUOUS
 62
    4
 10
1970.6273999999999
 20
1144.2566999999999
 11
1977.5704000000001
 21
1140.7822000000001
  0
LINE
  8
_0-0_LAYER001
  6
CONTINUOUS
 62
    4
 10
1977.5704000000001
 20
1140.7822000000001
 11
1981.8438000000001
 21
1138.8577
  0
LINE
  8
_0-0_LAYER001
  6
CONTINUOUS
 62
    4
 10
1981.8438000000001
 20
1138.8577
 11
1985.4488999999999
 21
1137.3598
  0
LINE
  8
_0-0_LAYER001
  6
CONTINUOUS
 62
    4
 10
1985.4488999999999
 20
1137.3598
 11
1991.5050000000001
 21
1135.0979
  0
LINE
  8
_0-0_LAYER001
  6
CONTINUOUS
 62
    4
 10
1991.5050000000001
 20
1135.0979
 11
1997.7548999999999
 21
1133.0869
  0
LINE
  8
_0-0_LAYER001
  6
CONTINUOUS
 62
    4
 10
1997.7548999999999
 20
1133.0869
 11
2004.1035999999999
 21
1131.3653999999999
  0
LINE
  8
_0-0_LAYER001
  6
CONTINUOUS
 62
    4
 10
2004.1035999999999
 20
1131.3653999999999
 11
2010.5378999999998
 21
1129.9426000000001
  0
LINE
  8
_0-0_LAYER001
  6
CONTINUOUS
 62
    4
 10
2010.5378999999998
 20
1129.9426000000001
 11
2016.9515999999999
 21
1128.8438000000001
  0
LINE
  8
_0-0_LAYER001
  6
CONTINUOUS
 62
    4
 10
2016.9515999999999
 20
1128.8438000000001
 11
2020.8103999999998
 21
1128.3351
  0
LINE
  8
_0-0_LAYER001
  6
CONTINUOUS
 62
    4
 10
2020.8103999999998
 20
1128.3351
 11
2023.8049999999998
 21
1128.0166999999999
  0
LINE
  8
_0-0_LAYER001
  6
CONTINUOUS
 62
    4
 10
2023.8049999999998
 20
1128.0166999999999
 11
2028.6974
 21
1127.6343999999999
  0
LINE
  8
_0-0_LAYER001
  6
CONTINUOUS
 62
    4
 10
2028.6974
 20
1127.6343999999999
 11
2033.605
 21
1127.4100000000001
  0
LINE
  8
_0-0_LAYER001
  6
CONTINUOUS
 62
    4
 10
2033.605
 20
1127.4100000000001
 11
2038.4522999999999
 21
1127.3271
  0
LINE
  8
_0-0_LAYER001
  6
CONTINUOUS
 62
    4
 10
2038.4522999999999
 20
1127.3271
 11
2043.2361999999998
 21
1127.3647000000001
  0
LINE
  8
_0-0_LAYER001
  6
CONTINUOUS
 62
    4
 10
2043.2361999999998
 20
1127.3647000000001
 11
2047.9238999999998
 21
1127.5017
  0
LINE
  8
_0-0_LAYER001
  6
CONTINUOUS
 62
    4
 10
2047.9238999999998
 20
1127.5017
 11
2050.7011000000002
 21
1127.6229000000001
  0
LINE
  8
_0-0_LAYER001
  6
CONTINUOUS
 62
    4
 10
2050.7011000000002
 20
1127.6229000000001
 11
2055.7334000000001
 21
1127.9083000000001
  0
LINE
  8
_0-0_LAYER001
  6
CONTINUOUS
 62
    4
 10
2055.7334000000001
 20
1127.9083000000001
 11
2064.2595000000001
 21
1128.5694000000001
  0
LINE
  8
_0-0_LAYER001
  6
CONTINUOUS
 62
    4
 10
2064.2595000000001
 20
1128.5694000000001
 11
2072.7444
 21
1129.4197999999999
  0
LINE
  8
_0-0_LAYER001
  6
CONTINUOUS
 62
    4
 10
2072.7444
 20
1129.4197999999999
 11
2081.1356999999998
 21
1130.4149
  0
LINE
  8
_0-0_LAYER001
  6
CONTINUOUS
 62
    4
 10
2081.1356999999998
 20
1130.4149
 11
2089.4364
 21
1131.5155
  0
LINE
  8
_0-0_LAYER001
  6
CONTINUOUS
 62
    4
 10
2089.4364
 20
1131.5155
 11
2097.6442000000002
 21
1132.6828
  0
LINE
  8
_0-0_LAYER001
  6
CONTINUOUS
 62
    4
 10
2097.6442000000002
 20
1132.6828
 11
2102.3813
 21
1133.3782000000001
  0
LINE
  8
_0-0_LAYER001
  6
CONTINUOUS
 62
    4
 10
2102.3813
 20
1133.3782000000001
 11
2104.8366999999998
 21
1133.7420999999999
  0
LINE
  8
_0-0_LAYER001
  6
CONTINUOUS
 62
    4
 10
2104.8366999999998
 20
1133.7420999999999
 11
2109.0508
 21
1134.3706999999999
  0
LINE
  8
_0-0_LAYER001
  6
CONTINUOUS
 62
    4
 10
2109.0508
 20
1134.3706999999999
 11
2113.2622999999999
 21
1135.0032000000001
  0
LINE
  8
_0-0_LAYER001
  6
CONTINUOUS
 62
    4
 10
2113.2622999999999
 20
1135.0032000000001
 11
2117.4690999999998
 21
1135.6382000000001
  0
LINE
  8
_0-0_LAYER001
  6
CONTINUOUS
 62
    4
 10
2117.4690999999998
 20
1135.6382000000001
 11
2121.6713
 21
1136.2750000000001
  0
LINE
  8
_0-0_LAYER001
  6
CONTINUOUS
 62
    4
 10
2121.6713
 20
1136.2750000000001
 11
2125.8692000000001
 21
1136.9127000000001
  0
LINE
  8
_0-0_LAYER001
  6
CONTINUOUS
 62
    4
 10
2125.8692000000001
 20
1136.9127000000001
 11
2127.4868999999999
 21
1137.1586
  0
LINE
  8
_0-0_LAYER001
  6
CONTINUOUS
 62
    4
 10
1875.0315999999998
 20
1180.1247000000001
 11
1875.4576000000002
 21
1180.2877000000001
  0
ARC
  8
_0-0_LAYER001
  6
CONTINUOUS
 62
    4
 10
1876.1042000000002
 20
1177.3230000000001
 40
3
 50
110.94902000000002
 51
178.70000000000002
  0
LINE
  8
_0-0_LAYER001
  6
CONTINUOUS
 62
    4
 10
1872.9956999999999
 20
1161.5518999999999
 11
1872.9956999999999
 21
1177.2744
  0
LINE
  8
_0-0_LAYER001
  6
CONTINUOUS
 62
    4
 10
1874.3497000000002
 20
1160.6167
 11
1880.5245
 21
1162.9538
  0
ARC
  8
_0-0_LAYER001
  6
CONTINUOUS
 62
    4
 10
1873.9956999999999
 20
1161.5518999999999
 40
1
 50
180
 51
290.73165999999998
  0
LINE
  8
_0-0_LAYER001
  6
CONTINUOUS
 62
    4
 10
2137.9956999999999
 20
1140.2297000000001
 11
2137.9956999999999
 21
1157.4271000000001
  0
LINE
  8
_0-0_LAYER001
  6
CONTINUOUS
 62
    4
 10
2125.7222000000002
 20
1155.1134999999999
 11
2170.1765
 21
1164.7614000000001
  0
LINE
  8
_0-0_LAYER001
  6
CONTINUOUS
 62
    4
 10
2132.4675000000002
 20
1135.2798
 11
2171.1392000000001
 21
1144.3298
  0
LINE
  8
_0-0_LAYER001
  6
CONTINUOUS
 62
    4
 10
2171.1392000000001
 20
1145.2862
 11
2171.1392000000001
 21
1144.3298
  0
ARC
  8
_0-0_LAYER001
  6
CONTINUOUS
 62
    4
 10
2172.1392000000001
 20
1145.2862
 40
1
 50
102.72435
 51
180
  0
LINE
  8
_0-0_LAYER001
  6
CONTINUOUS
 62
    4
 10
2176.9562999999998
 20
1147.3991000000001
 11
2171.9189999999999
 21
1146.2617
  0
ARC
  8
_0-0_LAYER001
  6
CONTINUOUS
 62
    4
 10
2177.1765
 20
1146.4237000000001
 40
1
 50
0
 51
102.72435
  0
LINE
  8
_0-0_LAYER001
  6
CONTINUOUS
 62
    4
 10
2177.3886000000002
 20
1147.9076
 11
2127.2547
 21
1137.0271
  0
ARC
  8
_0-0_LAYER001
  6
CONTINUOUS
 62
    4
 10
2177.1765
 20
1148.8849
 40
1
 50
282.24497000000002
 51
0
  0
LINE
  8
_0-0_LAYER001
  6
CONTINUOUS
 62
    4
 10
2177.3944000000001
 20
1127.1668999999999
 11
2127.8103999999998
 21
1116.0989999999999
  0
LINE
  8
_0-0_LAYER001
  6
CONTINUOUS
 62
    4
 10
2178.1765
 20
1128.1429000000001
 11
2178.1765
 21
1146.4237000000001
  0
ARC
  8
_0-0_LAYER001
  6
CONTINUOUS
 62
    4
 10
2177.1765
 20
1128.1429000000001
 40
1
 50
282.58296000000001
 51
0.0000000000000254
  0
LINE
  8
_0-0_LAYER001
  6
CONTINUOUS
 62
    4
 10
2170.1765
 20
1166.2184
 11
2170.1765
 21
1164.7614000000001
  0
ARC
  8
_0-0_LAYER001
  6
CONTINUOUS
 62
    4
 10
2171.1765
 20
1166.2184
 40
1
 50
101.73308
 51
180
  0
LINE
  8
_0-0_LAYER001
  6
CONTINUOUS
 62
    4
 10
2176.9731999999999
 20
1168.4437
 11
2170.9731999999999
 21
1167.1975
  0
LINE
  8
_0-0_LAYER001
  6
CONTINUOUS
 62
    4
 10
2178.1765
 20
1167.4646
 11
2178.1765
 21
1148.8849
  0
ARC
  8
_0-0_LAYER001
  6
CONTINUOUS
 62
    4
 10
2177.1765
 20
1167.4646
 40
1
 50
0
 51
101.73308
  0
LINE
  8
_0-0_LAYER001
  6
CONTINUOUS
 62
    4
 10
1733.7761
 20
1096.9203
 11
1725.2406000000001
 21
1111.4536000000001
  0
LINE
  8
_0-0_LAYER001
  6
CONTINUOUS
 62
    4
 10
1741.944
 20
1096.27
 11
1750.2501999999999
 21
1106.3353999999999
  0
ARC
  8
_0-0_LAYER001
  6
CONTINUOUS
 62
    4
 10
1738.0875000000001
 20
1099.4523999999999
 40
5
 50
210.42578
 51
320.47001
  0
LINE
  8
_0-0_LAYER001
  6
CONTINUOUS
 62
    4
 10
1817.8896
 20
1095.8000999999999
 11
1810.5641999999998
 21
1107.1061999999999
  0
LINE
  8
_0-0_LAYER001
  6
CONTINUOUS
 62
    4
 10
1826.3991000000001
 20
1095.99
 11
1835.3375999999998
 21
1111.2357
  0
ARC
  8
_0-0_LAYER001
  6
CONTINUOUS
 62
    4
 10
1822.0857999999998
 20
1098.5189
 40
5
 50
212.93986000000001
 51
329.61716000000001
  0
LINE
  8
_0-0_LAYER001
  6
CONTINUOUS
 62
    4
 10
1865.6812
 20
1135.5477000000001
 11
1868.1093000000001
 21
1135.9514999999999
  0
LINE
  8
_0-0_LAYER001
  6
CONTINUOUS
 62
    4
 10
1861.4920999999999
 20
1134.8514
 11
1865.6812
 21
1135.5477000000001
  0
LINE
  8
_0-0_LAYER001
  6
CONTINUOUS
 62
    4
 10
1857.2982999999999
 20
1134.1558
 11
1861.4920999999999
 21
1134.8514
  0
LINE
  8
_0-0_LAYER001
  6
CONTINUOUS
 62
    4
 10
1853.0994999999998
 20
1133.4619
 11
1857.2982999999999
 21
1134.1558
  0
LINE
  8
_0-0_LAYER001
  6
CONTINUOUS
 62
    4
 10
1848.8955000000001
 20
1132.7704000000001
 11
1853.0994999999998
 21
1133.4619
  0
LINE
  8
_0-0_LAYER001
  6
CONTINUOUS
 62
    4
 10
1844.6887000000002
 20
1132.0826999999999
 11
1848.8955000000001
 21
1132.7704000000001
  0
LINE
  8
_0-0_LAYER001
  6
CONTINUOUS
 62
    4
 10
1842.2363999999998
 20
1131.6841999999999
 11
1844.6887000000002
 21
1132.0826999999999
  0
LINE
  8
_0-0_LAYER001
  6
CONTINUOUS
 62
    4
 10
1837.5036
 20
1130.9218000000001
 11
1842.2363999999998
 21
1131.6841999999999
  0
LINE
  8
_0-0_LAYER001
  6
CONTINUOUS
 62
    4
 10
1829.2991999999999
 20
1129.6378999999999
 11
1837.5036
 21
1130.9218000000001
  0
LINE
  8
_0-0_LAYER001
  6
CONTINUOUS
 62
    4
 10
1820.9917
 20
1128.4181000000001
 11
1829.2991999999999
 21
1129.6378999999999
  0
LINE
  8
_0-0_LAYER001
  6
CONTINUOUS
 62
    4
 10
1812.5834
 20
1127.3017
 11
1820.9917
 21
1128.4181000000001
  0
LINE
  8
_0-0_LAYER001
  6
CONTINUOUS
 62
    4
 10
1804.0709000000002
 20
1126.3282999999999
 11
1812.5834
 21
1127.3017
  0
LINE
  8
_0-0_LAYER001
  6
CONTINUOUS
 62
    4
 10
1795.5117
 20
1125.5443
 11
1804.0709000000002
 21
1126.3282999999999
  0
LINE
  8
_0-0_LAYER001
  6
CONTINUOUS
 62
    4
 10
1790.4502000000002
 20
1125.1863000000001
 11
1795.5117
 21
1125.5443
  0
LINE
  8
_0-0_LAYER001
  6
CONTINUOUS
 62
    4
 10
1787.6475999999998
 20
1125.0246999999999
 11
1790.4502000000002
 21
1125.1863000000001
  0
LINE
  8
_0-0_LAYER001
  6
CONTINUOUS
 62
    4
 10
1782.9265999999998
 20
1124.8208
 11
1787.6475999999998
 21
1125.0246999999999
  0
LINE
  8
_0-0_LAYER001
  6
CONTINUOUS
 62
    4
 10
1778.0972999999999
 20
1124.7153000000001
 11
1782.9265999999998
 21
1124.8208
  0
LINE
  8
_0-0_LAYER001
  6
CONTINUOUS
 62
    4
 10
1773.1957000000002
 20
1124.7307000000001
 11
1778.0972999999999
 21
1124.7153000000001
  0
LINE
  8
_0-0_LAYER001
  6
CONTINUOUS
 62
    4
 10
1768.2247000000002
 20
1124.8885
 11
1773.1957000000002
 21
1124.7307000000001
  0
LINE
  8
_0-0_LAYER001
  6
CONTINUOUS
 62
    4
 10
1763.2673
 20
1125.2063000000001
 11
1768.2247000000002
 21
1124.8885
  0
LINE
  8
_0-0_LAYER001
  6
CONTINUOUS
 62
    4
 10
1760.2156
 20
1125.4876999999999
 11
1763.2673
 21
1125.2063000000001
  0
LINE
  8
_0-0_LAYER001
  6
CONTINUOUS
 62
    4
 10
1756.2867999999999
 20
1125.95
 11
1760.2156
 21
1125.4876999999999
  0
LINE
  8
_0-0_LAYER001
  6
CONTINUOUS
 62
    4
 10
1749.7728000000002
 20
1126.9725000000001
 11
1756.2867999999999
 21
1125.95
  0
LINE
  8
_0-0_LAYER001
  6
CONTINUOUS
 62
    4
 10
1743.2262000000001
 20
1128.3246999999999
 11
1749.7728000000002
 21
1126.9725000000001
  0
LINE
  8
_0-0_LAYER001
  6
CONTINUOUS
 62
    4
 10
1736.7633000000001
 20
1129.9804999999999
 11
1743.2262000000001
 21
1128.3246999999999
  0
LINE
  8
_0-0_LAYER001
  6
CONTINUOUS
 62
    4
 10
1730.3973000000001
 20
1131.9312
 11
1736.7633000000001
 21
1129.9804999999999
  0
LINE
  8
_0-0_LAYER001
  6
CONTINUOUS
 62
    4
 10
1724.2325999999998
 20
1134.1361999999999
 11
1730.3973000000001
 21
1131.9312
  0
LINE
  8
_0-0_LAYER001
  6
CONTINUOUS
 62
    4
 10
1720.5459000000001
 20
1135.6079999999999
 11
1724.2325999999998
 21
1134.1361999999999
  0
LINE
  8
_0-0_LAYER001
  6
CONTINUOUS
 62
    4
 10
1716.1817000000001
 20
1137.5005000000001
 11
1720.5459000000001
 21
1135.6079999999999
  0
LINE
  8
_0-0_LAYER001
  6
CONTINUOUS
 62
    4
 10
1709.1125999999999
 20
1140.9155000000001
 11
1716.1817000000001
 21
1137.5005000000001
  0
LINE
  8
_0-0_LAYER001
  6
CONTINUOUS
 62
    4
 10
1702.2197000000001
 20
1144.6451
 11
1709.1125999999999
 21
1140.9155000000001
  0
LINE
  8
_0-0_LAYER001
  6
CONTINUOUS
 62
    4
 10
1695.5826999999999
 20
1148.5787
 11
1702.2197000000001
 21
1144.6451
  0
LINE
  8
_0-0_LAYER001
  6
CONTINUOUS
 62
    4
 10
1689.1734000000001
 20
1152.6612
 11
1695.5826999999999
 21
1148.5787
  0
LINE
  8
_0-0_LAYER001
  6
CONTINUOUS
 62
    4
 10
1682.9892
 20
1156.8233
 11
1689.1734000000001
 21
1152.6612
  0
LINE
  8
_0-0_LAYER001
  6
CONTINUOUS
 62
    4
 10
1679.4468000000002
 20
1159.287
 11
1682.9892
 21
1156.8233
  0
LINE
  8
_0-0_LAYER001
  6
CONTINUOUS
 62
    4
 10
1677.2148000000002
 20
1160.8605
 11
1679.4468000000002
 21
1159.287
  0
LINE
  8
_0-0_LAYER001
  6
CONTINUOUS
 62
    4
 10
1673.5913
 20
1163.3996999999999
 11
1677.2148000000002
 21
1160.8605
  0
LINE
  8
_0-0_LAYER001
  6
CONTINUOUS
 62
    4
 10
1670.2215999999999
 20
1165.6651999999999
 11
1673.5913
 21
1163.3996999999999
  0
LINE
  8
_0-0_LAYER001
  6
CONTINUOUS
 62
    4
 10
1667.1066000000001
 20
1167.5923
 11
1670.2215999999999
 21
1165.6651999999999
  0
LINE
  8
_0-0_LAYER001
  6
CONTINUOUS
 62
    4
 10
1664.2393999999999
 20
1169.1479999999999
 11
1667.1066000000001
 21
1167.5923
  0
LINE
  8
_0-0_LAYER001
  6
CONTINUOUS
 62
    4
 10
1661.4083000000001
 20
1170.4165
 11
1664.2393999999999
 21
1169.1479999999999
  0
LINE
  8
_0-0_LAYER001
  6
CONTINUOUS
 62
    4
 10
1659.9450999999999
 20
1170.9485999999999
 11
1661.4083000000001
 21
1170.4165
  0
LINE
  8
_0-0_LAYER001
  6
CONTINUOUS
 62
    4
 10
1659.7640000000001
 20
1171.0065
 11
1659.9450999999999
 21
1170.9485999999999
  0
LINE
  8
_0-0_LAYER001
  6
CONTINUOUS
 62
    4
 10
1658.9757
 20
1171.2345
 11
1659.7640000000001
 21
1171.0065
  0
LINE
  8
_0-0_LAYER001
  6
CONTINUOUS
 62
    4
 10
1658.3184999999999
 20
1171.3972000000001
 11
1658.9757
 21
1171.2345
  0
LINE
  8
_0-0_LAYER001
  6
CONTINUOUS
 62
    4
 10
1657.7368000000001
 20
1171.5152
 11
1658.3184999999999
 21
1171.3972000000001
  0
LINE
  8
_0-0_LAYER001
  6
CONTINUOUS
 62
    4
 10
1657.6967
 20
1171.5214000000001
 11
1657.7368000000001
 21
1171.5152
  0
LINE
  8
_0-0_LAYER001
  6
CONTINUOUS
 62
    4
 10
1861.6705999999999
 20
1116.3602000000001
 11
1863.2847000000002
 21
1116.6287
  0
LINE
  8
_0-0_LAYER001
  6
CONTINUOUS
 62
    4
 10
1857.482
 20
1115.664
 11
1861.6705999999999
 21
1116.3602000000001
  0
LINE
  8
_0-0_LAYER001
  6
CONTINUOUS
 62
    4
 10
1853.2891
 20
1114.9685999999999
 11
1857.482
 21
1115.664
  0
LINE
  8
_0-0_LAYER001
  6
CONTINUOUS
 62
    4
 10
1849.0916000000002
 20
1114.2747999999999
 11
1853.2891
 21
1114.9685999999999
  0
LINE
  8
_0-0_LAYER001
  6
CONTINUOUS
 62
    4
 10
1844.8892999999998
 20
1113.5835999999999
 11
1849.0916000000002
 21
1114.2747999999999
  0
LINE
  8
_0-0_LAYER001
  6
CONTINUOUS
 62
    4
 10
1840.6844000000001
 20
1112.8963000000001
 11
1844.8892999999998
 21
1113.5835999999999
  0
LINE
  8
_0-0_LAYER001
  6
CONTINUOUS
 62
    4
 10
1838.2343000000001
 20
1112.4982
 11
1840.6844000000001
 21
1112.8963000000001
  0
LINE
  8
_0-0_LAYER001
  6
CONTINUOUS
 62
    4
 10
1833.5074
 20
1111.7366
 11
1838.2343000000001
 21
1112.4982
  0
LINE
  8
_0-0_LAYER001
  6
CONTINUOUS
 62
    4
 10
1825.3166999999999
 20
1110.4549
 11
1833.5074
 21
1111.7366
  0
LINE
  8
_0-0_LAYER001
  6
CONTINUOUS
 62
    4
 10
1817.0322000000001
 20
1109.2384999999999
 11
1825.3166999999999
 21
1110.4549
  0
LINE
  8
_0-0_LAYER001
  6
CONTINUOUS
 62
    4
 10
1808.6556
 20
1108.1262999999999
 11
1817.0322000000001
 21
1109.2384999999999
  0
LINE
  8
_0-0_LAYER001
  6
CONTINUOUS
 62
    4
 10
1800.1833999999999
 20
1107.1575
 11
1808.6556
 21
1108.1262999999999
  0
LINE
  8
_0-0_LAYER001
  6
CONTINUOUS
 62
    4
 10
1791.6673000000001
 20
1106.3775000000001
 11
1800.1833999999999
 21
1107.1575
  0
LINE
  8
_0-0_LAYER001
  6
CONTINUOUS
 62
    4
 10
1786.6395000000002
 20
1106.0219
 11
1791.6673000000001
 21
1106.3775000000001
  0
LINE
  8
_0-0_LAYER001
  6
CONTINUOUS
 62
    4
 10
1783.8643000000002
 20
1105.8617999999999
 11
1786.6395000000002
 21
1106.0219
  0
LINE
  8
_0-0_LAYER001
  6
CONTINUOUS
 62
    4
 10
1779.1790000000001
 20
1105.6594
 11
1783.8643000000002
 21
1105.8617999999999
  0
LINE
  8
_0-0_LAYER001
  6
CONTINUOUS
 62
    4
 10
1774.3960999999999
 20
1105.5550000000001
 11
1779.1790000000001
 21
1105.6594
  0
LINE
  8
_0-0_LAYER001
  6
CONTINUOUS
 62
    4
 10
1769.5479999999998
 20
1105.5702000000001
 11
1774.3960999999999
 21
1105.5550000000001
  0
LINE
  8
_0-0_LAYER001
  6
CONTINUOUS
 62
    4
 10
1764.6378
 20
1105.7261000000001
 11
1769.5479999999998
 21
1105.5702000000001
  0
LINE
  8
_0-0_LAYER001
  6
CONTINUOUS
 62
    4
 10
1759.7404999999999
 20
1106.04
 11
1764.6378
 21
1105.7261000000001
  0
LINE
  8
_0-0_LAYER001
  6
CONTINUOUS
 62
    4
 10
1756.7417999999998
 20
1106.3166000000001
 11
1759.7404999999999
 21
1106.04
  0
LINE
  8
_0-0_LAYER001
  6
CONTINUOUS
 62
    4
 10
1752.8762000000002
 20
1106.7714000000001
 11
1756.7417999999998
 21
1106.3166000000001
  0
LINE
  8
_0-0_LAYER001
  6
CONTINUOUS
 62
    4
 10
1746.4477999999999
 20
1107.7805000000001
 11
1752.8762000000002
 21
1106.7714000000001
  0
LINE
  8
_0-0_LAYER001
  6
CONTINUOUS
 62
    4
 10
1739.9942999999998
 20
1109.1134
 11
1746.4477999999999
 21
1107.7805000000001
  0
LINE
  8
_0-0_LAYER001
  6
CONTINUOUS
 62
    4
 10
1733.6221999999998
 20
1110.7460000000001
 11
1739.9942999999998
 21
1109.1134
  0
LINE
  8
_0-0_LAYER001
  6
CONTINUOUS
 62
    4
 10
1727.3449000000001
 20
1112.6695999999999
 11
1733.6221999999998
 21
1110.7460000000001
  0
LINE
  8
_0-0_LAYER001
  6
CONTINUOUS
 62
    4
 10
1721.2577999999999
 20
1114.8467000000001
 11
1727.3449000000001
 21
1112.6695999999999
  0
LINE
  8
_0-0_LAYER001
  6
CONTINUOUS
 62
    4
 10
1717.6320999999998
 20
1116.2941000000001
 11
1721.2577999999999
 21
1114.8467000000001
  0
LINE
  8
_0-0_LAYER001
  6
CONTINUOUS
 62
    4
 10
1713.3323
 20
1118.1587
 11
1717.6320999999998
 21
1116.2941000000001
  0
LINE
  8
_0-0_LAYER001
  6
CONTINUOUS
 62
    4
 10
1706.3413999999998
 20
1121.5359000000001
 11
1713.3323
 21
1118.1587
  0
LINE
  8
_0-0_LAYER001
  6
CONTINUOUS
 62
    4
 10
1699.5232000000001
 20
1125.2251000000001
 11
1706.3413999999998
 21
1121.5359000000001
  0
LINE
  8
_0-0_LAYER001
  6
CONTINUOUS
 62
    4
 10
1692.9475000000002
 20
1129.1224999999999
 11
1699.5232000000001
 21
1125.2251000000001
  0
LINE
  8
_0-0_LAYER001
  6
CONTINUOUS
 62
    4
 10
1686.5864999999999
 20
1133.1741
 11
1692.9475000000002
 21
1129.1224999999999
  0
LINE
  8
_0-0_LAYER001
  6
CONTINUOUS
 62
    4
 10
1680.4360000000001
 20
1137.3136
 11
1686.5864999999999
 21
1133.1741
  0
LINE
  8
_0-0_LAYER001
  6
CONTINUOUS
 62
    4
 10
1676.9114
 20
1139.7648999999999
 11
1680.4360000000001
 21
1137.3136
  0
LINE
  8
_0-0_LAYER001
  6
CONTINUOUS
 62
    4
 10
1674.6822999999999
 20
1141.3363999999999
 11
1676.9114
 21
1139.7648999999999
  0
LINE
  8
_0-0_LAYER001
  6
CONTINUOUS
 62
    4
 10
1671.0405999999998
 20
1143.8883000000001
 11
1674.6822999999999
 21
1141.3363999999999
  0
LINE
  8
_0-0_LAYER001
  6
CONTINUOUS
 62
    4
 10
1667.6235000000001
 20
1146.1857
 11
1671.0405999999998
 21
1143.8883000000001
  0
LINE
  8
_0-0_LAYER001
  6
CONTINUOUS
 62
    4
 10
1664.4279000000001
 20
1148.1626000000001
 11
1667.6235000000001
 21
1146.1857
  0
LINE
  8
_0-0_LAYER001
  6
CONTINUOUS
 62
    4
 10
1661.4439000000002
 20
1149.7817
 11
1664.4279000000001
 21
1148.1626000000001
  0
LINE
  8
_0-0_LAYER001
  6
CONTINUOUS
 62
    4
 10
1658.4773
 20
1151.1108999999999
 11
1661.4439000000002
 21
1149.7817
  0
LINE
  8
_0-0_LAYER001
  6
CONTINUOUS
 62
    4
 10
1657.7274000000002
 20
1151.3835999999999
 11
1658.4773
 21
1151.1108999999999
  0
LINE
  8
_0-0_LAYER001
  6
CONTINUOUS
 62
    4
 10
1658.0605
 20
1171.4267
 11
1657.8843999999999
 21
1151.2533000000001
  0
LINE
  8
_0-0_LAYER001
  6
CONTINUOUS
 62
    4
 10
1858.3861000000002
 20
1105.9389000000001
 11
1856.1406000000002
 21
1114.5124000000001
  0
ARC
  8
_0-0_LAYER001
  6
CONTINUOUS
 62
    4
 10
1861.2882
 20
1106.6990000000001
 40
3
 50
194.67639000000003
 51
270.00000000000006
  0
LINE
  8
_0-0_LAYER001
  6
CONTINUOUS
 62
    4
 10
1864.7307000000001
 20
1103.6947
 11
1861.3128000000002
 21
1103.6947
  0
LINE
  8
_0-0_LAYER001
  6
CONTINUOUS
 62
    4
 10
1867.6898000000001
 20
1106.2014999999999
 11
1869.6239
 21
1117.8056999999999
  0
ARC
  8
_0-0_LAYER001
  6
CONTINUOUS
 62
    4
 10
1864.7307000000001
 20
1106.6947
 40
3
 50
270
 51
350.53766999999999
  0
LINE
  8
_0-0_LAYER001
  6
CONTINUOUS
 62
    4
 10
1610.9643000000001
 20
1180.8169
 11
1611.7782000000002
 21
1181.1235999999999
  0
LINE
  8
_0-0_LAYER001
  6
CONTINUOUS
 62
    4
 10
1611.7782000000002
 20
1181.1235999999999
 11
1615.3274999999999
 21
1182.4631999999999
  0
LINE
  8
_0-0_LAYER001
  6
CONTINUOUS
 62
    4
 10
1615.3274999999999
 20
1182.4631999999999
 11
1618.8841000000002
 21
1183.8119999999999
  0
LINE
  8
_0-0_LAYER001
  6
CONTINUOUS
 62
    4
 10
1618.8841000000002
 20
1183.8119999999999
 11
1622.4526999999998
 21
1185.1760999999999
  0
LINE
  8
_0-0_LAYER001
  6
CONTINUOUS
 62
    4
 10
1622.4526999999998
 20
1185.1760999999999
 11
1626.0381000000002
 21
1186.5610999999999
  0
LINE
  8
_0-0_LAYER001
  6
CONTINUOUS
 62
    4
 10
1626.0381000000002
 20
1186.5610999999999
 11
1629.6448
 21
1187.9730999999999
  0
LINE
  8
_0-0_LAYER001
  6
CONTINUOUS
 62
    4
 10
1629.6448
 20
1187.9730999999999
 11
1631.7483000000002
 21
1188.8067000000001
  0
LINE
  8
_0-0_LAYER001
  6
CONTINUOUS
 62
    4
 10
1631.7483000000002
 20
1188.8067000000001
 11
1633.8276999999998
 21
1189.6356000000001
  0
LINE
  8
_0-0_LAYER001
  6
CONTINUOUS
 62
    4
 10
1633.8276999999998
 20
1189.6356000000001
 11
1637.4342000000001
 21
1191.037
  0
LINE
  8
_0-0_LAYER001
  6
CONTINUOUS
 62
    4
 10
1637.4342000000001
 20
1191.037
 11
1641.0668999999998
 21
1192.3198
  0
LINE
  8
_0-0_LAYER001
  6
CONTINUOUS
 62
    4
 10
1641.0668999999998
 20
1192.3198
 11
1644.7249000000002
 21
1193.3864000000001
  0
LINE
  8
_0-0_LAYER001
  6
CONTINUOUS
 62
    4
 10
1644.7249000000002
 20
1193.3864000000001
 11
1648.4070000000002
 21
1194.1396
  0
LINE
  8
_0-0_LAYER001
  6
CONTINUOUS
 62
    4
 10
1648.4070000000002
 20
1194.1396
 11
1652.1122999999998
 21
1194.4820999999999
  0
LINE
  8
_0-0_LAYER001
  6
CONTINUOUS
 62
    4
 10
1652.1122999999998
 20
1194.4820999999999
 11
1654.2716
 21
1194.4541999999999
  0
LINE
  8
_0-0_LAYER001
  6
CONTINUOUS
 62
    4
 10
1654.2716
 20
1194.4541999999999
 11
1655.1206999999999
 21
1194.3929000000001
  0
LINE
  8
_0-0_LAYER001
  6
CONTINUOUS
 62
    4
 10
1655.1206999999999
 20
1194.3929000000001
 11
1656.5850999999998
 21
1194.2222999999999
  0
LINE
  8
_0-0_LAYER001
  6
CONTINUOUS
 62
    4
 10
1656.5850999999998
 20
1194.2222999999999
 11
1658.0462000000002
 21
1193.9756
  0
LINE
  8
_0-0_LAYER001
  6
CONTINUOUS
 62
    4
 10
1658.0462000000002
 20
1193.9756
 11
1659.4998000000001
 21
1193.6595
  0
LINE
  8
_0-0_LAYER001
  6
CONTINUOUS
 62
    4
 10
1659.4998000000001
 20
1193.6595
 11
1660.942
 21
1193.2809999999999
  0
LINE
  8
_0-0_LAYER001
  6
CONTINUOUS
 62
    4
 10
1660.942
 20
1193.2809999999999
 11
1662.3683999999998
 21
1192.8469
  0
LINE
  8
_0-0_LAYER001
  6
CONTINUOUS
 62
    4
 10
1662.3683999999998
 20
1192.8469
 11
1663.1869000000002
 21
1192.5723
  0
LINE
  8
_0-0_LAYER001
  6
CONTINUOUS
 62
    4
 10
1663.1869000000002
 20
1192.5723
 11
1665.6851000000001
 21
1191.6241
  0
LINE
  8
_0-0_LAYER001
  6
CONTINUOUS
 62
    4
 10
1665.6851000000001
 20
1191.6241
 11
1669.8440000000001
 21
1189.6904999999999
  0
LINE
  8
_0-0_LAYER001
  6
CONTINUOUS
 62
    4
 10
1669.8440000000001
 20
1189.6904999999999
 11
1673.8479000000002
 21
1187.4450999999999
  0
LINE
  8
_0-0_LAYER001
  6
CONTINUOUS
 62
    4
 10
1673.8479000000002
 20
1187.4450999999999
 11
1677.7347
 21
1184.9648999999999
  0
LINE
  8
_0-0_LAYER001
  6
CONTINUOUS
 62
    4
 10
1677.7347
 20
1184.9648999999999
 11
1681.5427
 21
1182.3267000000001
  0
LINE
  8
_0-0_LAYER001
  6
CONTINUOUS
 62
    4
 10
1681.5427
 20
1182.3267000000001
 11
1685.3099999999999
 21
1179.6076
  0
LINE
  8
_0-0_LAYER001
  6
CONTINUOUS
 62
    4
 10
1685.3099999999999
 20
1179.6076
 11
1687.4913000000001
 21
1178.0237999999999
  0
LINE
  8
_0-0_LAYER001
  6
CONTINUOUS
 62
    4
 10
1687.4913000000001
 20
1178.0237999999999
 11
1690.8229000000001
 21
1175.6369999999999
  0
LINE
  8
_0-0_LAYER001
  6
CONTINUOUS
 62
    4
 10
1690.8229000000001
 20
1175.6369999999999
 11
1696.6151
 21
1171.6201000000001
  0
LINE
  8
_0-0_LAYER001
  6
CONTINUOUS
 62
    4
 10
1696.6151
 20
1171.6201000000001
 11
1702.4872999999998
 21
1167.7634
  0
LINE
  8
_0-0_LAYER001
  6
CONTINUOUS
 62
    4
 10
1702.4872999999998
 20
1167.7634
 11
1708.4614000000001
 21
1164.1089999999999
  0
LINE
  8
_0-0_LAYER001
  6
CONTINUOUS
 62
    4
 10
1708.4614000000001
 20
1164.1089999999999
 11
1714.5596
 21
1160.6984
  0
LINE
  8
_0-0_LAYER001
  6
CONTINUOUS
 62
    4
 10
1714.5596
 20
1160.6984
 11
1720.8038999999999
 21
1157.5735999999999
  0
LINE
  8
_0-0_LAYER001
  6
CONTINUOUS
 62
    4
 10
1720.8038999999999
 20
1157.5735999999999
 11
1724.5012000000002
 21
1155.9086
  0
LINE
  8
_0-0_LAYER001
  6
CONTINUOUS
 62
    4
 10
1724.5012000000002
 20
1155.9086
 11
1727.5603999999998
 21
1154.6375
  0
LINE
  8
_0-0_LAYER001
  6
CONTINUOUS
 62
    4
 10
1727.5603999999998
 20
1154.6375
 11
1732.9209999999998
 21
1152.6353999999999
  0
LINE
  8
_0-0_LAYER001
  6
CONTINUOUS
 62
    4
 10
1732.9209999999998
 20
1152.6353999999999
 11
1738.3766999999998
 21
1150.8798999999999
  0
LINE
  8
_0-0_LAYER001
  6
CONTINUOUS
 62
    4
 10
1738.3766999999998
 20
1150.8798999999999
 11
1743.9115999999999
 21
1149.3791000000001
  0
LINE
  8
_0-0_LAYER001
  6
CONTINUOUS
 62
    4
 10
1743.9115999999999
 20
1149.3791000000001
 11
1749.5099
 21
1148.1411000000001
  0
LINE
  8
_0-0_LAYER001
  6
CONTINUOUS
 62
    4
 10
1749.5099
 20
1148.1411000000001
 11
1755.1556999999998
 21
1147.1739
  0
LINE
  8
_0-0_LAYER001
  6
CONTINUOUS
 62
    4
 10
1755.1556999999998
 20
1147.1739
 11
1758.4456
 21
1146.7402
  0
LINE
  8
_0-0_LAYER001
  6
CONTINUOUS
 62
    4
 10
1758.4456
 20
1146.7402
 11
1760.9648999999999
 21
1146.4722999999999
  0
LINE
  8
_0-0_LAYER001
  6
CONTINUOUS
 62
    4
 10
1760.9648999999999
 20
1146.4722999999999
 11
1765.317
 21
1146.1323
  0
LINE
  8
_0-0_LAYER001
  6
CONTINUOUS
 62
    4
 10
1765.317
 20
1146.1323
 11
1769.6772000000001
 21
1145.9328
  0
LINE
  8
_0-0_LAYER001
  6
CONTINUOUS
 62
    4
 10
1769.6772000000001
 20
1145.9328
 11
1774.0423999999998
 21
1145.8581999999999
  0
LINE
  8
_0-0_LAYER001
  6
CONTINUOUS
 62
    4
 10
1774.0423999999998
 20
1145.8581999999999
 11
1778.4095000000002
 21
1145.8925999999999
  0
LINE
  8
_0-0_LAYER001
  6
CONTINUOUS
 62
    4
 10
1778.4095000000002
 20
1145.8925999999999
 11
1782.7755000000002
 21
1146.0201
  0
LINE
  8
_0-0_LAYER001
  6
CONTINUOUS
 62
    4
 10
1782.7755000000002
 20
1146.0201
 11
1785.3058999999998
 21
1146.1306
  0
LINE
  8
_0-0_LAYER001
  6
CONTINUOUS
 62
    4
 10
1785.3058999999998
 20
1146.1306
 11
1790.0349999999999
 21
1146.3987999999999
  0
LINE
  8
_0-0_LAYER001
  6
CONTINUOUS
 62
    4
 10
1790.0349999999999
 20
1146.3987999999999
 11
1798.1732000000002
 21
1147.0298
  0
LINE
  8
_0-0_LAYER001
  6
CONTINUOUS
 62
    4
 10
1798.1732000000002
 20
1147.0298
 11
1806.2939000000001
 21
1147.8436999999999
  0
LINE
  8
_0-0_LAYER001
  6
CONTINUOUS
 62
    4
 10
1806.2939000000001
 20
1147.8436999999999
 11
1814.3998000000001
 21
1148.8050000000001
  0
LINE
  8
_0-0_LAYER001
  6
CONTINUOUS
 62
    4
 10
1814.3998000000001
 20
1148.8050000000001
 11
1822.4931999999999
 21
1149.8780999999999
  0
LINE
  8
_0-0_LAYER001
  6
CONTINUOUS
 62
    4
 10
1822.4931999999999
 20
1149.8780999999999
 11
1830.5767999999998
 21
1151.0277000000001
  0
LINE
  8
_0-0_LAYER001
  6
CONTINUOUS
 62
    4
 10
1830.5767999999998
 20
1151.0277000000001
 11
1835.2617
 21
1151.7155
  0
LINE
  8
_0-0_LAYER001
  6
CONTINUOUS
 62
    4
 10
1835.2617
 20
1151.7155
 11
1837.6966000000002
 21
1152.0762999999999
  0
LINE
  8
_0-0_LAYER001
  6
CONTINUOUS
 62
    4
 10
1837.6966000000002
 20
1152.0762999999999
 11
1841.8935000000001
 21
1152.7022999999999
  0
LINE
  8
_0-0_LAYER001
  6
CONTINUOUS
 62
    4
 10
1841.8935000000001
 20
1152.7022999999999
 11
1846.0893000000001
 21
1153.3324
  0
LINE
  8
_0-0_LAYER001
  6
CONTINUOUS
 62
    4
 10
1846.0893000000001
 20
1153.3324
 11
1850.2842000000001
 21
1153.9657
  0
LINE
  8
_0-0_LAYER001
  6
CONTINUOUS
 62
    4
 10
1850.2842000000001
 20
1153.9657
 11
1854.4783000000002
 21
1154.6013
  0
LINE
  8
_0-0_LAYER001
  6
CONTINUOUS
 62
    4
 10
1854.4783000000002
 20
1154.6013
 11
1858.6720999999998
 21
1155.2383
  0
LINE
  8
_0-0_LAYER001
  6
CONTINUOUS
 62
    4
 10
1858.6720999999998
 20
1155.2383
 11
1861.1044000000002
 21
1155.6080999999999
  0
LINE
  8
_0-0_LAYER001
  6
CONTINUOUS
 62
    4
 10
1616.0675000000001
 20
1163.5044
 11
1618.1293999999998
 21
1164.2813000000001
  0
LINE
  8
_0-0_LAYER001
  6
CONTINUOUS
 62
    4
 10
1618.1293999999998
 20
1164.2813000000001
 11
1621.6970000000001
 21
1165.6278
  0
LINE
  8
_0-0_LAYER001
  6
CONTINUOUS
 62
    4
 10
1621.6970000000001
 20
1165.6278
 11
1625.2889
 21
1166.9901
  0
LINE
  8
_0-0_LAYER001
  6
CONTINUOUS
 62
    4
 10
1625.2889
 20
1166.9901
 11
1628.9092999999998
 21
1168.3739
  0
LINE
  8
_0-0_LAYER001
  6
CONTINUOUS
 62
    4
 10
1628.9092999999998
 20
1168.3739
 11
1632.5623000000001
 21
1169.7851000000001
  0
LINE
  8
_0-0_LAYER001
  6
CONTINUOUS
 62
    4
 10
1632.5623000000001
 20
1169.7851000000001
 11
1636.2413999999999
 21
1171.2254
  0
LINE
  8
_0-0_LAYER001
  6
CONTINUOUS
 62
    4
 10
1636.2413999999999
 20
1171.2254
 11
1638.3966
 21
1172.0795000000001
  0
LINE
  8
_0-0_LAYER001
  6
CONTINUOUS
 62
    4
 10
1638.3966
 20
1172.0795000000001
 11
1640.4202
 21
1172.8860999999999
  0
LINE
  8
_0-0_LAYER001
  6
CONTINUOUS
 62
    4
 10
1640.4202
 20
1172.8860999999999
 11
1643.6921000000002
 21
1174.1575
  0
LINE
  8
_0-0_LAYER001
  6
CONTINUOUS
 62
    4
 10
1643.6921000000002
 20
1174.1575
 11
1646.5871999999999
 21
1175.1797999999999
  0
LINE
  8
_0-0_LAYER001
  6
CONTINUOUS
 62
    4
 10
1646.5871999999999
 20
1175.1797999999999
 11
1649.0553
 21
1175.8995
  0
LINE
  8
_0-0_LAYER001
  6
CONTINUOUS
 62
    4
 10
1649.0553
 20
1175.8995
 11
1651.0470999999998
 21
1176.3069
  0
LINE
  8
_0-0_LAYER001
  6
CONTINUOUS
 62
    4
 10
1651.0470999999998
 20
1176.3069
 11
1652.8263999999999
 21
1176.4713999999999
  0
LINE
  8
_0-0_LAYER001
  6
CONTINUOUS
 62
    4
 10
1652.8263999999999
 20
1176.4713999999999
 11
1653.5059000000001
 21
1176.4626000000001
  0
LINE
  8
_0-0_LAYER001
  6
CONTINUOUS
 62
    4
 10
1653.5059000000001
 20
1176.4626000000001
 11
1653.4297999999999
 21
1176.4681
  0
LINE
  8
_0-0_LAYER001
  6
CONTINUOUS
 62
    4
 10
1653.4297999999999
 20
1176.4681
 11
1654.0435000000002
 21
1176.3966
  0
LINE
  8
_0-0_LAYER001
  6
CONTINUOUS
 62
    4
 10
1654.0435000000002
 20
1176.3966
 11
1654.6338999999998
 21
1176.2969000000001
  0
LINE
  8
_0-0_LAYER001
  6
CONTINUOUS
 62
    4
 10
1654.6338999999998
 20
1176.2969000000001
 11
1655.3013000000001
 21
1176.1518000000001
  0
LINE
  8
_0-0_LAYER001
  6
CONTINUOUS
 62
    4
 10
1655.3013000000001
 20
1176.1518000000001
 11
1656.0347999999999
 21
1175.9593
  0
LINE
  8
_0-0_LAYER001
  6
CONTINUOUS
 62
    4
 10
1656.0347999999999
 20
1175.9593
 11
1656.884
 21
1175.7009
  0
LINE
  8
_0-0_LAYER001
  6
CONTINUOUS
 62
    4
 10
1656.884
 20
1175.7009
 11
1657.1280999999999
 21
1175.6189999999999
  0
LINE
  8
_0-0_LAYER001
  6
CONTINUOUS
 62
    4
 10
1657.1280999999999
 20
1175.6189999999999
 11
1658.6880000000001
 21
1175.0269000000001
  0
LINE
  8
_0-0_LAYER001
  6
CONTINUOUS
 62
    4
 10
1658.6880000000001
 20
1175.0269000000001
 11
1661.6356999999998
 21
1173.6565000000001
  0
LINE
  8
_0-0_LAYER001
  6
CONTINUOUS
 62
    4
 10
1661.6356999999998
 20
1173.6565000000001
 11
1664.5967999999998
 21
1171.9958999999999
  0
LINE
  8
_0-0_LAYER001
  6
CONTINUOUS
 62
    4
 10
1664.5967999999998
 20
1171.9958999999999
 11
1667.7645000000002
 21
1169.9745
  0
LINE
  8
_0-0_LAYER001
  6
CONTINUOUS
 62
    4
 10
1667.7645000000002
 20
1169.9745
 11
1671.1491999999998
 21
1167.6296
  0
LINE
  8
_0-0_LAYER001
  6
CONTINUOUS
 62
    4
 10
1671.1491999999998
 20
1167.6296
 11
1674.7548999999999
 21
1165.0271
  0
LINE
  8
_0-0_LAYER001
  6
CONTINUOUS
 62
    4
 10
1674.7548999999999
 20
1165.0271
 11
1676.9618999999998
 21
1163.4247
  0
LINE
  8
_0-0_LAYER001
  6
CONTINUOUS
 62
    4
 10
1676.9618999999998
 20
1163.4247
 11
1680.4519
 21
1160.9244000000001
  0
LINE
  8
_0-0_LAYER001
  6
CONTINUOUS
 62
    4
 10
1680.4519
 20
1160.9244000000001
 11
1686.5439999999999
 21
1156.6994
  0
LINE
  8
_0-0_LAYER001
  6
CONTINUOUS
 62
    4
 10
1686.5439999999999
 20
1156.6994
 11
1692.8478
 21
1152.5594000000001
  0
LINE
  8
_0-0_LAYER001
  6
CONTINUOUS
 62
    4
 10
1692.8478
 20
1152.5594000000001
 11
1699.3685
 21
1148.5706
  0
LINE
  8
_0-0_LAYER001
  6
CONTINUOUS
 62
    4
 10
1699.3685
 20
1148.5706
 11
1706.1343999999999
 21
1144.7865999999999
  0
LINE
  8
_0-0_LAYER001
  6
CONTINUOUS
 62
    4
 10
1706.1343999999999
 20
1144.7865999999999
 11
1713.0774999999999
 21
1141.3121000000001
  0
LINE
  8
_0-0_LAYER001
  6
CONTINUOUS
 62
    4
 10
1713.0774999999999
 20
1141.3121000000001
 11
1717.3508999999999
 21
1139.3876
  0
LINE
  8
_0-0_LAYER001
  6
CONTINUOUS
 62
    4
 10
1717.3508999999999
 20
1139.3876
 11
1720.9560000000001
 21
1137.8896999999999
  0
LINE
  8
_0-0_LAYER001
  6
CONTINUOUS
 62
    4
 10
1720.9560000000001
 20
1137.8896999999999
 11
1727.0120999999999
 21
1135.6278
  0
LINE
  8
_0-0_LAYER001
  6
CONTINUOUS
 62
    4
 10
1727.0120999999999
 20
1135.6278
 11
1733.2619
 21
1133.6168
  0
LINE
  8
_0-0_LAYER001
  6
CONTINUOUS
 62
    4
 10
1733.2619
 20
1133.6168
 11
1739.6107000000002
 21
1131.8954000000001
  0
LINE
  8
_0-0_LAYER001
  6
CONTINUOUS
 62
    4
 10
1739.6107000000002
 20
1131.8954000000001
 11
1746.0448999999999
 21
1130.4725000000001
  0
LINE
  8
_0-0_LAYER001
  6
CONTINUOUS
 62
    4
 10
1746.0448999999999
 20
1130.4725000000001
 11
1752.4585999999999
 21
1129.3737000000001
  0
LINE
  8
_0-0_LAYER001
  6
CONTINUOUS
 62
    4
 10
1752.4585999999999
 20
1129.3737000000001
 11
1756.3173999999999
 21
1128.865
  0
LINE
  8
_0-0_LAYER001
  6
CONTINUOUS
 62
    4
 10
1756.3173999999999
 20
1128.865
 11
1759.3119999999999
 21
1128.5465999999999
  0
LINE
  8
_0-0_LAYER001
  6
CONTINUOUS
 62
    4
 10
1759.3119999999999
 20
1128.5465999999999
 11
1764.2044999999998
 21
1128.1642999999999
  0
LINE
  8
_0-0_LAYER001
  6
CONTINUOUS
 62
    4
 10
1764.2044999999998
 20
1128.1642999999999
 11
1769.1120000000001
 21
1127.9399000000001
  0
LINE
  8
_0-0_LAYER001
  6
CONTINUOUS
 62
    4
 10
1769.1120000000001
 20
1127.9399000000001
 11
1773.9594000000002
 21
1127.857
  0
LINE
  8
_0-0_LAYER001
  6
CONTINUOUS
 62
    4
 10
1773.9594000000002
 20
1127.857
 11
1778.7433000000001
 21
1127.8946000000001
  0
LINE
  8
_0-0_LAYER001
  6
CONTINUOUS
 62
    4
 10
1778.7433000000001
 20
1127.8946000000001
 11
1783.4308999999998
 21
1128.0316
  0
LINE
  8
_0-0_LAYER001
  6
CONTINUOUS
 62
    4
 10
1783.4308999999998
 20
1128.0316
 11
1786.2080999999998
 21
1128.1529
  0
LINE
  8
_0-0_LAYER001
  6
CONTINUOUS
 62
    4
 10
1786.2080999999998
 20
1128.1529
 11
1791.2404000000001
 21
1128.4383
  0
LINE
  8
_0-0_LAYER001
  6
CONTINUOUS
 62
    4
 10
1791.2404000000001
 20
1128.4383
 11
1799.7665999999999
 21
1129.0993000000001
  0
LINE
  8
_0-0_LAYER001
  6
CONTINUOUS
 62
    4
 10
1799.7665999999999
 20
1129.0993000000001
 11
1808.2514999999999
 21
1129.9496999999999
  0
LINE
  8
_0-0_LAYER001
  6
CONTINUOUS
 62
    4
 10
1808.2514999999999
 20
1129.9496999999999
 11
1816.6428000000001
 21
1130.9448
  0
LINE
  8
_0-0_LAYER001
  6
CONTINUOUS
 62
    4
 10
1816.6428000000001
 20
1130.9448
 11
1824.9434999999999
 21
1132.0454999999999
  0
LINE
  8
_0-0_LAYER001
  6
CONTINUOUS
 62
    4
 10
1824.9434999999999
 20
1132.0454999999999
 11
1833.1511999999998
 21
1133.2127
  0
LINE
  8
_0-0_LAYER001
  6
CONTINUOUS
 62
    4
 10
1833.1511999999998
 20
1133.2127
 11
1837.8883999999998
 21
1133.9082000000001
  0
LINE
  8
_0-0_LAYER001
  6
CONTINUOUS
 62
    4
 10
1837.8883999999998
 20
1133.9082000000001
 11
1840.3436999999999
 21
1134.2720999999999
  0
LINE
  8
_0-0_LAYER001
  6
CONTINUOUS
 62
    4
 10
1840.3436999999999
 20
1134.2720999999999
 11
1844.5578
 21
1134.9005999999999
  0
LINE
  8
_0-0_LAYER001
  6
CONTINUOUS
 62
    4
 10
1844.5578
 20
1134.9005999999999
 11
1848.7694000000001
 21
1135.5331000000001
  0
LINE
  8
_0-0_LAYER001
  6
CONTINUOUS
 62
    4
 10
1848.7694000000001
 20
1135.5331000000001
 11
1852.9760999999999
 21
1136.1682000000001
  0
LINE
  8
_0-0_LAYER001
  6
CONTINUOUS
 62
    4
 10
1852.9760999999999
 20
1136.1682000000001
 11
1857.1783
 21
1136.8050000000001
  0
LINE
  8
_0-0_LAYER001
  6
CONTINUOUS
 62
    4
 10
1857.1783
 20
1136.8050000000001
 11
1861.3762000000002
 21
1137.4426000000001
  0
LINE
  8
_0-0_LAYER001
  6
CONTINUOUS
 62
    4
 10
1861.3762000000002
 20
1137.4426000000001
 11
1862.9938999999999
 21
1137.6885
  0
LINE
  8
_0-0_LAYER001
  6
CONTINUOUS
 62
    4
 10
1610.5387000000001
 20
1180.6546000000001
 11
1610.9647
 21
1180.8177000000001
  0
ARC
  8
_0-0_LAYER001
  6
CONTINUOUS
 62
    4
 10
1611.6113
 20
1177.8529000000001
 40
3
 50
110.94902000000002
 51
178.70000000000002
  0
LINE
  8
_0-0_LAYER001
  6
CONTINUOUS
 62
    4
 10
1608.5027
 20
1162.0817999999999
 11
1608.5027
 21
1177.8043
  0
LINE
  8
_0-0_LAYER001
  6
CONTINUOUS
 62
    4
 10
1609.8566999999998
 20
1161.1466
 11
1616.0315000000001
 21
1163.4838
  0
ARC
  8
_0-0_LAYER001
  6
CONTINUOUS
 62
    4
 10
1609.5027
 20
1162.0817999999999
 40
1
 50
180
 51
290.73165999999998
  0
LINE
  8
_0-0_LAYER001
  6
CONTINUOUS
 62
    4
 10
1873.5027
 20
1140.7596000000001
 11
1873.5027
 21
1157.9570000000001
  0
LINE
  8
_0-0_LAYER001
  6
CONTINUOUS
 62
    4
 10
1861.2293
 20
1155.6433999999999
 11
1905.6835999999998
 21
1165.2913000000001
  0
LINE
  8
_0-0_LAYER001
  6
CONTINUOUS
 62
    4
 10
1867.9744999999998
 20
1135.8097
 11
1906.6462999999999
 21
1144.8597
  0
LINE
  8
_0-0_LAYER001
  6
CONTINUOUS
 62
    4
 10
1906.6462999999999
 20
1145.8162
 11
1906.6462999999999
 21
1144.8597
  0
ARC
  8
_0-0_LAYER001
  6
CONTINUOUS
 62
    4
 10
1907.6462999999999
 20
1145.8162
 40
1
 50
102.72435
 51
180
  0
LINE
  8
_0-0_LAYER001
  6
CONTINUOUS
 62
    4
 10
1912.4632999999999
 20
1147.9291000000001
 11
1907.4259999999999
 21
1146.7916
  0
ARC
  8
_0-0_LAYER001
  6
CONTINUOUS
 62
    4
 10
1912.6835999999998
 20
1146.9536000000001
 40
1
 50
0
 51
102.72435
  0
LINE
  8
_0-0_LAYER001
  6
CONTINUOUS
 62
    4
 10
1912.8957
 20
1148.4375
 11
1862.7617
 21
1137.557
  0
ARC
  8
_0-0_LAYER001
  6
CONTINUOUS
 62
    4
 10
1912.6835999999998
 20
1149.4148
 40
1
 50
282.24497000000002
 51
0
  0
LINE
  8
_0-0_LAYER001
  6
CONTINUOUS
 62
    4
 10
1912.9014000000002
 20
1127.6967999999999
 11
1863.3175000000001
 21
1116.6288999999999
  0
LINE
  8
_0-0_LAYER001
  6
CONTINUOUS
 62
    4
 10
1913.6835999999998
 20
1128.6728000000001
 11
1913.6835999999998
 21
1146.9536000000001
  0
ARC
  8
_0-0_LAYER001
  6
CONTINUOUS
 62
    4
 10
1912.6835999999998
 20
1128.6728000000001
 40
1
 50
282.58296000000001
 51
0.0000000000000254
  0
LINE
  8
_0-0_LAYER001
  6
CONTINUOUS
 62
    4
 10
1905.6835999999998
 20
1166.7483999999999
 11
1905.6835999999998
 21
1165.2913000000001
  0
ARC
  8
_0-0_LAYER001
  6
CONTINUOUS
 62
    4
 10
1906.6835999999998
 20
1166.7483999999999
 40
1
 50
101.73308
 51
180
  0
LINE
  8
_0-0_LAYER001
  6
CONTINUOUS
 62
    4
 10
1912.4802
 20
1168.9736
 11
1906.4802
 21
1167.7275
  0
LINE
  8
_0-0_LAYER001
  6
CONTINUOUS
 62
    4
 10
1913.6835999999998
 20
1167.9945
 11
1913.6835999999998
 21
1149.4148
  0
ARC
  8
_0-0_LAYER001
  6
CONTINUOUS
 62
    4
 10
1912.6835999999998
 20
1167.9945
 40
1
 50
0
 51
101.73308
  0
LINE
  8
_0-0_LAYER001
  6
CONTINUOUS
 62
    4
 10
1468.9164999999998
 20
1097.7267999999999
 11
1460.3811000000001
 21
1112.2601
  0
LINE
  8
_0-0_LAYER001
  6
CONTINUOUS
 62
    4
 10
1477.0844000000002
 20
1097.0764999999999
 11
1485.3906000000002
 21
1107.1420000000001
  0
ARC
  8
_0-0_LAYER001
  6
CONTINUOUS
 62
    4
 10
1473.2280000000001
 20
1100.2589
 40
5
 50
210.42578
 51
320.47001
  0
LINE
  8
_0-0_LAYER001
  6
CONTINUOUS
 62
    4
 10
1553.0300000000002
 20
1096.6067
 11
1545.7046
 21
1107.9127000000001
  0
LINE
  8
_0-0_LAYER001
  6
CONTINUOUS
 62
    4
 10
1561.5396000000001
 20
1096.7965999999999
 11
1570.4780000000001
 21
1112.0422000000001
  0
ARC
  8
_0-0_LAYER001
  6
CONTINUOUS
 62
    4
 10
1557.2262000000001
 20
1099.3253999999999
 40
5
 50
212.93986000000001
 51
329.61716000000001
  0
LINE
  8
_0-0_LAYER001
  6
CONTINUOUS
 62
    4
 10
1600.8216000000002
 20
1136.3542
 11
1603.2496999999998
 21
1136.7581
  0
LINE
  8
_0-0_LAYER001
  6
CONTINUOUS
 62
    4
 10
1596.6325999999999
 20
1135.6579999999999
 11
1600.8216000000002
 21
1136.3542
  0
LINE
  8
_0-0_LAYER001
  6
CONTINUOUS
 62
    4
 10
1592.4387999999999
 20
1134.9623999999999
 11
1596.6325999999999
 21
1135.6579999999999
  0
LINE
  8
_0-0_LAYER001
  6
CONTINUOUS
 62
    4
 10
1588.2399999999998
 20
1134.2683999999999
 11
1592.4387999999999
 21
1134.9623999999999
  0
LINE
  8
_0-0_LAYER001
  6
CONTINUOUS
 62
    4
 10
1584.0358999999999
 20
1133.5769
 11
1588.2399999999998
 21
1134.2683999999999
  0
LINE
  8
_0-0_LAYER001
  6
CONTINUOUS
 62
    4
 10
1579.8290999999999
 20
1132.8893
 11
1584.0358999999999
 21
1133.5769
  0
LINE
  8
_0-0_LAYER001
  6
CONTINUOUS
 62
    4
 10
1577.3768
 20
1132.4908
 11
1579.8290999999999
 21
1132.8893
  0
LINE
  8
_0-0_LAYER001
  6
CONTINUOUS
 62
    4
 10
1572.6439999999998
 20
1131.7283
 11
1577.3768
 21
1132.4908
  0
LINE
  8
_0-0_LAYER001
  6
CONTINUOUS
 62
    4
 10
1564.4396000000002
 20
1130.4444000000001
 11
1572.6439999999998
 21
1131.7283
  0
LINE
  8
_0-0_LAYER001
  6
CONTINUOUS
 62
    4
 10
1556.1320999999998
 20
1129.2246
 11
1564.4396000000002
 21
1130.4444000000001
  0
LINE
  8
_0-0_LAYER001
  6
CONTINUOUS
 62
    4
 10
1547.7239
 20
1128.1081999999999
 11
1556.1320999999998
 21
1129.2246
  0
LINE
  8
_0-0_LAYER001
  6
CONTINUOUS
 62
    4
 10
1539.2112999999999
 20
1127.1349
 11
1547.7239
 21
1128.1081999999999
  0
LINE
  8
_0-0_LAYER001
  6
CONTINUOUS
 62
    4
 10
1530.6520999999998
 20
1126.3508999999999
 11
1539.2112999999999
 21
1127.1349
  0
LINE
  8
_0-0_LAYER001
  6
CONTINUOUS
 62
    4
 10
1525.5906
 20
1125.9929
 11
1530.6520999999998
 21
1126.3508999999999
  0
LINE
  8
_0-0_LAYER001
  6
CONTINUOUS
 62
    4
 10
1522.788
 20
1125.8313000000001
 11
1525.5906
 21
1125.9929
  0
LINE
  8
_0-0_LAYER001
  6
CONTINUOUS
 62
    4
 10
1518.067
 20
1125.6273000000001
 11
1522.788
 21
1125.8313000000001
  0
LINE
  8
_0-0_LAYER001
  6
CONTINUOUS
 62
    4
 10
1513.2377999999999
 20
1125.5219
 11
1518.067
 21
1125.6273000000001
  0
LINE
  8
_0-0_LAYER001
  6
CONTINUOUS
 62
    4
 10
1508.3361
 20
1125.5372
 11
1513.2377999999999
 21
1125.5219
  0
LINE
  8
_0-0_LAYER001
  6
CONTINUOUS
 62
    4
 10
1503.3651
 20
1125.6950999999999
 11
1508.3361
 21
1125.5372
  0
LINE
  8
_0-0_LAYER001
  6
CONTINUOUS
 62
    4
 10
1498.4077000000002
 20
1126.0128
 11
1503.3651
 21
1125.6950999999999
  0
LINE
  8
_0-0_LAYER001
  6
CONTINUOUS
 62
    4
 10
1495.3561
 20
1126.2943
 11
1498.4077000000002
 21
1126.0128
  0
LINE
  8
_0-0_LAYER001
  6
CONTINUOUS
 62
    4
 10
1491.4272000000001
 20
1126.7565
 11
1495.3561
 21
1126.2943
  0
LINE
  8
_0-0_LAYER001
  6
CONTINUOUS
 62
    4
 10
1484.9133000000002
 20
1127.7791
 11
1491.4272000000001
 21
1126.7565
  0
LINE
  8
_0-0_LAYER001
  6
CONTINUOUS
 62
    4
 10
1478.3665999999998
 20
1129.1312
 11
1484.9133000000002
 21
1127.7791
  0
LINE
  8
_0-0_LAYER001
  6
CONTINUOUS
 62
    4
 10
1471.9036999999998
 20
1130.7871
 11
1478.3665999999998
 21
1129.1312
  0
LINE
  8
_0-0_LAYER001
  6
CONTINUOUS
 62
    4
 10
1465.5378000000001
 20
1132.7378000000001
 11
1471.9036999999998
 21
1130.7871
  0
LINE
  8
_0-0_LAYER001
  6
CONTINUOUS
 62
    4
 10
1459.373
 20
1134.9427000000001
 11
1465.5378000000001
 21
1132.7378000000001
  0
LINE
  8
_0-0_LAYER001
  6
CONTINUOUS
 62
    4
 10
1455.6864
 20
1136.4145000000001
 11
1459.373
 21
1134.9427000000001
  0
LINE
  8
_0-0_LAYER001
  6
CONTINUOUS
 62
    4
 10
1451.3220999999999
 20
1138.307
 11
1455.6864
 21
1136.4145000000001
  0
LINE
  8
_0-0_LAYER001
  6
CONTINUOUS
 62
    4
 10
1444.2530000000002
 20
1141.722
 11
1451.3220999999999
 21
1138.307
  0
LINE
  8
_0-0_LAYER001
  6
CONTINUOUS
 62
    4
 10
1437.3600999999999
 20
1145.4516000000001
 11
1444.2530000000002
 21
1141.722
  0
LINE
  8
_0-0_LAYER001
  6
CONTINUOUS
 62
    4
 10
1430.7231000000002
 20
1149.3852999999999
 11
1437.3600999999999
 21
1145.4516000000001
  0
LINE
  8
_0-0_LAYER001
  6
CONTINUOUS
 62
    4
 10
1424.3137999999999
 20
1153.4676999999999
 11
1430.7231000000002
 21
1149.3852999999999
  0
LINE
  8
_0-0_LAYER001
  6
CONTINUOUS
 62
    4
 10
1418.1296
 20
1157.6298999999999
 11
1424.3137999999999
 21
1153.4676999999999
  0
LINE
  8
_0-0_LAYER001
  6
CONTINUOUS
 62
    4
 10
1414.5873000000001
 20
1160.0935999999999
 11
1418.1296
 21
1157.6298999999999
  0
LINE
  8
_0-0_LAYER001
  6
CONTINUOUS
 62
    4
 10
1412.3552999999997
 20
1161.6669999999999
 11
1414.5873000000001
 21
1160.0935999999999
  0
LINE
  8
_0-0_LAYER001
  6
CONTINUOUS
 62
    4
 10
1408.7317000000003
 20
1164.2062000000001
 11
1412.3552999999997
 21
1161.6669999999999
  0
LINE
  8
_0-0_LAYER001
  6
CONTINUOUS
 62
    4
 10
1405.3620000000001
 20
1166.4717000000001
 11
1408.7317000000003
 21
1164.2062000000001
  0
LINE
  8
_0-0_LAYER001
  6
CONTINUOUS
 62
    4
 10
1402.2470000000001
 20
1168.3987999999999
 11
1405.3620000000001
 21
1166.4717000000001
  0
LINE
  8
_0-0_LAYER001
  6
CONTINUOUS
 62
    4
 10
1399.3797999999997
 20
1169.9545000000001
 11
1402.2470000000001
 21
1168.3987999999999
  0
LINE
  8
_0-0_LAYER001
  6
CONTINUOUS
 62
    4
 10
1396.5487000000003
 20
1171.223
 11
1399.3797999999997
 21
1169.9545000000001
  0
LINE
  8
_0-0_LAYER001
  6
CONTINUOUS
 62
    4
 10
1395.0854999999999
 20
1171.7551000000001
 11
1396.5487000000003
 21
1171.223
  0
LINE
  8
_0-0_LAYER001
  6
CONTINUOUS
 62
    4
 10
1394.9043999999999
 20
1171.8131000000001
 11
1395.0854999999999
 21
1171.7551000000001
  0
LINE
  8
_0-0_LAYER001
  6
CONTINUOUS
 62
    4
 10
1394.1161
 20
1172.0409999999999
 11
1394.9043999999999
 21
1171.8131000000001
  0
LINE
  8
_0-0_LAYER001
  6
CONTINUOUS
 62
    4
 10
1393.4590000000001
 20
1172.2037
 11
1394.1161
 21
1172.0409999999999
  0
LINE
  8
_0-0_LAYER001
  6
CONTINUOUS
 62
    4
 10
1392.8771999999999
 20
1172.3217
 11
1393.4590000000001
 21
1172.2037
  0
LINE
  8
_0-0_LAYER001
  6
CONTINUOUS
 62
    4
 10
1392.8370999999997
 20
1172.3279
 11
1392.8771999999999
 21
1172.3217
  0
LINE
  8
_0-0_LAYER001
  6
CONTINUOUS
 62
    4
 10
1596.8110000000001
 20
1117.1667
 11
1598.4250999999999
 21
1117.4351999999999
  0
LINE
  8
_0-0_LAYER001
  6
CONTINUOUS
 62
    4
 10
1592.6224000000002
 20
1116.4704999999999
 11
1596.8110000000001
 21
1117.1667
  0
LINE
  8
_0-0_LAYER001
  6
CONTINUOUS
 62
    4
 10
1588.4295000000002
 20
1115.7751000000001
 11
1592.6224000000002
 21
1116.4704999999999
  0
LINE
  8
_0-0_LAYER001
  6
CONTINUOUS
 62
    4
 10
1584.232
 20
1115.0814
 11
1588.4295000000002
 21
1115.7751000000001
  0
LINE
  8
_0-0_LAYER001
  6
CONTINUOUS
 62
    4
 10
1580.0297
 20
1114.3902
 11
1584.232
 21
1115.0814
  0
LINE
  8
_0-0_LAYER001
  6
CONTINUOUS
 62
    4
 10
1575.8247999999999
 20
1113.7028
 11
1580.0297
 21
1114.3902
  0
LINE
  8
_0-0_LAYER001
  6
CONTINUOUS
 62
    4
 10
1573.3748000000001
 20
1113.3046999999999
 11
1575.8247999999999
 21
1113.7028
  0
LINE
  8
_0-0_LAYER001
  6
CONTINUOUS
 62
    4
 10
1568.6478000000002
 20
1112.5432000000001
 11
1573.3748000000001
 21
1113.3046999999999
  0
LINE
  8
_0-0_LAYER001
  6
CONTINUOUS
 62
    4
 10
1560.4571999999998
 20
1111.2615000000001
 11
1568.6478000000002
 21
1112.5432000000001
  0
LINE
  8
_0-0_LAYER001
  6
CONTINUOUS
 62
    4
 10
1552.1725999999999
 20
1110.0450000000001
 11
1560.4571999999998
 21
1111.2615000000001
  0
LINE
  8
_0-0_LAYER001
  6
CONTINUOUS
 62
    4
 10
1543.7959999999998
 20
1108.9328
 11
1552.1725999999999
 21
1110.0450000000001
  0
LINE
  8
_0-0_LAYER001
  6
CONTINUOUS
 62
    4
 10
1535.3238999999999
 20
1107.9640999999999
 11
1543.7959999999998
 21
1108.9328
  0
LINE
  8
_0-0_LAYER001
  6
CONTINUOUS
 62
    4
 10
1526.8078
 20
1107.184
 11
1535.3238999999999
 21
1107.9640999999999
  0
LINE
  8
_0-0_LAYER001
  6
CONTINUOUS
 62
    4
 10
1521.7799
 20
1106.8284000000001
 11
1526.8078
 21
1107.184
  0
LINE
  8
_0-0_LAYER001
  6
CONTINUOUS
 62
    4
 10
1519.0047
 20
1106.6684
 11
1521.7799
 21
1106.8284000000001
  0
LINE
  8
_0-0_LAYER001
  6
CONTINUOUS
 62
    4
 10
1514.3193999999999
 20
1106.4659999999999
 11
1519.0047
 21
1106.6684
  0
LINE
  8
_0-0_LAYER001
  6
CONTINUOUS
 62
    4
 10
1509.5365000000002
 20
1106.3615
 11
1514.3193999999999
 21
1106.4659999999999
  0
LINE
  8
_0-0_LAYER001
  6
CONTINUOUS
 62
    4
 10
1504.6884
 20
1106.3767
 11
1509.5365000000002
 21
1106.3615
  0
LINE
  8
_0-0_LAYER001
  6
CONTINUOUS
 62
    4
 10
1499.7782999999999
 20
1106.5327
 11
1504.6884
 21
1106.3767
  0
LINE
  8
_0-0_LAYER001
  6
CONTINUOUS
 62
    4
 10
1494.8809999999999
 20
1106.8466000000001
 11
1499.7782999999999
 21
1106.5327
  0
LINE
  8
_0-0_LAYER001
  6
CONTINUOUS
 62
    4
 10
1491.8822
 20
1107.1231
 11
1494.8809999999999
 21
1106.8466000000001
  0
LINE
  8
_0-0_LAYER001
  6
CONTINUOUS
 62
    4
 10
1488.0167000000001
 20
1107.5779
 11
1491.8822
 21
1107.1231
  0
LINE
  8
_0-0_LAYER001
  6
CONTINUOUS
 62
    4
 10
1481.5882000000001
 20
1108.587
 11
1488.0167000000001
 21
1107.5779
  0
LINE
  8
_0-0_LAYER001
  6
CONTINUOUS
 62
    4
 10
1475.1347999999998
 20
1109.9199000000001
 11
1481.5882000000001
 21
1108.587
  0
LINE
  8
_0-0_LAYER001
  6
CONTINUOUS
 62
    4
 10
1468.7626
 20
1111.5525
 11
1475.1347999999998
 21
1109.9199000000001
  0
LINE
  8
_0-0_LAYER001
  6
CONTINUOUS
 62
    4
 10
1462.4852999999998
 20
1113.4761000000001
 11
1468.7626
 21
1111.5525
  0
LINE
  8
_0-0_LAYER001
  6
CONTINUOUS
 62
    4
 10
1456.3982000000001
 20
1115.6532999999999
 11
1462.4852999999998
 21
1113.4761000000001
  0
LINE
  8
_0-0_LAYER001
  6
CONTINUOUS
 62
    4
 10
1452.7725
 20
1117.1007
 11
1456.3982000000001
 21
1115.6532999999999
  0
LINE
  8
_0-0_LAYER001
  6
CONTINUOUS
 62
    4
 10
1448.4726999999998
 20
1118.9653000000001
 11
1452.7725
 21
1117.1007
  0
LINE
  8
_0-0_LAYER001
  6
CONTINUOUS
 62
    4
 10
1441.4818
 20
1122.3425
 11
1448.4726999999998
 21
1118.9653000000001
  0
LINE
  8
_0-0_LAYER001
  6
CONTINUOUS
 62
    4
 10
1434.6637000000001
 20
1126.0316
 11
1441.4818
 21
1122.3425
  0
LINE
  8
_0-0_LAYER001
  6
CONTINUOUS
 62
    4
 10
1428.0879
 20
1129.9290000000001
 11
1434.6637000000001
 21
1126.0316
  0
LINE
  8
_0-0_LAYER001
  6
CONTINUOUS
 62
    4
 10
1421.7270000000003
 20
1133.9806000000001
 11
1428.0879
 21
1129.9290000000001
  0
LINE
  8
_0-0_LAYER001
  6
CONTINUOUS
 62
    4
 10
1415.5763999999999
 20
1138.1201000000001
 11
1421.7270000000003
 21
1133.9806000000001
  0
LINE
  8
_0-0_LAYER001
  6
CONTINUOUS
 62
    4
 10
1412.0518999999999
 20
1140.5715
 11
1415.5763999999999
 21
1138.1201000000001
  0
LINE
  8
_0-0_LAYER001
  6
CONTINUOUS
 62
    4
 10
1409.8226999999999
 20
1142.1429000000001
 11
1412.0518999999999
 21
1140.5715
  0
LINE
  8
_0-0_LAYER001
  6
CONTINUOUS
 62
    4
 10
1406.181
 20
1144.6948
 11
1409.8226999999999
 21
1142.1429000000001
  0
LINE
  8
_0-0_LAYER001
  6
CONTINUOUS
 62
    4
 10
1402.7638999999999
 20
1146.9921999999999
 11
1406.181
 21
1144.6948
  0
LINE
  8
_0-0_LAYER001
  6
CONTINUOUS
 62
    4
 10
1399.5682999999999
 20
1148.9692
 11
1402.7638999999999
 21
1146.9921999999999
  0
LINE
  8
_0-0_LAYER001
  6
CONTINUOUS
 62
    4
 10
1396.5843
 20
1150.5882999999999
 11
1399.5682999999999
 21
1148.9692
  0
LINE
  8
_0-0_LAYER001
  6
CONTINUOUS
 62
    4
 10
1393.6178
 20
1151.9174
 11
1396.5843
 21
1150.5882999999999
  0
LINE
  8
_0-0_LAYER001
  6
CONTINUOUS
 62
    4
 10
1392.8678
 20
1152.1901
 11
1393.6178
 21
1151.9174
  0
LINE
  8
_0-0_LAYER001
  6
CONTINUOUS
 62
    4
 10
1393.2008999999998
 20
1172.2333000000001
 11
1393.0248000000001
 21
1152.0598
  0
LINE
  8
_0-0_LAYER001
  6
CONTINUOUS
 62
    4
 10
1593.5264999999999
 20
1106.7455
 11
1591.2811000000002
 21
1115.3189
  0
ARC
  8
_0-0_LAYER001
  6
CONTINUOUS
 62
    4
 10
1596.4286000000002
 20
1107.5056
 40
3
 50
194.67639000000003
 51
270.00000000000006
  0
LINE
  8
_0-0_LAYER001
  6
CONTINUOUS
 62
    4
 10
1599.8710999999998
 20
1104.5012999999999
 11
1596.4533000000001
 21
1104.5012999999999
  0
LINE
  8
_0-0_LAYER001
  6
CONTINUOUS
 62
    4
 10
1602.8303000000001
 20
1107.0081
 11
1604.7642999999998
 21
1118.6122
  0
ARC
  8
_0-0_LAYER001
  6
CONTINUOUS
 62
    4
 10
1599.8710999999998
 20
1107.5012999999999
 40
3
 50
270
 51
350.53766999999999
  0
LINE
  8
_0-0_LAYER001
  6
CONTINUOUS
 62
    4
 10
1346.1047000000003
 20
1181.6234999999999
 11
1346.9186
 21
1181.9301
  0
LINE
  8
_0-0_LAYER001
  6
CONTINUOUS
 62
    4
 10
1346.9186
 20
1181.9301
 11
1350.4679000000001
 21
1183.2697000000001
  0
LINE
  8
_0-0_LAYER001
  6
CONTINUOUS
 62
    4
 10
1350.4679000000001
 20
1183.2697000000001
 11
1354.0245
 21
1184.6186
  0
LINE
  8
_0-0_LAYER001
  6
CONTINUOUS
 62
    4
 10
1354.0245
 20
1184.6186
 11
1357.5932
 21
1185.9826
  0
LINE
  8
_0-0_LAYER001
  6
CONTINUOUS
 62
    4
 10
1357.5932
 20
1185.9826
 11
1361.1785
 21
1187.3677
  0
LINE
  8
_0-0_LAYER001
  6
CONTINUOUS
 62
    4
 10
1361.1785
 20
1187.3677
 11
1364.7852
 21
1188.7797
  0
LINE
  8
_0-0_LAYER001
  6
CONTINUOUS
 62
    4
 10
1364.7852
 20
1188.7797
 11
1366.8887
 21
1189.6133
  0
LINE
  8
_0-0_LAYER001
  6
CONTINUOUS
 62
    4
 10
1366.8887
 20
1189.6133
 11
1368.9681
 21
1190.4421
  0
LINE
  8
_0-0_LAYER001
  6
CONTINUOUS
 62
    4
 10
1368.9681
 20
1190.4421
 11
1372.5745999999999
 21
1191.8435999999999
  0
LINE
  8
_0-0_LAYER001
  6
CONTINUOUS
 62
    4
 10
1372.5745999999999
 20
1191.8435999999999
 11
1376.2074000000002
 21
1193.1262999999999
  0
LINE
  8
_0-0_LAYER001
  6
CONTINUOUS
 62
    4
 10
1376.2074000000002
 20
1193.1262999999999
 11
1379.8652999999999
 21
1194.1929
  0
LINE
  8
_0-0_LAYER001
  6
CONTINUOUS
 62
    4
 10
1379.8652999999999
 20
1194.1929
 11
1383.5473999999999
 21
1194.9462000000001
  0
LINE
  8
_0-0_LAYER001
  6
CONTINUOUS
 62
    4
 10
1383.5473999999999
 20
1194.9462000000001
 11
1387.2527
 21
1195.2887000000001
  0
LINE
  8
_0-0_LAYER001
  6
CONTINUOUS
 62
    4
 10
1387.2527
 20
1195.2887000000001
 11
1389.412
 21
1195.2608
  0
LINE
  8
_0-0_LAYER001
  6
CONTINUOUS
 62
    4
 10
1389.412
 20
1195.2608
 11
1390.2611999999999
 21
1195.1994
  0
LINE
  8
_0-0_LAYER001
  6
CONTINUOUS
 62
    4
 10
1390.2611999999999
 20
1195.1994
 11
1391.7255
 21
1195.0288
  0
LINE
  8
_0-0_LAYER001
  6
CONTINUOUS
 62
    4
 10
1391.7255
 20
1195.0288
 11
1393.1866
 21
1194.7820999999999
  0
LINE
  8
_0-0_LAYER001
  6
CONTINUOUS
 62
    4
 10
1393.1866
 20
1194.7820999999999
 11
1394.6403
 21
1194.4661000000001
  0
LINE
  8
_0-0_LAYER001
  6
CONTINUOUS
 62
    4
 10
1394.6403
 20
1194.4661000000001
 11
1396.0824
 21
1194.0876000000001
  0
LINE
  8
_0-0_LAYER001
  6
CONTINUOUS
 62
    4
 10
1396.0824
 20
1194.0876000000001
 11
1397.5088000000001
 21
1193.6533999999999
  0
LINE
  8
_0-0_LAYER001
  6
CONTINUOUS
 62
    4
 10
1397.5088000000001
 20
1193.6533999999999
 11
1398.3272999999999
 21
1193.3788
  0
LINE
  8
_0-0_LAYER001
  6
CONTINUOUS
 62
    4
 10
1398.3272999999999
 20
1193.3788
 11
1400.8256000000001
 21
1192.4305999999999
  0
LINE
  8
_0-0_LAYER001
  6
CONTINUOUS
 62
    4
 10
1400.8256000000001
 20
1192.4305999999999
 11
1404.9845
 21
1190.4971
  0
LINE
  8
_0-0_LAYER001
  6
CONTINUOUS
 62
    4
 10
1404.9845
 20
1190.4971
 11
1408.9883
 21
1188.2517
  0
LINE
  8
_0-0_LAYER001
  6
CONTINUOUS
 62
    4
 10
1408.9883
 20
1188.2517
 11
1412.8751
 21
1185.7714000000001
  0
LINE
  8
_0-0_LAYER001
  6
CONTINUOUS
 62
    4
 10
1412.8751
 20
1185.7714000000001
 11
1416.6831
 21
1183.1333
  0
LINE
  8
_0-0_LAYER001
  6
CONTINUOUS
 62
    4
 10
1416.6831
 20
1183.1333
 11
1420.4503999999999
 21
1180.4141999999999
  0
LINE
  8
_0-0_LAYER001
  6
CONTINUOUS
 62
    4
 10
1420.4503999999999
 20
1180.4141999999999
 11
1422.6316999999999
 21
1178.8304000000001
  0
LINE
  8
_0-0_LAYER001
  6
CONTINUOUS
 62
    4
 10
1422.6316999999999
 20
1178.8304000000001
 11
1425.9632999999999
 21
1176.4435000000001
  0
LINE
  8
_0-0_LAYER001
  6
CONTINUOUS
 62
    4
 10
1425.9632999999999
 20
1176.4435000000001
 11
1431.7555000000002
 21
1172.4266
  0
LINE
  8
_0-0_LAYER001
  6
CONTINUOUS
 62
    4
 10
1431.7555000000002
 20
1172.4266
 11
1437.6277
 21
1168.5699999999999
  0
LINE
  8
_0-0_LAYER001
  6
CONTINUOUS
 62
    4
 10
1437.6277
 20
1168.5699999999999
 11
1443.6019000000001
 21
1164.9155000000001
  0
LINE
  8
_0-0_LAYER001
  6
CONTINUOUS
 62
    4
 10
1443.6019000000001
 20
1164.9155000000001
 11
1449.7001
 21
1161.5050000000001
  0
LINE
  8
_0-0_LAYER001
  6
CONTINUOUS
 62
    4
 10
1449.7001
 20
1161.5050000000001
 11
1455.9443000000001
 21
1158.3802000000001
  0
LINE
  8
_0-0_LAYER001
  6
CONTINUOUS
 62
    4
 10
1455.9443000000001
 20
1158.3802000000001
 11
1459.6415999999999
 21
1156.7152000000001
  0
LINE
  8
_0-0_LAYER001
  6
CONTINUOUS
 62
    4
 10
1459.6415999999999
 20
1156.7152000000001
 11
1462.7008999999998
 21
1155.4440999999999
  0
LINE
  8
_0-0_LAYER001
  6
CONTINUOUS
 62
    4
 10
1462.7008999999998
 20
1155.4440999999999
 11
1468.0614
 21
1153.4419
  0
LINE
  8
_0-0_LAYER001
  6
CONTINUOUS
 62
    4
 10
1468.0614
 20
1153.4419
 11
1473.5171
 21
1151.6864
  0
LINE
  8
_0-0_LAYER001
  6
CONTINUOUS
 62
    4
 10
1473.5171
 20
1151.6864
 11
1479.0520999999999
 21
1150.1857
  0
LINE
  8
_0-0_LAYER001
  6
CONTINUOUS
 62
    4
 10
1479.0520999999999
 20
1150.1857
 11
1484.6504
 21
1148.9476999999999
  0
LINE
  8
_0-0_LAYER001
  6
CONTINUOUS
 62
    4
 10
1484.6504
 20
1148.9476999999999
 11
1490.2961
 21
1147.9803999999999
  0
LINE
  8
_0-0_LAYER001
  6
CONTINUOUS
 62
    4
 10
1490.2961
 20
1147.9803999999999
 11
1493.5861
 21
1147.5467000000001
  0
LINE
  8
_0-0_LAYER001
  6
CONTINUOUS
 62
    4
 10
1493.5861
 20
1147.5467000000001
 11
1496.1053999999999
 21
1147.2789
  0
LINE
  8
_0-0_LAYER001
  6
CONTINUOUS
 62
    4
 10
1496.1053999999999
 20
1147.2789
 11
1500.4575
 21
1146.9387999999999
  0
LINE
  8
_0-0_LAYER001
  6
CONTINUOUS
 62
    4
 10
1500.4575
 20
1146.9387999999999
 11
1504.8177000000001
 21
1146.7393999999999
  0
LINE
  8
_0-0_LAYER001
  6
CONTINUOUS
 62
    4
 10
1504.8177000000001
 20
1146.7393999999999
 11
1509.1828999999998
 21
1146.6647
  0
LINE
  8
_0-0_LAYER001
  6
CONTINUOUS
 62
    4
 10
1509.1828999999998
 20
1146.6647
 11
1513.5500000000002
 21
1146.6991
  0
LINE
  8
_0-0_LAYER001
  6
CONTINUOUS
 62
    4
 10
1513.5500000000002
 20
1146.6991
 11
1517.9159
 21
1146.8267000000001
  0
LINE
  8
_0-0_LAYER001
  6
CONTINUOUS
 62
    4
 10
1517.9159
 20
1146.8267000000001
 11
1520.4463000000001
 21
1146.9372000000001
  0
LINE
  8
_0-0_LAYER001
  6
CONTINUOUS
 62
    4
 10
1520.4463000000001
 20
1146.9372000000001
 11
1525.1754000000001
 21
1147.2054000000001
  0
LINE
  8
_0-0_LAYER001
  6
CONTINUOUS
 62
    4
 10
1525.1754000000001
 20
1147.2054000000001
 11
1533.3136
 21
1147.8362999999999
  0
LINE
  8
_0-0_LAYER001
  6
CONTINUOUS
 62
    4
 10
1533.3136
 20
1147.8362999999999
 11
1541.4344000000001
 21
1148.6502
  0
LINE
  8
_0-0_LAYER001
  6
CONTINUOUS
 62
    4
 10
1541.4344000000001
 20
1148.6502
 11
1549.5401999999999
 21
1149.6115
  0
LINE
  8
_0-0_LAYER001
  6
CONTINUOUS
 62
    4
 10
1549.5401999999999
 20
1149.6115
 11
1557.6336999999999
 21
1150.6847
  0
LINE
  8
_0-0_LAYER001
  6
CONTINUOUS
 62
    4
 10
1557.6336999999999
 20
1150.6847
 11
1565.7172
 21
1151.8342
  0
LINE
  8
_0-0_LAYER001
  6
CONTINUOUS
 62
    4
 10
1565.7172
 20
1151.8342
 11
1570.4020999999998
 21
1152.5219999999999
  0
LINE
  8
_0-0_LAYER001
  6
CONTINUOUS
 62
    4
 10
1570.4020999999998
 20
1152.5219999999999
 11
1572.837
 21
1152.8829000000001
  0
LINE
  8
_0-0_LAYER001
  6
CONTINUOUS
 62
    4
 10
1572.837
 20
1152.8829000000001
 11
1577.0340000000001
 21
1153.5089
  0
LINE
  8
_0-0_LAYER001
  6
CONTINUOUS
 62
    4
 10
1577.0340000000001
 20
1153.5089
 11
1581.2298000000001
 21
1154.1389999999999
  0
LINE
  8
_0-0_LAYER001
  6
CONTINUOUS
 62
    4
 10
1581.2298000000001
 20
1154.1389999999999
 11
1585.4245999999998
 21
1154.7723000000001
  0
LINE
  8
_0-0_LAYER001
  6
CONTINUOUS
 62
    4
 10
1585.4245999999998
 20
1154.7723000000001
 11
1589.6188000000002
 21
1155.4078
  0
LINE
  8
_0-0_LAYER001
  6
CONTINUOUS
 62
    4
 10
1589.6188000000002
 20
1155.4078
 11
1593.8125
 21
1156.0447999999999
  0
LINE
  8
_0-0_LAYER001
  6
CONTINUOUS
 62
    4
 10
1593.8125
 20
1156.0447999999999
 11
1596.2447999999999
 21
1156.4146000000001
  0
LINE
  8
_0-0_LAYER001
  6
CONTINUOUS
 62
    4
 10
1351.2078999999999
 20
1164.3109999999999
 11
1353.2698
 21
1165.0878
  0
LINE
  8
_0-0_LAYER001
  6
CONTINUOUS
 62
    4
 10
1353.2698
 20
1165.0878
 11
1356.8373999999999
 21
1166.4344000000001
  0
LINE
  8
_0-0_LAYER001
  6
CONTINUOUS
 62
    4
 10
1356.8373999999999
 20
1166.4344000000001
 11
1360.4293000000002
 21
1167.7965999999999
  0
LINE
  8
_0-0_LAYER001
  6
CONTINUOUS
 62
    4
 10
1360.4293000000002
 20
1167.7965999999999
 11
1364.0497
 21
1169.1804
  0
LINE
  8
_0-0_LAYER001
  6
CONTINUOUS
 62
    4
 10
1364.0497
 20
1169.1804
 11
1367.7027
 21
1170.5916
  0
LINE
  8
_0-0_LAYER001
  6
CONTINUOUS
 62
    4
 10
1367.7027
 20
1170.5916
 11
1371.3819000000001
 21
1172.0319999999999
  0
LINE
  8
_0-0_LAYER001
  6
CONTINUOUS
 62
    4
 10
1371.3819000000001
 20
1172.0319999999999
 11
1373.5371
 21
1172.886
  0
LINE
  8
_0-0_LAYER001
  6
CONTINUOUS
 62
    4
 10
1373.5371
 20
1172.886
 11
1375.5606
 21
1173.6927000000001
  0
LINE
  8
_0-0_LAYER001
  6
CONTINUOUS
 62
    4
 10
1375.5606
 20
1173.6927000000001
 11
1378.8325
 21
1174.9640999999999
  0
LINE
  8
_0-0_LAYER001
  6
CONTINUOUS
 62
    4
 10
1378.8325
 20
1174.9640999999999
 11
1381.7275999999997
 21
1175.9863
  0
LINE
  8
_0-0_LAYER001
  6
CONTINUOUS
 62
    4
 10
1381.7275999999997
 20
1175.9863
 11
1384.1958
 21
1176.7059999999999
  0
LINE
  8
_0-0_LAYER001
  6
CONTINUOUS
 62
    4
 10
1384.1958
 20
1176.7059999999999
 11
1386.1875
 21
1177.1134999999999
  0
LINE
  8
_0-0_LAYER001
  6
CONTINUOUS
 62
    4
 10
1386.1875
 20
1177.1134999999999
 11
1387.9667999999997
 21
1177.278
  0
LINE
  8
_0-0_LAYER001
  6
CONTINUOUS
 62
    4
 10
1387.9667999999997
 20
1177.278
 11
1388.6464000000001
 21
1177.2692
  0
LINE
  8
_0-0_LAYER001
  6
CONTINUOUS
 62
    4
 10
1388.6464000000001
 20
1177.2692
 11
1388.5703000000001
 21
1177.2746999999999
  0
LINE
  8
_0-0_LAYER001
  6
CONTINUOUS
 62
    4
 10
1388.5703000000001
 20
1177.2746999999999
 11
1389.1839
 21
1177.2031999999999
  0
LINE
  8
_0-0_LAYER001
  6
CONTINUOUS
 62
    4
 10
1389.1839
 20
1177.2031999999999
 11
1389.7743
 21
1177.1034999999999
  0
LINE
  8
_0-0_LAYER001
  6
CONTINUOUS
 62
    4
 10
1389.7743
 20
1177.1034999999999
 11
1390.4417000000001
 21
1176.9584
  0
LINE
  8
_0-0_LAYER001
  6
CONTINUOUS
 62
    4
 10
1390.4417000000001
 20
1176.9584
 11
1391.1753000000001
 21
1176.7659000000001
  0
LINE
  8
_0-0_LAYER001
  6
CONTINUOUS
 62
    4
 10
1391.1753000000001
 20
1176.7659000000001
 11
1392.0244
 21
1176.5074
  0
LINE
  8
_0-0_LAYER001
  6
CONTINUOUS
 62
    4
 10
1392.0244
 20
1176.5074
 11
1392.2684999999999
 21
1176.4255000000001
  0
LINE
  8
_0-0_LAYER001
  6
CONTINUOUS
 62
    4
 10
1392.2684999999999
 20
1176.4255000000001
 11
1393.8284000000001
 21
1175.8334
  0
LINE
  8
_0-0_LAYER001
  6
CONTINUOUS
 62
    4
 10
1393.8284000000001
 20
1175.8334
 11
1396.7761
 21
1174.463
  0
LINE
  8
_0-0_LAYER001
  6
CONTINUOUS
 62
    4
 10
1396.7761
 20
1174.463
 11
1399.7372
 21
1172.8024
  0
LINE
  8
_0-0_LAYER001
  6
CONTINUOUS
 62
    4
 10
1399.7372
 20
1172.8024
 11
1402.9049
 21
1170.7810999999999
  0
LINE
  8
_0-0_LAYER001
  6
CONTINUOUS
 62
    4
 10
1402.9049
 20
1170.7810999999999
 11
1406.2896000000001
 21
1168.4360999999999
  0
LINE
  8
_0-0_LAYER001
  6
CONTINUOUS
 62
    4
 10
1406.2896000000001
 20
1168.4360999999999
 11
1409.8953000000001
 21
1165.8336999999999
  0
LINE
  8
_0-0_LAYER001
  6
CONTINUOUS
 62
    4
 10
1409.8953000000001
 20
1165.8336999999999
 11
1412.1023
 21
1164.2311999999999
  0
LINE
  8
_0-0_LAYER001
  6
CONTINUOUS
 62
    4
 10
1412.1023
 20
1164.2311999999999
 11
1415.5923000000003
 21
1161.7309
  0
LINE
  8
_0-0_LAYER001
  6
CONTINUOUS
 62
    4
 10
1415.5923000000003
 20
1161.7309
 11
1421.6845000000001
 21
1157.5060000000001
  0
LINE
  8
_0-0_LAYER001
  6
CONTINUOUS
 62
    4
 10
1421.6845000000001
 20
1157.5060000000001
 11
1427.9882
 21
1153.3659
  0
LINE
  8
_0-0_LAYER001
  6
CONTINUOUS
 62
    4
 10
1427.9882
 20
1153.3659
 11
1434.5088999999998
 21
1149.3770999999999
  0
LINE
  8
_0-0_LAYER001
  6
CONTINUOUS
 62
    4
 10
1434.5088999999998
 20
1149.3770999999999
 11
1441.2748999999999
 21
1145.5931
  0
LINE
  8
_0-0_LAYER001
  6
CONTINUOUS
 62
    4
 10
1441.2748999999999
 20
1145.5931
 11
1448.2179000000001
 21
1142.1186
  0
LINE
  8
_0-0_LAYER001
  6
CONTINUOUS
 62
    4
 10
1448.2179000000001
 20
1142.1186
 11
1452.4913000000001
 21
1140.1941999999999
  0
LINE
  8
_0-0_LAYER001
  6
CONTINUOUS
 62
    4
 10
1452.4913000000001
 20
1140.1941999999999
 11
1456.0963999999999
 21
1138.6963000000001
  0
LINE
  8
_0-0_LAYER001
  6
CONTINUOUS
 62
    4
 10
1456.0963999999999
 20
1138.6963000000001
 11
1462.1525000000001
 21
1136.4342999999999
  0
LINE
  8
_0-0_LAYER001
  6
CONTINUOUS
 62
    4
 10
1462.1525000000001
 20
1136.4342999999999
 11
1468.4023999999999
 21
1134.4232999999999
  0
LINE
  8
_0-0_LAYER001
  6
CONTINUOUS
 62
    4
 10
1468.4023999999999
 20
1134.4232999999999
 11
1474.7511
 21
1132.7019
  0
LINE
  8
_0-0_LAYER001
  6
CONTINUOUS
 62
    4
 10
1474.7511
 20
1132.7019
 11
1481.1853000000001
 21
1131.279
  0
LINE
  8
_0-0_LAYER001
  6
CONTINUOUS
 62
    4
 10
1481.1853000000001
 20
1131.279
 11
1487.5990000000002
 21
1130.1803
  0
LINE
  8
_0-0_LAYER001
  6
CONTINUOUS
 62
    4
 10
1487.5990000000002
 20
1130.1803
 11
1491.4578999999999
 21
1129.6714999999999
  0
LINE
  8
_0-0_LAYER001
  6
CONTINUOUS
 62
    4
 10
1491.4578999999999
 20
1129.6714999999999
 11
1494.4524999999999
 21
1129.3531
  0
LINE
  8
_0-0_LAYER001
  6
CONTINUOUS
 62
    4
 10
1494.4524999999999
 20
1129.3531
 11
1499.3449000000001
 21
1128.9709
  0
LINE
  8
_0-0_LAYER001
  6
CONTINUOUS
 62
    4
 10
1499.3449000000001
 20
1128.9709
 11
1504.2523999999999
 21
1128.7464
  0
LINE
  8
_0-0_LAYER001
  6
CONTINUOUS
 62
    4
 10
1504.2523999999999
 20
1128.7464
 11
1509.0998
 21
1128.6635000000001
  0
LINE
  8
_0-0_LAYER001
  6
CONTINUOUS
 62
    4
 10
1509.0998
 20
1128.6635000000001
 11
1513.8836999999999
 21
1128.7012
  0
LINE
  8
_0-0_LAYER001
  6
CONTINUOUS
 62
    4
 10
1513.8836999999999
 20
1128.7012
 11
1518.5713999999998
 21
1128.8381999999999
  0
LINE
  8
_0-0_LAYER001
  6
CONTINUOUS
 62
    4
 10
1518.5713999999998
 20
1128.8381999999999
 11
1521.3485000000001
 21
1128.9594
  0
LINE
  8
_0-0_LAYER001
  6
CONTINUOUS
 62
    4
 10
1521.3485000000001
 20
1128.9594
 11
1526.3809000000001
 21
1129.2447999999999
  0
LINE
  8
_0-0_LAYER001
  6
CONTINUOUS
 62
    4
 10
1526.3809000000001
 20
1129.2447999999999
 11
1534.9070000000002
 21
1129.9059
  0
LINE
  8
_0-0_LAYER001
  6
CONTINUOUS
 62
    4
 10
1534.9070000000002
 20
1129.9059
 11
1543.3919000000001
 21
1130.7562
  0
LINE
  8
_0-0_LAYER001
  6
CONTINUOUS
 62
    4
 10
1543.3919000000001
 20
1130.7562
 11
1551.7831999999999
 21
1131.7514000000001
  0
LINE
  8
_0-0_LAYER001
  6
CONTINUOUS
 62
    4
 10
1551.7831999999999
 20
1131.7514000000001
 11
1560.0839000000001
 21
1132.8520000000001
  0
LINE
  8
_0-0_LAYER001
  6
CONTINUOUS
 62
    4
 10
1560.0839000000001
 20
1132.8520000000001
 11
1568.2917000000002
 21
1134.0192999999999
  0
LINE
  8
_0-0_LAYER001
  6
CONTINUOUS
 62
    4
 10
1568.2917000000002
 20
1134.0192999999999
 11
1573.0288
 21
1134.7147
  0
LINE
  8
_0-0_LAYER001
  6
CONTINUOUS
 62
    4
 10
1573.0288
 20
1134.7147
 11
1575.4841000000001
 21
1135.0786000000001
  0
LINE
  8
_0-0_LAYER001
  6
CONTINUOUS
 62
    4
 10
1575.4841000000001
 20
1135.0786000000001
 11
1579.6983
 21
1135.7072000000001
  0
LINE
  8
_0-0_LAYER001
  6
CONTINUOUS
 62
    4
 10
1579.6983
 20
1135.7072000000001
 11
1583.9097999999999
 21
1136.3396
  0
LINE
  8
_0-0_LAYER001
  6
CONTINUOUS
 62
    4
 10
1583.9097999999999
 20
1136.3396
 11
1588.1165000000001
 21
1136.9747
  0
LINE
  8
_0-0_LAYER001
  6
CONTINUOUS
 62
    4
 10
1588.1165000000001
 20
1136.9747
 11
1592.3186999999998
 21
1137.6115
  0
LINE
  8
_0-0_LAYER001
  6
CONTINUOUS
 62
    4
 10
1592.3186999999998
 20
1137.6115
 11
1596.5165999999999
 21
1138.2491
  0
LINE
  8
_0-0_LAYER001
  6
CONTINUOUS
 62
    4
 10
1596.5165999999999
 20
1138.2491
 11
1598.1343000000002
 21
1138.4949999999999
  0
LINE
  8
_0-0_LAYER001
  6
CONTINUOUS
 62
    4
 10
1345.6791000000001
 20
1181.4611
 11
1346.1051
 21
1181.6242
  0
ARC
  8
_0-0_LAYER001
  6
CONTINUOUS
 62
    4
 10
1346.7517
 20
1178.6594
 40
3
 50
110.94902000000002
 51
178.70000000000002
  0
LINE
  8
_0-0_LAYER001
  6
CONTINUOUS
 62
    4
 10
1343.6430999999998
 20
1162.8884
 11
1343.6430999999998
 21
1178.6108999999999
  0
LINE
  8
_0-0_LAYER001
  6
CONTINUOUS
 62
    4
 10
1344.9971
 20
1161.9530999999999
 11
1351.172
 21
1164.2902999999999
  0
ARC
  8
_0-0_LAYER001
  6
CONTINUOUS
 62
    4
 10
1344.6431000000002
 20
1162.8884
 40
1
 50
180
 51
290.73165999999998
  0
LINE
  8
_0-0_LAYER001
  6
CONTINUOUS
 62
    4
 10
1608.6430999999998
 20
1141.5662
 11
1608.6430999999998
 21
1158.7635
  0
LINE
  8
_0-0_LAYER001
  6
CONTINUOUS
 62
    4
 10
1596.3697000000002
 20
1156.45
 11
1640.8240000000001
 21
1166.0979
  0
LINE
  8
_0-0_LAYER001
  6
CONTINUOUS
 62
    4
 10
1603.1149
 20
1136.6162999999999
 11
1641.7867000000001
 21
1145.6661999999999
  0
LINE
  8
_0-0_LAYER001
  6
CONTINUOUS
 62
    4
 10
1641.7867000000001
 20
1146.6226999999999
 11
1641.7867000000001
 21
1145.6661999999999
  0
ARC
  8
_0-0_LAYER001
  6
CONTINUOUS
 62
    4
 10
1642.7867000000001
 20
1146.6226999999999
 40
1
 50
102.72435
 51
180
  0
LINE
  8
_0-0_LAYER001
  6
CONTINUOUS
 62
    4
 10
1647.6037000000001
 20
1148.7356
 11
1642.5664999999999
 21
1147.5981999999999
  0
ARC
  8
_0-0_LAYER001
  6
CONTINUOUS
 62
    4
 10
1647.8240000000001
 20
1147.7601999999999
 40
1
 50
0
 51
102.72435
  0
LINE
  8
_0-0_LAYER001
  6
CONTINUOUS
 62
    4
 10
1648.0360999999998
 20
1149.2440999999999
 11
1597.9020999999998
 21
1138.3634999999999
  0
ARC
  8
_0-0_LAYER001
  6
CONTINUOUS
 62
    4
 10
1647.8240000000001
 20
1150.2212999999999
 40
1
 50
282.24497000000002
 51
0
  0
LINE
  8
_0-0_LAYER001
  6
CONTINUOUS
 62
    4
 10
1648.0418
 20
1128.5033000000001
 11
1598.4578999999999
 21
1117.4355
  0
LINE
  8
_0-0_LAYER001
  6
CONTINUOUS
 62
    4
 10
1648.8240000000001
 20
1129.4793
 11
1648.8240000000001
 21
1147.7601999999999
  0
ARC
  8
_0-0_LAYER001
  6
CONTINUOUS
 62
    4
 10
1647.8240000000001
 20
1129.4793
 40
1
 50
282.58296000000001
 51
0.0000000000000254
  0
LINE
  8
_0-0_LAYER001
  6
CONTINUOUS
 62
    4
 10
1640.8240000000001
 20
1167.5549000000001
 11
1640.8240000000001
 21
1166.0979
  0
ARC
  8
_0-0_LAYER001
  6
CONTINUOUS
 62
    4
 10
1641.8240000000001
 20
1167.5549000000001
 40
1
 50
101.73308
 51
180
  0
LINE
  8
_0-0_LAYER001
  6
CONTINUOUS
 62
    4
 10
1647.6206000000002
 20
1169.7801999999999
 11
1641.6206000000002
 21
1168.5340000000001
  0
LINE
  8
_0-0_LAYER001
  6
CONTINUOUS
 62
    4
 10
1648.8240000000001
 20
1168.8009999999999
 11
1648.8240000000001
 21
1150.2212999999999
  0
ARC
  8
_0-0_LAYER001
  6
CONTINUOUS
 62
    4
 10
1647.8240000000001
 20
1168.8009999999999
 40
1
 50
0
 51
101.73308
  0
LINE
  8
_0-0_LAYER001
  6
CONTINUOUS
 62
    4
 10
1126.0708999999999
 20
1175.9593
 11
1130.3469
 21
1174.0085999999999
  0
LINE
  8
_0-0_LAYER001
  6
CONTINUOUS
 62
    4
 10
1130.3469
 20
1174.0085999999999
 11
1137.6713999999999
 21
1170.6967
  0
LINE
  8
_0-0_LAYER001
  6
CONTINUOUS
 62
    4
 10
1137.6713999999999
 20
1170.6967
 11
1144.9223
 21
1167.4992
  0
LINE
  8
_0-0_LAYER001
  6
CONTINUOUS
 62
    4
 10
1144.9223
 20
1167.4992
 11
1152.1134
 21
1164.4579000000001
  0
LINE
  8
_0-0_LAYER001
  6
CONTINUOUS
 62
    4
 10
1152.1134
 20
1164.4579000000001
 11
1159.2577000000001
 21
1161.6134999999999
  0
LINE
  8
_0-0_LAYER001
  6
CONTINUOUS
 62
    4
 10
1159.2577000000001
 20
1161.6134999999999
 11
1166.4323999999999
 21
1158.9804999999999
  0
LINE
  8
_0-0_LAYER001
  6
CONTINUOUS
 62
    4
 10
1166.4323999999999
 20
1158.9804999999999
 11
1170.5220999999999
 21
1157.597
  0
LINE
  8
_0-0_LAYER001
  6
CONTINUOUS
 62
    4
 10
1170.5220999999999
 20
1157.597
 11
1173.4106999999999
 21
1156.6765
  0
LINE
  8
_0-0_LAYER001
  6
CONTINUOUS
 62
    4
 10
1173.4106999999999
 20
1156.6765
 11
1178.6181999999999
 21
1155.1259
  0
LINE
  8
_0-0_LAYER001
  6
CONTINUOUS
 62
    4
 10
1178.6181999999999
 20
1155.1259
 11
1183.8642
 21
1153.6869999999999
  0
LINE
  8
_0-0_LAYER001
  6
CONTINUOUS
 62
    4
 10
1183.8642
 20
1153.6869999999999
 11
1189.1905999999999
 21
1152.3339000000001
  0
LINE
  8
_0-0_LAYER001
  6
CONTINUOUS
 62
    4
 10
1189.1905999999999
 20
1152.3339000000001
 11
1194.5918999999999
 21
1151.0542
  0
LINE
  8
_0-0_LAYER001
  6
CONTINUOUS
 62
    4
 10
1194.5918999999999
 20
1151.0542
 11
1200.0794000000001
 21
1149.8313000000001
  0
LINE
  8
_0-0_LAYER001
  6
CONTINUOUS
 62
    4
 10
1200.0794000000001
 20
1149.8313000000001
 11
1203.2610999999999
 21
1149.1512
  0
LINE
  8
_0-0_LAYER001
  6
CONTINUOUS
 62
    4
 10
1203.2610999999999
 20
1149.1512
 11
1205.7152000000001
 21
1148.6396
  0
LINE
  8
_0-0_LAYER001
  6
CONTINUOUS
 62
    4
 10
1205.7152000000001
 20
1148.6396
 11
1209.9590000000001
 21
1147.79
  0
LINE
  8
_0-0_LAYER001
  6
CONTINUOUS
 62
    4
 10
1209.9590000000001
 20
1147.79
 11
1214.1225999999999
 21
1147.0154
  0
LINE
  8
_0-0_LAYER001
  6
CONTINUOUS
 62
    4
 10
1214.1225999999999
 20
1147.0154
 11
1218.2193
 21
1146.3290999999999
  0
LINE
  8
_0-0_LAYER001
  6
CONTINUOUS
 62
    4
 10
1218.2193
 20
1146.3290999999999
 11
1222.2488000000001
 21
1145.7456
  0
LINE
  8
_0-0_LAYER001
  6
CONTINUOUS
 62
    4
 10
1222.2488000000001
 20
1145.7456
 11
1226.2734
 21
1145.2714000000001
  0
LINE
  8
_0-0_LAYER001
  6
CONTINUOUS
 62
    4
 10
1226.2734
 20
1145.2714000000001
 11
1228.4922999999999
 21
1145.0634
  0
LINE
  8
_0-0_LAYER001
  6
CONTINUOUS
 62
    4
 10
1228.4922999999999
 20
1145.0634
 11
1230.7036000000001
 21
1144.8979999999999
  0
LINE
  8
_0-0_LAYER001
  6
CONTINUOUS
 62
    4
 10
1230.7036000000001
 20
1144.8979999999999
 11
1234.7330999999999
 21
1144.6925000000001
  0
LINE
  8
_0-0_LAYER001
  6
CONTINUOUS
 62
    4
 10
1234.7330999999999
 20
1144.6925000000001
 11
1238.7869000000001
 21
1144.5924
  0
LINE
  8
_0-0_LAYER001
  6
CONTINUOUS
 62
    4
 10
1238.7869000000001
 20
1144.5924
 11
1242.9248
 21
1144.5808
  0
LINE
  8
_0-0_LAYER001
  6
CONTINUOUS
 62
    4
 10
1242.9248
 20
1144.5808
 11
1247.1437000000001
 21
1144.6433
  0
LINE
  8
_0-0_LAYER001
  6
CONTINUOUS
 62
    4
 10
1247.1437000000001
 20
1144.6433
 11
1251.4537
 21
1144.7646
  0
LINE
  8
_0-0_LAYER001
  6
CONTINUOUS
 62
    4
 10
1251.4537
 20
1144.7646
 11
1253.954
 21
1144.854
  0
LINE
  8
_0-0_LAYER001
  6
CONTINUOUS
 62
    4
 10
1253.954
 20
1144.854
 11
1256.8169
 21
1144.9690000000001
  0
LINE
  8
_0-0_LAYER001
  6
CONTINUOUS
 62
    4
 10
1256.8169
 20
1144.9690000000001
 11
1261.7723000000001
 21
1145.2017000000001
  0
LINE
  8
_0-0_LAYER001
  6
CONTINUOUS
 62
    4
 10
1261.7723000000001
 20
1145.2017000000001
 11
1266.6792
 21
1145.4811999999999
  0
LINE
  8
_0-0_LAYER001
  6
CONTINUOUS
 62
    4
 10
1266.6792
 20
1145.4811999999999
 11
1271.5506
 21
1145.8151
  0
LINE
  8
_0-0_LAYER001
  6
CONTINUOUS
 62
    4
 10
1271.5506
 20
1145.8151
 11
1276.3849
 21
1146.2101
  0
LINE
  8
_0-0_LAYER001
  6
CONTINUOUS
 62
    4
 10
1276.3849
 20
1146.2101
 11
1281.213
 21
1146.6759999999999
  0
LINE
  8
_0-0_LAYER001
  6
CONTINUOUS
 62
    4
 10
1281.213
 20
1146.6759999999999
 11
1283.8714
 21
1146.9666
  0
LINE
  8
_0-0_LAYER001
  6
CONTINUOUS
 62
    4
 10
1283.8714
 20
1146.9666
 11
1291.6395
 21
1147.9613999999999
  0
LINE
  8
_0-0_LAYER001
  6
CONTINUOUS
 62
    4
 10
1291.6395
 20
1147.9613999999999
 11
1305.1483000000003
 21
1150.1569999999999
  0
LINE
  8
_0-0_LAYER001
  6
CONTINUOUS
 62
    4
 10
1305.1483000000003
 20
1150.1569999999999
 11
1318.6378
 21
1152.8498999999999
  0
LINE
  8
_0-0_LAYER001
  6
CONTINUOUS
 62
    4
 10
1318.6378
 20
1152.8498999999999
 11
1332.2116000000001
 21
1155.9571000000001
  0
LINE
  8
_0-0_LAYER001
  6
CONTINUOUS
 62
    4
 10
1332.2116000000001
 20
1155.9571000000001
 11
1345.883
 21
1159.377
  0
LINE
  8
_0-0_LAYER001
  6
CONTINUOUS
 62
    4
 10
1345.883
 20
1159.377
 11
1359.6663000000001
 21
1163.0052000000001
  0
LINE
  8
_0-0_LAYER001
  6
CONTINUOUS
 62
    4
 10
1359.6663000000001
 20
1163.0052000000001
 11
1365.4553000000001
 21
1164.5563999999999
  0
LINE
  8
_0-0_LAYER001
  6
CONTINUOUS
 62
    4
 10
1364.3457000000001
 20
1143.5556999999999
 11
1350.8556000000001
 21
1140.0047
  0
LINE
  8
_0-0_LAYER001
  6
CONTINUOUS
 62
    4
 10
1350.8556000000001
 20
1140.0047
 11
1336.8702000000003
 21
1136.5061000000001
  0
LINE
  8
_0-0_LAYER001
  6
CONTINUOUS
 62
    4
 10
1336.8702000000003
 20
1136.5061000000001
 11
1322.8276000000001
 21
1133.2917
  0
LINE
  8
_0-0_LAYER001
  6
CONTINUOUS
 62
    4
 10
1322.8276000000001
 20
1133.2917
 11
1308.7112999999999
 21
1130.4736
  0
LINE
  8
_0-0_LAYER001
  6
CONTINUOUS
 62
    4
 10
1308.7112999999999
 20
1130.4736
 11
1294.5147999999999
 21
1128.1663000000001
  0
LINE
  8
_0-0_LAYER001
  6
CONTINUOUS
 62
    4
 10
1294.5147999999999
 20
1128.1663000000001
 11
1286.2285999999999
 21
1127.1052
  0
LINE
  8
_0-0_LAYER001
  6
CONTINUOUS
 62
    4
 10
1286.2285999999999
 20
1127.1052
 11
1283.2603999999997
 21
1126.7807
  0
LINE
  8
_0-0_LAYER001
  6
CONTINUOUS
 62
    4
 10
1283.2603999999997
 20
1126.7807
 11
1278.1600000000001
 21
1126.2883999999999
  0
LINE
  8
_0-0_LAYER001
  6
CONTINUOUS
 62
    4
 10
1278.1600000000001
 20
1126.2883999999999
 11
1273.0487000000001
 21
1125.8707999999999
  0
LINE
  8
_0-0_LAYER001
  6
CONTINUOUS
 62
    4
 10
1273.0487000000001
 20
1125.8707999999999
 11
1267.9315999999999
 21
1125.5201999999999
  0
LINE
  8
_0-0_LAYER001
  6
CONTINUOUS
 62
    4
 10
1267.9315999999999
 20
1125.5201999999999
 11
1262.8101999999999
 21
1125.2284999999999
  0
LINE
  8
_0-0_LAYER001
  6
CONTINUOUS
 62
    4
 10
1262.8101999999999
 20
1125.2284999999999
 11
1257.6875
 21
1124.9878000000001
  0
LINE
  8
_0-0_LAYER001
  6
CONTINUOUS
 62
    4
 10
1257.6875
 20
1124.9878000000001
 11
1254.7127
 21
1124.8683000000001
  0
LINE
  8
_0-0_LAYER001
  6
CONTINUOUS
 62
    4
 10
1254.7127
 20
1124.8683000000001
 11
1252.0922
 21
1124.7746
  0
LINE
  8
_0-0_LAYER001
  6
CONTINUOUS
 62
    4
 10
1252.0922
 20
1124.7746
 11
1247.5731000000001
 21
1124.6475
  0
LINE
  8
_0-0_LAYER001
  6
CONTINUOUS
 62
    4
 10
1247.5731000000001
 20
1124.6475
 11
1243.0451
 21
1124.5804000000001
  0
LINE
  8
_0-0_LAYER001
  6
CONTINUOUS
 62
    4
 10
1243.0451
 20
1124.5804000000001
 11
1238.5120999999999
 21
1124.5930000000001
  0
LINE
  8
_0-0_LAYER001
  6
CONTINUOUS
 62
    4
 10
1238.5120999999999
 20
1124.5930000000001
 11
1233.9766
 21
1124.7050999999999
  0
LINE
  8
_0-0_LAYER001
  6
CONTINUOUS
 62
    4
 10
1233.9766
 20
1124.7050999999999
 11
1229.4482
 21
1124.9359999999999
  0
LINE
  8
_0-0_LAYER001
  6
CONTINUOUS
 62
    4
 10
1229.4482
 20
1124.9359999999999
 11
1226.8132000000001
 21
1125.1331
  0
LINE
  8
_0-0_LAYER001
  6
CONTINUOUS
 62
    4
 10
1226.8132000000001
 20
1125.1331
 11
1224.1697999999999
 21
1125.3809000000001
  0
LINE
  8
_0-0_LAYER001
  6
CONTINUOUS
 62
    4
 10
1224.1697999999999
 20
1125.3809000000001
 11
1219.6451
 21
1125.914
  0
LINE
  8
_0-0_LAYER001
  6
CONTINUOUS
 62
    4
 10
1219.6451
 20
1125.914
 11
1215.1334999999999
 21
1126.5672999999999
  0
LINE
  8
_0-0_LAYER001
  6
CONTINUOUS
 62
    4
 10
1215.1334999999999
 20
1126.5672999999999
 11
1210.6411000000001
 21
1127.3199999999999
  0
LINE
  8
_0-0_LAYER001
  6
CONTINUOUS
 62
    4
 10
1210.6411000000001
 20
1127.3199999999999
 11
1206.1668
 21
1128.1523
  0
LINE
  8
_0-0_LAYER001
  6
CONTINUOUS
 62
    4
 10
1206.1668
 20
1128.1523
 11
1201.7111
 21
1129.0444
  0
LINE
  8
_0-0_LAYER001
  6
CONTINUOUS
 62
    4
 10
1201.7111
 20
1129.0444
 11
1199.1300000000001
 21
1129.5825
  0
LINE
  8
_0-0_LAYER001
  6
CONTINUOUS
 62
    4
 10
1199.1300000000001
 20
1129.5825
 11
1195.8139000000001
 21
1130.2911999999999
  0
LINE
  8
_0-0_LAYER001
  6
CONTINUOUS
 62
    4
 10
1195.8139000000001
 20
1130.2911999999999
 11
1190.1111000000001
 21
1131.5621000000001
  0
LINE
  8
_0-0_LAYER001
  6
CONTINUOUS
 62
    4
 10
1190.1111000000001
 20
1131.5621000000001
 11
1184.4227000000001
 21
1132.9099000000001
  0
LINE
  8
_0-0_LAYER001
  6
CONTINUOUS
 62
    4
 10
1184.4227000000001
 20
1132.9099000000001
 11
1178.7565
 21
1134.3493000000001
  0
LINE
  8
_0-0_LAYER001
  6
CONTINUOUS
 62
    4
 10
1178.7565
 20
1134.3493000000001
 11
1173.1185
 21
1135.8957
  0
LINE
  8
_0-0_LAYER001
  6
CONTINUOUS
 62
    4
 10
1173.1185
 20
1135.8957
 11
1167.5201
 21
1137.5626999999999
  0
LINE
  8
_0-0_LAYER001
  6
CONTINUOUS
 62
    4
 10
1167.5201
 20
1137.5626999999999
 11
1164.2810999999999
 21
1138.5949000000001
  0
LINE
  8
_0-0_LAYER001
  6
CONTINUOUS
 62
    4
 10
1164.2810999999999
 20
1138.5949000000001
 11
1159.7817
 21
1140.1169
  0
LINE
  8
_0-0_LAYER001
  6
CONTINUOUS
 62
    4
 10
1159.7817
 20
1140.1169
 11
1152.1121000000001
 21
1142.9314999999999
  0
LINE
  8
_0-0_LAYER001
  6
CONTINUOUS
 62
    4
 10
1152.1121000000001
 20
1142.9314999999999
 11
1144.5183999999999
 21
1145.9549
  0
LINE
  8
_0-0_LAYER001
  6
CONTINUOUS
 62
    4
 10
1144.5183999999999
 20
1145.9549
 11
1136.9917
 21
1149.1380999999999
  0
LINE
  8
_0-0_LAYER001
  6
CONTINUOUS
 62
    4
 10
1136.9917
 20
1149.1380999999999
 11
1136.6158
 21
1149.3037999999999
  0
LINE
  8
_0-0_LAYER001
  6
CONTINUOUS
 62
    4
 10
1370.0352
 20
1126.4431
 11
1369.4204999999999
 21
1126.2783999999999
  0
LINE
  8
_0-0_LAYER001
  6
CONTINUOUS
 62
    4
 10
1369.4204999999999
 20
1126.2783999999999
 11
1355.3308999999999
 21
1122.5695000000001
  0
LINE
  8
_0-0_LAYER001
  6
CONTINUOUS
 62
    4
 10
1355.3308999999999
 20
1122.5695000000001
 11
1341.0630000000001
 21
1119.0002999999999
  0
LINE
  8
_0-0_LAYER001
  6
CONTINUOUS
 62
    4
 10
1341.0630000000001
 20
1119.0002999999999
 11
1326.5985000000001
 21
1115.6893
  0
LINE
  8
_0-0_LAYER001
  6
CONTINUOUS
 62
    4
 10
1326.5985000000001
 20
1115.6893
 11
1311.9181000000001
 21
1112.7585999999999
  0
LINE
  8
_0-0_LAYER001
  6
CONTINUOUS
 62
    4
 10
1311.9181000000001
 20
1112.7585999999999
 11
1297.1026000000002
 21
1110.3507
  0
LINE
  8
_0-0_LAYER001
  6
CONTINUOUS
 62
    4
 10
1297.1026000000002
 20
1110.3507
 11
1288.3501000000001
 21
1109.2299
  0
LINE
  8
_0-0_LAYER001
  6
CONTINUOUS
 62
    4
 10
1288.3501000000001
 20
1109.2299
 11
1285.1032
 21
1108.8749
  0
LINE
  8
_0-0_LAYER001
  6
CONTINUOUS
 62
    4
 10
1285.1032
 20
1108.8749
 11
1279.7574999999999
 21
1108.3589999999999
  0
LINE
  8
_0-0_LAYER001
  6
CONTINUOUS
 62
    4
 10
1279.7574999999999
 20
1108.3589999999999
 11
1274.3969
 21
1107.921
  0
LINE
  8
_0-0_LAYER001
  6
CONTINUOUS
 62
    4
 10
1274.3969
 20
1107.921
 11
1269.0588
 21
1107.5552
  0
LINE
  8
_0-0_LAYER001
  6
CONTINUOUS
 62
    4
 10
1269.0588
 20
1107.5552
 11
1263.7444
 21
1107.2525000000001
  0
LINE
  8
_0-0_LAYER001
  6
CONTINUOUS
 62
    4
 10
1263.7444
 20
1107.2525000000001
 11
1258.4711
 21
1107.0047999999999
  0
LINE
  8
_0-0_LAYER001
  6
CONTINUOUS
 62
    4
 10
1258.4711
 20
1107.0047999999999
 11
1255.3955000000001
 21
1106.8812
  0
LINE
  8
_0-0_LAYER001
  6
CONTINUOUS
 62
    4
 10
1255.3955000000001
 20
1106.8812
 11
1252.6668
 21
1106.7837
  0
LINE
  8
_0-0_LAYER001
  6
CONTINUOUS
 62
    4
 10
1252.6668
 20
1106.7837
 11
1247.9594999999999
 21
1106.6512
  0
LINE
  8
_0-0_LAYER001
  6
CONTINUOUS
 62
    4
 10
1247.9594999999999
 20
1106.6512
 11
1243.1532999999999
 21
1106.5799999999999
  0
LINE
  8
_0-0_LAYER001
  6
CONTINUOUS
 62
    4
 10
1243.1532999999999
 20
1106.5799999999999
 11
1238.2646999999999
 21
1106.5936999999999
  0
LINE
  8
_0-0_LAYER001
  6
CONTINUOUS
 62
    4
 10
1238.2646999999999
 20
1106.5936999999999
 11
1233.2958000000001
 21
1106.7164
  0
LINE
  8
_0-0_LAYER001
  6
CONTINUOUS
 62
    4
 10
1233.2958000000001
 20
1106.7164
 11
1228.3181999999999
 21
1106.9703
  0
LINE
  8
_0-0_LAYER001
  6
CONTINUOUS
 62
    4
 10
1228.3181999999999
 20
1106.9703
 11
1225.3019999999999
 21
1107.1958999999999
  0
LINE
  8
_0-0_LAYER001
  6
CONTINUOUS
 62
    4
 10
1225.3019999999999
 20
1107.1958999999999
 11
1222.2765999999999
 21
1107.4793999999999
  0
LINE
  8
_0-0_LAYER001
  6
CONTINUOUS
 62
    4
 10
1222.2765999999999
 20
1107.4793999999999
 11
1217.3017
 21
1108.0655999999999
  0
LINE
  8
_0-0_LAYER001
  6
CONTINUOUS
 62
    4
 10
1217.3017
 20
1108.0655999999999
 11
1212.3562999999999
 21
1108.7817
  0
LINE
  8
_0-0_LAYER001
  6
CONTINUOUS
 62
    4
 10
1212.3562999999999
 20
1108.7817
 11
1207.5078000000001
 21
1109.5940000000001
  0
LINE
  8
_0-0_LAYER001
  6
CONTINUOUS
 62
    4
 10
1207.5078000000001
 20
1109.5940000000001
 11
1202.7538999999999
 21
1110.4784
  0
LINE
  8
_0-0_LAYER001
  6
CONTINUOUS
 62
    4
 10
1202.7538999999999
 20
1110.4784
 11
1198.1074000000001
 21
1111.4086
  0
LINE
  8
_0-0_LAYER001
  6
CONTINUOUS
 62
    4
 10
1198.1074000000001
 20
1111.4086
 11
1195.412
 21
1111.9706000000001
  0
LINE
  8
_0-0_LAYER001
  6
CONTINUOUS
 62
    4
 10
1195.412
 20
1111.9706000000001
 11
1191.9751000000001
 21
1112.7052000000001
  0
LINE
  8
_0-0_LAYER001
  6
CONTINUOUS
 62
    4
 10
1191.9751000000001
 20
1112.7052000000001
 11
1186.0784000000001
 21
1114.0192
  0
LINE
  8
_0-0_LAYER001
  6
CONTINUOUS
 62
    4
 10
1186.0784000000001
 20
1114.0192
 11
1180.1315999999999
 21
1115.4282000000001
  0
LINE
  8
_0-0_LAYER001
  6
CONTINUOUS
 62
    4
 10
1180.1315999999999
 20
1115.4282000000001
 11
1174.1595
 21
1116.9453000000001
  0
LINE
  8
_0-0_LAYER001
  6
CONTINUOUS
 62
    4
 10
1174.1595
 20
1116.9453000000001
 11
1168.1687999999999
 21
1118.5885000000001
  0
LINE
  8
_0-0_LAYER001
  6
CONTINUOUS
 62
    4
 10
1168.1687999999999
 20
1118.5885000000001
 11
1162.2185999999999
 21
1120.3603000000001
  0
LINE
  8
_0-0_LAYER001
  6
CONTINUOUS
 62
    4
 10
1162.2185999999999
 20
1120.3603000000001
 11
1158.6641999999999
 21
1121.4929
  0
LINE
  8
_0-0_LAYER001
  6
CONTINUOUS
 62
    4
 10
1158.6641999999999
 20
1121.4929
 11
1153.7961
 21
1123.1396999999999
  0
LINE
  8
_0-0_LAYER001
  6
CONTINUOUS
 62
    4
 10
1153.7961
 20
1123.1396999999999
 11
1145.6811
 21
1126.1178
  0
LINE
  8
_0-0_LAYER001
  6
CONTINUOUS
 62
    4
 10
1145.6811
 20
1126.1178
 11
1137.6828
 21
1129.3023000000001
  0
LINE
  8
_0-0_LAYER001
  6
CONTINUOUS
 62
    4
 10
1137.6828
 20
1129.3023000000001
 11
1136.2724000000001
 21
1129.8987
  0
LINE
  8
_0-0_LAYER001
  6
CONTINUOUS
 62
    4
 10
1364.2867000000001
 20
1145.6083000000001
 11
1371.0757000000001
 21
1147.4274
  0
LINE
  8
_0-0_LAYER001
  6
CONTINUOUS
 62
    4
 10
1350.3583000000001
 20
1141.9419
 11
1364.2867000000001
 21
1145.6083000000001
  0
LINE
  8
_0-0_LAYER001
  6
CONTINUOUS
 62
    4
 10
1336.4042999999997
 20
1138.4512
 11
1350.3583000000001
 21
1141.9419
  0
LINE
  8
_0-0_LAYER001
  6
CONTINUOUS
 62
    4
 10
1322.4086
 20
1135.2474999999999
 11
1336.4042999999997
 21
1138.4512
  0
LINE
  8
_0-0_LAYER001
  6
CONTINUOUS
 62
    4
 10
1308.355
 20
1132.442
 11
1322.4086
 21
1135.2474999999999
  0
LINE
  8
_0-0_LAYER001
  6
CONTINUOUS
 62
    4
 10
1294.2273
 20
1130.1458
 11
1308.355
 21
1132.442
  0
LINE
  8
_0-0_LAYER001
  6
CONTINUOUS
 62
    4
 10
1285.9929
 20
1129.0913
 11
1294.2273
 21
1130.1458
  0
LINE
  8
_0-0_LAYER001
  6
CONTINUOUS
 62
    4
 10
1283.0556999999999
 20
1128.7701999999999
 11
1285.9929
 21
1129.0913
  0
LINE
  8
_0-0_LAYER001
  6
CONTINUOUS
 62
    4
 10
1277.9824000000001
 20
1128.2806
 11
1283.0556999999999
 21
1128.7701999999999
  0
LINE
  8
_0-0_LAYER001
  6
CONTINUOUS
 62
    4
 10
1272.8988999999999
 20
1127.8652
 11
1277.9824000000001
 21
1128.2806
  0
LINE
  8
_0-0_LAYER001
  6
CONTINUOUS
 62
    4
 10
1267.8063999999999
 20
1127.5163
 11
1272.8988999999999
 21
1127.8652
  0
LINE
  8
_0-0_LAYER001
  6
CONTINUOUS
 62
    4
 10
1262.7064
 20
1127.2257999999999
 11
1267.8063999999999
 21
1127.5163
  0
LINE
  8
_0-0_LAYER001
  6
CONTINUOUS
 62
    4
 10
1257.6005
 20
1126.9858999999999
 11
1262.7064
 21
1127.2257999999999
  0
LINE
  8
_0-0_LAYER001
  6
CONTINUOUS
 62
    4
 10
1254.6368
 20
1126.8669
 11
1257.6005
 21
1126.9858999999999
  0
LINE
  8
_0-0_LAYER001
  6
CONTINUOUS
 62
    4
 10
1252.0282999999999
 20
1126.7736
 11
1254.6368
 21
1126.8669
  0
LINE
  8
_0-0_LAYER001
  6
CONTINUOUS
 62
    4
 10
1247.5300999999999
 20
1126.6470999999999
 11
1252.0282999999999
 21
1126.7736
  0
LINE
  8
_0-0_LAYER001
  6
CONTINUOUS
 62
    4
 10
1243.0329999999999
 20
1126.5805
 11
1247.5300999999999
 21
1126.6470999999999
  0
LINE
  8
_0-0_LAYER001
  6
CONTINUOUS
 62
    4
 10
1238.5396000000001
 20
1126.5930000000001
 11
1243.0329999999999
 21
1126.5805
  0
LINE
  8
_0-0_LAYER001
  6
CONTINUOUS
 62
    4
 10
1234.0523000000001
 20
1126.7038
 11
1238.5396000000001
 21
1126.5930000000001
  0
LINE
  8
_0-0_LAYER001
  6
CONTINUOUS
 62
    4
 10
1229.5736999999999
 20
1126.9322
 11
1234.0523000000001
 21
1126.7038
  0
LINE
  8
_0-0_LAYER001
  6
CONTINUOUS
 62
    4
 10
1226.9811
 20
1127.1261999999999
 11
1229.5736999999999
 21
1126.9322
  0
LINE
  8
_0-0_LAYER001
  6
CONTINUOUS
 62
    4
 10
1224.3802000000001
 20
1127.3698999999999
 11
1226.9811
 21
1127.1261999999999
  0
LINE
  8
_0-0_LAYER001
  6
CONTINUOUS
 62
    4
 10
1219.9054000000001
 20
1127.8972000000001
 11
1224.3802000000001
 21
1127.3698999999999
  0
LINE
  8
_0-0_LAYER001
  6
CONTINUOUS
 62
    4
 10
1215.4421
 20
1128.5435
 11
1219.9054000000001
 21
1127.8972000000001
  0
LINE
  8
_0-0_LAYER001
  6
CONTINUOUS
 62
    4
 10
1210.9893
 20
1129.2895000000001
 11
1215.4421
 21
1128.5435
  0
LINE
  8
_0-0_LAYER001
  6
CONTINUOUS
 62
    4
 10
1206.546
 20
1130.1161
 11
1210.9893
 21
1129.2895000000001
  0
LINE
  8
_0-0_LAYER001
  6
CONTINUOUS
 62
    4
 10
1202.1115
 20
1131.0038999999999
 11
1206.546
 21
1130.1161
  0
LINE
  8
_0-0_LAYER001
  6
CONTINUOUS
 62
    4
 10
1199.5431000000001
 20
1131.5392999999999
 11
1202.1115
 21
1131.0038999999999
  0
LINE
  8
_0-0_LAYER001
  6
CONTINUOUS
 62
    4
 10
1196.2405000000001
 20
1132.2452000000001
 11
1199.5431000000001
 21
1131.5392999999999
  0
LINE
  8
_0-0_LAYER001
  6
CONTINUOUS
 62
    4
 10
1190.5591999999999
 20
1133.5112999999999
 11
1196.2405000000001
 21
1132.2452000000001
  0
LINE
  8
_0-0_LAYER001
  6
CONTINUOUS
 62
    4
 10
1184.8995
 20
1134.8523
 11
1190.5591999999999
 21
1133.5112999999999
  0
LINE
  8
_0-0_LAYER001
  6
CONTINUOUS
 62
    4
 10
1179.2672
 20
1136.2831000000001
 11
1184.8995
 21
1134.8523
  0
LINE
  8
_0-0_LAYER001
  6
CONTINUOUS
 62
    4
 10
1173.6685
 20
1137.8187
 11
1179.2672
 21
1136.2831000000001
  0
LINE
  8
_0-0_LAYER001
  6
CONTINUOUS
 62
    4
 10
1168.1092000000001
 20
1139.4740999999999
 11
1173.6685
 21
1137.8187
  0
LINE
  8
_0-0_LAYER001
  6
CONTINUOUS
 62
    4
 10
1164.9051999999999
 20
1140.4951000000001
 11
1168.1092000000001
 21
1139.4740999999999
  0
LINE
  8
_0-0_LAYER001
  6
CONTINUOUS
 62
    4
 10
1160.4467999999999
 20
1142.0033000000001
 11
1164.9051999999999
 21
1140.4951000000001
  0
LINE
  8
_0-0_LAYER001
  6
CONTINUOUS
 62
    4
 10
1152.8267000000001
 20
1144.7997
 11
1160.4467999999999
 21
1142.0033000000001
  0
LINE
  8
_0-0_LAYER001
  6
CONTINUOUS
 62
    4
 10
1145.2779
 20
1147.8052
 11
1152.8267000000001
 21
1144.7997
  0
LINE
  8
_0-0_LAYER001
  6
CONTINUOUS
 62
    4
 10
1137.7846999999999
 20
1150.9742000000001
 11
1145.2779
 21
1147.8052
  0
LINE
  8
_0-0_LAYER001
  6
CONTINUOUS
 62
    4
 10
1136.5582999999999
 20
1151.5150000000001
 11
1137.7846999999999
 21
1150.9742000000001
  0
ARC
  8
_0-0_LAYER001
  6
CONTINUOUS
 62
    4
 10
1119.9178999999999
 20
1118.4653000000001
 40
36.94905
 50
62.626221000000001
 51
91.897946000000005
  0
LINE
  8
_0-0_LAYER001
  6
CONTINUOUS
 62
    4
 10
1118.9068
 20
1097.9793999999999
 11
1136.9068
 21
1097.9793999999999
  0
LINE
  8
_0-0_LAYER001
  6
CONTINUOUS
 62
    4
 10
1136.9068
 20
1151.277
 11
1136.9068
 21
1097.9793999999999
  0
LINE
  8
_0-0_LAYER001
  6
CONTINUOUS
 62
    4
 10
1118.9068
 20
1179.4695999999999
 11
1118.9068
 21
1097.9793999999999
  0
LINE
  8
_0-0_LAYER001
  6
CONTINUOUS
 62
    4
 10
1126.0409999999999
 20
1175.9918
 11
1118.9068
 21
1179.4695999999999
  0
LINE
  8
_0-0_LAYER001
  6
CONTINUOUS
 62
    4
 10
1115.2787000000001
 20
1156.6597999999999
 11
1118.9068
 21
1099.9291000000001
  0
LINE
  8
_0-0_LAYER001
  6
CONTINUOUS
 62
    4
 10
1118.9068
 20
1154.8457000000001
 11
1115.2787000000001
 21
1156.6597999999999
  0
LINE
  8
_0-0_LAYER001
  6
CONTINUOUS
 62
    4
 10
1343.7725
 20
1158.4202
 11
1343.7725
 21
1140.8729000000001
  0
ARC
  8
_0-0_LAYER001
  6
CONTINUOUS
 62
    4
 10
1376.7481
 20
1169.3393000000001
 40
1
 50
105.29948999999999
 51
176.99999999999997
  0
LINE
  8
_0-0_LAYER001
  6
CONTINUOUS
 62
    4
 10
1374.6206999999999
 20
1147.1119000000001
 11
1374.5615
 21
1145.9815000000001
  0
ARC
  8
_0-0_LAYER001
  6
CONTINUOUS
 62
    4
 10
1375.6193000000003
 20
1147.0596
 40
1
 50
105.35783000000001
 51
177
  0
LINE
  8
_0-0_LAYER001
  6
CONTINUOUS
 62
    4
 10
1382.0210999999999
 20
1149.8549
 11
1375.3544999999999
 21
1148.0238999999999
  0
ARC
  8
_0-0_LAYER001
  6
CONTINUOUS
 62
    4
 10
1382.2860000000001
 20
1148.8905999999999
 40
1
 50
0
 51
105.35783000000001
  0
LINE
  8
_0-0_LAYER001
  6
CONTINUOUS
 62
    4
 10
1382.1748
 20
1171.8606
 11
1376.4843000000001
 21
1170.3039000000001
  0
ARC
  8
_0-0_LAYER001
  6
CONTINUOUS
 62
    4
 10
1382.4386999999999
 20
1170.896
 40
1
 50
0
 51
105.29948999999999
  0
LINE
  8
_0-0_LAYER001
  6
CONTINUOUS
 62
    4
 10
1382.7351000000001
 20
1150.2063000000001
 11
1381.2763
 21
1149.7536
  0
LINE
  8
_0-0_LAYER001
  6
CONTINUOUS
 62
    4
 10
1383.4386999999997
 20
1151.1614
 11
1383.4386999999997
 21
1170.896
  0
ARC
  8
_0-0_LAYER001
  6
CONTINUOUS
 62
    4
 10
1382.4386999999999
 20
1151.1614
 40
1
 50
287.24145000000004
 51
0.0000000000000508
  0
LINE
  8
_0-0_LAYER001
  6
CONTINUOUS
 62
    4
 10
1374.9794999999999
 20
1167.3842999999999
 11
1365.5209
 21
1164.5572
  0
LINE
  8
_0-0_LAYER001
  6
CONTINUOUS
 62
    4
 10
1375.6918000000001
 20
1168.2900999999999
 11
1375.7494999999999
 21
1169.3916999999999
  0
ARC
  8
_0-0_LAYER001
  6
CONTINUOUS
 62
    4
 10
1374.6931
 20
1168.3424
 40
1
 50
286.64103
 51
357
  0
LINE
  8
_0-0_LAYER001
  6
CONTINUOUS
 62
    4
 10
1371.2159999999999
 20
1147.4069
 11
1383.1564000000001
 21
1151.2154
  0
LINE
  8
_0-0_LAYER001
  6
CONTINUOUS
 62
    4
 10
1364.7084999999997
 20
1143.5581999999999
 11
1374.5130999999997
 21
1146.3595
  0
LINE
  8
_0-0_LAYER001
  6
CONTINUOUS
 62
    4
 10
1382.5866999999998
 20
1130.3927000000001
 11
1370.0918999999999
 21
1126.4529
  0
LINE
  8
_0-0_LAYER001
  6
CONTINUOUS
 62
    4
 10
1383.2860000000001
 20
1131.3463999999999
 11
1383.2860000000001
 21
1148.8905999999999
  0
ARC
  8
_0-0_LAYER001
  6
CONTINUOUS
 62
    4
 10
1382.2860000000001
 20
1131.3463999999999
 40
1
 50
287.50085999999999
 51
0
  0
LINE
  8
_0-0_LAYER001
  6
DASHED1
 62
    2
 10
1449.8649
 20
1143.9264000000001
 11
1465.8649
 21
1143.9264000000001
  0
LINE
  8
_0-0_LAYER001
  6
DASHED1
 62
    2
 10
1465.8649
 20
1143.9264000000001
 11
1465.8649
 21
1140.9264000000001
  0
LINE
  8
_0-0_LAYER001
  6
DASHED1
 62
    2
 10
1449.8649
 20
1143.9264000000001
 11
1449.8649
 21
1140.9264000000001
  0
LINE
  8
_0-0_LAYER001
  6
DASHED1
 62
    2
 10
1449.8649
 20
1140.9264000000001
 11
1465.8649
 21
1140.9264000000001
  0
LINE
  8
_0-0_LAYER001
  6
DASHED1
 62
    2
 10
1460.8649
 20
1086.0302999999999
 11
1457.8146999999999
 21
1071.5214000000001
  0
LINE
  8
_0-0_LAYER001
  6
DASHED1
 62
    2
 10
1460.8649
 20
1140.9264000000001
 11
1460.8649
 21
1086.0302999999999
  0
LINE
  8
_0-0_LAYER001
  6
DASHED1
 62
    2
 10
1457.8146999999999
 20
1071.5214000000001
 11
1454.8649
 21
1085.7789
  0
LINE
  8
_0-0_LAYER001
  6
DASHED1
 62
    2
 10
1454.8649
 20
1140.9264000000001
 11
1454.8649
 21
1085.7789
  0
LINE
  8
_0-0_LAYER001
  6
DASHED1
 62
    2
 10
1712.5713999999998
 20
1139.2071000000001
 11
1728.5713999999998
 21
1139.2071000000001
  0
LINE
  8
_0-0_LAYER001
  6
DASHED1
 62
    2
 10
1728.5713999999998
 20
1139.2071000000001
 11
1728.5713999999998
 21
1136.2071000000001
  0
LINE
  8
_0-0_LAYER001
  6
DASHED1
 62
    2
 10
1712.5713999999998
 20
1139.2071000000001
 11
1712.5713999999998
 21
1136.2071000000001
  0
LINE
  8
_0-0_LAYER001
  6
DASHED1
 62
    2
 10
1712.5713999999998
 20
1136.2071000000001
 11
1728.5713999999998
 21
1136.2071000000001
  0
LINE
  8
_0-0_LAYER001
  6
DASHED1
 62
    2
 10
1723.5713999999998
 20
1081.3110999999999
 11
1720.5212999999999
 21
1066.8021000000001
  0
LINE
  8
_0-0_LAYER001
  6
DASHED1
 62
    2
 10
1723.5713999999998
 20
1136.2071000000001
 11
1723.5713999999998
 21
1081.3110999999999
  0
LINE
  8
_0-0_LAYER001
  6
DASHED1
 62
    2
 10
1720.5212999999999
 20
1066.8021000000001
 11
1717.5713999999998
 21
1081.0596
  0
LINE
  8
_0-0_LAYER001
  6
DASHED1
 62
    2
 10
1717.5713999999998
 20
1136.2071000000001
 11
1717.5713999999998
 21
1081.0596
  0
LINE
  8
_0-0_LAYER001
  6
DASHED1
 62
    2
 10
1976.8510999999999
 20
1139.2071000000001
 11
1992.8510999999999
 21
1139.2071000000001
  0
LINE
  8
_0-0_LAYER001
  6
DASHED1
 62
    2
 10
1992.8510999999999
 20
1139.2071000000001
 11
1992.8510999999999
 21
1136.2071000000001
  0
LINE
  8
_0-0_LAYER001
  6
DASHED1
 62
    2
 10
1976.8510999999999
 20
1139.2071000000001
 11
1976.8510999999999
 21
1136.2071000000001
  0
LINE
  8
_0-0_LAYER001
  6
DASHED1
 62
    2
 10
1976.8510999999999
 20
1136.2071000000001
 11
1992.8510999999999
 21
1136.2071000000001
  0
LINE
  8
_0-0_LAYER001
  6
DASHED1
 62
    2
 10
1987.8510999999999
 20
1081.3110999999999
 11
1984.8009000000002
 21
1066.8021000000001
  0
LINE
  8
_0-0_LAYER001
  6
DASHED1
 62
    2
 10
1987.8510999999999
 20
1136.2071000000001
 11
1987.8510999999999
 21
1081.3110999999999
  0
LINE
  8
_0-0_LAYER001
  6
DASHED1
 62
    2
 10
1984.8009000000002
 20
1066.8021000000001
 11
1981.8510999999999
 21
1081.0596
  0
LINE
  8
_0-0_LAYER001
  6
DASHED1
 62
    2
 10
1981.8510999999999
 20
1136.2071000000001
 11
1981.8510999999999
 21
1081.0596
  0
LINE
  8
_0-0_LAYER001
  6
CONTINUOUS
 62
    2
 10
1153.9068
 20
798.30659999999989
 11
1153.9068
 21
850.80659999999989
  0
CIRCLE
  8
_0-0_LAYER001
  6
CONTINUOUS
 62
    2
 10
1153.9068
 20
800.80659999999989
 40
1.6999999999999997
  0
LINE
  8
_0-0_LAYER001
  6
CONTINUOUS
 62
    2
 10
1153.9068
 20
800.80659999999989
 11
1138.9068
 21
800.80659999999989
  0
CIRCLE
  8
_0-0_LAYER001
  6
CONTINUOUS
 62
    2
 10
1138.9068
 20
800.80659999999989
 40
1.6999999999999997
  0
LINE
  8
_0-0_LAYER001
  6
CONTINUOUS
 62
    2
 10
1138.9068
 20
798.30659999999989
 11
1138.9068
 21
850.80659999999989
  0
CIRCLE
  8
_0-0_LAYER001
  6
CONTINUOUS
 62
    2
 10
1138.9068
 20
800.80659999999989
 40
1.6999999999999997
  0
LINE
  8
_0-0_LAYER001
  6
CONTINUOUS
 62
    2
 10
1138.9068
 20
800.80659999999989
 11
1118.9068
 21
800.80659999999989
  0
CIRCLE
  8
_0-0_LAYER001
  6
CONTINUOUS
 62
    2
 10
1118.9068
 20
800.80659999999989
 40
1.6999999999999997
  0
LINE
  8
_0-0_LAYER001
  6
CONTINUOUS
 62
    2
 10
1118.9068
 20
798.30659999999989
 11
1118.9068
 21
850.80659999999989
  0
LINE
  8
_0-1_LAYER003
  6
CONTINUOUS
 62
    7
 10
992.97030000000007
 20
1119.9747
 11
1044.6703
 21
1119.9747
  0
LINE
  8
_0-1_LAYER003
  6
CONTINUOUS
 62
    7
 10
994.6703
 20
1119.9747
 11
994.6703
 21
903.97469999999998
  0
LINE
  8
_0-1_LAYER003
  6
CONTINUOUS
 62
    7
 10
992.97030000000007
 20
903.97469999999998
 11
1044.6703
 21
903.97469999999998
  0
LINE
  8
_0-1_LAYER003
  6
CONTINUOUS
 62
    7
 10
992.97030000000007
 20
1083.9747
 11
1044.6703
 21
1083.9747
  0
LINE
  8
_0-1_LAYER003
  6
CONTINUOUS
 62
    7
 10
992.97030000000007
 20
1053.9747
 11
1044.6703
 21
1053.9747
  0
LINE
  8
_0-1_LAYER003
  6
CONTINUOUS
 62
    7
 10
1148.9068
 20
1119.9747
 11
1148.9068
 21
1083.9747
  0
LINE
  8
_0-1_LAYER003
  6
CONTINUOUS
 62
    7
 10
1148.9068
 20
1083.9747
 11
1194.3958
 21
1083.9747
  0
LINE
  8
_0-1_LAYER003
  6
CONTINUOUS
 62
    7
 10
1193.9068
 20
1109.5662
 11
1149.0756055820177
 21
1119.8396555343857
  0
LINE
  8
_0-1_LAYER003
  6
CONTINUOUS
 62
    7
 10
1193.9068
 20
1109.5662
 11
1193.9068
 21
1083.9747
  0
LINE
  8
_0-1_LAYER003
  6
CONTINUOUS
 62
    7
 10
1193.9068
 20
1083.9747
 11
1148.9068
 21
1119.8783387919552
  0
LINE
  8
_0-1_LAYER003
  6
CONTINUOUS
 62
    7
 10
1162.2962
 20
1099.9376
 11
1164.2373
 21
1092.6931999999999
  0
LINE
  8
_0-1_LAYER003
  6
CONTINUOUS
 62
    7
 10
1164.2373
 20
1092.6931999999999
 11
1158.934
 21
1097.9965
  0
LINE
  8
_0-1_LAYER003
  6
CONTINUOUS
 62
    7
 10
1148.9068
 20
1083.9747
 11
1193.9068
 21
1109.5662
  0
LINE
  8
_0-1_LAYER003
  6
CONTINUOUS
 62
    7
 10
1164.2373
 20
1092.6931999999999
 11
1075.6062999999999
 21
1246.2065
  0
LINE
  8
_0-1_LAYER003
  6
CONTINUOUS
 62
    7
 10
1075.6062999999999
 20
1246.2065
 11
823.52040000000011
 21
1246.2065
  0
LINE
  8
_0-1_LAYER003
  6
CONTINUOUS
 62
    7
 10
1103.6406999999999
 20
1329.5233000000003
 11
1103.6406999999999
 21
1277.8233
  0
LINE
  8
_0-1_LAYER003
  6
CONTINUOUS
 62
    7
 10
1105.3406999999997
 20
1327.8233
 11
1103.6406999999999
 21
1327.8233
  0
LINE
  8
_0-1_LAYER003
  6
CONTINUOUS
 62
    7
 10
1103.6406999999999
 20
1327.8233
 11
2123.6406999999999
 21
1327.8233
  0
LINE
  8
_0-1_LAYER003
  6
CONTINUOUS
 62
    7
 10
2123.6406999999999
 20
1329.5233000000003
 11
2123.6406999999999
 21
1277.8233
  0
LINE
  8
_0-1_LAYER003
  6
CONTINUOUS
 62
    7
 10
1858.6406999999999
 20
1329.5233000000003
 11
1858.6406999999999
 21
1277.8233
  0
LINE
  8
_0-1_LAYER003
  6
CONTINUOUS
 62
    7
 10
1593.6406999999999
 20
1329.5233000000003
 11
1593.6406999999999
 21
1277.8233
  0
LINE
  8
_0-1_LAYER003
  6
CONTINUOUS
 62
    7
 10
1328.6406999999999
 20
1329.5233000000003
 11
1328.6406999999999
 21
1277.8233
  0
LINE
  8
_0-1_LAYER003
  6
CONTINUOUS
 62
    7
 10
1209.9192
 20
1206.6708000000001
 11
1257.9192
 21
1206.6708000000001
  0
LINE
  8
_0-1_LAYER003
  6
CONTINUOUS
 62
    7
 10
1257.9192
 20
1206.6708000000001
 11
1308.7503999999999
 21
1118.6286
  0
LINE
  8
_0-1_LAYER003
  6
CONTINUOUS
 62
    7
 10
1303.4471000000003
 20
1123.9319
 11
1308.7503999999999
 21
1118.6286
  0
LINE
  8
_0-1_LAYER003
  6
CONTINUOUS
 62
    7
 10
1308.7503999999999
 20
1118.6286
 11
1306.8091999999999
 21
1125.873
  0
LINE
  8
_0-1_LAYER003
  6
CONTINUOUS
 62
    7
 10
1195.5678
 20
1103.4537
 11
1195.5678
 21
1089.4537
  0
LINE
  8
_0-1_LAYER003
  6
CONTINUOUS
 62
    7
 10
1195.5678
 20
1089.4537
 11
2188.5482999999999
 21
1089.4537
  0
LINE
  8
_0-1_LAYER003
  6
CONTINUOUS
 62
    7
 10
2188.5482999999999
 20
1103.4537
 11
1195.5678
 21
1103.4537
  0
LINE
  8
_0-1_LAYER003
  6
CONTINUOUS
 62
    7
 10
1195.5678
 20
1103.4537
 11
1195.5678
 21
1089.4537
  0
LINE
  8
_0-1_LAYER003
  6
CONTINUOUS
 62
    7
 10
1195.5678
 20
1086.4537
 11
2188.5482999999999
 21
1086.4537
  0
LINE
  8
_0-1_LAYER003
  6
CONTINUOUS
 62
    7
 10
2188.5482999999999
 20
1083.9747
 11
1228.3368
 21
1083.9747
  0
LINE
  8
_0-1_LAYER003
  6
CONTINUOUS
 62
    7
 10
1153.9068
 20
1043.9747
 11
2188.5482999999999
 21
1043.9747
  0
LINE
  8
_0-1_LAYER003
  6
CONTINUOUS
 62
    7
 10
1164.2373
 20
1065.1302000000001
 11
1153.0817999999999
 21
1053.9747
  0
LINE
  8
_0-1_LAYER003
  6
CONTINUOUS
 62
    7
 10
1164.2373
 20
1065.1302000000001
 11
1162.9983
 21
1053.9747
  0
LINE
  8
_0-1_LAYER003
  6
CONTINUOUS
 62
    7
 10
1164.2373
 20
1065.1302000000001
 11
1027.4516000000001
 21
828.21049999999991
  0
LINE
  8
_0-1_LAYER003
  6
CONTINUOUS
 62
    7
 10
1027.4516000000001
 20
828.21049999999991
 11
781.4516000000001
 21
828.21049999999991
  0
LINE
  8
_0-1_LAYER003
  6
CONTINUOUS
 62
    7
 10
1153.9068
 20
1053.9747
 11
1153.9068
 21
913.97469999999998
  0
LINE
  8
_0-1_LAYER003
  6
CONTINUOUS
 62
    7
 10
1153.9068
 20
913.97469999999998
 11
1163.9068
 21
913.97469999999998
  0
LINE
  8
_0-1_LAYER003
  6
CONTINUOUS
 62
    7
 10
1163.9068
 20
913.97469999999998
 11
1163.9068
 21
1043.6198999999999
  0
LINE
  8
_0-1_LAYER003
  6
CONTINUOUS
 62
    7
 10
1163.9068
 20
913.97469999999998
 11
1163.9068
 21
903.97469999999998
  0
LINE
  8
_0-1_LAYER003
  6
CONTINUOUS
 62
    7
 10
1163.9068
 20
903.97469999999998
 11
2188.5482999999999
 21
903.97469999999998
  0
LINE
  8
_0-1_LAYER003
  6
CONTINUOUS
 62
    7
 10
2188.5482999999999
 20
913.97469999999998
 11
1163.9068
 21
913.97469999999998
  0
LINE
  8
_0-1_LAYER003
  6
CONTINUOUS
 62
    7
 10
1118.9068
 20
799.10659999999984
 11
1118.9068
 21
850.80659999999989
  0
LINE
  8
_0-1_LAYER003
  6
CONTINUOUS
 62
    7
 10
1138.9068
 20
799.10659999999984
 11
1138.9068
 21
850.80659999999989
  0
LINE
  8
_0-1_LAYER003
  6
CONTINUOUS
 62
    7
 10
1153.9068
 20
799.10659999999984
 11
1153.9068
 21
850.80659999999989
  0
LINE
  8
_0-1_LAYER003
  6
CONTINUOUS
 62
    7
 10
1118.9068
 20
800.80659999999989
 11
1153.9068
 21
800.80659999999989
  0
LINE
  8
_0-1_LAYER003
  6
CONTINUOUS
 62
    7
 10
1187.0468000000001
 20
903.97469999999998
 11
1327.0468000000001
 21
1043.9747
  0
LINE
  8
_0-1_LAYER003
  6
CONTINUOUS
 62
    7
 10
1198.3598
 20
903.97469999999998
 11
1338.3598000000002
 21
1043.9747
  0
LINE
  8
_0-1_LAYER003
  6
CONTINUOUS
 62
    7
 10
1335.3511000000001
 20
1003.2498000000001
 11
1337.2923000000001
 21
996.00530000000003
  0
LINE
  8
_0-1_LAYER003
  6
CONTINUOUS
 62
    7
 10
1337.2923000000001
 20
996.00530000000003
 11
1335.3511000000001
 21
1003.2498000000001
  0
LINE
  8
_0-1_LAYER003
  6
CONTINUOUS
 62
    7
 10
1340.6080999999999
 20
997.99279999999999
 11
1335.3511000000001
 21
1003.2498000000001
  0
LINE
  8
_0-1_LAYER003
  6
CONTINUOUS
 62
    7
 10
1335.3511000000001
 20
1003.2498000000001
 11
1359.9793999999999
 21
960.59230000000002
  0
LINE
  8
_0-1_LAYER003
  6
CONTINUOUS
 62
    7
 10
1359.9793999999999
 20
960.59230000000002
 11
1419.9793999999999
 21
960.59230000000002
  0
LINE
  8
_0-1_LAYER003
  6
CONTINUOUS
 62
    7
 10
1349.6738
 20
1043.9747
 11
1209.6738
 21
903.97469999999998
  0
LINE
  8
_0-1_LAYER003
  6
CONTINUOUS
 62
    7
 10
1323.9255000000001
 20
1062.0114000000001
 11
1333.9255000000001
 21
1062.0114000000001
  0
LINE
  8
_0-1_LAYER003
  6
CONTINUOUS
 62
    7
 10
1333.9255000000001
 20
1062.0114000000001
 11
1333.9255000000001
 21
1007.9928
  0
LINE
  8
_0-1_LAYER003
  6
CONTINUOUS
 62
    7
 10
1333.9255000000001
 20
1007.9928
 11
1355.2955999999999
 21
1007.9928
  0
LINE
  8
_0-1_LAYER003
  6
CONTINUOUS
 62
    7
 10
1355.2955999999999
 20
1007.9928
 11
1355.2955999999999
 21
997.99279999999999
  0
LINE
  8
_0-1_LAYER003
  6
CONTINUOUS
 62
    7
 10
1355.2955999999999
 20
997.99279999999999
 11
1323.9255000000001
 21
997.99279999999999
  0
LINE
  8
_0-1_LAYER003
  6
CONTINUOUS
 62
    7
 10
1323.9255000000001
 20
997.99279999999999
 11
1323.9255000000001
 21
1062.0114000000001
  0
LINE
  8
_0-1_LAYER003
  6
CONTINUOUS
 62
    7
 10
1468.8735999999999
 20
1057.0512000000001
 11
1470.8146999999999
 21
1049.8067000000001
  0
LINE
  8
_0-1_LAYER003
  6
CONTINUOUS
 62
    7
 10
1468.8735999999999
 20
1057.0512000000001
 11
1474.1768999999999
 21
1051.7479000000001
  0
LINE
  8
_0-1_LAYER003
  6
CONTINUOUS
 62
    7
 10
1468.8735999999999
 20
1057.0512000000001
 11
1506.3362000000002
 21
992.16399999999999
  0
LINE
  8
_0-1_LAYER003
  6
CONTINUOUS
 62
    7
 10
1506.3362000000002
 20
992.16399999999999
 11
1566.3362000000002
 21
992.16399999999999
  0
LINE
  8
_0-1_LAYER003
  6
CONTINUOUS
 62
    7
 10
1674.6062000000002
 20
1097.2699
 11
1674.6062000000002
 21
1089.7699
  0
LINE
  8
_0-1_LAYER003
  6
CONTINUOUS
 62
    7
 10
1674.6062000000002
 20
1097.2699
 11
1678.3562000000002
 21
1090.7746999999999
  0
LINE
  8
_0-1_LAYER003
  6
CONTINUOUS
 62
    7
 10
1674.6062000000002
 20
1097.2699
 11
1765.8678
 21
756.67660000000001
  0
LINE
  8
_0-1_LAYER003
  6
CONTINUOUS
 62
    7
 10
1765.8678
 20
756.67660000000001
 11
2020.4524000000001
 21
756.88400000000001
  0
LINE
  8
_0-1_LAYER003
  6
CONTINUOUS
 62
    7
 10
1750.8391999999999
 20
816.84590000000003
 11
1955.6619000000001
 21
816.84590000000003
  0
LINE
  8
_0-1_LAYER003
  6
CONTINUOUS
 62
    7
 10
1748.2638000000002
 20
903.97469999999998
 11
1888.2638000000002
 21
1043.9747
  0
LINE
  8
_0-1_LAYER003
  6
CONTINUOUS
 62
    7
 10
1876.9497999999999
 20
1043.9747
 11
1736.9497999999999
 21
903.97469999999998
  0
LINE
  8
_0-1_LAYER003
  6
CONTINUOUS
 62
    7
 10
1759.5767999999998
 20
903.97469999999998
 11
1899.5767999999998
 21
1043.9747
  0
LINE
  8
_0-1_LAYER003
  6
CONTINUOUS
 62
    7
 10
1923.9254999999998
 20
1062.0114000000001
 11
1933.9254999999998
 21
1062.0114000000001
  0
LINE
  8
_0-1_LAYER003
  6
CONTINUOUS
 62
    7
 10
1933.9254999999998
 20
1062.0114000000001
 11
1933.9254999999998
 21
1007.9928
  0
LINE
  8
_0-1_LAYER003
  6
CONTINUOUS
 62
    7
 10
1933.9254999999998
 20
1007.9928
 11
1955.2955999999999
 21
1007.9928
  0
LINE
  8
_0-1_LAYER003
  6
CONTINUOUS
 62
    7
 10
1955.2955999999999
 20
1007.9928
 11
1955.2955999999999
 21
997.99279999999999
  0
LINE
  8
_0-1_LAYER003
  6
CONTINUOUS
 62
    7
 10
1955.2955999999999
 20
997.99279999999999
 11
1923.9254999999998
 21
997.99279999999999
  0
LINE
  8
_0-1_LAYER003
  6
CONTINUOUS
 62
    7
 10
1923.9254999999998
 20
997.99279999999999
 11
1923.9254999999998
 21
1062.0114000000001
  0
LINE
  8
_0-1_LAYER003
  6
CONTINUOUS
 62
    7
 10
1709.2782000000002
 20
1135.7919999999999
 11
1709.2782000000002
 21
1128.2919999999999
  0
LINE
  8
_0-1_LAYER003
  6
CONTINUOUS
 62
    7
 10
1709.2782000000002
 20
1128.2919999999999
 11
1713.0282000000002
 21
1134.7872
  0
LINE
  8
_0-1_LAYER003
  6
CONTINUOUS
 62
    7
 10
1709.2782000000002
 20
1128.2919999999999
 11
1735.6030999999998
 21
1226.5377000000001
  0
LINE
  8
_0-1_LAYER003
  6
CONTINUOUS
 62
    7
 10
1735.6030999999998
 20
1226.5377000000001
 11
1776.1030999999998
 21
1226.5377000000001
  0
TEXT
  8
_0-2_LAYER004
 62
    7
 10
1215.7474476318691
 20
1336.5887693966886
 40
20
 41
1
 50
0
  1
225
  0
TEXT
  8
_0-2_LAYER004
 62
    7
 10
1979.2038184343937
 20
1342.3945212659096
 40
20
 41
1
 50
0
  1
265
  0
TEXT
  8
_0-2_LAYER004
 62
    7
 10
1720.8478602540717
 20
1338.0402073639939
 40
20
 41
1
 50
0
  1
265
  0
TEXT
  8
_0-2_LAYER004
 62
    7
 10
1452.3318363026135
 20
1340.9430832986045
 40
20
 41
1
 50
0
  1
265
  0
TEXT
  8
_0-2_LAYER004
 62
    7
 10
1111.2439139858964
 20
771.97940011497371
 40
20
 41
1
 50
0
  1
20
  0
TEXT
  8
_0-2_LAYER004
 62
    7
 10
1138.8212353646948
 20
770.5279621476684
 40
20
 41
1
 50
0
  1
15
  0
TEXT
  8
_0-2_LAYER004
 62
    7
 10
985.50672997297499
 20
1056.1724640617986
 40
20
 41
1
 50
90
  1
30
  0
TEXT
  8
_0-2_LAYER004
 62
    7
 10
989.31180011873209
 20
968.65585070938414
 40
20
 41
1
 50
90
  1
160
  0
TEXT
  8
_0-2_LAYER004
 62
    7
 10
832.03556742743683
 20
1250.2310414954129
 40
20
 41
1
 50
0
  1
登座：36x45（防腐処理）
  0
TEXT
  8
_0-2_LAYER004
 62
    7
 10
783.83801224784634
 20
832.94168217737945
 40
20
 41
1
 50
0
  1
品板：30x90（防腐処理）
  0
TEXT
  8
_0-2_LAYER004
 62
    7
 10
1364.7453878334368
 20
961.04571041786983
 40
20
 41
1
 50
0
  1
アンカー
  0
TEXT
  8
_0-2_LAYER004
 62
    7
 10
1199.8590148506273
 20
1214.7170534683462
 40
20
 41
1
 50
0
  1
左袖瓦
  0
TEXT
  8
_0-2_LAYER004
 62
    7
 10
1735.1055486871319
 20
1231.205690766627
 40
20
 41
1
 50
0
  1
桟　瓦
  0
TEXT
  8
_0-2_LAYER004
 62
    7
 10
1506.8013399417034
 20
1001.6331253059461
 40
20
 41
1
 50
0
  1
溶接金網
  0
TEXT
  8
_0-2_LAYER004
 62
    7
 10
1768.0828232836939
 20
761.91370612324602
 40
20
 41
1
 50
0
  1
パーライト系モルタルｔ＝40
  0
TEXT
  8
_0-2_LAYER004
 62
    7
 10
983.9282938526934
 20
1092.257130142802
 40
20
 41
1
 50
90
  1
36
  0
TEXT
  8
_0-2_LAYER004
 62
    7
 10
1750.5889939810834
 20
825.27085124677558
 40
20
 41
1
 50
0
  1
瓦桟：15x30以上
  0
TEXT
  8
_0-2_LAYER004
 62
    7
 10
1756.0301062686208
 20
794.38671191987464
 40
20
 41
1
 50
0
  1
下葺材：ルーフィング
  0
LINE
  8
_0-2_LAYER004
  6
CONTINUOUS
 62
    7
 10
1757.2972541581451
 20
788.62591238636037
 11
1985.4663899034786
 21
788.62591238636037
  0
LINE
  8
_0-2_LAYER004
  6
CONTINUOUS
 62
    7
 10
2020.4524000000001
 20
756.88400000000001
 11
2046.8965418349144
 21
756.88400000000001
  0
ENDSEC
  0
EOF
