  0
SECTION
  2
HEADER
  9
$ACADVER
  1
AC1018
  9
$ACADMAINTVER
 70
     0
  9
$DWGCODEPAGE
  3
ANSI_932
  9
$INSBASE
 10
0.0
 20
0.0
 30
0.0
  9
$EXTMIN
 10
878.4835000000001
 20
752.0824
 30
0.0
  9
$EXTMAX
 10
2146.813698582276
 20
1368.151001338578
 30
0.0
  9
$LIMMIN
 10
0.0
 20
0.0
  9
$LIMMAX
 10
2970.0
 20
2100.0
  9
$ORTHOMODE
 70
     0
  9
$REGENMODE
 70
     1
  9
$FILLMODE
 70
     1
  9
$QTEXTMODE
 70
     0
  9
$MIRRTEXT
 70
     0
  9
$LTSCALE
 40
10.0
  9
$ATTMODE
 70
     1
  9
$TEXTSIZE
 40
0.2
  9
$TRACEWID
 40
0.05
  9
$TEXTSTYLE
  7
STANDARD
  9
$CLAYER
  8
0
  9
$CELTYPE
  6
CONTINUOUS
  9
$CECOLOR
 62
   256
  9
$CELTSCALE
 40
1.0
  9
$DISPSILH
 70
     0
  9
$DIMSCALE
 40
1.0
  9
$DIMASZ
 40
0.18
  9
$DIMEXO
 40
0.0625
  9
$DIMDLI
 40
0.38
  9
$DIMRND
 40
0.0
  9
$DIMDLE
 40
0.0
  9
$DIMEXE
 40
0.18
  9
$DIMTP
 40
0.0
  9
$DIMTM
 40
0.0
  9
$DIMTXT
 40
0.18
  9
$DIMCEN
 40
0.09
  9
$DIMTSZ
 40
0.0
  9
$DIMTOL
 70
     0
  9
$DIMLIM
 70
     0
  9
$DIMTIH
 70
     1
  9
$DIMTOH
 70
     1
  9
$DIMSE1
 70
     0
  9
$DIMSE2
 70
     0
  9
$DIMTAD
 70
     0
  9
$DIMZIN
 70
     0
  9
$DIMBLK
  1

  9
$DIMASO
 70
     1
  9
$DIMSHO
 70
     1
  9
$DIMPOST
  1

  9
$DIMAPOST
  1

  9
$DIMALT
 70
     0
  9
$DIMALTD
 70
     2
  9
$DIMALTF
 40
25.4
  9
$DIMLFAC
 40
1.0
  9
$DIMTOFL
 70
     0
  9
$DIMTVP
 40
0.0
  9
$DIMTIX
 70
     0
  9
$DIMSOXD
 70
     0
  9
$DIMSAH
 70
     0
  9
$DIMBLK1
  1

  9
$DIMBLK2
  1

  9
$DIMSTYLE
  2
Standard
  9
$DIMCLRD
 70
     0
  9
$DIMCLRE
 70
     0
  9
$DIMCLRT
 70
     0
  9
$DIMTFAC
 40
1.0
  9
$DIMGAP
 40
0.09
  9
$DIMJUST
 70
     0
  9
$DIMSD1
 70
     0
  9
$DIMSD2
 70
     0
  9
$DIMTOLJ
 70
     1
  9
$DIMTZIN
 70
     0
  9
$DIMALTZ
 70
     0
  9
$DIMALTTZ
 70
     0
  9
$DIMUPT
 70
     0
  9
$DIMDEC
 70
     4
  9
$DIMTDEC
 70
     4
  9
$DIMALTU
 70
     2
  9
$DIMALTTD
 70
     2
  9
$DIMTXSTY
  7
STANDARD
  9
$DIMAUNIT
 70
     0
  9
$DIMADEC
 70
     0
  9
$DIMALTRND
 40
0.0
  9
$DIMAZIN
 70
     0
  9
$DIMDSEP
 70
    46
  9
$DIMATFIT
 70
     3
  9
$DIMFRAC
 70
     0
  9
$DIMLDRBLK
  1

  9
$DIMLUNIT
 70
     2
  9
$DIMLWD
 70
    -2
  9
$DIMLWE
 70
    -2
  9
$DIMTMOVE
 70
     0
  9
$LUNITS
 70
     2
  9
$LUPREC
 70
     4
  9
$SKETCHINC
 40
0.1
  9
$FILLETRAD
 40
0.0
  9
$AUNITS
 70
     0
  9
$AUPREC
 70
     0
  9
$MENU
  1
.
  9
$ELEVATION
 40
0.0
  9
$PELEVATION
 40
0.0
  9
$THICKNESS
 40
0.0
  9
$LIMCHECK
 70
     0
  9
$CHAMFERA
 40
0.0
  9
$CHAMFERB
 40
0.0
  9
$CHAMFERC
 40
0.0
  9
$CHAMFERD
 40
0.0
  9
$SKPOLY
 70
     0
  9
$TDCREATE
 40
2454405.749065023
  9
$TDUCREATE
 40
2454405.374065023
  9
$TDUPDATE
 40
2454405.788515799
  9
$TDUUPDATE
 40
2454405.413515799
  9
$TDINDWG
 40
0.0394553009
  9
$TDUSRTIMER
 40
0.0394553009
  9
$USRTIMER
 70
     1
  9
$ANGBASE
 50
0.0
  9
$ANGDIR
 70
     0
  9
$PDMODE
 70
     0
  9
$PDSIZE
 40
0.0
  9
$PLINEWID
 40
0.0
  9
$SPLFRAME
 70
     0
  9
$SPLINETYPE
 70
     6
  9
$SPLINESEGS
 70
     8
  9
$HANDSEED
  5
3F6
  9
$SURFTAB1
 70
     6
  9
$SURFTAB2
 70
     6
  9
$SURFTYPE
 70
     6
  9
$SURFU
 70
     6
  9
$SURFV
 70
     6
  9
$UCSBASE
  2

  9
$UCSNAME
  2

  9
$UCSORG
 10
0.0
 20
0.0
 30
0.0
  9
$UCSXDIR
 10
1.0
 20
0.0
 30
0.0
  9
$UCSYDIR
 10
0.0
 20
1.0
 30
0.0
  9
$UCSORTHOREF
  2

  9
$UCSORTHOVIEW
 70
     0
  9
$UCSORGTOP
 10
0.0
 20
0.0
 30
0.0
  9
$UCSORGBOTTOM
 10
0.0
 20
0.0
 30
0.0
  9
$UCSORGLEFT
 10
0.0
 20
0.0
 30
0.0
  9
$UCSORGRIGHT
 10
0.0
 20
0.0
 30
0.0
  9
$UCSORGFRONT
 10
0.0
 20
0.0
 30
0.0
  9
$UCSORGBACK
 10
0.0
 20
0.0
 30
0.0
  9
$PUCSBASE
  2

  9
$PUCSNAME
  2

  9
$PUCSORG
 10
0.0
 20
0.0
 30
0.0
  9
$PUCSXDIR
 10
1.0
 20
0.0
 30
0.0
  9
$PUCSYDIR
 10
0.0
 20
1.0
 30
0.0
  9
$PUCSORTHOREF
  2

  9
$PUCSORTHOVIEW
 70
     0
  9
$PUCSORGTOP
 10
0.0
 20
0.0
 30
0.0
  9
$PUCSORGBOTTOM
 10
0.0
 20
0.0
 30
0.0
  9
$PUCSORGLEFT
 10
0.0
 20
0.0
 30
0.0
  9
$PUCSORGRIGHT
 10
0.0
 20
0.0
 30
0.0
  9
$PUCSORGFRONT
 10
0.0
 20
0.0
 30
0.0
  9
$PUCSORGBACK
 10
0.0
 20
0.0
 30
0.0
  9
$USERI1
 70
     0
  9
$USERI2
 70
     0
  9
$USERI3
 70
     0
  9
$USERI4
 70
     0
  9
$USERI5
 70
     0
  9
$USERR1
 40
0.0
  9
$USERR2
 40
0.0
  9
$USERR3
 40
0.0
  9
$USERR4
 40
0.0
  9
$USERR5
 40
0.0
  9
$WORLDVIEW
 70
     1
  9
$SHADEDGE
 70
     3
  9
$SHADEDIF
 70
    70
  9
$TILEMODE
 70
     1
  9
$MAXACTVP
 70
    64
  9
$PINSBASE
 10
0.0
 20
0.0
 30
0.0
  9
$PLIMCHECK
 70
     0
  9
$PEXTMIN
 10
1.000000000000000E+20
 20
1.000000000000000E+20
 30
1.000000000000000E+20
  9
$PEXTMAX
 10
-1.000000000000000E+20
 20
-1.000000000000000E+20
 30
-1.000000000000000E+20
  9
$PLIMMIN
 10
0.0
 20
0.0
  9
$PLIMMAX
 10
12.0
 20
9.0
  9
$UNITMODE
 70
     0
  9
$VISRETAIN
 70
     1
  9
$PLINEGEN
 70
     0
  9
$PSLTSCALE
 70
     1
  9
$TREEDEPTH
 70
  3020
  9
$CMLSTYLE
  2
Standard
  9
$CMLJUST
 70
     0
  9
$CMLSCALE
 40
1.0
  9
$PROXYGRAPHICS
 70
     1
  9
$MEASUREMENT
 70
     0
  9
$CELWEIGHT
370
    -1
  9
$ENDCAPS
280
     0
  9
$JOINSTYLE
280
     0
  9
$LWDISPLAY
290
     0
  9
$INSUNITS
 70
     0
  9
$HYPERLINKBASE
  1

  9
$STYLESHEET
  1

  9
$XEDIT
290
     1
  9
$CEPSNTYPE
380
     0
  9
$PSTYLEMODE
290
     1
  9
$FINGERPRINTGUID
  2
{3A54ADBF-BE36-4C45-B1A3-549C09276138}
  9
$VERSIONGUID
  2
{E6B4B4B8-AFE7-41E3-BADF-DD5D7FC83D8B}
  9
$EXTNAMES
290
     1
  9
$PSVPSCALE
 40
0.0
  9
$OLESTARTUP
290
     0
  9
$SORTENTS
280
   127
  9
$INDEXCTL
280
     0
  9
$HIDETEXT
280
     0
  9
$XCLIPFRAME
290
     0
  9
$HALOGAP
280
     0
  9
$OBSCOLOR
 70
   257
  9
$OBSLTYPE
280
     0
  9
$INTERSECTIONDISPLAY
280
     0
  9
$INTERSECTIONCOLOR
 70
   257
  9
$DIMASSOC
280
     1
  9
$PROJECTNAME
  1

  0
ENDSEC
  0
SECTION
  2
CLASSES
  0
CLASS
  1
ACDBDICTIONARYWDFLT
  2
AcDbDictionaryWithDefault
  3
ObjectDBX Classes
 90
        0
 91
        1
280
     0
281
     0
  0
ENDSEC
  0
SECTION
  2
TABLES
  0
TABLE
  2
VPORT
  5
8
330
0
100
AcDbSymbolTable
 70
     4
  0
VPORT
  5
3F5
330
8
100
AcDbSymbolTableRecord
100
AcDbViewportTableRecord
  2
*Active
 70
     0
 10
0.0
 20
0.0
 11
1.0
 21
1.0
 12
1510.850624828243
 22
1041.528589270569
 13
0.0
 23
0.0
 14
1.0
 24
1.0
 15
0.0
 25
0.0
 16
0.0
 26
0.0
 36
1.0
 17
0.0
 27
0.0
 37
0.0
 40
1084.186369842804
 41
1.326027397260274
 42
50.0
 43
0.0
 44
0.0
 50
0.0
 51
0.0
 71
     0
 72
   100
 73
     1
 74
     1
 75
     0
 76
     0
 77
     0
 78
     0
281
     0
 65
     1
110
0.0
120
0.0
130
0.0
111
1.0
121
0.0
131
0.0
112
0.0
122
1.0
132
0.0
 79
     0
146
0.0
  0
ENDTAB
  0
TABLE
  2
LTYPE
  5
5
330
0
100
AcDbSymbolTable
 70
    35
  0
LTYPE
  5
13
330
5
100
AcDbSymbolTableRecord
100
AcDbLinetypeTableRecord
  2
ByBlock
 70
     0
  3

 72
    65
 73
     0
 40
0.0
  0
LTYPE
  5
14
330
5
100
AcDbSymbolTableRecord
100
AcDbLinetypeTableRecord
  2
ByLayer
 70
     0
  3

 72
    65
 73
     0
 40
0.0
  0
LTYPE
  5
15
330
5
100
AcDbSymbolTableRecord
100
AcDbLinetypeTableRecord
  2
CONTINUOUS
 70
     0
  3
実線
 72
    65
 73
     0
 40
0.0
  0
LTYPE
  5
24
330
5
100
AcDbSymbolTableRecord
100
AcDbLinetypeTableRecord
  2
DASHED1
 70
     0
  3
--  --  --  --  --  --  --  --  
 72
    65
 73
     2
 40
2.5
 49
1.25
 74
     0
 49
-1.25
 74
     0
  0
LTYPE
  5
25
330
5
100
AcDbSymbolTableRecord
100
AcDbLinetypeTableRecord
  2
DASHED2
 70
     0
  3
----    ----    ----    ----    
 72
    65
 73
     2
 40
5.0
 49
2.5
 74
     0
 49
-2.5
 74
     0
  0
LTYPE
  5
26
330
5
100
AcDbSymbolTableRecord
100
AcDbLinetypeTableRecord
  2
DASHED3
 70
     0
  3
------  ------  ------  ------  
 72
    65
 73
     2
 40
5.0
 49
3.75
 74
     0
 49
-1.25
 74
     0
  0
LTYPE
  5
27
330
5
100
AcDbSymbolTableRecord
100
AcDbLinetypeTableRecord
  2
CENTER1
 70
     0
  3
----- - ----- - ----- - ----- - 
 72
    65
 73
     4
 40
10.0
 49
6.25
 74
     0
 49
-1.25
 74
     0
 49
1.25
 74
     0
 49
-1.25
 74
     0
  0
LTYPE
  5
28
330
5
100
AcDbSymbolTableRecord
100
AcDbLinetypeTableRecord
  2
CENTER2
 70
     0
  3
----------  --  ----------  --  
 72
    65
 73
     4
 40
20.0
 49
12.5
 74
     0
 49
-2.5
 74
     0
 49
2.5
 74
     0
 49
-2.5
 74
     0
  0
LTYPE
  5
29
330
5
100
AcDbSymbolTableRecord
100
AcDbLinetypeTableRecord
  2
PHANTOM1
 70
     0
  3
--- - - --- - - --- - - --- - - 
 72
    65
 73
     6
 40
10.0
 49
3.25
 74
     0
 49
-1.25
 74
     0
 49
1.25
 74
     0
 49
-1.25
 74
     0
 49
1.25
 74
     0
 49
-1.25
 74
     0
  0
LTYPE
  5
2A
330
5
100
AcDbSymbolTableRecord
100
AcDbLinetypeTableRecord
  2
PHANTOM2
 70
     0
  3
--------  -  -  --------  -  -  
 72
    65
 73
     6
 40
20.0
 49
10.0
 74
     0
 49
-2.5
 74
     0
 49
1.25
 74
     0
 49
-2.5
 74
     0
 49
1.25
 74
     0
 49
-2.5
 74
     0
  0
LTYPE
  5
2B
330
5
100
AcDbSymbolTableRecord
100
AcDbLinetypeTableRecord
  2
DOT
 70
     0
  3
-   -   -   -   -   -   -   -   
 72
    65
 73
     2
 40
2.5
 49
0.625
 74
     0
 49
-1.875
 74
     0
  0
LTYPE
  5
2C
330
5
100
AcDbSymbolTableRecord
100
AcDbLinetypeTableRecord
  2
DUMMY
 70
     0
  3
ダミー
 72
    65
 73
     0
 40
0.0
  0
LTYPE
  5
2D
330
5
100
AcDbSymbolTableRecord
100
AcDbLinetypeTableRecord
  2
RAND1
 70
     0
  3
ランダム線1
 72
    65
 73
     4
 40
10.0
 49
1.0
 74
     0
 49
-2.0
 74
     0
 49
3.0
 74
     0
 49
-4.0
 74
     0
  0
LTYPE
  5
2E
330
5
100
AcDbSymbolTableRecord
100
AcDbLinetypeTableRecord
  2
RAND2
 70
     0
  3
ランダム線2
 72
    65
 73
     4
 40
14.0
 49
2.0
 74
     0
 49
-3.0
 74
     0
 49
4.0
 74
     0
 49
-5.0
 74
     0
  0
LTYPE
  5
2F
330
5
100
AcDbSymbolTableRecord
100
AcDbLinetypeTableRecord
  2
RAND3
 70
     0
  3
ランダム線3
 72
    65
 73
     4
 40
18.0
 49
3.0
 74
     0
 49
-4.0
 74
     0
 49
5.0
 74
     0
 49
-6.0
 74
     0
  0
LTYPE
  5
30
330
5
100
AcDbSymbolTableRecord
100
AcDbLinetypeTableRecord
  2
RAND4
 70
     0
  3
ランダム線4
 72
    65
 73
     4
 40
22.0
 49
4.0
 74
     0
 49
-5.0
 74
     0
 49
6.0
 74
     0
 49
-7.0
 74
     0
  0
LTYPE
  5
31
330
5
100
AcDbSymbolTableRecord
100
AcDbLinetypeTableRecord
  2
RAND5
 70
     0
  3
ランダム線5
 72
    65
 73
     4
 40
26.0
 49
5.0
 74
     0
 49
-6.0
 74
     0
 49
7.0
 74
     0
 49
-8.0
 74
     0
  0
LTYPE
  5
32
330
5
100
AcDbSymbolTableRecord
100
AcDbLinetypeTableRecord
  2
LONG1
 70
     0
  3
----------  --  ----------  --  
 72
    65
 73
     4
 40
40.0
 49
32.5
 74
     0
 49
-2.5
 74
     0
 49
2.5
 74
     0
 49
-2.5
 74
     0
  0
LTYPE
  5
33
330
5
100
AcDbSymbolTableRecord
100
AcDbLinetypeTableRecord
  2
LONG2
 70
     0
  3
--------  -  -  --------  -  -  
 72
    65
 73
     6
 40
40.0
 49
30.0
 74
     0
 49
-2.5
 74
     0
 49
1.25
 74
     0
 49
-2.5
 74
     0
 49
1.25
 74
     0
 49
-2.5
 74
     0
  0
LTYPE
  5
34
330
5
100
AcDbSymbolTableRecord
100
AcDbLinetypeTableRecord
  2
LONG3
 70
     0
  3
+++++++++++++++..+++++++++++++++
 72
    65
 73
     2
 40
40.0
 49
37.5
 74
     0
 49
-2.5
 74
     0
  0
LTYPE
  5
35
330
5
100
AcDbSymbolTableRecord
100
AcDbLinetypeTableRecord
  2
LONG4
 70
     0
  3
+++++++++++++++..+++++++++++++++
 72
    65
 73
     2
 40
80.0
 49
75.0
 74
     0
 49
-5.0
 74
     0
  0
LTYPE
  5
36
330
5
100
AcDbSymbolTableRecord
100
AcDbLinetypeTableRecord
  2
LONG5
 70
     0
  3
----------  --  ----------  --  
 72
    65
 73
     4
 40
60.0
 49
37.5
 74
     0
 49
-7.5
 74
     0
 49
7.5
 74
     0
 49
-7.5
 74
     0
  0
LTYPE
  5
37
330
5
100
AcDbSymbolTableRecord
100
AcDbLinetypeTableRecord
  2
DASHED
 70
     0
  3
-------   -------------   ------
 72
    65
 73
     2
 40
7.5
 49
6.0
 74
     0
 49
-1.5
 74
     0
  0
LTYPE
  5
38
330
5
100
AcDbSymbolTableRecord
100
AcDbLinetypeTableRecord
  2
DASHED_SPACED
 70
     0
  3
----        --------        ----
 72
    65
 73
     2
 40
12.0
 49
6.0
 74
     0
 49
-6.0
 74
     0
  0
LTYPE
  5
39
330
5
100
AcDbSymbolTableRecord
100
AcDbLinetypeTableRecord
  2
LONG_DASHED_DOTTED
 70
     0
  3
------------- --- --------------
 72
    65
 73
     4
 40
15.25
 49
12.0
 74
     0
 49
-1.5
 74
     0
 49
0.25
 74
     0
 49
-1.5
 74
     0
  0
LTYPE
  5
3A
330
5
100
AcDbSymbolTableRecord
100
AcDbLinetypeTableRecord
  2
LONG_DASHED_DOUBLE-DOTTED
 70
     0
  3
----------- --- --- ------------
 72
    65
 73
     6
 40
17.0
 49
12.0
 74
     0
 49
-1.5
 74
     0
 49
0.25
 74
     0
 49
-1.5
 74
     0
 49
0.25
 74
     0
 49
-1.5
 74
     0
  0
LTYPE
  5
3B
330
5
100
AcDbSymbolTableRecord
100
AcDbLinetypeTableRecord
  2
LONG_DASHED_TRIPLICATE-DOTTED
 70
     0
  3
--------- --- --- --- ----------
 72
    65
 73
     8
 40
18.75
 49
12.0
 74
     0
 49
-1.5
 74
     0
 49
0.25
 74
     0
 49
-1.5
 74
     0
 49
0.25
 74
     0
 49
-1.5
 74
     0
 49
0.25
 74
     0
 49
-1.5
 74
     0
  0
LTYPE
  5
3C
330
5
100
AcDbSymbolTableRecord
100
AcDbLinetypeTableRecord
  2
DOTTED
 70
     0
  3
   -       -       -       -    
 72
    65
 73
     2
 40
1.75
 49
0.25
 74
     0
 49
-1.5
 74
     0
  0
LTYPE
  5
3D
330
5
100
AcDbSymbolTableRecord
100
AcDbLinetypeTableRecord
  2
CHAIN
 70
     0
  3
-------------- -- --------------
 72
    65
 73
     4
 40
18.5
 49
12.0
 74
     0
 49
-1.5
 74
     0
 49
3.5
 74
     0
 49
-1.5
 74
     0
  0
LTYPE
  5
3E
330
5
100
AcDbSymbolTableRecord
100
AcDbLinetypeTableRecord
  2
CHAIN_DOUBLE_DASH
 70
     0
  3
------------ -- -- -------------
 72
    65
 73
     6
 40
23.5
 49
12.0
 74
     0
 49
-1.5
 74
     0
 49
3.5
 74
     0
 49
-1.5
 74
     0
 49
3.5
 74
     0
 49
-1.5
 74
     0
  0
LTYPE
  5
3F
330
5
100
AcDbSymbolTableRecord
100
AcDbLinetypeTableRecord
  2
DASHED_DOTTED
 70
     0
  3
-----------     -     ----------
 72
    65
 73
     4
 40
9.25
 49
6.0
 74
     0
 49
-1.5
 74
     0
 49
0.25
 74
     0
 49
-1.5
 74
     0
  0
LTYPE
  5
40
330
5
100
AcDbSymbolTableRecord
100
AcDbLinetypeTableRecord
  2
DOUBLE-DASHED_DOTTED
 70
     0
  3
------   -----------   -   -----
 72
    65
 73
     6
 40
16.75
 49
6.0
 74
     0
 49
-1.5
 74
     0
 49
6.0
 74
     0
 49
-1.5
 74
     0
 49
0.25
 74
     0
 49
-1.5
 74
     0
  0
LTYPE
  5
41
330
5
100
AcDbSymbolTableRecord
100
AcDbLinetypeTableRecord
  2
DASHED_DOUBLE-DOTTED
 70
     0
  3
---------    -    -    ---------
 72
    65
 73
     6
 40
11.0
 49
6.0
 74
     0
 49
-1.5
 74
     0
 49
0.25
 74
     0
 49
-1.5
 74
     0
 49
0.25
 74
     0
 49
-1.5
 74
     0
  0
LTYPE
  5
42
330
5
100
AcDbSymbolTableRecord
100
AcDbLinetypeTableRecord
  2
DOUBLE-DASHED_DOUBLE-DOTTED
 70
     0
  3
-----   ---------   -   -   ----
 72
    65
 73
     8
 40
18.5
 49
6.0
 74
     0
 49
-1.5
 74
     0
 49
6.0
 74
     0
 49
-1.5
 74
     0
 49
0.25
 74
     0
 49
-1.5
 74
     0
 49
0.25
 74
     0
 49
-1.5
 74
     0
  0
LTYPE
  5
43
330
5
100
AcDbSymbolTableRecord
100
AcDbLinetypeTableRecord
  2
DASHED_TRIPLICATE-DOTTED
 70
     0
  3
-------    -    -    -    ------
 72
    65
 73
     8
 40
12.75
 49
6.0
 74
     0
 49
-1.5
 74
     0
 49
0.25
 74
     0
 49
-1.5
 74
     0
 49
0.25
 74
     0
 49
-1.5
 74
     0
 49
0.25
 74
     0
 49
-1.5
 74
     0
  0
LTYPE
  5
44
330
5
100
AcDbSymbolTableRecord
100
AcDbLinetypeTableRecord
  2
DOUBLE-DASHED_TRIPLICATE-DOTTED
 70
     0
  3
-----  ---------  -  -  -  -----
 72
    65
 73
    10
 40
20.25
 49
6.0
 74
     0
 49
-1.5
 74
     0
 49
6.0
 74
     0
 49
-1.5
 74
     0
 49
0.25
 74
     0
 49
-1.5
 74
     0
 49
0.25
 74
     0
 49
-1.5
 74
     0
 49
0.25
 74
     0
 49
-1.5
 74
     0
  0
LTYPE
  5
45
330
5
100
AcDbSymbolTableRecord
100
AcDbLinetypeTableRecord
  2
UNDEFINED
 70
     0
  3
--------------------------------
 72
    65
 73
     0
 40
0.0
  0
ENDTAB
  0
TABLE
  2
LAYER
  5
2
330
0
100
AcDbSymbolTable
 70
     5
  0
LAYER
  5
10
330
2
100
AcDbSymbolTableRecord
100
AcDbLayerTableRecord
  2
0
 70
     0
 62
     7
  6
CONTINUOUS
370
    -3
390
F
  0
LAYER
  5
47
330
2
100
AcDbSymbolTableRecord
100
AcDbLayerTableRecord
  2
_0-0_LAYER001
 70
     0
 62
     7
  6
CONTINUOUS
370
    -3
390
F
  0
LAYER
  5
48
330
2
100
AcDbSymbolTableRecord
100
AcDbLayerTableRecord
  2
_0-1_LAYER004
 70
     0
 62
     7
  6
CONTINUOUS
370
    -3
390
F
  0
LAYER
  5
49
330
2
100
AcDbSymbolTableRecord
100
AcDbLayerTableRecord
  2
_0-2_LAYER005
 70
     0
 62
     7
  6
CONTINUOUS
370
    -3
390
F
  0
LAYER
  5
4A
330
2
100
AcDbSymbolTableRecord
100
AcDbLayerTableRecord
  2
ADD_LINE
 70
     0
 62
     7
  6
CONTINUOUS
370
    -3
390
F
  0
ENDTAB
  0
TABLE
  2
STYLE
  5
3
330
0
100
AcDbSymbolTable
 70
     2
  0
STYLE
  5
11
330
3
100
AcDbSymbolTableRecord
100
AcDbTextStyleTableRecord
  2
STANDARD
 70
     0
 40
0.0
 41
1.0
 50
0.0
 71
     0
 42
0.2
  3
txt
  4
bigfont.shx
  0
STYLE
  5
46
330
3
100
AcDbSymbolTableRecord
100
AcDbTextStyleTableRecord
  2
TATEGAKI
 70
     4
 40
0.0
 41
1.0
 50
0.0
 71
     0
 42
1.0
  3
txt
  4
bigfont.shx
  0
ENDTAB
  0
TABLE
  2
VIEW
  5
6
330
0
100
AcDbSymbolTable
 70
     0
  0
ENDTAB
  0
TABLE
  2
UCS
  5
7
330
0
100
AcDbSymbolTable
 70
     0
  0
ENDTAB
  0
TABLE
  2
APPID
  5
9
330
0
100
AcDbSymbolTable
 70
     1
  0
APPID
  5
12
330
9
100
AcDbSymbolTableRecord
100
AcDbRegAppTableRecord
  2
ACAD
 70
     0
  0
ENDTAB
  0
TABLE
  2
DIMSTYLE
  5
A
330
0
100
AcDbSymbolTable
 70
     1
100
AcDbDimStyleTable
 71
     0
  0
DIMSTYLE
105
3F1
330
A
100
AcDbSymbolTableRecord
100
AcDbDimStyleTableRecord
  2
Standard
 70
     0
340
11
  0
ENDTAB
  0
TABLE
  2
BLOCK_RECORD
  5
1
330
0
100
AcDbSymbolTable
 70
     0
  0
BLOCK_RECORD
  5
20
330
1
100
AcDbSymbolTableRecord
100
AcDbBlockTableRecord
  2
*Model_Space
340
23
  0
BLOCK_RECORD
  5
1C
330
1
100
AcDbSymbolTableRecord
100
AcDbBlockTableRecord
  2
*Paper_Space
340
1F
  0
ENDTAB
  0
ENDSEC
  0
SECTION
  2
BLOCKS
  0
BLOCK
  5
21
330
20
100
AcDbEntity
  8
0
100
AcDbBlockBegin
  2
*Model_Space
 70
     0
 10
0.0
 20
0.0
 30
0.0
  3
*Model_Space
  1

  0
ENDBLK
  5
22
330
20
100
AcDbEntity
  8
0
100
AcDbBlockEnd
  0
BLOCK
  5
1D
330
1C
100
AcDbEntity
 67
     1
  8
0
100
AcDbBlockBegin
  2
*Paper_Space
 70
     0
 10
0.0
 20
0.0
 30
0.0
  3
*Paper_Space
  1

  0
ENDBLK
  5
1E
330
1C
100
AcDbEntity
 67
     1
  8
0
100
AcDbBlockEnd
  0
ENDSEC
  0
SECTION
  2
ENTITIES
  0
LINE
  5
4E
330
20
100
AcDbEntity
  8
_0-0_LAYER001
  6
Continuous
 62
     2
100
AcDbLine
 10
1649.0911
 20
1091.3562
 30
0.0
 11
878.4835000000001
 21
1091.3562
 31
0.0
  0
LINE
  5
4F
330
20
100
AcDbEntity
  8
_0-0_LAYER001
  6
DASHED1
 62
     2
100
AcDbLine
 10
1724.1318
 20
1051.386
 30
0.0
 11
1639.1318
 21
1051.386
 31
0.0
  0
LINE
  5
50
330
20
100
AcDbEntity
  8
_0-0_LAYER001
  6
DASHED1
 62
     2
100
AcDbLine
 10
1639.1318
 20
1091.3562
 30
0.0
 11
1639.1318
 21
1051.386
 31
0.0
  0
LINE
  5
51
330
20
100
AcDbEntity
  8
_0-0_LAYER001
  6
DASHED1
 62
     2
100
AcDbLine
 10
1714.1318
 20
1051.386
 30
0.0
 11
1714.1318
 21
921.386
 31
0.0
  0
LINE
  5
52
330
20
100
AcDbEntity
  8
_0-0_LAYER001
  6
Continuous
 62
     2
100
AcDbLine
 10
1912.9196
 20
911.386
 30
0.0
 11
1860.4196
 21
911.386
 31
0.0
  0
CIRCLE
  5
53
330
20
100
AcDbEntity
  8
_0-0_LAYER001
  6
Continuous
 62
     2
100
AcDbCircle
 10
1910.4196
 20
911.386
 30
0.0
 40
1.699999999999999
  0
LINE
  5
54
330
20
100
AcDbEntity
  8
_0-0_LAYER001
  6
Continuous
 62
     2
100
AcDbLine
 10
1910.4196
 20
911.386
 30
0.0
 11
1910.4196
 21
1061.386
 31
0.0
  0
CIRCLE
  5
55
330
20
100
AcDbEntity
  8
_0-0_LAYER001
  6
Continuous
 62
     2
100
AcDbCircle
 10
1910.4196
 20
1061.386
 30
0.0
 40
1.699999999999999
  0
LINE
  5
56
330
20
100
AcDbEntity
  8
_0-0_LAYER001
  6
Continuous
 62
     2
100
AcDbLine
 10
1912.9196
 20
1061.386
 30
0.0
 11
1860.4196
 21
1061.386
 31
0.0
  0
CIRCLE
  5
57
330
20
100
AcDbEntity
  8
_0-0_LAYER001
  6
Continuous
 62
     2
100
AcDbCircle
 10
1910.4196
 20
1061.386
 30
0.0
 40
1.699999999999999
  0
LINE
  5
58
330
20
100
AcDbEntity
  8
_0-0_LAYER001
  6
Continuous
 62
     2
100
AcDbLine
 10
1910.4196
 20
1061.386
 30
0.0
 11
1910.4196
 21
1091.386
 31
0.0
  0
CIRCLE
  5
59
330
20
100
AcDbEntity
  8
_0-0_LAYER001
  6
Continuous
 62
     2
100
AcDbCircle
 10
1910.4196
 20
1091.386
 30
0.0
 40
1.699999999999999
  0
LINE
  5
5A
330
20
100
AcDbEntity
  8
_0-0_LAYER001
  6
Continuous
 62
     2
100
AcDbLine
 10
1912.9196
 20
1091.386
 30
0.0
 11
1860.4196
 21
1091.386
 31
0.0
  0
LINE
  5
5B
330
20
100
AcDbEntity
  8
_0-0_LAYER001
  6
Continuous
 62
     2
100
AcDbLine
 10
1729.1318
 20
1091.386
 30
0.0
 11
1684.1318
 21
1116.9708
 31
0.0
  0
LINE
  5
5C
330
20
100
AcDbEntity
  8
_0-0_LAYER001
  6
Continuous
 62
     2
100
AcDbLine
 10
1912.9196
 20
1091.386
 30
0.0
 11
1860.4196
 21
1091.386
 31
0.0
  0
LINE
  5
5D
330
20
100
AcDbEntity
  8
_0-1_LAYER004
  6
Continuous
 62
     3
100
AcDbLine
 10
1739.1318
 20
1091.386
 30
0.0
 11
1649.1318
 21
1091.386
 31
0.0
  0
LINE
  5
5E
330
20
100
AcDbEntity
  8
_0-1_LAYER004
  6
Continuous
 62
     3
100
AcDbLine
 10
1649.1318
 20
1061.386
 30
0.0
 11
1739.1318
 21
1061.386
 31
0.0
  0
LINE
  5
5F
330
20
100
AcDbEntity
  8
_0-1_LAYER004
  6
Continuous
 62
     3
100
AcDbLine
 10
1739.1318
 20
1091.386
 30
0.0
 11
1739.1318
 21
1061.386
 31
0.0
  0
LINE
  5
60
330
20
100
AcDbEntity
  8
_0-1_LAYER004
  6
Continuous
 62
     3
100
AcDbLine
 10
1649.1318
 20
1091.386
 30
0.0
 11
1649.1318
 21
1061.386
 31
0.0
  0
LINE
  5
61
330
20
100
AcDbEntity
  8
_0-1_LAYER004
  6
DASHED1
 62
     2
100
AcDbLine
 10
1714.1318
 20
921.386
 30
0.0
 11
878.4835000000001
 21
921.386
 31
0.0
  0
LINE
  5
62
330
20
100
AcDbEntity
  8
_0-1_LAYER004
  6
Continuous
 62
     2
100
AcDbLine
 10
1714.1318
 20
911.386
 30
0.0
 11
878.4835000000001
 21
911.386
 31
0.0
  0
LINE
  5
63
330
20
100
AcDbEntity
  8
_0-1_LAYER004
  6
Continuous
 62
     2
100
AcDbLine
 10
1714.1318
 20
921.386
 30
0.0
 11
1724.1318
 21
921.386
 31
0.0
  0
LINE
  5
64
330
20
100
AcDbEntity
  8
_0-1_LAYER004
  6
Continuous
 62
     2
100
AcDbLine
 10
1724.1318
 20
1061.386
 30
0.0
 11
1724.1318
 21
921.386
 31
0.0
  0
LINE
  5
65
330
20
100
AcDbEntity
  8
_0-1_LAYER004
  6
Continuous
 62
     2
100
AcDbLine
 10
1714.1318
 20
921.386
 30
0.0
 11
1714.1318
 21
911.386
 31
0.0
  0
LINE
  5
66
330
20
100
AcDbEntity
  8
_0-1_LAYER004
  6
Continuous
 62
     2
100
AcDbLine
 10
1513.279
 20
1091.3562
 30
0.0
 11
1333.3088
 21
911.386
 31
0.0
  0
LINE
  5
67
330
20
100
AcDbEntity
  8
_0-1_LAYER004
  6
Continuous
 62
     2
100
AcDbLine
 10
1524.592999999999
 20
1091.3562
 30
0.0
 11
1344.6228
 21
911.386
 31
0.0
  0
LINE
  5
68
330
20
100
AcDbEntity
  8
_0-1_LAYER004
  6
Continuous
 62
     2
100
AcDbLine
 10
1535.907
 20
1091.3562
 30
0.0
 11
1355.9368
 21
911.386
 31
0.0
  0
LINE
  5
69
330
20
100
AcDbEntity
  8
_0-1_LAYER004
  6
Continuous
 62
     2
100
AcDbLine
 10
973.2777999999999
 20
1091.386
 30
0.0
 11
878.4835000000001
 21
996.5918
 31
0.0
  0
LINE
  5
6A
330
20
100
AcDbEntity
  8
_0-1_LAYER004
  6
Continuous
 62
     2
100
AcDbLine
 10
984.5918000000001
 20
1091.386
 30
0.0
 11
878.4835000000001
 21
985.2777999999998
 31
0.0
  0
LINE
  5
6B
330
20
100
AcDbEntity
  8
_0-1_LAYER004
  6
Continuous
 62
     2
100
AcDbLine
 10
995.9058
 20
1091.386
 30
0.0
 11
878.4835000000001
 21
973.9638000000001
 31
0.0
  0
LINE
  5
6C
330
20
100
AcDbEntity
  8
_0-1_LAYER004
  6
Continuous
 62
     2
100
AcDbLine
 10
1728.8848
 20
1061.386
 30
0.0
 11
1739.1318
 21
1071.633
 31
0.0
  0
LINE
  5
6D
330
20
100
AcDbEntity
  8
_0-1_LAYER004
  6
Continuous
 62
     2
100
AcDbLine
 10
1717.5718
 20
1061.386
 30
0.0
 11
1739.1318
 21
1082.946
 31
0.0
  0
LINE
  5
6E
330
20
100
AcDbEntity
  8
_0-1_LAYER004
  6
Continuous
 62
     2
100
AcDbLine
 10
1706.2578
 20
1061.386
 30
0.0
 11
1736.2578
 21
1091.386
 31
0.0
  0
LINE
  5
6F
330
20
100
AcDbEntity
  8
_0-1_LAYER004
  6
Continuous
 62
     2
100
AcDbLine
 10
1694.9438
 20
1061.386
 30
0.0
 11
1724.9438
 21
1091.386
 31
0.0
  0
LINE
  5
70
330
20
100
AcDbEntity
  8
_0-1_LAYER004
  6
Continuous
 62
     2
100
AcDbLine
 10
1683.6308
 20
1061.386
 30
0.0
 11
1713.6308
 21
1091.386
 31
0.0
  0
LINE
  5
71
330
20
100
AcDbEntity
  8
_0-1_LAYER004
  6
Continuous
 62
     2
100
AcDbLine
 10
1672.3168
 20
1061.386
 30
0.0
 11
1702.3168
 21
1091.386
 31
0.0
  0
LINE
  5
72
330
20
100
AcDbEntity
  8
_0-1_LAYER004
  6
Continuous
 62
     2
100
AcDbLine
 10
1661.0028
 20
1061.386
 30
0.0
 11
1691.0028
 21
1091.386
 31
0.0
  0
LINE
  5
73
330
20
100
AcDbEntity
  8
_0-1_LAYER004
  6
Continuous
 62
     2
100
AcDbLine
 10
1649.6898
 20
1061.386
 30
0.0
 11
1679.6898
 21
1091.386
 31
0.0
  0
LINE
  5
74
330
20
100
AcDbEntity
  8
_0-1_LAYER004
  6
Continuous
 62
     2
100
AcDbLine
 10
1649.1318
 20
1072.142
 30
0.0
 11
1668.375799999999
 21
1091.386
 31
0.0
  0
LINE
  5
75
330
20
100
AcDbEntity
  8
_0-1_LAYER004
  6
Continuous
 62
     2
100
AcDbLine
 10
1649.1318
 20
1083.456
 30
0.0
 11
1657.0618
 21
1091.386
 31
0.0
  0
LINE
  5
76
330
20
100
AcDbEntity
  8
_0-1_LAYER004
  6
Continuous
 62
     2
100
AcDbLine
 10
1684.1318
 20
1116.9708
 30
0.0
 11
1684.1318
 21
1091.386
 31
0.0
  0
LINE
  5
77
330
20
100
AcDbEntity
  8
_0-1_LAYER004
  6
Continuous
 62
     2
100
AcDbLine
 10
1729.1318
 20
1127.386
 30
0.0
 11
1729.1318
 21
1091.386
 31
0.0
  0
LINE
  5
78
330
20
100
AcDbEntity
  8
_0-1_LAYER004
  6
Continuous
 62
     2
100
AcDbLine
 10
878.4835000000001
 20
1114.4229
 30
0.0
 11
1682.2528
 21
1114.4229
 31
0.0
  0
LINE
  5
79
330
20
100
AcDbEntity
  8
_0-1_LAYER004
  6
DASHED3
 62
     2
100
AcDbLine
 10
878.4835000000001
 20
1094.908
 30
0.0
 11
1682.2528
 21
1094.908
 31
0.0
  0
LINE
  5
7A
330
20
100
AcDbEntity
  8
_0-1_LAYER004
  6
Continuous
 62
     2
100
AcDbLine
 10
878.4835000000001
 20
1099.4229
 30
0.0
 11
1682.2528
 21
1099.4229
 31
0.0
  0
LINE
  5
7B
330
20
100
AcDbEntity
  8
_0-1_LAYER004
  6
Continuous
 62
     2
100
AcDbLine
 10
1682.2528
 20
1114.4229
 30
0.0
 11
1682.2528
 21
1099.4229
 31
0.0
  0
LINE
  5
7C
330
20
100
AcDbEntity
  8
_0-0_LAYER001
  6
Continuous
 62
     2
100
AcDbLine
 10
1729.1318
 20
1127.386
 30
0.0
 11
1684.1318
 21
1116.9708
 31
0.0
  0
LINE
  5
7D
330
20
100
AcDbEntity
  8
_0-0_LAYER001
  6
Continuous
 62
     2
100
AcDbLine
 10
1729.1318
 20
1127.386
 30
0.0
 11
1684.1318
 21
1091.386
 31
0.0
  0
LINE
  5
7E
330
20
100
AcDbEntity
  8
_0-0_LAYER001
  6
Continuous
 62
     2
100
AcDbLine
 10
1912.9196
 20
1091.386
 30
0.0
 11
1860.4196
 21
1091.386
 31
0.0
  0
CIRCLE
  5
7F
330
20
100
AcDbEntity
  8
_0-0_LAYER001
  6
Continuous
 62
     2
100
AcDbCircle
 10
1910.4196
 20
1091.386
 30
0.0
 40
1.699999999999999
  0
LINE
  5
80
330
20
100
AcDbEntity
  8
_0-0_LAYER001
  6
Continuous
 62
     2
100
AcDbLine
 10
1910.4196
 20
1091.386
 30
0.0
 11
1910.4196
 21
1127.386
 31
0.0
  0
CIRCLE
  5
81
330
20
100
AcDbEntity
  8
_0-0_LAYER001
  6
Continuous
 62
     2
100
AcDbCircle
 10
1910.4196
 20
1127.386
 30
0.0
 40
1.699999999999999
  0
LINE
  5
82
330
20
100
AcDbEntity
  8
_0-0_LAYER001
  6
Continuous
 62
     2
100
AcDbLine
 10
1912.9196
 20
1127.386
 30
0.0
 11
1860.4196
 21
1127.386
 31
0.0
  0
LINE
  5
83
330
20
100
AcDbEntity
  8
_0-2_LAYER005
  6
Continuous
 62
     2
100
AcDbLine
 10
1713.980799999999
 20
1108.4356
 30
0.0
 11
1708.6775
 21
1103.1323
 31
0.0
  0
LINE
  5
84
330
20
100
AcDbEntity
  8
_0-2_LAYER005
  6
Continuous
 62
     2
100
AcDbLine
 10
1708.6775
 20
1103.1323
 30
0.0
 11
1710.6186
 21
1110.3768
 31
0.0
  0
LINE
  5
85
330
20
100
AcDbEntity
  8
_0-2_LAYER005
  6
Continuous
 62
     2
100
AcDbLine
 10
1708.6775
 20
1103.1323
 30
0.0
 11
1813.8093
 21
1285.226
 31
0.0
  0
LINE
  5
86
330
20
100
AcDbEntity
  8
_0-2_LAYER005
  6
Continuous
 62
     2
100
AcDbLine
 10
1813.8093
 20
1285.226
 30
0.0
 11
2060.2829
 21
1285.226
 31
0.0
  0
LINE
  5
87
330
20
100
AcDbEntity
  8
_0-0_LAYER001
  6
Continuous
 62
     2
100
AcDbLine
 10
1571.1899
 20
1152.6438
 30
0.0
 11
1565.886599999999
 21
1147.3405
 31
0.0
  0
LINE
  5
88
330
20
100
AcDbEntity
  8
_0-0_LAYER001
  6
Continuous
 62
     2
100
AcDbLine
 10
1565.886599999999
 20
1147.3405
 30
0.0
 11
1567.8278
 21
1154.5849
 31
0.0
  0
LINE
  5
89
330
20
100
AcDbEntity
  8
_0-0_LAYER001
  6
Continuous
 62
     2
100
AcDbLine
 10
1565.886599999999
 20
1147.3405
 30
0.0
 11
1629.3203
 21
1257.2108
 31
0.0
  0
LINE
  5
8A
330
20
100
AcDbEntity
  8
_0-0_LAYER001
  6
Continuous
 62
     2
100
AcDbLine
 10
1629.3203
 20
1257.2108
 30
0.0
 11
1677.3203
 21
1257.2108
 31
0.0
  0
LINE
  5
8B
330
20
100
AcDbEntity
  8
_0-0_LAYER001
  6
Continuous
 62
     2
100
AcDbLine
 10
1279.5035
 20
1164.0825
 30
0.0
 11
1274.2002
 21
1158.7792
 31
0.0
  0
LINE
  5
8C
330
20
100
AcDbEntity
  8
_0-0_LAYER001
  6
Continuous
 62
     2
100
AcDbLine
 10
1274.2002
 20
1158.7792
 30
0.0
 11
1276.1413
 21
1166.0236
 31
0.0
  0
LINE
  5
8D
330
20
100
AcDbEntity
  8
_0-0_LAYER001
  6
Continuous
 62
     2
100
AcDbLine
 10
1274.2002
 20
1158.7792
 30
0.0
 11
1339.3658
 21
1271.6494
 31
0.0
  0
LINE
  5
8E
330
20
100
AcDbEntity
  8
_0-0_LAYER001
  6
Continuous
 62
     2
100
AcDbLine
 10
1339.3658
 20
1271.6494
 30
0.0
 11
1379.8658
 21
1271.6494
 31
0.0
  0
LINE
  5
8F
330
20
100
AcDbEntity
  8
_0-0_LAYER001
  6
Continuous
 62
     2
100
AcDbLine
 10
1243.0647
 20
781.949
 30
0.0
 11
1447.8875
 21
781.949
 31
0.0
  0
LINE
  5
90
330
20
100
AcDbEntity
  8
_0-0_LAYER001
  6
Continuous
 62
     2
100
AcDbLine
 10
1157.2802
 20
1092.9437
 30
0.0
 11
1157.2802
 21
1100.4437
 31
0.0
  0
LINE
  5
91
330
20
100
AcDbEntity
  8
_0-0_LAYER001
  6
Continuous
 62
     2
100
AcDbLine
 10
1157.2802
 20
1100.4437
 30
0.0
 11
1161.0302
 21
1093.9485
 31
0.0
  0
LINE
  5
92
330
20
100
AcDbEntity
  8
_0-0_LAYER001
  6
Continuous
 62
     2
100
AcDbLine
 10
1157.2802
 20
1100.4437
 30
0.0
 11
1250.6233
 21
752.0824
 31
0.0
  0
LINE
  5
93
330
20
100
AcDbEntity
  8
_0-2_LAYER005
  6
Continuous
 62
     2
100
AcDbLine
 10
1728.9428
 20
1066.9234
 30
0.0
 11
1727.0017
 21
1074.1678
 31
0.0
  0
LINE
  5
94
330
20
100
AcDbEntity
  8
_0-2_LAYER005
  6
Continuous
 62
     2
100
AcDbLine
 10
1727.0017
 20
1074.1678
 30
0.0
 11
1732.304999999999
 21
1068.8645
 31
0.0
  0
LINE
  5
95
330
20
100
AcDbEntity
  8
_0-2_LAYER005
  6
Continuous
 62
     2
100
AcDbLine
 10
1727.0017
 20
1074.1678
 30
0.0
 11
1845.5164
 21
868.8943999999997
 31
0.0
  0
LINE
  5
96
330
20
100
AcDbEntity
  8
_0-2_LAYER005
  6
Continuous
 62
     2
100
AcDbLine
 10
1845.5164
 20
868.8943999999997
 30
0.0
 11
2091.5164
 21
868.8943999999997
 31
0.0
  0
LINE
  5
97
330
20
100
AcDbEntity
  8
_0-0_LAYER001
  6
Continuous
 62
     2
100
AcDbLine
 10
1724.1318
 20
823.6422000000001
 30
0.0
 11
1724.1318
 21
876.1421999999999
 31
0.0
  0
CIRCLE
  5
98
330
20
100
AcDbEntity
  8
_0-0_LAYER001
  6
Continuous
 62
     2
100
AcDbCircle
 10
1724.1318
 20
826.1421999999999
 30
0.0
 40
1.699999999999999
  0
LINE
  5
99
330
20
100
AcDbEntity
  8
_0-0_LAYER001
  6
Continuous
 62
     2
100
AcDbLine
 10
1724.1318
 20
826.1421999999999
 30
0.0
 11
1739.1318
 21
826.1421999999999
 31
0.0
  0
CIRCLE
  5
9A
330
20
100
AcDbEntity
  8
_0-0_LAYER001
  6
Continuous
 62
     2
100
AcDbCircle
 10
1739.1318
 20
826.1421999999999
 30
0.0
 40
1.699999999999999
  0
LINE
  5
9B
330
20
100
AcDbEntity
  8
_0-0_LAYER001
  6
Continuous
 62
     2
100
AcDbLine
 10
1739.1318
 20
823.6422000000001
 30
0.0
 11
1739.1318
 21
876.1421999999999
 31
0.0
  0
CIRCLE
  5
9C
330
20
100
AcDbEntity
  8
_0-0_LAYER001
  6
Continuous
 62
     2
100
AcDbCircle
 10
1739.1318
 20
826.1421999999999
 30
0.0
 40
1.699999999999999
  0
LINE
  5
9D
330
20
100
AcDbEntity
  8
_0-0_LAYER001
  6
Continuous
 62
     2
100
AcDbLine
 10
1739.1318
 20
826.1421999999999
 30
0.0
 11
1760.1318
 21
826.1421999999999
 31
0.0
  0
CIRCLE
  5
9E
330
20
100
AcDbEntity
  8
_0-0_LAYER001
  6
Continuous
 62
     2
100
AcDbCircle
 10
1760.1318
 20
826.1421999999999
 30
0.0
 40
1.699999999999999
  0
LINE
  5
9F
330
20
100
AcDbEntity
  8
_0-0_LAYER001
  6
Continuous
 62
     2
100
AcDbLine
 10
1760.1318
 20
823.6422000000001
 30
0.0
 11
1760.1318
 21
876.1421999999999
 31
0.0
  0
LINE
  5
A0
330
20
100
AcDbEntity
  8
_0-0_LAYER001
  6
Continuous
 62
     4
100
AcDbLine
 10
1455.0681
 20
1152.0674
 30
0.0
 11
1455.0681
 21
1169.2648
 31
0.0
  0
LINE
  5
A1
330
20
100
AcDbEntity
  8
_0-0_LAYER001
  6
DASHED1
 62
     2
100
AcDbLine
 10
1710.6464
 20
1156.2418
 30
0.0
 11
1726.6464
 21
1156.2418
 31
0.0
  0
LINE
  5
A2
330
20
100
AcDbEntity
  8
_0-0_LAYER001
  6
DASHED1
 62
     2
100
AcDbLine
 10
1726.6464
 20
1156.2418
 30
0.0
 11
1726.6464
 21
1153.2418
 31
0.0
  0
LINE
  5
A3
330
20
100
AcDbEntity
  8
_0-0_LAYER001
  6
DASHED1
 62
     2
100
AcDbLine
 10
1710.6464
 20
1156.2418
 30
0.0
 11
1710.6464
 21
1153.2418
 31
0.0
  0
LINE
  5
A4
330
20
100
AcDbEntity
  8
_0-0_LAYER001
  6
DASHED1
 62
     2
100
AcDbLine
 10
1710.6464
 20
1153.2418
 30
0.0
 11
1726.6464
 21
1153.2418
 31
0.0
  0
LINE
  5
A5
330
20
100
AcDbEntity
  8
_0-0_LAYER001
  6
DASHED1
 62
     2
100
AcDbLine
 10
1721.6464
 20
1098.3457
 30
0.0
 11
1718.5962
 21
1083.8368
 31
0.0
  0
LINE
  5
A6
330
20
100
AcDbEntity
  8
_0-0_LAYER001
  6
DASHED1
 62
     2
100
AcDbLine
 10
1721.6464
 20
1153.2418
 30
0.0
 11
1721.6464
 21
1098.3457
 31
0.0
  0
LINE
  5
A7
330
20
100
AcDbEntity
  8
_0-0_LAYER001
  6
DASHED1
 62
     2
100
AcDbLine
 10
1718.5962
 20
1083.8368
 30
0.0
 11
1715.6464
 21
1098.0943
 31
0.0
  0
LINE
  5
A8
330
20
100
AcDbEntity
  8
_0-0_LAYER001
  6
DASHED1
 62
     2
100
AcDbLine
 10
1715.6464
 20
1153.2418
 30
0.0
 11
1715.6464
 21
1098.0943
 31
0.0
  0
LINE
  5
A9
330
20
100
AcDbEntity
  8
_0-0_LAYER001
  6
Continuous
 62
     4
100
AcDbLine
 10
1315.3415
 20
1108.2281
 30
0.0
 11
1306.8061
 21
1122.7614
 31
0.0
  0
LINE
  5
AA
330
20
100
AcDbEntity
  8
_0-0_LAYER001
  6
Continuous
 62
     4
100
AcDbLine
 10
1323.5094
 20
1107.5778
 30
0.0
 11
1331.8156
 21
1117.6433
 31
0.0
  0
ARC
  5
AB
330
20
100
AcDbEntity
  8
_0-0_LAYER001
  6
Continuous
 62
     4
100
AcDbCircle
 10
1319.6529
 20
1110.7602
 30
0.0
 40
5.0
100
AcDbArc
 50
210.42578
 51
320.47001
  0
LINE
  5
AC
330
20
100
AcDbEntity
  8
_0-0_LAYER001
  6
Continuous
 62
     4
100
AcDbLine
 10
1399.455
 20
1107.1079
 30
0.0
 11
1392.1296
 21
1118.414
 31
0.0
  0
LINE
  5
AD
330
20
100
AcDbEntity
  8
_0-0_LAYER001
  6
Continuous
 62
     4
100
AcDbLine
 10
1407.9645
 20
1107.2978
 30
0.0
 11
1416.903
 21
1122.5435
 31
0.0
  0
ARC
  5
AE
330
20
100
AcDbEntity
  8
_0-0_LAYER001
  6
Continuous
 62
     4
100
AcDbCircle
 10
1403.6512
 20
1109.8267
 30
0.0
 40
5.0
100
AcDbArc
 50
212.93986
 51
329.61716
  0
LINE
  5
AF
330
20
100
AcDbEntity
  8
_0-0_LAYER001
  6
Continuous
 62
     4
100
AcDbLine
 10
1447.2466
 20
1146.8555
 30
0.0
 11
1449.6747
 21
1147.2593
 31
0.0
  0
LINE
  5
B0
330
20
100
AcDbEntity
  8
_0-0_LAYER001
  6
Continuous
 62
     4
100
AcDbLine
 10
1443.0575
 20
1146.1592
 30
0.0
 11
1447.2466
 21
1146.8555
 31
0.0
  0
LINE
  5
B1
330
20
100
AcDbEntity
  8
_0-0_LAYER001
  6
Continuous
 62
     4
100
AcDbLine
 10
1438.8638
 20
1145.4637
 30
0.0
 11
1443.0575
 21
1146.1592
 31
0.0
  0
LINE
  5
B2
330
20
100
AcDbEntity
  8
_0-0_LAYER001
  6
Continuous
 62
     4
100
AcDbLine
 10
1434.665
 20
1144.7697
 30
0.0
 11
1438.8638
 21
1145.4637
 31
0.0
  0
LINE
  5
B3
330
20
100
AcDbEntity
  8
_0-0_LAYER001
  6
Continuous
 62
     4
100
AcDbLine
 10
1430.4609
 20
1144.0782
 30
0.0
 11
1434.665
 21
1144.7697
 31
0.0
  0
LINE
  5
B4
330
20
100
AcDbEntity
  8
_0-0_LAYER001
  6
Continuous
 62
     4
100
AcDbLine
 10
1426.2541
 20
1143.3906
 30
0.0
 11
1430.4609
 21
1144.0782
 31
0.0
  0
LINE
  5
B5
330
20
100
AcDbEntity
  8
_0-0_LAYER001
  6
Continuous
 62
     4
100
AcDbLine
 10
1423.8018
 20
1142.992
 30
0.0
 11
1426.2541
 21
1143.3906
 31
0.0
  0
LINE
  5
B6
330
20
100
AcDbEntity
  8
_0-0_LAYER001
  6
Continuous
 62
     4
100
AcDbLine
 10
1419.069
 20
1142.2296
 30
0.0
 11
1423.8018
 21
1142.992
 31
0.0
  0
LINE
  5
B7
330
20
100
AcDbEntity
  8
_0-0_LAYER001
  6
Continuous
 62
     4
100
AcDbLine
 10
1410.8646
 20
1140.9457
 30
0.0
 11
1419.069
 21
1142.2296
 31
0.0
  0
LINE
  5
B8
330
20
100
AcDbEntity
  8
_0-0_LAYER001
  6
Continuous
 62
     4
100
AcDbLine
 10
1402.5571
 20
1139.7259
 30
0.0
 11
1410.8646
 21
1140.9457
 31
0.0
  0
LINE
  5
B9
330
20
100
AcDbEntity
  8
_0-0_LAYER001
  6
Continuous
 62
     4
100
AcDbLine
 10
1394.1488
 20
1138.6095
 30
0.0
 11
1402.5571
 21
1139.7259
 31
0.0
  0
LINE
  5
BA
330
20
100
AcDbEntity
  8
_0-0_LAYER001
  6
Continuous
 62
     4
100
AcDbLine
 10
1385.6363
 20
1137.6361
 30
0.0
 11
1394.1488
 21
1138.6095
 31
0.0
  0
LINE
  5
BB
330
20
100
AcDbEntity
  8
_0-0_LAYER001
  6
Continuous
 62
     4
100
AcDbLine
 10
1377.0771
 20
1136.8521
 30
0.0
 11
1385.6363
 21
1137.6361
 31
0.0
  0
LINE
  5
BC
330
20
100
AcDbEntity
  8
_0-0_LAYER001
  6
Continuous
 62
     4
100
AcDbLine
 10
1372.0156
 20
1136.4941
 30
0.0
 11
1377.0771
 21
1136.8521
 31
0.0
  0
LINE
  5
BD
330
20
100
AcDbEntity
  8
_0-0_LAYER001
  6
Continuous
 62
     4
100
AcDbLine
 10
1369.213
 20
1136.3325
 30
0.0
 11
1372.0156
 21
1136.4941
 31
0.0
  0
LINE
  5
BE
330
20
100
AcDbEntity
  8
_0-0_LAYER001
  6
Continuous
 62
     4
100
AcDbLine
 10
1364.492
 20
1136.1286
 30
0.0
 11
1369.213
 21
1136.3325
 31
0.0
  0
LINE
  5
BF
330
20
100
AcDbEntity
  8
_0-0_LAYER001
  6
Continuous
 62
     4
100
AcDbLine
 10
1359.6628
 20
1136.0231
 30
0.0
 11
1364.492
 21
1136.1286
 31
0.0
  0
LINE
  5
C0
330
20
100
AcDbEntity
  8
_0-0_LAYER001
  6
Continuous
 62
     4
100
AcDbLine
 10
1354.7611
 20
1136.0385
 30
0.0
 11
1359.6628
 21
1136.0231
 31
0.0
  0
LINE
  5
C1
330
20
100
AcDbEntity
  8
_0-0_LAYER001
  6
Continuous
 62
     4
100
AcDbLine
 10
1349.7901
 20
1136.1964
 30
0.0
 11
1354.7611
 21
1136.0385
 31
0.0
  0
LINE
  5
C2
330
20
100
AcDbEntity
  8
_0-0_LAYER001
  6
Continuous
 62
     4
100
AcDbLine
 10
1344.8327
 20
1136.5141
 30
0.0
 11
1349.7901
 21
1136.1964
 31
0.0
  0
LINE
  5
C3
330
20
100
AcDbEntity
  8
_0-0_LAYER001
  6
Continuous
 62
     4
100
AcDbLine
 10
1341.7811
 20
1136.7955
 30
0.0
 11
1344.8327
 21
1136.5141
 31
0.0
  0
LINE
  5
C4
330
20
100
AcDbEntity
  8
_0-0_LAYER001
  6
Continuous
 62
     4
100
AcDbLine
 10
1337.8522
 20
1137.2578
 30
0.0
 11
1341.7811
 21
1136.7955
 31
0.0
  0
LINE
  5
C5
330
20
100
AcDbEntity
  8
_0-0_LAYER001
  6
Continuous
 62
     4
100
AcDbLine
 10
1331.3383
 20
1138.2803
 30
0.0
 11
1337.8522
 21
1137.2578
 31
0.0
  0
LINE
  5
C6
330
20
100
AcDbEntity
  8
_0-0_LAYER001
  6
Continuous
 62
     4
100
AcDbLine
 10
1324.7916
 20
1139.6325
 30
0.0
 11
1331.3383
 21
1138.2803
 31
0.0
  0
LINE
  5
C7
330
20
100
AcDbEntity
  8
_0-0_LAYER001
  6
Continuous
 62
     4
100
AcDbLine
 10
1318.3287
 20
1141.2883
 30
0.0
 11
1324.7916
 21
1139.6325
 31
0.0
  0
LINE
  5
C8
330
20
100
AcDbEntity
  8
_0-0_LAYER001
  6
Continuous
 62
     4
100
AcDbLine
 10
1311.9628
 20
1143.239
 30
0.0
 11
1318.3287
 21
1141.2883
 31
0.0
  0
LINE
  5
C9
330
20
100
AcDbEntity
  8
_0-0_LAYER001
  6
Continuous
 62
     4
100
AcDbLine
 10
1305.798
 20
1145.444
 30
0.0
 11
1311.9628
 21
1143.239
 31
0.0
  0
LINE
  5
CA
330
20
100
AcDbEntity
  8
_0-0_LAYER001
  6
Continuous
 62
     4
100
AcDbLine
 10
1302.1113
 20
1146.9158
 30
0.0
 11
1305.798
 21
1145.444
 31
0.0
  0
LINE
  5
CB
330
20
100
AcDbEntity
  8
_0-0_LAYER001
  6
Continuous
 62
     4
100
AcDbLine
 10
1297.7471
 20
1148.8083
 30
0.0
 11
1302.1113
 21
1146.9158
 31
0.0
  0
LINE
  5
CC
330
20
100
AcDbEntity
  8
_0-0_LAYER001
  6
Continuous
 62
     4
100
AcDbLine
 10
1290.678
 20
1152.2233
 30
0.0
 11
1297.7471
 21
1148.8083
 31
0.0
  0
LINE
  5
CD
330
20
100
AcDbEntity
  8
_0-0_LAYER001
  6
Continuous
 62
     4
100
AcDbLine
 10
1283.7851
 20
1155.9529
 30
0.0
 11
1290.678
 21
1152.2233
 31
0.0
  0
LINE
  5
CE
330
20
100
AcDbEntity
  8
_0-0_LAYER001
  6
Continuous
 62
     4
100
AcDbLine
 10
1277.1481
 20
1159.8865
 30
0.0
 11
1283.7851
 21
1155.9529
 31
0.0
  0
LINE
  5
CF
330
20
100
AcDbEntity
  8
_0-0_LAYER001
  6
Continuous
 62
     4
100
AcDbLine
 10
1270.7388
 20
1163.969
 30
0.0
 11
1277.1481
 21
1159.8865
 31
0.0
  0
LINE
  5
D0
330
20
100
AcDbEntity
  8
_0-0_LAYER001
  6
Continuous
 62
     4
100
AcDbLine
 10
1264.5546
 20
1168.1311
 30
0.0
 11
1270.7388
 21
1163.969
 31
0.0
  0
LINE
  5
D1
330
20
100
AcDbEntity
  8
_0-0_LAYER001
  6
Continuous
 62
     4
100
AcDbLine
 10
1261.0123
 20
1170.5948
 30
0.0
 11
1264.5546
 21
1168.1311
 31
0.0
  0
LINE
  5
D2
330
20
100
AcDbEntity
  8
_0-0_LAYER001
  6
Continuous
 62
     4
100
AcDbLine
 10
1258.7802
 20
1172.1683
 30
0.0
 11
1261.0123
 21
1170.5948
 31
0.0
  0
LINE
  5
D3
330
20
100
AcDbEntity
  8
_0-0_LAYER001
  6
Continuous
 62
     4
100
AcDbLine
 10
1255.1567
 20
1174.7075
 30
0.0
 11
1258.7802
 21
1172.1683
 31
0.0
  0
LINE
  5
D4
330
20
100
AcDbEntity
  8
_0-0_LAYER001
  6
Continuous
 62
     4
100
AcDbLine
 10
1251.787
 20
1176.973
 30
0.0
 11
1255.1567
 21
1174.7075
 31
0.0
  0
LINE
  5
D5
330
20
100
AcDbEntity
  8
_0-0_LAYER001
  6
Continuous
 62
     4
100
AcDbLine
 10
1248.672
 20
1178.9001
 30
0.0
 11
1251.787
 21
1176.973
 31
0.0
  0
LINE
  5
D6
330
20
100
AcDbEntity
  8
_0-0_LAYER001
  6
Continuous
 62
     4
100
AcDbLine
 10
1245.8048
 20
1180.4558
 30
0.0
 11
1248.672
 21
1178.9001
 31
0.0
  0
LINE
  5
D7
330
20
100
AcDbEntity
  8
_0-0_LAYER001
  6
Continuous
 62
     4
100
AcDbLine
 10
1242.9737
 20
1181.7243
 30
0.0
 11
1245.8048
 21
1180.4558
 31
0.0
  0
LINE
  5
D8
330
20
100
AcDbEntity
  8
_0-0_LAYER001
  6
Continuous
 62
     4
100
AcDbLine
 10
1241.5105
 20
1182.2564
 30
0.0
 11
1242.9737
 21
1181.7243
 31
0.0
  0
LINE
  5
D9
330
20
100
AcDbEntity
  8
_0-0_LAYER001
  6
Continuous
 62
     4
100
AcDbLine
 10
1241.3294
 20
1182.3144
 30
0.0
 11
1241.5105
 21
1182.2564
 31
0.0
  0
LINE
  5
DA
330
20
100
AcDbEntity
  8
_0-0_LAYER001
  6
Continuous
 62
     4
100
AcDbLine
 10
1240.5411
 20
1182.5423
 30
0.0
 11
1241.3294
 21
1182.3144
 31
0.0
  0
LINE
  5
DB
330
20
100
AcDbEntity
  8
_0-0_LAYER001
  6
Continuous
 62
     4
100
AcDbLine
 10
1239.884
 20
1182.705
 30
0.0
 11
1240.5411
 21
1182.5423
 31
0.0
  0
LINE
  5
DC
330
20
100
AcDbEntity
  8
_0-0_LAYER001
  6
Continuous
 62
     4
100
AcDbLine
 10
1239.3022
 20
1182.823
 30
0.0
 11
1239.884
 21
1182.705
 31
0.0
  0
LINE
  5
DD
330
20
100
AcDbEntity
  8
_0-0_LAYER001
  6
Continuous
 62
     4
100
AcDbLine
 10
1239.2621
 20
1182.8292
 30
0.0
 11
1239.3022
 21
1182.823
 31
0.0
  0
LINE
  5
DE
330
20
100
AcDbEntity
  8
_0-0_LAYER001
  6
Continuous
 62
     4
100
AcDbLine
 10
1443.236
 20
1127.668
 30
0.0
 11
1444.8501
 21
1127.9365
 31
0.0
  0
LINE
  5
DF
330
20
100
AcDbEntity
  8
_0-0_LAYER001
  6
Continuous
 62
     4
100
AcDbLine
 10
1439.0474
 20
1126.9718
 30
0.0
 11
1443.236
 21
1127.668
 31
0.0
  0
LINE
  5
E0
330
20
100
AcDbEntity
  8
_0-0_LAYER001
  6
Continuous
 62
     4
100
AcDbLine
 10
1434.8545
 20
1126.2764
 30
0.0
 11
1439.0474
 21
1126.9718
 31
0.0
  0
LINE
  5
E1
330
20
100
AcDbEntity
  8
_0-0_LAYER001
  6
Continuous
 62
     4
100
AcDbLine
 10
1430.657
 20
1125.5826
 30
0.0
 11
1434.8545
 21
1126.2764
 31
0.0
  0
LINE
  5
E2
330
20
100
AcDbEntity
  8
_0-0_LAYER001
  6
Continuous
 62
     4
100
AcDbLine
 10
1426.4547
 20
1124.8914
 30
0.0
 11
1430.657
 21
1125.5826
 31
0.0
  0
LINE
  5
E3
330
20
100
AcDbEntity
  8
_0-0_LAYER001
  6
Continuous
 62
     4
100
AcDbLine
 10
1422.2498
 20
1124.2041
 30
0.0
 11
1426.4547
 21
1124.8914
 31
0.0
  0
LINE
  5
E4
330
20
100
AcDbEntity
  8
_0-0_LAYER001
  6
Continuous
 62
     4
100
AcDbLine
 10
1419.7998
 20
1123.806
 30
0.0
 11
1422.2498
 21
1124.2041
 31
0.0
  0
LINE
  5
E5
330
20
100
AcDbEntity
  8
_0-0_LAYER001
  6
Continuous
 62
     4
100
AcDbLine
 10
1415.0728
 20
1123.0445
 30
0.0
 11
1419.7998
 21
1123.806
 31
0.0
  0
LINE
  5
E6
330
20
100
AcDbEntity
  8
_0-0_LAYER001
  6
Continuous
 62
     4
100
AcDbLine
 10
1406.8821
 20
1121.7627
 30
0.0
 11
1415.0728
 21
1123.0445
 31
0.0
  0
LINE
  5
E7
330
20
100
AcDbEntity
  8
_0-0_LAYER001
  6
Continuous
 62
     4
100
AcDbLine
 10
1398.5976
 20
1120.5463
 30
0.0
 11
1406.8821
 21
1121.7627
 31
0.0
  0
LINE
  5
E8
330
20
100
AcDbEntity
  8
_0-0_LAYER001
  6
Continuous
 62
     4
100
AcDbLine
 10
1390.221
 20
1119.4341
 30
0.0
 11
1398.5976
 21
1120.5463
 31
0.0
  0
LINE
  5
E9
330
20
100
AcDbEntity
  8
_0-0_LAYER001
  6
Continuous
 62
     4
100
AcDbLine
 10
1381.7488
 20
1118.4653
 30
0.0
 11
1390.221
 21
1119.4341
 31
0.0
  0
LINE
  5
EA
330
20
100
AcDbEntity
  8
_0-0_LAYER001
  6
Continuous
 62
     4
100
AcDbLine
 10
1373.2327
 20
1117.6853
 30
0.0
 11
1381.7488
 21
1118.4653
 31
0.0
  0
LINE
  5
EB
330
20
100
AcDbEntity
  8
_0-0_LAYER001
  6
Continuous
 62
     4
100
AcDbLine
 10
1368.2049
 20
1117.3297
 30
0.0
 11
1373.2327
 21
1117.6853
 31
0.0
  0
LINE
  5
EC
330
20
100
AcDbEntity
  8
_0-0_LAYER001
  6
Continuous
 62
     4
100
AcDbLine
 10
1365.4297
 20
1117.1696
 30
0.0
 11
1368.2049
 21
1117.3297
 31
0.0
  0
LINE
  5
ED
330
20
100
AcDbEntity
  8
_0-0_LAYER001
  6
Continuous
 62
     4
100
AcDbLine
 10
1360.7444
 20
1116.9672
 30
0.0
 11
1365.4297
 21
1117.1696
 31
0.0
  0
LINE
  5
EE
330
20
100
AcDbEntity
  8
_0-0_LAYER001
  6
Continuous
 62
     4
100
AcDbLine
 10
1355.9615
 20
1116.8628
 30
0.0
 11
1360.7444
 21
1116.9672
 31
0.0
  0
LINE
  5
EF
330
20
100
AcDbEntity
  8
_0-0_LAYER001
  6
Continuous
 62
     4
100
AcDbLine
 10
1351.113399999999
 20
1116.878
 30
0.0
 11
1355.9615
 21
1116.8628
 31
0.0
  0
LINE
  5
F0
330
20
100
AcDbEntity
  8
_0-0_LAYER001
  6
Continuous
 62
     4
100
AcDbLine
 10
1346.2032
 20
1117.0339
 30
0.0
 11
1351.113399999999
 21
1116.878
 31
0.0
  0
LINE
  5
F1
330
20
100
AcDbEntity
  8
_0-0_LAYER001
  6
Continuous
 62
     4
100
AcDbLine
 10
1341.306
 20
1117.3478
 30
0.0
 11
1346.2032
 21
1117.0339
 31
0.0
  0
LINE
  5
F2
330
20
100
AcDbEntity
  8
_0-0_LAYER001
  6
Continuous
 62
     4
100
AcDbLine
 10
1338.307199999999
 20
1117.6244
 30
0.0
 11
1341.306
 21
1117.3478
 31
0.0
  0
LINE
  5
F3
330
20
100
AcDbEntity
  8
_0-0_LAYER001
  6
Continuous
 62
     4
100
AcDbLine
 10
1334.4416
 20
1118.0792
 30
0.0
 11
1338.307199999999
 21
1117.6244
 31
0.0
  0
LINE
  5
F4
330
20
100
AcDbEntity
  8
_0-0_LAYER001
  6
Continuous
 62
     4
100
AcDbLine
 10
1328.0132
 20
1119.0883
 30
0.0
 11
1334.4416
 21
1118.0792
 31
0.0
  0
LINE
  5
F5
330
20
100
AcDbEntity
  8
_0-0_LAYER001
  6
Continuous
 62
     4
100
AcDbLine
 10
1321.5598
 20
1120.4212
 30
0.0
 11
1328.0132
 21
1119.0883
 31
0.0
  0
LINE
  5
F6
330
20
100
AcDbEntity
  8
_0-0_LAYER001
  6
Continuous
 62
     4
100
AcDbLine
 10
1315.1876
 20
1122.0538
 30
0.0
 11
1321.5598
 21
1120.4212
 31
0.0
  0
LINE
  5
F7
330
20
100
AcDbEntity
  8
_0-0_LAYER001
  6
Continuous
 62
     4
100
AcDbLine
 10
1308.9103
 20
1123.9774
 30
0.0
 11
1315.1876
 21
1122.0538
 31
0.0
  0
LINE
  5
F8
330
20
100
AcDbEntity
  8
_0-0_LAYER001
  6
Continuous
 62
     4
100
AcDbLine
 10
1302.8232
 20
1126.1545
 30
0.0
 11
1308.9103
 21
1123.9774
 31
0.0
  0
LINE
  5
F9
330
20
100
AcDbEntity
  8
_0-0_LAYER001
  6
Continuous
 62
     4
100
AcDbLine
 10
1299.1975
 20
1127.602
 30
0.0
 11
1302.8232
 21
1126.1545
 31
0.0
  0
LINE
  5
FA
330
20
100
AcDbEntity
  8
_0-0_LAYER001
  6
Continuous
 62
     4
100
AcDbLine
 10
1294.8977
 20
1129.4665
 30
0.0
 11
1299.1975
 21
1127.602
 31
0.0
  0
LINE
  5
FB
330
20
100
AcDbEntity
  8
_0-0_LAYER001
  6
Continuous
 62
     4
100
AcDbLine
 10
1287.9068
 20
1132.8438
 30
0.0
 11
1294.8977
 21
1129.4665
 31
0.0
  0
LINE
  5
FC
330
20
100
AcDbEntity
  8
_0-0_LAYER001
  6
Continuous
 62
     4
100
AcDbLine
 10
1281.0887
 20
1136.5329
 30
0.0
 11
1287.9068
 21
1132.8438
 31
0.0
  0
LINE
  5
FD
330
20
100
AcDbEntity
  8
_0-0_LAYER001
  6
Continuous
 62
     4
100
AcDbLine
 10
1274.5129
 20
1140.4303
 30
0.0
 11
1281.0887
 21
1136.5329
 31
0.0
  0
LINE
  5
FE
330
20
100
AcDbEntity
  8
_0-0_LAYER001
  6
Continuous
 62
     4
100
AcDbLine
 10
1268.152
 20
1144.4819
 30
0.0
 11
1274.5129
 21
1140.4303
 31
0.0
  0
LINE
  5
FF
330
20
100
AcDbEntity
  8
_0-0_LAYER001
  6
Continuous
 62
     4
100
AcDbLine
 10
1262.0014
 20
1148.6214
 30
0.0
 11
1268.152
 21
1144.4819
 31
0.0
  0
LINE
  5
100
330
20
100
AcDbEntity
  8
_0-0_LAYER001
  6
Continuous
 62
     4
100
AcDbLine
 10
1258.4769
 20
1151.0728
 30
0.0
 11
1262.0014
 21
1148.6214
 31
0.0
  0
LINE
  5
101
330
20
100
AcDbEntity
  8
_0-0_LAYER001
  6
Continuous
 62
     4
100
AcDbLine
 10
1256.2477
 20
1152.6442
 30
0.0
 11
1258.4769
 21
1151.0728
 31
0.0
  0
LINE
  5
102
330
20
100
AcDbEntity
  8
_0-0_LAYER001
  6
Continuous
 62
     4
100
AcDbLine
 10
1252.606
 20
1155.1961
 30
0.0
 11
1256.2477
 21
1152.6442
 31
0.0
  0
LINE
  5
103
330
20
100
AcDbEntity
  8
_0-0_LAYER001
  6
Continuous
 62
     4
100
AcDbLine
 10
1249.1889
 20
1157.4935
 30
0.0
 11
1252.606
 21
1155.1961
 31
0.0
  0
LINE
  5
104
330
20
100
AcDbEntity
  8
_0-0_LAYER001
  6
Continuous
 62
     4
100
AcDbLine
 10
1245.9933
 20
1159.4704
 30
0.0
 11
1249.1889
 21
1157.4935
 31
0.0
  0
LINE
  5
105
330
20
100
AcDbEntity
  8
_0-0_LAYER001
  6
Continuous
 62
     4
100
AcDbLine
 10
1243.0093
 20
1161.0895
 30
0.0
 11
1245.9933
 21
1159.4704
 31
0.0
  0
LINE
  5
106
330
20
100
AcDbEntity
  8
_0-0_LAYER001
  6
Continuous
 62
     4
100
AcDbLine
 10
1240.0428
 20
1162.4187
 30
0.0
 11
1243.0093
 21
1161.0895
 31
0.0
  0
LINE
  5
107
330
20
100
AcDbEntity
  8
_0-0_LAYER001
  6
Continuous
 62
     4
100
AcDbLine
 10
1239.2928
 20
1162.6914
 30
0.0
 11
1240.0428
 21
1162.4187
 31
0.0
  0
LINE
  5
108
330
20
100
AcDbEntity
  8
_0-0_LAYER001
  6
Continuous
 62
     4
100
AcDbLine
 10
1239.6259
 20
1182.7346
 30
0.0
 11
1239.4498
 21
1162.5611
 31
0.0
  0
LINE
  5
109
330
20
100
AcDbEntity
  8
_0-0_LAYER001
  6
Continuous
 62
     4
100
AcDbLine
 10
1439.9515
 20
1117.2468
 30
0.0
 11
1437.7061
 21
1125.8202
 31
0.0
  0
ARC
  5
10A
330
20
100
AcDbEntity
  8
_0-0_LAYER001
  6
Continuous
 62
     4
100
AcDbCircle
 10
1442.8536
 20
1118.0068
 30
0.0
 40
3.0
100
AcDbArc
 50
194.67639
 51
270.0000000000001
  0
LINE
  5
10B
330
20
100
AcDbEntity
  8
_0-0_LAYER001
  6
Continuous
 62
     4
100
AcDbLine
 10
1446.2961
 20
1115.0025
 30
0.0
 11
1442.8783
 21
1115.0025
 31
0.0
  0
LINE
  5
10C
330
20
100
AcDbEntity
  8
_0-0_LAYER001
  6
Continuous
 62
     4
100
AcDbLine
 10
1449.2553
 20
1117.5093
 30
0.0
 11
1451.1893
 21
1129.1135
 31
0.0
  0
ARC
  5
10D
330
20
100
AcDbEntity
  8
_0-0_LAYER001
  6
Continuous
 62
     4
100
AcDbCircle
 10
1446.2961
 20
1118.0025
 30
0.0
 40
3.0
100
AcDbArc
 50
270.0
 51
350.53767
  0
LINE
  5
10E
330
20
100
AcDbEntity
  8
_0-0_LAYER001
  6
Continuous
 62
     4
100
AcDbLine
 10
1192.5297
 20
1192.1247
 30
0.0
 11
1193.3436
 21
1192.4314
 31
0.0
  0
LINE
  5
10F
330
20
100
AcDbEntity
  8
_0-0_LAYER001
  6
Continuous
 62
     4
100
AcDbLine
 10
1193.3436
 20
1192.4314
 30
0.0
 11
1196.8929
 21
1193.771
 31
0.0
  0
LINE
  5
110
330
20
100
AcDbEntity
  8
_0-0_LAYER001
  6
Continuous
 62
     4
100
AcDbLine
 10
1196.8929
 20
1193.771
 30
0.0
 11
1200.4495
 21
1195.1199
 31
0.0
  0
LINE
  5
111
330
20
100
AcDbEntity
  8
_0-0_LAYER001
  6
Continuous
 62
     4
100
AcDbLine
 10
1200.4495
 20
1195.1199
 30
0.0
 11
1204.0181
 21
1196.4839
 31
0.0
  0
LINE
  5
112
330
20
100
AcDbEntity
  8
_0-0_LAYER001
  6
Continuous
 62
     4
100
AcDbLine
 10
1204.0181
 20
1196.4839
 30
0.0
 11
1207.6035
 21
1197.869
 31
0.0
  0
LINE
  5
113
330
20
100
AcDbEntity
  8
_0-0_LAYER001
  6
Continuous
 62
     4
100
AcDbLine
 10
1207.6035
 20
1197.869
 30
0.0
 11
1211.2102
 21
1199.2809
 31
0.0
  0
LINE
  5
114
330
20
100
AcDbEntity
  8
_0-0_LAYER001
  6
Continuous
 62
     4
100
AcDbLine
 10
1211.2102
 20
1199.2809
 30
0.0
 11
1213.3137
 21
1200.1145
 31
0.0
  0
LINE
  5
115
330
20
100
AcDbEntity
  8
_0-0_LAYER001
  6
Continuous
 62
     4
100
AcDbLine
 10
1213.3137
 20
1200.1145
 30
0.0
 11
1215.3931
 21
1200.9434
 31
0.0
  0
LINE
  5
116
330
20
100
AcDbEntity
  8
_0-0_LAYER001
  6
Continuous
 62
     4
100
AcDbLine
 10
1215.3931
 20
1200.9434
 30
0.0
 11
1218.9996
 21
1202.3449
 31
0.0
  0
LINE
  5
117
330
20
100
AcDbEntity
  8
_0-0_LAYER001
  6
Continuous
 62
     4
100
AcDbLine
 10
1218.9996
 20
1202.3449
 30
0.0
 11
1222.6324
 21
1203.6276
 31
0.0
  0
LINE
  5
118
330
20
100
AcDbEntity
  8
_0-0_LAYER001
  6
Continuous
 62
     4
100
AcDbLine
 10
1222.6324
 20
1203.6276
 30
0.0
 11
1226.2903
 21
1204.6942
 31
0.0
  0
LINE
  5
119
330
20
100
AcDbEntity
  8
_0-0_LAYER001
  6
Continuous
 62
     4
100
AcDbLine
 10
1226.2903
 20
1204.6942
 30
0.0
 11
1229.9724
 21
1205.4474
 31
0.0
  0
LINE
  5
11A
330
20
100
AcDbEntity
  8
_0-0_LAYER001
  6
Continuous
 62
     4
100
AcDbLine
 10
1229.9724
 20
1205.4474
 30
0.0
 11
1233.6777
 21
1205.79
 31
0.0
  0
LINE
  5
11B
330
20
100
AcDbEntity
  8
_0-0_LAYER001
  6
Continuous
 62
     4
100
AcDbLine
 10
1233.6777
 20
1205.79
 30
0.0
 11
1235.837
 21
1205.7621
 31
0.0
  0
LINE
  5
11C
330
20
100
AcDbEntity
  8
_0-0_LAYER001
  6
Continuous
 62
     4
100
AcDbLine
 10
1235.837
 20
1205.7621
 30
0.0
 11
1236.6861
 21
1205.7007
 31
0.0
  0
LINE
  5
11D
330
20
100
AcDbEntity
  8
_0-0_LAYER001
  6
Continuous
 62
     4
100
AcDbLine
 10
1236.6861
 20
1205.7007
 30
0.0
 11
1238.1505
 21
1205.5301
 31
0.0
  0
LINE
  5
11E
330
20
100
AcDbEntity
  8
_0-0_LAYER001
  6
Continuous
 62
     4
100
AcDbLine
 10
1238.1505
 20
1205.5301
 30
0.0
 11
1239.6116
 21
1205.2834
 31
0.0
  0
LINE
  5
11F
330
20
100
AcDbEntity
  8
_0-0_LAYER001
  6
Continuous
 62
     4
100
AcDbLine
 10
1239.6116
 20
1205.2834
 30
0.0
 11
1241.0653
 21
1204.9674
 31
0.0
  0
LINE
  5
120
330
20
100
AcDbEntity
  8
_0-0_LAYER001
  6
Continuous
 62
     4
100
AcDbLine
 10
1241.0653
 20
1204.9674
 30
0.0
 11
1242.5074
 21
1204.5889
 31
0.0
  0
LINE
  5
121
330
20
100
AcDbEntity
  8
_0-0_LAYER001
  6
Continuous
 62
     4
100
AcDbLine
 10
1242.5074
 20
1204.5889
 30
0.0
 11
1243.9338
 21
1204.1547
 31
0.0
  0
LINE
  5
122
330
20
100
AcDbEntity
  8
_0-0_LAYER001
  6
Continuous
 62
     4
100
AcDbLine
 10
1243.9338
 20
1204.1547
 30
0.0
 11
1244.7523
 21
1203.8801
 31
0.0
  0
LINE
  5
123
330
20
100
AcDbEntity
  8
_0-0_LAYER001
  6
Continuous
 62
     4
100
AcDbLine
 10
1244.7523
 20
1203.8801
 30
0.0
 11
1247.2505
 21
1202.9319
 31
0.0
  0
LINE
  5
124
330
20
100
AcDbEntity
  8
_0-0_LAYER001
  6
Continuous
 62
     4
100
AcDbLine
 10
1247.2505
 20
1202.9319
 30
0.0
 11
1251.4095
 21
1200.9983
 31
0.0
  0
LINE
  5
125
330
20
100
AcDbEntity
  8
_0-0_LAYER001
  6
Continuous
 62
     4
100
AcDbLine
 10
1251.4095
 20
1200.9983
 30
0.0
 11
1255.4133
 21
1198.7529
 31
0.0
  0
LINE
  5
126
330
20
100
AcDbEntity
  8
_0-0_LAYER001
  6
Continuous
 62
     4
100
AcDbLine
 10
1255.4133
 20
1198.7529
 30
0.0
 11
1259.3001
 21
1196.2727
 31
0.0
  0
LINE
  5
127
330
20
100
AcDbEntity
  8
_0-0_LAYER001
  6
Continuous
 62
     4
100
AcDbLine
 10
1259.3001
 20
1196.2727
 30
0.0
 11
1263.1081
 21
1193.6345
 31
0.0
  0
LINE
  5
128
330
20
100
AcDbEntity
  8
_0-0_LAYER001
  6
Continuous
 62
     4
100
AcDbLine
 10
1263.1081
 20
1193.6345
 30
0.0
 11
1266.8754
 21
1190.9154
 31
0.0
  0
LINE
  5
129
330
20
100
AcDbEntity
  8
_0-0_LAYER001
  6
Continuous
 62
     4
100
AcDbLine
 10
1266.8754
 20
1190.9154
 30
0.0
 11
1269.0567
 21
1189.3316
 31
0.0
  0
LINE
  5
12A
330
20
100
AcDbEntity
  8
_0-0_LAYER001
  6
Continuous
 62
     4
100
AcDbLine
 10
1269.0567
 20
1189.3316
 30
0.0
 11
1272.3883
 21
1186.9448
 31
0.0
  0
LINE
  5
12B
330
20
100
AcDbEntity
  8
_0-0_LAYER001
  6
Continuous
 62
     4
100
AcDbLine
 10
1272.3883
 20
1186.9448
 30
0.0
 11
1278.1805
 21
1182.9279
 31
0.0
  0
LINE
  5
12C
330
20
100
AcDbEntity
  8
_0-0_LAYER001
  6
Continuous
 62
     4
100
AcDbLine
 10
1278.1805
 20
1182.9279
 30
0.0
 11
1284.0527
 21
1179.0713
 31
0.0
  0
LINE
  5
12D
330
20
100
AcDbEntity
  8
_0-0_LAYER001
  6
Continuous
 62
     4
100
AcDbLine
 10
1284.0527
 20
1179.0713
 30
0.0
 11
1290.0269
 21
1175.4168
 31
0.0
  0
LINE
  5
12E
330
20
100
AcDbEntity
  8
_0-0_LAYER001
  6
Continuous
 62
     4
100
AcDbLine
 10
1290.0269
 20
1175.4168
 30
0.0
 11
1296.125
 21
1172.0062
 31
0.0
  0
LINE
  5
12F
330
20
100
AcDbEntity
  8
_0-0_LAYER001
  6
Continuous
 62
     4
100
AcDbLine
 10
1296.125
 20
1172.0062
 30
0.0
 11
1302.3693
 21
1168.8814
 31
0.0
  0
LINE
  5
130
330
20
100
AcDbEntity
  8
_0-0_LAYER001
  6
Continuous
 62
     4
100
AcDbLine
 10
1302.3693
 20
1168.8814
 30
0.0
 11
1306.0666
 21
1167.2164
 31
0.0
  0
LINE
  5
131
330
20
100
AcDbEntity
  8
_0-0_LAYER001
  6
Continuous
 62
     4
100
AcDbLine
 10
1306.0666
 20
1167.2164
 30
0.0
 11
1309.1259
 21
1165.9453
 31
0.0
  0
LINE
  5
132
330
20
100
AcDbEntity
  8
_0-0_LAYER001
  6
Continuous
 62
     4
100
AcDbLine
 10
1309.1259
 20
1165.9453
 30
0.0
 11
1314.4864
 21
1163.9432
 31
0.0
  0
LINE
  5
133
330
20
100
AcDbEntity
  8
_0-0_LAYER001
  6
Continuous
 62
     4
100
AcDbLine
 10
1314.4864
 20
1163.9432
 30
0.0
 11
1319.9421
 21
1162.1877
 31
0.0
  0
LINE
  5
134
330
20
100
AcDbEntity
  8
_0-0_LAYER001
  6
Continuous
 62
     4
100
AcDbLine
 10
1319.9421
 20
1162.1877
 30
0.0
 11
1325.4771
 21
1160.6869
 31
0.0
  0
LINE
  5
135
330
20
100
AcDbEntity
  8
_0-0_LAYER001
  6
Continuous
 62
     4
100
AcDbLine
 10
1325.4771
 20
1160.6869
 30
0.0
 11
1331.0754
 21
1159.4489
 31
0.0
  0
LINE
  5
136
330
20
100
AcDbEntity
  8
_0-0_LAYER001
  6
Continuous
 62
     4
100
AcDbLine
 10
1331.0754
 20
1159.4489
 30
0.0
 11
1336.7211
 21
1158.4817
 31
0.0
  0
LINE
  5
137
330
20
100
AcDbEntity
  8
_0-0_LAYER001
  6
Continuous
 62
     4
100
AcDbLine
 10
1336.7211
 20
1158.4817
 30
0.0
 11
1340.011099999999
 21
1158.048
 31
0.0
  0
LINE
  5
138
330
20
100
AcDbEntity
  8
_0-0_LAYER001
  6
Continuous
 62
     4
100
AcDbLine
 10
1340.011099999999
 20
1158.048
 30
0.0
 11
1342.5303
 21
1157.7801
 31
0.0
  0
LINE
  5
139
330
20
100
AcDbEntity
  8
_0-0_LAYER001
  6
Continuous
 62
     4
100
AcDbLine
 10
1342.5303
 20
1157.7801
 30
0.0
 11
1346.8824
 21
1157.4401
 31
0.0
  0
LINE
  5
13A
330
20
100
AcDbEntity
  8
_0-0_LAYER001
  6
Continuous
 62
     4
100
AcDbLine
 10
1346.8824
 20
1157.4401
 30
0.0
 11
1351.2427
 21
1157.2407
 31
0.0
  0
LINE
  5
13B
330
20
100
AcDbEntity
  8
_0-0_LAYER001
  6
Continuous
 62
     4
100
AcDbLine
 10
1351.2427
 20
1157.2407
 30
0.0
 11
1355.6079
 21
1157.166
 31
0.0
  0
LINE
  5
13C
330
20
100
AcDbEntity
  8
_0-0_LAYER001
  6
Continuous
 62
     4
100
AcDbLine
 10
1355.6079
 20
1157.166
 30
0.0
 11
1359.975
 21
1157.2004
 31
0.0
  0
LINE
  5
13D
330
20
100
AcDbEntity
  8
_0-0_LAYER001
  6
Continuous
 62
     4
100
AcDbLine
 10
1359.975
 20
1157.2004
 30
0.0
 11
1364.3409
 21
1157.3279
 31
0.0
  0
LINE
  5
13E
330
20
100
AcDbEntity
  8
_0-0_LAYER001
  6
Continuous
 62
     4
100
AcDbLine
 10
1364.3409
 20
1157.3279
 30
0.0
 11
1366.8713
 21
1157.4384
 31
0.0
  0
LINE
  5
13F
330
20
100
AcDbEntity
  8
_0-0_LAYER001
  6
Continuous
 62
     4
100
AcDbLine
 10
1366.8713
 20
1157.4384
 30
0.0
 11
1371.6004
 21
1157.7066
 31
0.0
  0
LINE
  5
140
330
20
100
AcDbEntity
  8
_0-0_LAYER001
  6
Continuous
 62
     4
100
AcDbLine
 10
1371.6004
 20
1157.7066
 30
0.0
 11
1379.7386
 21
1158.3376
 31
0.0
  0
LINE
  5
141
330
20
100
AcDbEntity
  8
_0-0_LAYER001
  6
Continuous
 62
     4
100
AcDbLine
 10
1379.7386
 20
1158.3376
 30
0.0
 11
1387.8593
 21
1159.1515
 31
0.0
  0
LINE
  5
142
330
20
100
AcDbEntity
  8
_0-0_LAYER001
  6
Continuous
 62
     4
100
AcDbLine
 10
1387.8593
 20
1159.1515
 30
0.0
 11
1395.9652
 21
1160.1128
 31
0.0
  0
LINE
  5
143
330
20
100
AcDbEntity
  8
_0-0_LAYER001
  6
Continuous
 62
     4
100
AcDbLine
 10
1395.9652
 20
1160.1128
 30
0.0
 11
1404.0587
 21
1161.1859
 31
0.0
  0
LINE
  5
144
330
20
100
AcDbEntity
  8
_0-0_LAYER001
  6
Continuous
 62
     4
100
AcDbLine
 10
1404.0587
 20
1161.1859
 30
0.0
 11
1412.1422
 21
1162.3355
 31
0.0
  0
LINE
  5
145
330
20
100
AcDbEntity
  8
_0-0_LAYER001
  6
Continuous
 62
     4
100
AcDbLine
 10
1412.1422
 20
1162.3355
 30
0.0
 11
1416.8271
 21
1163.0233
 31
0.0
  0
LINE
  5
146
330
20
100
AcDbEntity
  8
_0-0_LAYER001
  6
Continuous
 62
     4
100
AcDbLine
 10
1416.8271
 20
1163.0233
 30
0.0
 11
1419.262
 21
1163.3842
 31
0.0
  0
LINE
  5
147
330
20
100
AcDbEntity
  8
_0-0_LAYER001
  6
Continuous
 62
     4
100
AcDbLine
 10
1419.262
 20
1163.3842
 30
0.0
 11
1423.459
 21
1164.0102
 31
0.0
  0
LINE
  5
148
330
20
100
AcDbEntity
  8
_0-0_LAYER001
  6
Continuous
 62
     4
100
AcDbLine
 10
1423.459
 20
1164.0102
 30
0.0
 11
1427.6547
 21
1164.6402
 31
0.0
  0
LINE
  5
149
330
20
100
AcDbEntity
  8
_0-0_LAYER001
  6
Continuous
 62
     4
100
AcDbLine
 10
1427.6547
 20
1164.6402
 30
0.0
 11
1431.8496
 21
1165.2735
 31
0.0
  0
LINE
  5
14A
330
20
100
AcDbEntity
  8
_0-0_LAYER001
  6
Continuous
 62
     4
100
AcDbLine
 10
1431.8496
 20
1165.2735
 30
0.0
 11
1436.0437
 21
1165.9091
 31
0.0
  0
LINE
  5
14B
330
20
100
AcDbEntity
  8
_0-0_LAYER001
  6
Continuous
 62
     4
100
AcDbLine
 10
1436.0437
 20
1165.9091
 30
0.0
 11
1440.2375
 21
1166.5461
 31
0.0
  0
LINE
  5
14C
330
20
100
AcDbEntity
  8
_0-0_LAYER001
  6
Continuous
 62
     4
100
AcDbLine
 10
1440.2375
 20
1166.5461
 30
0.0
 11
1442.6698
 21
1166.9159
 31
0.0
  0
LINE
  5
14D
330
20
100
AcDbEntity
  8
_0-0_LAYER001
  6
Continuous
 62
     4
100
AcDbLine
 10
1197.6329
 20
1174.8123
 30
0.0
 11
1199.6948
 21
1175.5891
 31
0.0
  0
LINE
  5
14E
330
20
100
AcDbEntity
  8
_0-0_LAYER001
  6
Continuous
 62
     4
100
AcDbLine
 10
1199.6948
 20
1175.5891
 30
0.0
 11
1203.2624
 21
1176.9356
 31
0.0
  0
LINE
  5
14F
330
20
100
AcDbEntity
  8
_0-0_LAYER001
  6
Continuous
 62
     4
100
AcDbLine
 10
1203.2624
 20
1176.9356
 30
0.0
 11
1206.8543
 21
1178.2979
 31
0.0
  0
LINE
  5
150
330
20
100
AcDbEntity
  8
_0-0_LAYER001
  6
Continuous
 62
     4
100
AcDbLine
 10
1206.8543
 20
1178.2979
 30
0.0
 11
1210.4747
 21
1179.6817
 31
0.0
  0
LINE
  5
151
330
20
100
AcDbEntity
  8
_0-0_LAYER001
  6
Continuous
 62
     4
100
AcDbLine
 10
1210.4747
 20
1179.6817
 30
0.0
 11
1214.1277
 21
1181.0929
 31
0.0
  0
LINE
  5
152
330
20
100
AcDbEntity
  8
_0-0_LAYER001
  6
Continuous
 62
     4
100
AcDbLine
 10
1214.1277
 20
1181.0929
 30
0.0
 11
1217.8069
 21
1182.5332
 31
0.0
  0
LINE
  5
153
330
20
100
AcDbEntity
  8
_0-0_LAYER001
  6
Continuous
 62
     4
100
AcDbLine
 10
1217.8069
 20
1182.5332
 30
0.0
 11
1219.962
 21
1183.3873
 31
0.0
  0
LINE
  5
154
330
20
100
AcDbEntity
  8
_0-0_LAYER001
  6
Continuous
 62
     4
100
AcDbLine
 10
1219.962
 20
1183.3873
 30
0.0
 11
1221.9856
 21
1184.1939
 31
0.0
  0
LINE
  5
155
330
20
100
AcDbEntity
  8
_0-0_LAYER001
  6
Continuous
 62
     4
100
AcDbLine
 10
1221.9856
 20
1184.1939
 30
0.0
 11
1225.2575
 21
1185.4654
 31
0.0
  0
LINE
  5
156
330
20
100
AcDbEntity
  8
_0-0_LAYER001
  6
Continuous
 62
     4
100
AcDbLine
 10
1225.2575
 20
1185.4654
 30
0.0
 11
1228.1526
 21
1186.4876
 31
0.0
  0
LINE
  5
157
330
20
100
AcDbEntity
  8
_0-0_LAYER001
  6
Continuous
 62
     4
100
AcDbLine
 10
1228.1526
 20
1186.4876
 30
0.0
 11
1230.6207
 21
1187.2073
 31
0.0
  0
LINE
  5
158
330
20
100
AcDbEntity
  8
_0-0_LAYER001
  6
Continuous
 62
     4
100
AcDbLine
 10
1230.6207
 20
1187.2073
 30
0.0
 11
1232.6125
 21
1187.6147
 31
0.0
  0
LINE
  5
159
330
20
100
AcDbEntity
  8
_0-0_LAYER001
  6
Continuous
 62
     4
100
AcDbLine
 10
1232.6125
 20
1187.6147
 30
0.0
 11
1234.3918
 21
1187.7792
 31
0.0
  0
LINE
  5
15A
330
20
100
AcDbEntity
  8
_0-0_LAYER001
  6
Continuous
 62
     4
100
AcDbLine
 10
1234.3918
 20
1187.7792
 30
0.0
 11
1235.0713
 21
1187.7704
 31
0.0
  0
LINE
  5
15B
330
20
100
AcDbEntity
  8
_0-0_LAYER001
  6
Continuous
 62
     4
100
AcDbLine
 10
1235.0713
 20
1187.7704
 30
0.0
 11
1234.9952
 21
1187.7759
 31
0.0
  0
LINE
  5
15C
330
20
100
AcDbEntity
  8
_0-0_LAYER001
  6
Continuous
 62
     4
100
AcDbLine
 10
1234.9952
 20
1187.7759
 30
0.0
 11
1235.6089
 21
1187.7045
 31
0.0
  0
LINE
  5
15D
330
20
100
AcDbEntity
  8
_0-0_LAYER001
  6
Continuous
 62
     4
100
AcDbLine
 10
1235.6089
 20
1187.7045
 30
0.0
 11
1236.1993
 21
1187.6048
 31
0.0
  0
LINE
  5
15E
330
20
100
AcDbEntity
  8
_0-0_LAYER001
  6
Continuous
 62
     4
100
AcDbLine
 10
1236.1993
 20
1187.6048
 30
0.0
 11
1236.8667
 21
1187.4597
 31
0.0
  0
LINE
  5
15F
330
20
100
AcDbEntity
  8
_0-0_LAYER001
  6
Continuous
 62
     4
100
AcDbLine
 10
1236.8667
 20
1187.4597
 30
0.0
 11
1237.6003
 21
1187.2671
 31
0.0
  0
LINE
  5
160
330
20
100
AcDbEntity
  8
_0-0_LAYER001
  6
Continuous
 62
     4
100
AcDbLine
 10
1237.6003
 20
1187.2671
 30
0.0
 11
1238.4494
 21
1187.0087
 31
0.0
  0
LINE
  5
161
330
20
100
AcDbEntity
  8
_0-0_LAYER001
  6
Continuous
 62
     4
100
AcDbLine
 10
1238.4494
 20
1187.0087
 30
0.0
 11
1238.6935
 21
1186.9268
 31
0.0
  0
LINE
  5
162
330
20
100
AcDbEntity
  8
_0-0_LAYER001
  6
Continuous
 62
     4
100
AcDbLine
 10
1238.6935
 20
1186.9268
 30
0.0
 11
1240.2534
 21
1186.3347
 31
0.0
  0
LINE
  5
163
330
20
100
AcDbEntity
  8
_0-0_LAYER001
  6
Continuous
 62
     4
100
AcDbLine
 10
1240.2534
 20
1186.3347
 30
0.0
 11
1243.2011
 21
1184.9643
 31
0.0
  0
LINE
  5
164
330
20
100
AcDbEntity
  8
_0-0_LAYER001
  6
Continuous
 62
     4
100
AcDbLine
 10
1243.2011
 20
1184.9643
 30
0.0
 11
1246.1622
 21
1183.3037
 31
0.0
  0
LINE
  5
165
330
20
100
AcDbEntity
  8
_0-0_LAYER001
  6
Continuous
 62
     4
100
AcDbLine
 10
1246.1622
 20
1183.3037
 30
0.0
 11
1249.3299
 21
1181.2823
 31
0.0
  0
LINE
  5
166
330
20
100
AcDbEntity
  8
_0-0_LAYER001
  6
Continuous
 62
     4
100
AcDbLine
 10
1249.3299
 20
1181.2823
 30
0.0
 11
1252.7146
 21
1178.9374
 31
0.0
  0
LINE
  5
167
330
20
100
AcDbEntity
  8
_0-0_LAYER001
  6
Continuous
 62
     4
100
AcDbLine
 10
1252.7146
 20
1178.9374
 30
0.0
 11
1256.3203
 21
1176.3349
 31
0.0
  0
LINE
  5
168
330
20
100
AcDbEntity
  8
_0-0_LAYER001
  6
Continuous
 62
     4
100
AcDbLine
 10
1256.3203
 20
1176.3349
 30
0.0
 11
1258.5273
 21
1174.7325
 31
0.0
  0
LINE
  5
169
330
20
100
AcDbEntity
  8
_0-0_LAYER001
  6
Continuous
 62
     4
100
AcDbLine
 10
1258.5273
 20
1174.7325
 30
0.0
 11
1262.0173
 21
1172.2322
 31
0.0
  0
LINE
  5
16A
330
20
100
AcDbEntity
  8
_0-0_LAYER001
  6
Continuous
 62
     4
100
AcDbLine
 10
1262.0173
 20
1172.2322
 30
0.0
 11
1268.1095
 21
1168.0072
 31
0.0
  0
LINE
  5
16B
330
20
100
AcDbEntity
  8
_0-0_LAYER001
  6
Continuous
 62
     4
100
AcDbLine
 10
1268.1095
 20
1168.0072
 30
0.0
 11
1274.4132
 21
1163.8672
 31
0.0
  0
LINE
  5
16C
330
20
100
AcDbEntity
  8
_0-0_LAYER001
  6
Continuous
 62
     4
100
AcDbLine
 10
1274.4132
 20
1163.8672
 30
0.0
 11
1280.9339
 21
1159.8784
 31
0.0
  0
LINE
  5
16D
330
20
100
AcDbEntity
  8
_0-0_LAYER001
  6
Continuous
 62
     4
100
AcDbLine
 10
1280.9339
 20
1159.8784
 30
0.0
 11
1287.6999
 21
1156.0944
 31
0.0
  0
LINE
  5
16E
330
20
100
AcDbEntity
  8
_0-0_LAYER001
  6
Continuous
 62
     4
100
AcDbLine
 10
1287.6999
 20
1156.0944
 30
0.0
 11
1294.6429
 21
1152.6199
 31
0.0
  0
LINE
  5
16F
330
20
100
AcDbEntity
  8
_0-0_LAYER001
  6
Continuous
 62
     4
100
AcDbLine
 10
1294.6429
 20
1152.6199
 30
0.0
 11
1298.9163
 21
1150.6955
 31
0.0
  0
LINE
  5
170
330
20
100
AcDbEntity
  8
_0-0_LAYER001
  6
Continuous
 62
     4
100
AcDbLine
 10
1298.9163
 20
1150.6955
 30
0.0
 11
1302.5214
 21
1149.1976
 31
0.0
  0
LINE
  5
171
330
20
100
AcDbEntity
  8
_0-0_LAYER001
  6
Continuous
 62
     4
100
AcDbLine
 10
1302.5214
 20
1149.1976
 30
0.0
 11
1308.5775
 21
1146.9356
 31
0.0
  0
LINE
  5
172
330
20
100
AcDbEntity
  8
_0-0_LAYER001
  6
Continuous
 62
     4
100
AcDbLine
 10
1308.5775
 20
1146.9356
 30
0.0
 11
1314.8273
 21
1144.9246
 31
0.0
  0
LINE
  5
173
330
20
100
AcDbEntity
  8
_0-0_LAYER001
  6
Continuous
 62
     4
100
AcDbLine
 10
1314.8273
 20
1144.9246
 30
0.0
 11
1321.1761
 21
1143.2032
 31
0.0
  0
LINE
  5
174
330
20
100
AcDbEntity
  8
_0-0_LAYER001
  6
Continuous
 62
     4
100
AcDbLine
 10
1321.1761
 20
1143.2032
 30
0.0
 11
1327.6103
 21
1141.7803
 31
0.0
  0
LINE
  5
175
330
20
100
AcDbEntity
  8
_0-0_LAYER001
  6
Continuous
 62
     4
100
AcDbLine
 10
1327.6103
 20
1141.7803
 30
0.0
 11
1334.024
 21
1140.6815
 31
0.0
  0
LINE
  5
176
330
20
100
AcDbEntity
  8
_0-0_LAYER001
  6
Continuous
 62
     4
100
AcDbLine
 10
1334.024
 20
1140.6815
 30
0.0
 11
1337.8829
 21
1140.1728
 31
0.0
  0
LINE
  5
177
330
20
100
AcDbEntity
  8
_0-0_LAYER001
  6
Continuous
 62
     4
100
AcDbLine
 10
1337.8829
 20
1140.1728
 30
0.0
 11
1340.8775
 21
1139.8544
 31
0.0
  0
LINE
  5
178
330
20
100
AcDbEntity
  8
_0-0_LAYER001
  6
Continuous
 62
     4
100
AcDbLine
 10
1340.8775
 20
1139.8544
 30
0.0
 11
1345.7699
 21
1139.4722
 31
0.0
  0
LINE
  5
179
330
20
100
AcDbEntity
  8
_0-0_LAYER001
  6
Continuous
 62
     4
100
AcDbLine
 10
1345.7699
 20
1139.4722
 30
0.0
 11
1350.6774
 21
1139.2477
 31
0.0
  0
LINE
  5
17A
330
20
100
AcDbEntity
  8
_0-0_LAYER001
  6
Continuous
 62
     4
100
AcDbLine
 10
1350.6774
 20
1139.2477
 30
0.0
 11
1355.5248
 21
1139.1648
 31
0.0
  0
LINE
  5
17B
330
20
100
AcDbEntity
  8
_0-0_LAYER001
  6
Continuous
 62
     4
100
AcDbLine
 10
1355.5248
 20
1139.1648
 30
0.0
 11
1360.3087
 21
1139.2024
 31
0.0
  0
LINE
  5
17C
330
20
100
AcDbEntity
  8
_0-0_LAYER001
  6
Continuous
 62
     4
100
AcDbLine
 10
1360.3087
 20
1139.2024
 30
0.0
 11
1364.9964
 21
1139.3394
 31
0.0
  0
LINE
  5
17D
330
20
100
AcDbEntity
  8
_0-0_LAYER001
  6
Continuous
 62
     4
100
AcDbLine
 10
1364.9964
 20
1139.3394
 30
0.0
 11
1367.7735
 21
1139.4607
 31
0.0
  0
LINE
  5
17E
330
20
100
AcDbEntity
  8
_0-0_LAYER001
  6
Continuous
 62
     4
100
AcDbLine
 10
1367.7735
 20
1139.4607
 30
0.0
 11
1372.8059
 21
1139.7461
 31
0.0
  0
LINE
  5
17F
330
20
100
AcDbEntity
  8
_0-0_LAYER001
  6
Continuous
 62
     4
100
AcDbLine
 10
1372.8059
 20
1139.7461
 30
0.0
 11
1381.332
 21
1140.4071
 31
0.0
  0
LINE
  5
180
330
20
100
AcDbEntity
  8
_0-0_LAYER001
  6
Continuous
 62
     4
100
AcDbLine
 10
1381.332
 20
1140.4071
 30
0.0
 11
1389.816900000001
 21
1141.2575
 31
0.0
  0
LINE
  5
181
330
20
100
AcDbEntity
  8
_0-0_LAYER001
  6
Continuous
 62
     4
100
AcDbLine
 10
1389.816900000001
 20
1141.2575
 30
0.0
 11
1398.2082
 21
1142.2526
 31
0.0
  0
LINE
  5
182
330
20
100
AcDbEntity
  8
_0-0_LAYER001
  6
Continuous
 62
     4
100
AcDbLine
 10
1398.2082
 20
1142.2526
 30
0.0
 11
1406.5089
 21
1143.3533
 31
0.0
  0
LINE
  5
183
330
20
100
AcDbEntity
  8
_0-0_LAYER001
  6
Continuous
 62
     4
100
AcDbLine
 10
1406.5089
 20
1143.3533
 30
0.0
 11
1414.716599999999
 21
1144.5205
 31
0.0
  0
LINE
  5
184
330
20
100
AcDbEntity
  8
_0-0_LAYER001
  6
Continuous
 62
     4
100
AcDbLine
 10
1414.716599999999
 20
1144.5205
 30
0.0
 11
1419.4538
 21
1145.216
 31
0.0
  0
LINE
  5
185
330
20
100
AcDbEntity
  8
_0-0_LAYER001
  6
Continuous
 62
     4
100
AcDbLine
 10
1419.4538
 20
1145.216
 30
0.0
 11
1421.9091
 21
1145.5799
 31
0.0
  0
LINE
  5
186
330
20
100
AcDbEntity
  8
_0-0_LAYER001
  6
Continuous
 62
     4
100
AcDbLine
 10
1421.9091
 20
1145.5799
 30
0.0
 11
1426.123299999999
 21
1146.2084
 31
0.0
  0
LINE
  5
187
330
20
100
AcDbEntity
  8
_0-0_LAYER001
  6
Continuous
 62
     4
100
AcDbLine
 10
1426.123299999999
 20
1146.2084
 30
0.0
 11
1430.3348
 21
1146.8409
 31
0.0
  0
LINE
  5
188
330
20
100
AcDbEntity
  8
_0-0_LAYER001
  6
Continuous
 62
     4
100
AcDbLine
 10
1430.3348
 20
1146.8409
 30
0.0
 11
1434.541499999999
 21
1147.476
 31
0.0
  0
LINE
  5
189
330
20
100
AcDbEntity
  8
_0-0_LAYER001
  6
Continuous
 62
     4
100
AcDbLine
 10
1434.541499999999
 20
1147.476
 30
0.0
 11
1438.7437
 21
1148.1128
 31
0.0
  0
LINE
  5
18A
330
20
100
AcDbEntity
  8
_0-0_LAYER001
  6
Continuous
 62
     4
100
AcDbLine
 10
1438.7437
 20
1148.1128
 30
0.0
 11
1442.9416
 21
1148.7504
 31
0.0
  0
LINE
  5
18B
330
20
100
AcDbEntity
  8
_0-0_LAYER001
  6
Continuous
 62
     4
100
AcDbLine
 10
1442.9416
 20
1148.7504
 30
0.0
 11
1444.5593
 21
1148.9963
 31
0.0
  0
LINE
  5
18C
330
20
100
AcDbEntity
  8
_0-0_LAYER001
  6
Continuous
 62
     4
100
AcDbLine
 10
1192.1041
 20
1191.9624
 30
0.0
 11
1192.5301
 21
1192.1255
 31
0.0
  0
ARC
  5
18D
330
20
100
AcDbEntity
  8
_0-0_LAYER001
  6
Continuous
 62
     4
100
AcDbCircle
 10
1193.1767
 20
1189.1607
 30
0.0
 40
3.0
100
AcDbArc
 50
110.94902
 51
178.7
  0
LINE
  5
18E
330
20
100
AcDbEntity
  8
_0-0_LAYER001
  6
Continuous
 62
     4
100
AcDbLine
 10
1190.0681
 20
1173.3896
 30
0.0
 11
1190.0681
 21
1189.1121
 31
0.0
  0
LINE
  5
18F
330
20
100
AcDbEntity
  8
_0-0_LAYER001
  6
Continuous
 62
     4
100
AcDbLine
 10
1191.4221
 20
1172.4544
 30
0.0
 11
1197.597
 21
1174.7916
 31
0.0
  0
ARC
  5
190
330
20
100
AcDbEntity
  8
_0-0_LAYER001
  6
Continuous
 62
     4
100
AcDbCircle
 10
1191.0681
 20
1173.3896
 30
0.0
 40
1.0
100
AcDbArc
 50
180.0
 51
290.73166
  0
LINE
  5
191
330
20
100
AcDbEntity
  8
_0-0_LAYER001
  6
Continuous
 62
     4
100
AcDbLine
 10
1442.7947
 20
1166.9512
 30
0.0
 11
1487.249
 21
1176.5991
 31
0.0
  0
LINE
  5
192
330
20
100
AcDbEntity
  8
_0-0_LAYER001
  6
Continuous
 62
     4
100
AcDbLine
 10
1449.5399
 20
1147.1175
 30
0.0
 11
1488.211699999999
 21
1156.1675
 31
0.0
  0
LINE
  5
193
330
20
100
AcDbEntity
  8
_0-0_LAYER001
  6
Continuous
 62
     4
100
AcDbLine
 10
1488.211699999999
 20
1157.124
 30
0.0
 11
1488.211699999999
 21
1156.1675
 31
0.0
  0
ARC
  5
194
330
20
100
AcDbEntity
  8
_0-0_LAYER001
  6
Continuous
 62
     4
100
AcDbCircle
 10
1489.2117
 20
1157.124
 30
0.0
 40
1.0
100
AcDbArc
 50
102.72435
 51
180.0
  0
LINE
  5
195
330
20
100
AcDbEntity
  8
_0-0_LAYER001
  6
Continuous
 62
     4
100
AcDbLine
 10
1494.028699999999
 20
1159.2369
 30
0.0
 11
1488.9915
 21
1158.0994
 31
0.0
  0
ARC
  5
196
330
20
100
AcDbEntity
  8
_0-0_LAYER001
  6
Continuous
 62
     4
100
AcDbCircle
 10
1494.249
 20
1158.2614
 30
0.0
 40
1.0
100
AcDbArc
 50
0.0
 51
102.72435
  0
LINE
  5
197
330
20
100
AcDbEntity
  8
_0-0_LAYER001
  6
Continuous
 62
     4
100
AcDbLine
 10
1494.4611
 20
1159.7453
 30
0.0
 11
1444.3271
 21
1148.8648
 31
0.0
  0
ARC
  5
198
330
20
100
AcDbEntity
  8
_0-0_LAYER001
  6
Continuous
 62
     4
100
AcDbCircle
 10
1494.249
 20
1160.7226
 30
0.0
 40
1.0
100
AcDbArc
 50
282.24497
 51
0.0
  0
LINE
  5
199
330
20
100
AcDbEntity
  8
_0-0_LAYER001
  6
Continuous
 62
     4
100
AcDbLine
 10
1494.4668
 20
1139.0046
 30
0.0
 11
1444.8829
 21
1127.9368
 31
0.0
  0
LINE
  5
19A
330
20
100
AcDbEntity
  8
_0-0_LAYER001
  6
Continuous
 62
     4
100
AcDbLine
 10
1495.249
 20
1139.9806
 30
0.0
 11
1495.249
 21
1158.2614
 31
0.0
  0
ARC
  5
19B
330
20
100
AcDbEntity
  8
_0-0_LAYER001
  6
Continuous
 62
     4
100
AcDbCircle
 10
1494.249
 20
1139.9806
 30
0.0
 40
1.0
100
AcDbArc
 50
282.58296
 51
0.0000000000000254
  0
LINE
  5
19C
330
20
100
AcDbEntity
  8
_0-0_LAYER001
  6
Continuous
 62
     4
100
AcDbLine
 10
1487.249
 20
1178.0562
 30
0.0
 11
1487.249
 21
1176.5991
 31
0.0
  0
ARC
  5
19D
330
20
100
AcDbEntity
  8
_0-0_LAYER001
  6
Continuous
 62
     4
100
AcDbCircle
 10
1488.249
 20
1178.0562
 30
0.0
 40
1.0
100
AcDbArc
 50
101.73308
 51
180.0
  0
LINE
  5
19E
330
20
100
AcDbEntity
  8
_0-0_LAYER001
  6
Continuous
 62
     4
100
AcDbLine
 10
1494.0456
 20
1180.2814
 30
0.0
 11
1488.0456
 21
1179.0353
 31
0.0
  0
LINE
  5
19F
330
20
100
AcDbEntity
  8
_0-0_LAYER001
  6
Continuous
 62
     4
100
AcDbLine
 10
1495.249
 20
1179.3023
 30
0.0
 11
1495.249
 21
1160.7226
 31
0.0
  0
ARC
  5
1A0
330
20
100
AcDbEntity
  8
_0-0_LAYER001
  6
Continuous
 62
     4
100
AcDbCircle
 10
1494.249
 20
1179.3023
 30
0.0
 40
1.0
100
AcDbArc
 50
0.0
 51
101.73308
  0
LINE
  5
1A1
330
20
100
AcDbEntity
  8
_0-0_LAYER001
  6
Continuous
 62
     4
100
AcDbLine
 10
1050.5184
 20
1108.4124
 30
0.0
 11
1041.9829
 21
1122.9458
 31
0.0
  0
LINE
  5
1A2
330
20
100
AcDbEntity
  8
_0-0_LAYER001
  6
Continuous
 62
     4
100
AcDbLine
 10
1058.6863
 20
1107.7621
 30
0.0
 11
1066.9925
 21
1117.8276
 31
0.0
  0
ARC
  5
1A3
330
20
100
AcDbEntity
  8
_0-0_LAYER001
  6
Continuous
 62
     4
100
AcDbCircle
 10
1054.8298
 20
1110.9445
 30
0.0
 40
5.0
100
AcDbArc
 50
210.42578
 51
320.47001
  0
LINE
  5
1A4
330
20
100
AcDbEntity
  8
_0-0_LAYER001
  6
Continuous
 62
     4
100
AcDbLine
 10
1134.6319
 20
1107.2923
 30
0.0
 11
1127.3065
 21
1118.5983
 31
0.0
  0
LINE
  5
1A5
330
20
100
AcDbEntity
  8
_0-0_LAYER001
  6
Continuous
 62
     4
100
AcDbLine
 10
1143.1414
 20
1107.4822
 30
0.0
 11
1152.0798
 21
1122.7279
 31
0.0
  0
ARC
  5
1A6
330
20
100
AcDbEntity
  8
_0-0_LAYER001
  6
Continuous
 62
     4
100
AcDbCircle
 10
1138.8281
 20
1110.0111
 30
0.0
 40
5.0
100
AcDbArc
 50
212.93986
 51
329.61716
  0
LINE
  5
1A7
330
20
100
AcDbEntity
  8
_0-0_LAYER001
  6
Continuous
 62
     4
100
AcDbLine
 10
1182.4235
 20
1147.0398
 30
0.0
 11
1184.8516
 21
1147.4437
 31
0.0
  0
LINE
  5
1A8
330
20
100
AcDbEntity
  8
_0-0_LAYER001
  6
Continuous
 62
     4
100
AcDbLine
 10
1178.2344
 20
1146.3436
 30
0.0
 11
1182.4235
 21
1147.0398
 31
0.0
  0
LINE
  5
1A9
330
20
100
AcDbEntity
  8
_0-0_LAYER001
  6
Continuous
 62
     4
100
AcDbLine
 10
1174.0406
 20
1145.648
 30
0.0
 11
1178.2344
 21
1146.3436
 31
0.0
  0
LINE
  5
1AA
330
20
100
AcDbEntity
  8
_0-0_LAYER001
  6
Continuous
 62
     4
100
AcDbLine
 10
1169.8418
 20
1144.954
 30
0.0
 11
1174.0406
 21
1145.648
 31
0.0
  0
LINE
  5
1AB
330
20
100
AcDbEntity
  8
_0-0_LAYER001
  6
Continuous
 62
     4
100
AcDbLine
 10
1165.6378
 20
1144.2625
 30
0.0
 11
1169.8418
 21
1144.954
 31
0.0
  0
LINE
  5
1AC
330
20
100
AcDbEntity
  8
_0-0_LAYER001
  6
Continuous
 62
     4
100
AcDbLine
 10
1161.4309
 20
1143.5749
 30
0.0
 11
1165.6378
 21
1144.2625
 31
0.0
  0
LINE
  5
1AD
330
20
100
AcDbEntity
  8
_0-0_LAYER001
  6
Continuous
 62
     4
100
AcDbLine
 10
1158.9787
 20
1143.1764
 30
0.0
 11
1161.4309
 21
1143.5749
 31
0.0
  0
LINE
  5
1AE
330
20
100
AcDbEntity
  8
_0-0_LAYER001
  6
Continuous
 62
     4
100
AcDbLine
 10
1154.2459
 20
1142.4139
 30
0.0
 11
1158.9787
 21
1143.1764
 31
0.0
  0
LINE
  5
1AF
330
20
100
AcDbEntity
  8
_0-0_LAYER001
  6
Continuous
 62
     4
100
AcDbLine
 10
1146.0415
 20
1141.1301
 30
0.0
 11
1154.2459
 21
1142.4139
 31
0.0
  0
LINE
  5
1B0
330
20
100
AcDbEntity
  8
_0-0_LAYER001
  6
Continuous
 62
     4
100
AcDbLine
 10
1137.734
 20
1139.9102
 30
0.0
 11
1146.0415
 21
1141.1301
 31
0.0
  0
LINE
  5
1B1
330
20
100
AcDbEntity
  8
_0-0_LAYER001
  6
Continuous
 62
     4
100
AcDbLine
 10
1129.3257
 20
1138.7938
 30
0.0
 11
1137.734
 21
1139.9102
 31
0.0
  0
LINE
  5
1B2
330
20
100
AcDbEntity
  8
_0-0_LAYER001
  6
Continuous
 62
     4
100
AcDbLine
 10
1120.8131
 20
1137.8205
 30
0.0
 11
1129.3257
 21
1138.7938
 31
0.0
  0
LINE
  5
1B3
330
20
100
AcDbEntity
  8
_0-0_LAYER001
  6
Continuous
 62
     4
100
AcDbLine
 10
1112.254
 20
1137.0365
 30
0.0
 11
1120.8131
 21
1137.8205
 31
0.0
  0
LINE
  5
1B4
330
20
100
AcDbEntity
  8
_0-0_LAYER001
  6
Continuous
 62
     4
100
AcDbLine
 10
1107.1925
 20
1136.6785
 30
0.0
 11
1112.254
 21
1137.0365
 31
0.0
  0
LINE
  5
1B5
330
20
100
AcDbEntity
  8
_0-0_LAYER001
  6
Continuous
 62
     4
100
AcDbLine
 10
1104.3899
 20
1136.5169
 30
0.0
 11
1107.1925
 21
1136.6785
 31
0.0
  0
LINE
  5
1B6
330
20
100
AcDbEntity
  8
_0-0_LAYER001
  6
Continuous
 62
     4
100
AcDbLine
 10
1099.6688
 20
1136.3129
 30
0.0
 11
1104.3899
 21
1136.5169
 31
0.0
  0
LINE
  5
1B7
330
20
100
AcDbEntity
  8
_0-0_LAYER001
  6
Continuous
 62
     4
100
AcDbLine
 10
1094.8396
 20
1136.2075
 30
0.0
 11
1099.6688
 21
1136.3129
 31
0.0
  0
LINE
  5
1B8
330
20
100
AcDbEntity
  8
_0-0_LAYER001
  6
Continuous
 62
     4
100
AcDbLine
 10
1089.938
 20
1136.2228
 30
0.0
 11
1094.8396
 21
1136.2075
 31
0.0
  0
LINE
  5
1B9
330
20
100
AcDbEntity
  8
_0-0_LAYER001
  6
Continuous
 62
     4
100
AcDbLine
 10
1084.967
 20
1136.3807
 30
0.0
 11
1089.938
 21
1136.2228
 31
0.0
  0
LINE
  5
1BA
330
20
100
AcDbEntity
  8
_0-0_LAYER001
  6
Continuous
 62
     4
100
AcDbLine
 10
1080.0096
 20
1136.6985
 30
0.0
 11
1084.967
 21
1136.3807
 31
0.0
  0
LINE
  5
1BB
330
20
100
AcDbEntity
  8
_0-0_LAYER001
  6
Continuous
 62
     4
100
AcDbLine
 10
1076.9579
 20
1136.9799
 30
0.0
 11
1080.0096
 21
1136.6985
 31
0.0
  0
LINE
  5
1BC
330
20
100
AcDbEntity
  8
_0-0_LAYER001
  6
Continuous
 62
     4
100
AcDbLine
 10
1073.0291
 20
1137.4421
 30
0.0
 11
1076.9579
 21
1136.9799
 31
0.0
  0
LINE
  5
1BD
330
20
100
AcDbEntity
  8
_0-0_LAYER001
  6
Continuous
 62
     4
100
AcDbLine
 10
1066.5151
 20
1138.4647
 30
0.0
 11
1073.0291
 21
1137.4421
 31
0.0
  0
LINE
  5
1BE
330
20
100
AcDbEntity
  8
_0-0_LAYER001
  6
Continuous
 62
     4
100
AcDbLine
 10
1059.9685
 20
1139.8168
 30
0.0
 11
1066.5151
 21
1138.4647
 31
0.0
  0
LINE
  5
1BF
330
20
100
AcDbEntity
  8
_0-0_LAYER001
  6
Continuous
 62
     4
100
AcDbLine
 10
1053.5056
 20
1141.4727
 30
0.0
 11
1059.9685
 21
1139.8168
 31
0.0
  0
LINE
  5
1C0
330
20
100
AcDbEntity
  8
_0-0_LAYER001
  6
Continuous
 62
     4
100
AcDbLine
 10
1047.1396
 20
1143.4234
 30
0.0
 11
1053.5056
 21
1141.4727
 31
0.0
  0
LINE
  5
1C1
330
20
100
AcDbEntity
  8
_0-0_LAYER001
  6
Continuous
 62
     4
100
AcDbLine
 10
1040.9749
 20
1145.6283
 30
0.0
 11
1047.1396
 21
1143.4234
 31
0.0
  0
LINE
  5
1C2
330
20
100
AcDbEntity
  8
_0-0_LAYER001
  6
Continuous
 62
     4
100
AcDbLine
 10
1037.2882
 20
1147.1001
 30
0.0
 11
1040.9749
 21
1145.6283
 31
0.0
  0
LINE
  5
1C3
330
20
100
AcDbEntity
  8
_0-0_LAYER001
  6
Continuous
 62
     4
100
AcDbLine
 10
1032.9239
 20
1148.9926
 30
0.0
 11
1037.2882
 21
1147.1001
 31
0.0
  0
LINE
  5
1C4
330
20
100
AcDbEntity
  8
_0-0_LAYER001
  6
Continuous
 62
     4
100
AcDbLine
 10
1025.8549
 20
1152.4076
 30
0.0
 11
1032.9239
 21
1148.9926
 31
0.0
  0
LINE
  5
1C5
330
20
100
AcDbEntity
  8
_0-0_LAYER001
  6
Continuous
 62
     4
100
AcDbLine
 10
1018.962
 20
1156.1372
 30
0.0
 11
1025.8549
 21
1152.4076
 31
0.0
  0
LINE
  5
1C6
330
20
100
AcDbEntity
  8
_0-0_LAYER001
  6
Continuous
 62
     4
100
AcDbLine
 10
1012.325
 20
1160.0709
 30
0.0
 11
1018.962
 21
1156.1372
 31
0.0
  0
LINE
  5
1C7
330
20
100
AcDbEntity
  8
_0-0_LAYER001
  6
Continuous
 62
     4
100
AcDbLine
 10
1005.9157
 20
1164.1533
 30
0.0
 11
1012.325
 21
1160.0709
 31
0.0
  0
LINE
  5
1C8
330
20
100
AcDbEntity
  8
_0-0_LAYER001
  6
Continuous
 62
     4
100
AcDbLine
 10
999.7314000000001
 20
1168.3155
 30
0.0
 11
1005.9157
 21
1164.1533
 31
0.0
  0
LINE
  5
1C9
330
20
100
AcDbEntity
  8
_0-0_LAYER001
  6
Continuous
 62
     4
100
AcDbLine
 10
996.1891000000001
 20
1170.7792
 30
0.0
 11
999.7314000000001
 21
1168.3155
 31
0.0
  0
LINE
  5
1CA
330
20
100
AcDbEntity
  8
_0-0_LAYER001
  6
Continuous
 62
     4
100
AcDbLine
 10
993.9570999999999
 20
1172.3527
 30
0.0
 11
996.1891000000001
 21
1170.7792
 31
0.0
  0
LINE
  5
1CB
330
20
100
AcDbEntity
  8
_0-0_LAYER001
  6
Continuous
 62
     4
100
AcDbLine
 10
990.3335
 20
1174.8918
 30
0.0
 11
993.9570999999999
 21
1172.3527
 31
0.0
  0
LINE
  5
1CC
330
20
100
AcDbEntity
  8
_0-0_LAYER001
  6
Continuous
 62
     4
100
AcDbLine
 10
986.9638999999999
 20
1177.1573
 30
0.0
 11
990.3335
 21
1174.8918
 31
0.0
  0
LINE
  5
1CD
330
20
100
AcDbEntity
  8
_0-0_LAYER001
  6
Continuous
 62
     4
100
AcDbLine
 10
983.8488999999999
 20
1179.0844
 30
0.0
 11
986.9638999999999
 21
1177.1573
 31
0.0
  0
LINE
  5
1CE
330
20
100
AcDbEntity
  8
_0-0_LAYER001
  6
Continuous
 62
     4
100
AcDbLine
 10
980.9817
 20
1180.6402
 30
0.0
 11
983.8488999999999
 21
1179.0844
 31
0.0
  0
LINE
  5
1CF
330
20
100
AcDbEntity
  8
_0-0_LAYER001
  6
Continuous
 62
     4
100
AcDbLine
 10
978.1506
 20
1181.9086
 30
0.0
 11
980.9817
 21
1180.6402
 31
0.0
  0
LINE
  5
1D0
330
20
100
AcDbEntity
  8
_0-0_LAYER001
  6
Continuous
 62
     4
100
AcDbLine
 10
976.6873999999999
 20
1182.4407
 30
0.0
 11
978.1506
 21
1181.9086
 31
0.0
  0
LINE
  5
1D1
330
20
100
AcDbEntity
  8
_0-0_LAYER001
  6
Continuous
 62
     4
100
AcDbLine
 10
976.5062999999999
 20
1182.4987
 30
0.0
 11
976.6873999999999
 21
1182.4407
 31
0.0
  0
LINE
  5
1D2
330
20
100
AcDbEntity
  8
_0-0_LAYER001
  6
Continuous
 62
     4
100
AcDbLine
 10
975.7179999999999
 20
1182.7266
 30
0.0
 11
976.5062999999999
 21
1182.4987
 31
0.0
  0
LINE
  5
1D3
330
20
100
AcDbEntity
  8
_0-0_LAYER001
  6
Continuous
 62
     4
100
AcDbLine
 10
975.0607999999999
 20
1182.8893
 30
0.0
 11
975.7179999999999
 21
1182.7266
 31
0.0
  0
LINE
  5
1D4
330
20
100
AcDbEntity
  8
_0-0_LAYER001
  6
Continuous
 62
     4
100
AcDbLine
 10
974.479
 20
1183.0073
 30
0.0
 11
975.0607999999999
 21
1182.8893
 31
0.0
  0
LINE
  5
1D5
330
20
100
AcDbEntity
  8
_0-0_LAYER001
  6
Continuous
 62
     4
100
AcDbLine
 10
974.4389999999999
 20
1183.0135
 30
0.0
 11
974.479
 21
1183.0073
 31
0.0
  0
LINE
  5
1D6
330
20
100
AcDbEntity
  8
_0-0_LAYER001
  6
Continuous
 62
     4
100
AcDbLine
 10
1178.4128
 20
1127.8523
 30
0.0
 11
1180.0269
 21
1128.1208
 31
0.0
  0
LINE
  5
1D7
330
20
100
AcDbEntity
  8
_0-0_LAYER001
  6
Continuous
 62
     4
100
AcDbLine
 10
1174.2242
 20
1127.1562
 30
0.0
 11
1178.4128
 21
1127.8523
 31
0.0
  0
LINE
  5
1D8
330
20
100
AcDbEntity
  8
_0-0_LAYER001
  6
Continuous
 62
     4
100
AcDbLine
 10
1170.0313
 20
1126.4607
 30
0.0
 11
1174.2242
 21
1127.1562
 31
0.0
  0
LINE
  5
1D9
330
20
100
AcDbEntity
  8
_0-0_LAYER001
  6
Continuous
 62
     4
100
AcDbLine
 10
1165.8339
 20
1125.767
 30
0.0
 11
1170.0313
 21
1126.4607
 31
0.0
  0
LINE
  5
1DA
330
20
100
AcDbEntity
  8
_0-0_LAYER001
  6
Continuous
 62
     4
100
AcDbLine
 10
1161.6316
 20
1125.0758
 30
0.0
 11
1165.8339
 21
1125.767
 31
0.0
  0
LINE
  5
1DB
330
20
100
AcDbEntity
  8
_0-0_LAYER001
  6
Continuous
 62
     4
100
AcDbLine
 10
1157.4266
 20
1124.3885
 30
0.0
 11
1161.6316
 21
1125.0758
 31
0.0
  0
LINE
  5
1DC
330
20
100
AcDbEntity
  8
_0-0_LAYER001
  6
Continuous
 62
     4
100
AcDbLine
 10
1154.9766
 20
1123.9903
 30
0.0
 11
1157.4266
 21
1124.3885
 31
0.0
  0
LINE
  5
1DD
330
20
100
AcDbEntity
  8
_0-0_LAYER001
  6
Continuous
 62
     4
100
AcDbLine
 10
1150.2496
 20
1123.2288
 30
0.0
 11
1154.9766
 21
1123.9903
 31
0.0
  0
LINE
  5
1DE
330
20
100
AcDbEntity
  8
_0-0_LAYER001
  6
Continuous
 62
     4
100
AcDbLine
 10
1142.059
 20
1121.9471
 30
0.0
 11
1150.2496
 21
1123.2288
 31
0.0
  0
LINE
  5
1DF
330
20
100
AcDbEntity
  8
_0-0_LAYER001
  6
Continuous
 62
     4
100
AcDbLine
 10
1133.7745
 20
1120.7306
 30
0.0
 11
1142.059
 21
1121.9471
 31
0.0
  0
LINE
  5
1E0
330
20
100
AcDbEntity
  8
_0-0_LAYER001
  6
Continuous
 62
     4
100
AcDbLine
 10
1125.3979
 20
1119.6184
 30
0.0
 11
1133.7745
 21
1120.7306
 31
0.0
  0
LINE
  5
1E1
330
20
100
AcDbEntity
  8
_0-0_LAYER001
  6
Continuous
 62
     4
100
AcDbLine
 10
1116.9257
 20
1118.6497
 30
0.0
 11
1125.3979
 21
1119.6184
 31
0.0
  0
LINE
  5
1E2
330
20
100
AcDbEntity
  8
_0-0_LAYER001
  6
Continuous
 62
     4
100
AcDbLine
 10
1108.4096
 20
1117.8696
 30
0.0
 11
1116.9257
 21
1118.6497
 31
0.0
  0
LINE
  5
1E3
330
20
100
AcDbEntity
  8
_0-0_LAYER001
  6
Continuous
 62
     4
100
AcDbLine
 10
1103.3818
 20
1117.514
 30
0.0
 11
1108.4096
 21
1117.8696
 31
0.0
  0
LINE
  5
1E4
330
20
100
AcDbEntity
  8
_0-0_LAYER001
  6
Continuous
 62
     4
100
AcDbLine
 10
1100.6066
 20
1117.354
 30
0.0
 11
1103.3818
 21
1117.514
 31
0.0
  0
LINE
  5
1E5
330
20
100
AcDbEntity
  8
_0-0_LAYER001
  6
Continuous
 62
     4
100
AcDbLine
 10
1095.9213
 20
1117.1516
 30
0.0
 11
1100.6066
 21
1117.354
 31
0.0
  0
LINE
  5
1E6
330
20
100
AcDbEntity
  8
_0-0_LAYER001
  6
Continuous
 62
     4
100
AcDbLine
 10
1091.1383
 20
1117.0471
 30
0.0
 11
1095.9213
 21
1117.1516
 31
0.0
  0
LINE
  5
1E7
330
20
100
AcDbEntity
  8
_0-0_LAYER001
  6
Continuous
 62
     4
100
AcDbLine
 10
1086.2903
 20
1117.0623
 30
0.0
 11
1091.1383
 21
1117.0471
 31
0.0
  0
LINE
  5
1E8
330
20
100
AcDbEntity
  8
_0-0_LAYER001
  6
Continuous
 62
     4
100
AcDbLine
 10
1081.3801
 20
1117.2183
 30
0.0
 11
1086.2903
 21
1117.0623
 31
0.0
  0
LINE
  5
1E9
330
20
100
AcDbEntity
  8
_0-0_LAYER001
  6
Continuous
 62
     4
100
AcDbLine
 10
1076.4828
 20
1117.5322
 30
0.0
 11
1081.3801
 21
1117.2183
 31
0.0
  0
LINE
  5
1EA
330
20
100
AcDbEntity
  8
_0-0_LAYER001
  6
Continuous
 62
     4
100
AcDbLine
 10
1073.4841
 20
1117.8087
 30
0.0
 11
1076.4828
 21
1117.5322
 31
0.0
  0
LINE
  5
1EB
330
20
100
AcDbEntity
  8
_0-0_LAYER001
  6
Continuous
 62
     4
100
AcDbLine
 10
1069.6185
 20
1118.2635
 30
0.0
 11
1073.4841
 21
1117.8087
 31
0.0
  0
LINE
  5
1EC
330
20
100
AcDbEntity
  8
_0-0_LAYER001
  6
Continuous
 62
     4
100
AcDbLine
 10
1063.1901
 20
1119.2726
 30
0.0
 11
1069.6185
 21
1118.2635
 31
0.0
  0
LINE
  5
1ED
330
20
100
AcDbEntity
  8
_0-0_LAYER001
  6
Continuous
 62
     4
100
AcDbLine
 10
1056.7366
 20
1120.6055
 30
0.0
 11
1063.1901
 21
1119.2726
 31
0.0
  0
LINE
  5
1EE
330
20
100
AcDbEntity
  8
_0-0_LAYER001
  6
Continuous
 62
     4
100
AcDbLine
 10
1050.3644
 20
1122.2382
 30
0.0
 11
1056.7366
 21
1120.6055
 31
0.0
  0
LINE
  5
1EF
330
20
100
AcDbEntity
  8
_0-0_LAYER001
  6
Continuous
 62
     4
100
AcDbLine
 10
1044.0871
 20
1124.1617
 30
0.0
 11
1050.3644
 21
1122.2382
 31
0.0
  0
LINE
  5
1F0
330
20
100
AcDbEntity
  8
_0-0_LAYER001
  6
Continuous
 62
     4
100
AcDbLine
 10
1038.0
 20
1126.3389
 30
0.0
 11
1044.0871
 21
1124.1617
 31
0.0
  0
LINE
  5
1F1
330
20
100
AcDbEntity
  8
_0-0_LAYER001
  6
Continuous
 62
     4
100
AcDbLine
 10
1034.3744
 20
1127.7863
 30
0.0
 11
1038.0
 21
1126.3389
 31
0.0
  0
LINE
  5
1F2
330
20
100
AcDbEntity
  8
_0-0_LAYER001
  6
Continuous
 62
     4
100
AcDbLine
 10
1030.0745
 20
1129.6509
 30
0.0
 11
1034.3744
 21
1127.7863
 31
0.0
  0
LINE
  5
1F3
330
20
100
AcDbEntity
  8
_0-0_LAYER001
  6
Continuous
 62
     4
100
AcDbLine
 10
1023.0836
 20
1133.0281
 30
0.0
 11
1030.0745
 21
1129.6509
 31
0.0
  0
LINE
  5
1F4
330
20
100
AcDbEntity
  8
_0-0_LAYER001
  6
Continuous
 62
     4
100
AcDbLine
 10
1016.2655
 20
1136.7173
 30
0.0
 11
1023.0836
 21
1133.0281
 31
0.0
  0
LINE
  5
1F5
330
20
100
AcDbEntity
  8
_0-0_LAYER001
  6
Continuous
 62
     4
100
AcDbLine
 10
1009.6898
 20
1140.6146
 30
0.0
 11
1016.2655
 21
1136.7173
 31
0.0
  0
LINE
  5
1F6
330
20
100
AcDbEntity
  8
_0-0_LAYER001
  6
Continuous
 62
     4
100
AcDbLine
 10
1003.3288
 20
1144.6663
 30
0.0
 11
1009.6898
 21
1140.6146
 31
0.0
  0
LINE
  5
1F7
330
20
100
AcDbEntity
  8
_0-0_LAYER001
  6
Continuous
 62
     4
100
AcDbLine
 10
997.1783
 20
1148.8057
 30
0.0
 11
1003.3288
 21
1144.6663
 31
0.0
  0
LINE
  5
1F8
330
20
100
AcDbEntity
  8
_0-0_LAYER001
  6
Continuous
 62
     4
100
AcDbLine
 10
993.6536999999999
 20
1151.2571
 30
0.0
 11
997.1783
 21
1148.8057
 31
0.0
  0
LINE
  5
1F9
330
20
100
AcDbEntity
  8
_0-0_LAYER001
  6
Continuous
 62
     4
100
AcDbLine
 10
991.4246
 20
1152.8285
 30
0.0
 11
993.6536999999999
 21
1151.2571
 31
0.0
  0
LINE
  5
1FA
330
20
100
AcDbEntity
  8
_0-0_LAYER001
  6
Continuous
 62
     4
100
AcDbLine
 10
987.7829
 20
1155.3804
 30
0.0
 11
991.4246
 21
1152.8285
 31
0.0
  0
LINE
  5
1FB
330
20
100
AcDbEntity
  8
_0-0_LAYER001
  6
Continuous
 62
     4
100
AcDbLine
 10
984.3658000000001
 20
1157.6778
 30
0.0
 11
987.7829
 21
1155.3804
 31
0.0
  0
LINE
  5
1FC
330
20
100
AcDbEntity
  8
_0-0_LAYER001
  6
Continuous
 62
     4
100
AcDbLine
 10
981.1701000000001
 20
1159.6548
 30
0.0
 11
984.3658000000001
 21
1157.6778
 31
0.0
  0
LINE
  5
1FD
330
20
100
AcDbEntity
  8
_0-0_LAYER001
  6
Continuous
 62
     4
100
AcDbLine
 10
978.1862
 20
1161.2739
 30
0.0
 11
981.1701000000001
 21
1159.6548
 31
0.0
  0
LINE
  5
1FE
330
20
100
AcDbEntity
  8
_0-0_LAYER001
  6
Continuous
 62
     4
100
AcDbLine
 10
975.2195999999999
 20
1162.603
 30
0.0
 11
978.1862
 21
1161.2739
 31
0.0
  0
LINE
  5
1FF
330
20
100
AcDbEntity
  8
_0-0_LAYER001
  6
Continuous
 62
     4
100
AcDbLine
 10
974.4697
 20
1162.8758
 30
0.0
 11
975.2195999999999
 21
1162.603
 31
0.0
  0
LINE
  5
200
330
20
100
AcDbEntity
  8
_0-0_LAYER001
  6
Continuous
 62
     4
100
AcDbLine
 10
974.8027
 20
1182.9189
 30
0.0
 11
974.6267000000001
 21
1162.7454
 31
0.0
  0
LINE
  5
201
330
20
100
AcDbEntity
  8
_0-0_LAYER001
  6
Continuous
 62
     4
100
AcDbLine
 10
1175.1283
 20
1117.4311
 30
0.0
 11
1172.8829
 21
1126.0045
 31
0.0
  0
ARC
  5
202
330
20
100
AcDbEntity
  8
_0-0_LAYER001
  6
Continuous
 62
     4
100
AcDbCircle
 10
1178.0305
 20
1118.1912
 30
0.0
 40
3.0
100
AcDbArc
 50
194.67639
 51
270.0000000000001
  0
LINE
  5
203
330
20
100
AcDbEntity
  8
_0-0_LAYER001
  6
Continuous
 62
     4
100
AcDbLine
 10
1181.4729
 20
1115.1869
 30
0.0
 11
1178.0551
 21
1115.1869
 31
0.0
  0
LINE
  5
204
330
20
100
AcDbEntity
  8
_0-0_LAYER001
  6
Continuous
 62
     4
100
AcDbLine
 10
1184.4321
 20
1117.6937
 30
0.0
 11
1186.3662
 21
1129.2978
 31
0.0
  0
ARC
  5
205
330
20
100
AcDbEntity
  8
_0-0_LAYER001
  6
Continuous
 62
     4
100
AcDbCircle
 10
1181.4729
 20
1118.1869
 30
0.0
 40
3.0
100
AcDbArc
 50
270.0
 51
350.53767
  0
LINE
  5
206
330
20
100
AcDbEntity
  8
_0-0_LAYER001
  6
Continuous
 62
     4
100
AcDbLine
 10
927.7065999999999
 20
1192.3091
 30
0.0
 11
928.5204999999999
 21
1192.6157
 31
0.0
  0
LINE
  5
207
330
20
100
AcDbEntity
  8
_0-0_LAYER001
  6
Continuous
 62
     4
100
AcDbLine
 10
928.5204999999999
 20
1192.6157
 30
0.0
 11
932.0697
 21
1193.9553
 31
0.0
  0
LINE
  5
208
330
20
100
AcDbEntity
  8
_0-0_LAYER001
  6
Continuous
 62
     4
100
AcDbLine
 10
932.0697
 20
1193.9553
 30
0.0
 11
935.6263
 21
1195.3042
 31
0.0
  0
LINE
  5
209
330
20
100
AcDbEntity
  8
_0-0_LAYER001
  6
Continuous
 62
     4
100
AcDbLine
 10
935.6263
 20
1195.3042
 30
0.0
 11
939.1950000000001
 21
1196.6682
 31
0.0
  0
LINE
  5
20A
330
20
100
AcDbEntity
  8
_0-0_LAYER001
  6
Continuous
 62
     4
100
AcDbLine
 10
939.1950000000001
 20
1196.6682
 30
0.0
 11
942.7804
 21
1198.0533
 31
0.0
  0
LINE
  5
20B
330
20
100
AcDbEntity
  8
_0-0_LAYER001
  6
Continuous
 62
     4
100
AcDbLine
 10
942.7804
 20
1198.0533
 30
0.0
 11
946.3871000000001
 21
1199.4653
 31
0.0
  0
LINE
  5
20C
330
20
100
AcDbEntity
  8
_0-0_LAYER001
  6
Continuous
 62
     4
100
AcDbLine
 10
946.3871000000001
 20
1199.4653
 30
0.0
 11
948.4906000000002
 21
1200.2989
 31
0.0
  0
LINE
  5
20D
330
20
100
AcDbEntity
  8
_0-0_LAYER001
  6
Continuous
 62
     4
100
AcDbLine
 10
948.4906000000002
 20
1200.2989
 30
0.0
 11
950.57
 21
1201.1278
 31
0.0
  0
LINE
  5
20E
330
20
100
AcDbEntity
  8
_0-0_LAYER001
  6
Continuous
 62
     4
100
AcDbLine
 10
950.57
 20
1201.1278
 30
0.0
 11
954.1764999999999
 21
1202.5292
 31
0.0
  0
LINE
  5
20F
330
20
100
AcDbEntity
  8
_0-0_LAYER001
  6
Continuous
 62
     4
100
AcDbLine
 10
954.1764999999999
 20
1202.5292
 30
0.0
 11
957.8091999999999
 21
1203.8119
 31
0.0
  0
LINE
  5
210
330
20
100
AcDbEntity
  8
_0-0_LAYER001
  6
Continuous
 62
     4
100
AcDbLine
 10
957.8091999999999
 20
1203.8119
 30
0.0
 11
961.4672
 21
1204.8785
 31
0.0
  0
LINE
  5
211
330
20
100
AcDbEntity
  8
_0-0_LAYER001
  6
Continuous
 62
     4
100
AcDbLine
 10
961.4672
 20
1204.8785
 30
0.0
 11
965.1493
 21
1205.6318
 31
0.0
  0
LINE
  5
212
330
20
100
AcDbEntity
  8
_0-0_LAYER001
  6
Continuous
 62
     4
100
AcDbLine
 10
965.1493
 20
1205.6318
 30
0.0
 11
968.8546
 21
1205.9743
 31
0.0
  0
LINE
  5
213
330
20
100
AcDbEntity
  8
_0-0_LAYER001
  6
Continuous
 62
     4
100
AcDbLine
 10
968.8546
 20
1205.9743
 30
0.0
 11
971.0137999999998
 21
1205.9464
 31
0.0
  0
LINE
  5
214
330
20
100
AcDbEntity
  8
_0-0_LAYER001
  6
Continuous
 62
     4
100
AcDbLine
 10
971.0137999999998
 20
1205.9464
 30
0.0
 11
971.863
 21
1205.885
 31
0.0
  0
LINE
  5
215
330
20
100
AcDbEntity
  8
_0-0_LAYER001
  6
Continuous
 62
     4
100
AcDbLine
 10
971.863
 20
1205.885
 30
0.0
 11
973.3273
 21
1205.7144
 31
0.0
  0
LINE
  5
216
330
20
100
AcDbEntity
  8
_0-0_LAYER001
  6
Continuous
 62
     4
100
AcDbLine
 10
973.3273
 20
1205.7144
 30
0.0
 11
974.7884
 21
1205.4677
 31
0.0
  0
LINE
  5
217
330
20
100
AcDbEntity
  8
_0-0_LAYER001
  6
Continuous
 62
     4
100
AcDbLine
 10
974.7884
 20
1205.4677
 30
0.0
 11
976.2421000000001
 21
1205.1517
 31
0.0
  0
LINE
  5
218
330
20
100
AcDbEntity
  8
_0-0_LAYER001
  6
Continuous
 62
     4
100
AcDbLine
 10
976.2421000000001
 20
1205.1517
 30
0.0
 11
977.6842999999999
 21
1204.7732
 31
0.0
  0
LINE
  5
219
330
20
100
AcDbEntity
  8
_0-0_LAYER001
  6
Continuous
 62
     4
100
AcDbLine
 10
977.6842999999999
 20
1204.7732
 30
0.0
 11
979.1107
 21
1204.3391
 31
0.0
  0
LINE
  5
21A
330
20
100
AcDbEntity
  8
_0-0_LAYER001
  6
Continuous
 62
     4
100
AcDbLine
 10
979.1107
 20
1204.3391
 30
0.0
 11
979.9292000000001
 21
1204.0644
 31
0.0
  0
LINE
  5
21B
330
20
100
AcDbEntity
  8
_0-0_LAYER001
  6
Continuous
 62
     4
100
AcDbLine
 10
979.9292000000001
 20
1204.0644
 30
0.0
 11
982.4274
 21
1203.1162
 31
0.0
  0
LINE
  5
21C
330
20
100
AcDbEntity
  8
_0-0_LAYER001
  6
Continuous
 62
     4
100
AcDbLine
 10
982.4274
 20
1203.1162
 30
0.0
 11
986.5863
 21
1201.1827
 31
0.0
  0
LINE
  5
21D
330
20
100
AcDbEntity
  8
_0-0_LAYER001
  6
Continuous
 62
     4
100
AcDbLine
 10
986.5863
 20
1201.1827
 30
0.0
 11
990.5901
 21
1198.9373
 31
0.0
  0
LINE
  5
21E
330
20
100
AcDbEntity
  8
_0-0_LAYER001
  6
Continuous
 62
     4
100
AcDbLine
 10
990.5901
 20
1198.9373
 30
0.0
 11
994.4770000000001
 21
1196.457
 31
0.0
  0
LINE
  5
21F
330
20
100
AcDbEntity
  8
_0-0_LAYER001
  6
Continuous
 62
     4
100
AcDbLine
 10
994.4770000000001
 20
1196.457
 30
0.0
 11
998.2849999999999
 21
1193.8189
 31
0.0
  0
LINE
  5
220
330
20
100
AcDbEntity
  8
_0-0_LAYER001
  6
Continuous
 62
     4
100
AcDbLine
 10
998.2849999999999
 20
1193.8189
 30
0.0
 11
1002.0522
 21
1191.0998
 31
0.0
  0
LINE
  5
221
330
20
100
AcDbEntity
  8
_0-0_LAYER001
  6
Continuous
 62
     4
100
AcDbLine
 10
1002.0522
 20
1191.0998
 30
0.0
 11
1004.2336
 21
1189.516
 31
0.0
  0
LINE
  5
222
330
20
100
AcDbEntity
  8
_0-0_LAYER001
  6
Continuous
 62
     4
100
AcDbLine
 10
1004.2336
 20
1189.516
 30
0.0
 11
1007.5651
 21
1187.1292
 31
0.0
  0
LINE
  5
223
330
20
100
AcDbEntity
  8
_0-0_LAYER001
  6
Continuous
 62
     4
100
AcDbLine
 10
1007.5651
 20
1187.1292
 30
0.0
 11
1013.3574
 21
1183.1122
 31
0.0
  0
LINE
  5
224
330
20
100
AcDbEntity
  8
_0-0_LAYER001
  6
Continuous
 62
     4
100
AcDbLine
 10
1013.3574
 20
1183.1122
 30
0.0
 11
1019.2296
 21
1179.2556
 31
0.0
  0
LINE
  5
225
330
20
100
AcDbEntity
  8
_0-0_LAYER001
  6
Continuous
 62
     4
100
AcDbLine
 10
1019.2296
 20
1179.2556
 30
0.0
 11
1025.2037
 21
1175.6011
 31
0.0
  0
LINE
  5
226
330
20
100
AcDbEntity
  8
_0-0_LAYER001
  6
Continuous
 62
     4
100
AcDbLine
 10
1025.2037
 20
1175.6011
 30
0.0
 11
1031.3019
 21
1172.1906
 31
0.0
  0
LINE
  5
227
330
20
100
AcDbEntity
  8
_0-0_LAYER001
  6
Continuous
 62
     4
100
AcDbLine
 10
1031.3019
 20
1172.1906
 30
0.0
 11
1037.5462
 21
1169.0658
 31
0.0
  0
LINE
  5
228
330
20
100
AcDbEntity
  8
_0-0_LAYER001
  6
Continuous
 62
     4
100
AcDbLine
 10
1037.5462
 20
1169.0658
 30
0.0
 11
1041.2435
 21
1167.4008
 31
0.0
  0
LINE
  5
229
330
20
100
AcDbEntity
  8
_0-0_LAYER001
  6
Continuous
 62
     4
100
AcDbLine
 10
1041.2435
 20
1167.4008
 30
0.0
 11
1044.3027
 21
1166.1297
 31
0.0
  0
LINE
  5
22A
330
20
100
AcDbEntity
  8
_0-0_LAYER001
  6
Continuous
 62
     4
100
AcDbLine
 10
1044.3027
 20
1166.1297
 30
0.0
 11
1049.6632
 21
1164.1275
 31
0.0
  0
LINE
  5
22B
330
20
100
AcDbEntity
  8
_0-0_LAYER001
  6
Continuous
 62
     4
100
AcDbLine
 10
1049.6632
 20
1164.1275
 30
0.0
 11
1055.119
 21
1162.372
 31
0.0
  0
LINE
  5
22C
330
20
100
AcDbEntity
  8
_0-0_LAYER001
  6
Continuous
 62
     4
100
AcDbLine
 10
1055.119
 20
1162.372
 30
0.0
 11
1060.6539
 21
1160.8713
 31
0.0
  0
LINE
  5
22D
330
20
100
AcDbEntity
  8
_0-0_LAYER001
  6
Continuous
 62
     4
100
AcDbLine
 10
1060.6539
 20
1160.8713
 30
0.0
 11
1066.2522
 21
1159.6333
 31
0.0
  0
LINE
  5
22E
330
20
100
AcDbEntity
  8
_0-0_LAYER001
  6
Continuous
 62
     4
100
AcDbLine
 10
1066.2522
 20
1159.6333
 30
0.0
 11
1071.8979
 21
1158.6661
 31
0.0
  0
LINE
  5
22F
330
20
100
AcDbEntity
  8
_0-0_LAYER001
  6
Continuous
 62
     4
100
AcDbLine
 10
1071.8979
 20
1158.6661
 30
0.0
 11
1075.1879
 21
1158.2323
 31
0.0
  0
LINE
  5
230
330
20
100
AcDbEntity
  8
_0-0_LAYER001
  6
Continuous
 62
     4
100
AcDbLine
 10
1075.1879
 20
1158.2323
 30
0.0
 11
1077.7072
 21
1157.9645
 31
0.0
  0
LINE
  5
231
330
20
100
AcDbEntity
  8
_0-0_LAYER001
  6
Continuous
 62
     4
100
AcDbLine
 10
1077.7072
 20
1157.9645
 30
0.0
 11
1082.0593
 21
1157.6244
 31
0.0
  0
LINE
  5
232
330
20
100
AcDbEntity
  8
_0-0_LAYER001
  6
Continuous
 62
     4
100
AcDbLine
 10
1082.0593
 20
1157.6244
 30
0.0
 11
1086.4195
 21
1157.425
 31
0.0
  0
LINE
  5
233
330
20
100
AcDbEntity
  8
_0-0_LAYER001
  6
Continuous
 62
     4
100
AcDbLine
 10
1086.4195
 20
1157.425
 30
0.0
 11
1090.7847
 21
1157.3504
 31
0.0
  0
LINE
  5
234
330
20
100
AcDbEntity
  8
_0-0_LAYER001
  6
Continuous
 62
     4
100
AcDbLine
 10
1090.7847
 20
1157.3504
 30
0.0
 11
1095.1518
 21
1157.3847
 31
0.0
  0
LINE
  5
235
330
20
100
AcDbEntity
  8
_0-0_LAYER001
  6
Continuous
 62
     4
100
AcDbLine
 10
1095.1518
 20
1157.3847
 30
0.0
 11
1099.5177
 21
1157.5123
 31
0.0
  0
LINE
  5
236
330
20
100
AcDbEntity
  8
_0-0_LAYER001
  6
Continuous
 62
     4
100
AcDbLine
 10
1099.5177
 20
1157.5123
 30
0.0
 11
1102.0482
 21
1157.6228
 31
0.0
  0
LINE
  5
237
330
20
100
AcDbEntity
  8
_0-0_LAYER001
  6
Continuous
 62
     4
100
AcDbLine
 10
1102.0482
 20
1157.6228
 30
0.0
 11
1106.7773
 21
1157.891
 31
0.0
  0
LINE
  5
238
330
20
100
AcDbEntity
  8
_0-0_LAYER001
  6
Continuous
 62
     4
100
AcDbLine
 10
1106.7773
 20
1157.891
 30
0.0
 11
1114.9154
 21
1158.522
 31
0.0
  0
LINE
  5
239
330
20
100
AcDbEntity
  8
_0-0_LAYER001
  6
Continuous
 62
     4
100
AcDbLine
 10
1114.9154
 20
1158.522
 30
0.0
 11
1123.0362
 21
1159.3358
 31
0.0
  0
LINE
  5
23A
330
20
100
AcDbEntity
  8
_0-0_LAYER001
  6
Continuous
 62
     4
100
AcDbLine
 10
1123.0362
 20
1159.3358
 30
0.0
 11
1131.1421
 21
1160.2971
 31
0.0
  0
LINE
  5
23B
330
20
100
AcDbEntity
  8
_0-0_LAYER001
  6
Continuous
 62
     4
100
AcDbLine
 10
1131.1421
 20
1160.2971
 30
0.0
 11
1139.2355
 21
1161.3703
 31
0.0
  0
LINE
  5
23C
330
20
100
AcDbEntity
  8
_0-0_LAYER001
  6
Continuous
 62
     4
100
AcDbLine
 10
1139.2355
 20
1161.3703
 30
0.0
 11
1147.3191
 21
1162.5199
 31
0.0
  0
LINE
  5
23D
330
20
100
AcDbEntity
  8
_0-0_LAYER001
  6
Continuous
 62
     4
100
AcDbLine
 10
1147.3191
 20
1162.5199
 30
0.0
 11
1152.004
 21
1163.2076
 31
0.0
  0
LINE
  5
23E
330
20
100
AcDbEntity
  8
_0-0_LAYER001
  6
Continuous
 62
     4
100
AcDbLine
 10
1152.004
 20
1163.2076
 30
0.0
 11
1154.4389
 21
1163.5685
 31
0.0
  0
LINE
  5
23F
330
20
100
AcDbEntity
  8
_0-0_LAYER001
  6
Continuous
 62
     4
100
AcDbLine
 10
1154.4389
 20
1163.5685
 30
0.0
 11
1158.6358
 21
1164.1945
 31
0.0
  0
LINE
  5
240
330
20
100
AcDbEntity
  8
_0-0_LAYER001
  6
Continuous
 62
     4
100
AcDbLine
 10
1158.6358
 20
1164.1945
 30
0.0
 11
1162.8316
 21
1164.8246
 31
0.0
  0
LINE
  5
241
330
20
100
AcDbEntity
  8
_0-0_LAYER001
  6
Continuous
 62
     4
100
AcDbLine
 10
1162.8316
 20
1164.8246
 30
0.0
 11
1167.0264
 21
1165.4579
 31
0.0
  0
LINE
  5
242
330
20
100
AcDbEntity
  8
_0-0_LAYER001
  6
Continuous
 62
     4
100
AcDbLine
 10
1167.0264
 20
1165.4579
 30
0.0
 11
1171.2206
 21
1166.0935
 31
0.0
  0
LINE
  5
243
330
20
100
AcDbEntity
  8
_0-0_LAYER001
  6
Continuous
 62
     4
100
AcDbLine
 10
1171.2206
 20
1166.0935
 30
0.0
 11
1175.4144
 21
1166.7305
 31
0.0
  0
LINE
  5
244
330
20
100
AcDbEntity
  8
_0-0_LAYER001
  6
Continuous
 62
     4
100
AcDbLine
 10
1175.4144
 20
1166.7305
 30
0.0
 11
1177.8466
 21
1167.1002
 31
0.0
  0
LINE
  5
245
330
20
100
AcDbEntity
  8
_0-0_LAYER001
  6
Continuous
 62
     4
100
AcDbLine
 10
932.8098
 20
1174.9966
 30
0.0
 11
934.8717
 21
1175.7735
 31
0.0
  0
LINE
  5
246
330
20
100
AcDbEntity
  8
_0-0_LAYER001
  6
Continuous
 62
     4
100
AcDbLine
 10
934.8717
 20
1175.7735
 30
0.0
 11
938.4393000000001
 21
1177.12
 31
0.0
  0
LINE
  5
247
330
20
100
AcDbEntity
  8
_0-0_LAYER001
  6
Continuous
 62
     4
100
AcDbLine
 10
938.4393000000001
 20
1177.12
 30
0.0
 11
942.0312
 21
1178.4822
 31
0.0
  0
LINE
  5
248
330
20
100
AcDbEntity
  8
_0-0_LAYER001
  6
Continuous
 62
     4
100
AcDbLine
 10
942.0312
 20
1178.4822
 30
0.0
 11
945.6516
 21
1179.866
 31
0.0
  0
LINE
  5
249
330
20
100
AcDbEntity
  8
_0-0_LAYER001
  6
Continuous
 62
     4
100
AcDbLine
 10
945.6516
 20
1179.866
 30
0.0
 11
949.3045
 21
1181.2772
 31
0.0
  0
LINE
  5
24A
330
20
100
AcDbEntity
  8
_0-0_LAYER001
  6
Continuous
 62
     4
100
AcDbLine
 10
949.3045
 20
1181.2772
 30
0.0
 11
952.9837
 21
1182.7176
 31
0.0
  0
LINE
  5
24B
330
20
100
AcDbEntity
  8
_0-0_LAYER001
  6
Continuous
 62
     4
100
AcDbLine
 10
952.9837
 20
1182.7176
 30
0.0
 11
955.1389
 21
1183.5716
 31
0.0
  0
LINE
  5
24C
330
20
100
AcDbEntity
  8
_0-0_LAYER001
  6
Continuous
 62
     4
100
AcDbLine
 10
955.1389
 20
1183.5716
 30
0.0
 11
957.1625
 21
1184.3783
 31
0.0
  0
LINE
  5
24D
330
20
100
AcDbEntity
  8
_0-0_LAYER001
  6
Continuous
 62
     4
100
AcDbLine
 10
957.1625
 20
1184.3783
 30
0.0
 11
960.4343999999999
 21
1185.6497
 31
0.0
  0
LINE
  5
24E
330
20
100
AcDbEntity
  8
_0-0_LAYER001
  6
Continuous
 62
     4
100
AcDbLine
 10
960.4343999999999
 20
1185.6497
 30
0.0
 11
963.3295
 21
1186.672
 31
0.0
  0
LINE
  5
24F
330
20
100
AcDbEntity
  8
_0-0_LAYER001
  6
Continuous
 62
     4
100
AcDbLine
 10
963.3295
 20
1186.672
 30
0.0
 11
965.7975999999999
 21
1187.3916
 31
0.0
  0
LINE
  5
250
330
20
100
AcDbEntity
  8
_0-0_LAYER001
  6
Continuous
 62
     4
100
AcDbLine
 10
965.7975999999999
 20
1187.3916
 30
0.0
 11
967.7893
 21
1187.7991
 31
0.0
  0
LINE
  5
251
330
20
100
AcDbEntity
  8
_0-0_LAYER001
  6
Continuous
 62
     4
100
AcDbLine
 10
967.7893
 20
1187.7991
 30
0.0
 11
969.5686
 21
1187.9636
 31
0.0
  0
LINE
  5
252
330
20
100
AcDbEntity
  8
_0-0_LAYER001
  6
Continuous
 62
     4
100
AcDbLine
 10
969.5686
 20
1187.9636
 30
0.0
 11
970.2481999999999
 21
1187.9548
 31
0.0
  0
LINE
  5
253
330
20
100
AcDbEntity
  8
_0-0_LAYER001
  6
Continuous
 62
     4
100
AcDbLine
 10
970.2481999999999
 20
1187.9548
 30
0.0
 11
970.1721
 21
1187.9603
 31
0.0
  0
LINE
  5
254
330
20
100
AcDbEntity
  8
_0-0_LAYER001
  6
Continuous
 62
     4
100
AcDbLine
 10
970.1721
 20
1187.9603
 30
0.0
 11
970.7857
 21
1187.8888
 31
0.0
  0
LINE
  5
255
330
20
100
AcDbEntity
  8
_0-0_LAYER001
  6
Continuous
 62
     4
100
AcDbLine
 10
970.7857
 20
1187.8888
 30
0.0
 11
971.3760999999999
 21
1187.7891
 31
0.0
  0
LINE
  5
256
330
20
100
AcDbEntity
  8
_0-0_LAYER001
  6
Continuous
 62
     4
100
AcDbLine
 10
971.3760999999999
 20
1187.7891
 30
0.0
 11
972.0435999999999
 21
1187.644
 31
0.0
  0
LINE
  5
257
330
20
100
AcDbEntity
  8
_0-0_LAYER001
  6
Continuous
 62
     4
100
AcDbLine
 10
972.0435999999999
 20
1187.644
 30
0.0
 11
972.7771
 21
1187.4515
 31
0.0
  0
LINE
  5
258
330
20
100
AcDbEntity
  8
_0-0_LAYER001
  6
Continuous
 62
     4
100
AcDbLine
 10
972.7771
 20
1187.4515
 30
0.0
 11
973.6263
 21
1187.193
 31
0.0
  0
LINE
  5
259
330
20
100
AcDbEntity
  8
_0-0_LAYER001
  6
Continuous
 62
     4
100
AcDbLine
 10
973.6263
 20
1187.193
 30
0.0
 11
973.8704
 21
1187.1111
 31
0.0
  0
LINE
  5
25A
330
20
100
AcDbEntity
  8
_0-0_LAYER001
  6
Continuous
 62
     4
100
AcDbLine
 10
973.8704
 20
1187.1111
 30
0.0
 11
975.4303000000001
 21
1186.5191
 31
0.0
  0
LINE
  5
25B
330
20
100
AcDbEntity
  8
_0-0_LAYER001
  6
Continuous
 62
     4
100
AcDbLine
 10
975.4303000000001
 20
1186.5191
 30
0.0
 11
978.378
 21
1185.1486
 31
0.0
  0
LINE
  5
25C
330
20
100
AcDbEntity
  8
_0-0_LAYER001
  6
Continuous
 62
     4
100
AcDbLine
 10
978.378
 20
1185.1486
 30
0.0
 11
981.3391000000001
 21
1183.488
 31
0.0
  0
LINE
  5
25D
330
20
100
AcDbEntity
  8
_0-0_LAYER001
  6
Continuous
 62
     4
100
AcDbLine
 10
981.3391000000001
 20
1183.488
 30
0.0
 11
984.5067999999999
 21
1181.4667
 31
0.0
  0
LINE
  5
25E
330
20
100
AcDbEntity
  8
_0-0_LAYER001
  6
Continuous
 62
     4
100
AcDbLine
 10
984.5067999999999
 20
1181.4667
 30
0.0
 11
987.8914999999999
 21
1179.1218
 31
0.0
  0
LINE
  5
25F
330
20
100
AcDbEntity
  8
_0-0_LAYER001
  6
Continuous
 62
     4
100
AcDbLine
 10
987.8914999999999
 20
1179.1218
 30
0.0
 11
991.4972
 21
1176.5193
 31
0.0
  0
LINE
  5
260
330
20
100
AcDbEntity
  8
_0-0_LAYER001
  6
Continuous
 62
     4
100
AcDbLine
 10
991.4972
 20
1176.5193
 30
0.0
 11
993.7041999999999
 21
1174.9169
 31
0.0
  0
LINE
  5
261
330
20
100
AcDbEntity
  8
_0-0_LAYER001
  6
Continuous
 62
     4
100
AcDbLine
 10
993.7041999999999
 20
1174.9169
 30
0.0
 11
997.1941000000001
 21
1172.4165
 31
0.0
  0
LINE
  5
262
330
20
100
AcDbEntity
  8
_0-0_LAYER001
  6
Continuous
 62
     4
100
AcDbLine
 10
997.1941000000001
 20
1172.4165
 30
0.0
 11
1003.2863
 21
1168.1916
 31
0.0
  0
LINE
  5
263
330
20
100
AcDbEntity
  8
_0-0_LAYER001
  6
Continuous
 62
     4
100
AcDbLine
 10
1003.2863
 20
1168.1916
 30
0.0
 11
1009.5901
 21
1164.0515
 31
0.0
  0
LINE
  5
264
330
20
100
AcDbEntity
  8
_0-0_LAYER001
  6
Continuous
 62
     4
100
AcDbLine
 10
1009.5901
 20
1164.0515
 30
0.0
 11
1016.1108
 21
1160.0627
 31
0.0
  0
LINE
  5
265
330
20
100
AcDbEntity
  8
_0-0_LAYER001
  6
Continuous
 62
     4
100
AcDbLine
 10
1016.1108
 20
1160.0627
 30
0.0
 11
1022.8767
 21
1156.2787
 31
0.0
  0
LINE
  5
266
330
20
100
AcDbEntity
  8
_0-0_LAYER001
  6
Continuous
 62
     4
100
AcDbLine
 10
1022.8767
 20
1156.2787
 30
0.0
 11
1029.8198
 21
1152.8042
 31
0.0
  0
LINE
  5
267
330
20
100
AcDbEntity
  8
_0-0_LAYER001
  6
Continuous
 62
     4
100
AcDbLine
 10
1029.8198
 20
1152.8042
 30
0.0
 11
1034.0932
 21
1150.8798
 31
0.0
  0
LINE
  5
268
330
20
100
AcDbEntity
  8
_0-0_LAYER001
  6
Continuous
 62
     4
100
AcDbLine
 10
1034.0932
 20
1150.8798
 30
0.0
 11
1037.6983
 21
1149.3819
 31
0.0
  0
LINE
  5
269
330
20
100
AcDbEntity
  8
_0-0_LAYER001
  6
Continuous
 62
     4
100
AcDbLine
 10
1037.6983
 20
1149.3819
 30
0.0
 11
1043.7544
 21
1147.12
 31
0.0
  0
LINE
  5
26A
330
20
100
AcDbEntity
  8
_0-0_LAYER001
  6
Continuous
 62
     4
100
AcDbLine
 10
1043.7544
 20
1147.12
 30
0.0
 11
1050.0042
 21
1145.1089
 31
0.0
  0
LINE
  5
26B
330
20
100
AcDbEntity
  8
_0-0_LAYER001
  6
Continuous
 62
     4
100
AcDbLine
 10
1050.0042
 20
1145.1089
 30
0.0
 11
1056.353
 21
1143.3875
 31
0.0
  0
LINE
  5
26C
330
20
100
AcDbEntity
  8
_0-0_LAYER001
  6
Continuous
 62
     4
100
AcDbLine
 10
1056.353
 20
1143.3875
 30
0.0
 11
1062.7872
 21
1141.9646
 31
0.0
  0
LINE
  5
26D
330
20
100
AcDbEntity
  8
_0-0_LAYER001
  6
Continuous
 62
     4
100
AcDbLine
 10
1062.7872
 20
1141.9646
 30
0.0
 11
1069.2009
 21
1140.8659
 31
0.0
  0
LINE
  5
26E
330
20
100
AcDbEntity
  8
_0-0_LAYER001
  6
Continuous
 62
     4
100
AcDbLine
 10
1069.2009
 20
1140.8659
 30
0.0
 11
1073.0597
 21
1140.3571
 31
0.0
  0
LINE
  5
26F
330
20
100
AcDbEntity
  8
_0-0_LAYER001
  6
Continuous
 62
     4
100
AcDbLine
 10
1073.0597
 20
1140.3571
 30
0.0
 11
1076.0543
 21
1140.0387
 31
0.0
  0
LINE
  5
270
330
20
100
AcDbEntity
  8
_0-0_LAYER001
  6
Continuous
 62
     4
100
AcDbLine
 10
1076.0543
 20
1140.0387
 30
0.0
 11
1080.9467
 21
1139.6565
 31
0.0
  0
LINE
  5
271
330
20
100
AcDbEntity
  8
_0-0_LAYER001
  6
Continuous
 62
     4
100
AcDbLine
 10
1080.9467
 20
1139.6565
 30
0.0
 11
1085.8543
 21
1139.432
 31
0.0
  0
LINE
  5
272
330
20
100
AcDbEntity
  8
_0-0_LAYER001
  6
Continuous
 62
     4
100
AcDbLine
 10
1085.8543
 20
1139.432
 30
0.0
 11
1090.7016
 21
1139.3491
 31
0.0
  0
LINE
  5
273
330
20
100
AcDbEntity
  8
_0-0_LAYER001
  6
Continuous
 62
     4
100
AcDbLine
 10
1090.7016
 20
1139.3491
 30
0.0
 11
1095.4856
 21
1139.3868
 31
0.0
  0
LINE
  5
274
330
20
100
AcDbEntity
  8
_0-0_LAYER001
  6
Continuous
 62
     4
100
AcDbLine
 10
1095.4856
 20
1139.3868
 30
0.0
 11
1100.1732
 21
1139.5238
 31
0.0
  0
LINE
  5
275
330
20
100
AcDbEntity
  8
_0-0_LAYER001
  6
Continuous
 62
     4
100
AcDbLine
 10
1100.1732
 20
1139.5238
 30
0.0
 11
1102.9504
 21
1139.645
 31
0.0
  0
LINE
  5
276
330
20
100
AcDbEntity
  8
_0-0_LAYER001
  6
Continuous
 62
     4
100
AcDbLine
 10
1102.9504
 20
1139.645
 30
0.0
 11
1107.9827
 21
1139.9304
 31
0.0
  0
LINE
  5
277
330
20
100
AcDbEntity
  8
_0-0_LAYER001
  6
Continuous
 62
     4
100
AcDbLine
 10
1107.9827
 20
1139.9304
 30
0.0
 11
1116.5089
 21
1140.5915
 31
0.0
  0
LINE
  5
278
330
20
100
AcDbEntity
  8
_0-0_LAYER001
  6
Continuous
 62
     4
100
AcDbLine
 10
1116.5089
 20
1140.5915
 30
0.0
 11
1124.9937
 21
1141.4419
 31
0.0
  0
LINE
  5
279
330
20
100
AcDbEntity
  8
_0-0_LAYER001
  6
Continuous
 62
     4
100
AcDbLine
 10
1124.9937
 20
1141.4419
 30
0.0
 11
1133.3851
 21
1142.437
 31
0.0
  0
LINE
  5
27A
330
20
100
AcDbEntity
  8
_0-0_LAYER001
  6
Continuous
 62
     4
100
AcDbLine
 10
1133.3851
 20
1142.437
 30
0.0
 11
1141.6858
 21
1143.5376
 31
0.0
  0
LINE
  5
27B
330
20
100
AcDbEntity
  8
_0-0_LAYER001
  6
Continuous
 62
     4
100
AcDbLine
 10
1141.6858
 20
1143.5376
 30
0.0
 11
1149.8935
 21
1144.7049
 31
0.0
  0
LINE
  5
27C
330
20
100
AcDbEntity
  8
_0-0_LAYER001
  6
Continuous
 62
     4
100
AcDbLine
 10
1149.8935
 20
1144.7049
 30
0.0
 11
1154.6306
 21
1145.4003
 31
0.0
  0
LINE
  5
27D
330
20
100
AcDbEntity
  8
_0-0_LAYER001
  6
Continuous
 62
     4
100
AcDbLine
 10
1154.6306
 20
1145.4003
 30
0.0
 11
1157.086
 21
1145.7642
 31
0.0
  0
LINE
  5
27E
330
20
100
AcDbEntity
  8
_0-0_LAYER001
  6
Continuous
 62
     4
100
AcDbLine
 10
1157.086
 20
1145.7642
 30
0.0
 11
1161.3001
 21
1146.3928
 31
0.0
  0
LINE
  5
27F
330
20
100
AcDbEntity
  8
_0-0_LAYER001
  6
Continuous
 62
     4
100
AcDbLine
 10
1161.3001
 20
1146.3928
 30
0.0
 11
1165.5116
 21
1147.0252
 31
0.0
  0
LINE
  5
280
330
20
100
AcDbEntity
  8
_0-0_LAYER001
  6
Continuous
 62
     4
100
AcDbLine
 10
1165.5116
 20
1147.0252
 30
0.0
 11
1169.7184
 21
1147.6603
 31
0.0
  0
LINE
  5
281
330
20
100
AcDbEntity
  8
_0-0_LAYER001
  6
Continuous
 62
     4
100
AcDbLine
 10
1169.7184
 20
1147.6603
 30
0.0
 11
1173.9206
 21
1148.2971
 31
0.0
  0
LINE
  5
282
330
20
100
AcDbEntity
  8
_0-0_LAYER001
  6
Continuous
 62
     4
100
AcDbLine
 10
1173.9206
 20
1148.2971
 30
0.0
 11
1178.1185
 21
1148.9347
 31
0.0
  0
LINE
  5
283
330
20
100
AcDbEntity
  8
_0-0_LAYER001
  6
Continuous
 62
     4
100
AcDbLine
 10
1178.1185
 20
1148.9347
 30
0.0
 11
1179.7362
 21
1149.1807
 31
0.0
  0
LINE
  5
284
330
20
100
AcDbEntity
  8
_0-0_LAYER001
  6
Continuous
 62
     4
100
AcDbLine
 10
927.2809
 20
1192.1467
 30
0.0
 11
927.7069
 21
1192.3098
 31
0.0
  0
ARC
  5
285
330
20
100
AcDbEntity
  8
_0-0_LAYER001
  6
Continuous
 62
     4
100
AcDbCircle
 10
928.3535
 20
1189.345
 30
0.0
 40
3.0
100
AcDbArc
 50
110.94902
 51
178.7
  0
LINE
  5
286
330
20
100
AcDbEntity
  8
_0-0_LAYER001
  6
Continuous
 62
     4
100
AcDbLine
 10
925.2449999999999
 20
1173.574
 30
0.0
 11
925.2449999999999
 21
1189.2965
 31
0.0
  0
LINE
  5
287
330
20
100
AcDbEntity
  8
_0-0_LAYER001
  6
Continuous
 62
     4
100
AcDbLine
 10
926.599
 20
1172.6387
 30
0.0
 11
932.7738
 21
1174.9759
 31
0.0
  0
ARC
  5
288
330
20
100
AcDbEntity
  8
_0-0_LAYER001
  6
Continuous
 62
     4
100
AcDbCircle
 10
926.2449999999999
 20
1173.574
 30
0.0
 40
1.0
100
AcDbArc
 50
180.0
 51
290.73166
  0
LINE
  5
289
330
20
100
AcDbEntity
  8
_0-0_LAYER001
  6
Continuous
 62
     4
100
AcDbLine
 10
1190.245
 20
1152.2518
 30
0.0
 11
1190.245
 21
1169.4492
 31
0.0
  0
LINE
  5
28A
330
20
100
AcDbEntity
  8
_0-0_LAYER001
  6
Continuous
 62
     4
100
AcDbLine
 10
1177.9716
 20
1167.1356
 30
0.0
 11
1222.4258
 21
1176.7835
 31
0.0
  0
LINE
  5
28B
330
20
100
AcDbEntity
  8
_0-0_LAYER001
  6
Continuous
 62
     4
100
AcDbLine
 10
1184.7168
 20
1147.3019
 30
0.0
 11
1223.3886
 21
1156.3518
 31
0.0
  0
LINE
  5
28C
330
20
100
AcDbEntity
  8
_0-0_LAYER001
  6
Continuous
 62
     4
100
AcDbLine
 10
1223.3886
 20
1157.3083
 30
0.0
 11
1223.3886
 21
1156.3518
 31
0.0
  0
ARC
  5
28D
330
20
100
AcDbEntity
  8
_0-0_LAYER001
  6
Continuous
 62
     4
100
AcDbCircle
 10
1224.3886
 20
1157.3083
 30
0.0
 40
1.0
100
AcDbArc
 50
102.72435
 51
180.0
  0
LINE
  5
28E
330
20
100
AcDbEntity
  8
_0-0_LAYER001
  6
Continuous
 62
     4
100
AcDbLine
 10
1229.2056
 20
1159.4212
 30
0.0
 11
1224.1683
 21
1158.2838
 31
0.0
  0
ARC
  5
28F
330
20
100
AcDbEntity
  8
_0-0_LAYER001
  6
Continuous
 62
     4
100
AcDbCircle
 10
1229.4258
 20
1158.4458
 30
0.0
 40
1.0
100
AcDbArc
 50
0.0
 51
102.72435
  0
LINE
  5
290
330
20
100
AcDbEntity
  8
_0-0_LAYER001
  6
Continuous
 62
     4
100
AcDbLine
 10
1229.6379
 20
1159.9297
 30
0.0
 11
1179.504
 21
1149.0491
 31
0.0
  0
ARC
  5
291
330
20
100
AcDbEntity
  8
_0-0_LAYER001
  6
Continuous
 62
     4
100
AcDbCircle
 10
1229.4258
 20
1160.9069
 30
0.0
 40
1.0
100
AcDbArc
 50
282.24497
 51
0.0
  0
LINE
  5
292
330
20
100
AcDbEntity
  8
_0-0_LAYER001
  6
Continuous
 62
     4
100
AcDbLine
 10
1229.6437
 20
1139.1889
 30
0.0
 11
1180.0597
 21
1128.1211
 31
0.0
  0
LINE
  5
293
330
20
100
AcDbEntity
  8
_0-0_LAYER001
  6
Continuous
 62
     4
100
AcDbLine
 10
1230.4258
 20
1140.1649
 30
0.0
 11
1230.4258
 21
1158.4458
 31
0.0
  0
ARC
  5
294
330
20
100
AcDbEntity
  8
_0-0_LAYER001
  6
Continuous
 62
     4
100
AcDbCircle
 10
1229.4258
 20
1140.1649
 30
0.0
 40
1.0
100
AcDbArc
 50
282.58296
 51
0.0000000000000254
  0
LINE
  5
295
330
20
100
AcDbEntity
  8
_0-0_LAYER001
  6
Continuous
 62
     4
100
AcDbLine
 10
1222.4258
 20
1178.2405
 30
0.0
 11
1222.4258
 21
1176.7835
 31
0.0
  0
ARC
  5
296
330
20
100
AcDbEntity
  8
_0-0_LAYER001
  6
Continuous
 62
     4
100
AcDbCircle
 10
1223.4258
 20
1178.2405
 30
0.0
 40
1.0
100
AcDbArc
 50
101.73308
 51
180.0
  0
LINE
  5
297
330
20
100
AcDbEntity
  8
_0-0_LAYER001
  6
Continuous
 62
     4
100
AcDbLine
 10
1229.2225
 20
1180.4658
 30
0.0
 11
1223.2225
 21
1179.2196
 31
0.0
  0
LINE
  5
298
330
20
100
AcDbEntity
  8
_0-0_LAYER001
  6
Continuous
 62
     4
100
AcDbLine
 10
1230.4258
 20
1179.4867
 30
0.0
 11
1230.4258
 21
1160.9069
 31
0.0
  0
ARC
  5
299
330
20
100
AcDbEntity
  8
_0-0_LAYER001
  6
Continuous
 62
     4
100
AcDbCircle
 10
1229.4258
 20
1179.4867
 30
0.0
 40
1.0
100
AcDbArc
 50
0.0
 51
101.73308
  0
LINE
  5
29A
330
20
100
AcDbEntity
  8
_0-0_LAYER001
  6
DASHED1
 62
     2
100
AcDbLine
 10
1029.6367
 20
1152.0049
 30
0.0
 11
1045.6367
 21
1152.0049
 31
0.0
  0
LINE
  5
29B
330
20
100
AcDbEntity
  8
_0-0_LAYER001
  6
DASHED1
 62
     2
100
AcDbLine
 10
1045.6367
 20
1152.0049
 30
0.0
 11
1045.6367
 21
1149.0049
 31
0.0
  0
LINE
  5
29C
330
20
100
AcDbEntity
  8
_0-0_LAYER001
  6
DASHED1
 62
     2
100
AcDbLine
 10
1029.6367
 20
1152.0049
 30
0.0
 11
1029.6367
 21
1149.0049
 31
0.0
  0
LINE
  5
29D
330
20
100
AcDbEntity
  8
_0-0_LAYER001
  6
DASHED1
 62
     2
100
AcDbLine
 10
1029.6367
 20
1149.0049
 30
0.0
 11
1045.6367
 21
1149.0049
 31
0.0
  0
LINE
  5
29E
330
20
100
AcDbEntity
  8
_0-0_LAYER001
  6
DASHED1
 62
     2
100
AcDbLine
 10
1040.6367
 20
1094.1088
 30
0.0
 11
1037.5866
 21
1079.5999
 31
0.0
  0
LINE
  5
29F
330
20
100
AcDbEntity
  8
_0-0_LAYER001
  6
DASHED1
 62
     2
100
AcDbLine
 10
1040.6367
 20
1149.0049
 30
0.0
 11
1040.6367
 21
1094.1088
 31
0.0
  0
LINE
  5
2A0
330
20
100
AcDbEntity
  8
_0-0_LAYER001
  6
DASHED1
 62
     2
100
AcDbLine
 10
1037.5866
 20
1079.5999
 30
0.0
 11
1034.6367
 21
1093.8574
 31
0.0
  0
LINE
  5
2A1
330
20
100
AcDbEntity
  8
_0-0_LAYER001
  6
DASHED1
 62
     2
100
AcDbLine
 10
1034.6367
 20
1149.0049
 30
0.0
 11
1034.6367
 21
1093.8574
 31
0.0
  0
LINE
  5
2A2
330
20
100
AcDbEntity
  8
_0-0_LAYER001
  6
DASHED1
 62
     2
100
AcDbLine
 10
1294.6429
 20
1149.2736
 30
0.0
 11
1310.6429
 21
1149.2736
 31
0.0
  0
LINE
  5
2A3
330
20
100
AcDbEntity
  8
_0-0_LAYER001
  6
DASHED1
 62
     2
100
AcDbLine
 10
1310.6429
 20
1149.2736
 30
0.0
 11
1310.6429
 21
1146.2736
 31
0.0
  0
LINE
  5
2A4
330
20
100
AcDbEntity
  8
_0-0_LAYER001
  6
DASHED1
 62
     2
100
AcDbLine
 10
1294.6429
 20
1149.2736
 30
0.0
 11
1294.6429
 21
1146.2736
 31
0.0
  0
LINE
  5
2A5
330
20
100
AcDbEntity
  8
_0-0_LAYER001
  6
DASHED1
 62
     2
100
AcDbLine
 10
1294.6429
 20
1146.2736
 30
0.0
 11
1310.6429
 21
1146.2736
 31
0.0
  0
LINE
  5
2A6
330
20
100
AcDbEntity
  8
_0-0_LAYER001
  6
DASHED1
 62
     2
100
AcDbLine
 10
1305.6429
 20
1091.3775
 30
0.0
 11
1302.5928
 21
1076.8686
 31
0.0
  0
LINE
  5
2A7
330
20
100
AcDbEntity
  8
_0-0_LAYER001
  6
DASHED1
 62
     2
100
AcDbLine
 10
1305.6429
 20
1146.2736
 30
0.0
 11
1305.6429
 21
1091.3775
 31
0.0
  0
LINE
  5
2A8
330
20
100
AcDbEntity
  8
_0-0_LAYER001
  6
DASHED1
 62
     2
100
AcDbLine
 10
1302.5928
 20
1076.8686
 30
0.0
 11
1299.6429
 21
1091.1261
 31
0.0
  0
LINE
  5
2A9
330
20
100
AcDbEntity
  8
_0-0_LAYER001
  6
DASHED1
 62
     2
100
AcDbLine
 10
1299.6429
 20
1146.2736
 30
0.0
 11
1299.6429
 21
1091.1261
 31
0.0
  0
LINE
  5
2AA
330
20
100
AcDbEntity
  8
_0-0_LAYER001
  6
Continuous
 62
     4
100
AcDbLine
 10
1713.1325
 20
1153.5517
 30
0.0
 11
1715.5492
 21
1154.019
 31
0.0
  0
LINE
  5
2AB
330
20
100
AcDbEntity
  8
_0-0_LAYER001
  6
Continuous
 62
     4
100
AcDbLine
 10
1708.9631
 20
1152.746
 30
0.0
 11
1713.1325
 21
1153.5517
 31
0.0
  0
LINE
  5
2AC
330
20
100
AcDbEntity
  8
_0-0_LAYER001
  6
Continuous
 62
     4
100
AcDbLine
 10
1704.7889
 20
1151.9409
 30
0.0
 11
1708.9631
 21
1152.746
 31
0.0
  0
LINE
  5
2AD
330
20
100
AcDbEntity
  8
_0-0_LAYER001
  6
Continuous
 62
     4
100
AcDbLine
 10
1700.6098
 20
1151.1373
 30
0.0
 11
1704.7889
 21
1151.9409
 31
0.0
  0
LINE
  5
2AE
330
20
100
AcDbEntity
  8
_0-0_LAYER001
  6
Continuous
 62
     4
100
AcDbLine
 10
1696.4253
 20
1150.336
 30
0.0
 11
1700.6098
 21
1151.1373
 31
0.0
  0
LINE
  5
2AF
330
20
100
AcDbEntity
  8
_0-0_LAYER001
  6
Continuous
 62
     4
100
AcDbLine
 10
1692.2379
 20
1149.5384
 30
0.0
 11
1696.4253
 21
1150.336
 31
0.0
  0
LINE
  5
2B0
330
20
100
AcDbEntity
  8
_0-0_LAYER001
  6
Continuous
 62
     4
100
AcDbLine
 10
1689.7968
 20
1149.0759
 30
0.0
 11
1692.2379
 21
1149.5384
 31
0.0
  0
LINE
  5
2B1
330
20
100
AcDbEntity
  8
_0-0_LAYER001
  6
Continuous
 62
     4
100
AcDbLine
 10
1685.0857
 20
1148.1898
 30
0.0
 11
1689.7968
 21
1149.0759
 31
0.0
  0
LINE
  5
2B2
330
20
100
AcDbEntity
  8
_0-0_LAYER001
  6
Continuous
 62
     4
100
AcDbLine
 10
1676.9177
 20
1146.6916
 30
0.0
 11
1685.0857
 21
1148.1898
 31
0.0
  0
LINE
  5
2B3
330
20
100
AcDbEntity
  8
_0-0_LAYER001
  6
Continuous
 62
     4
100
AcDbLine
 10
1668.6449
 20
1145.2547
 30
0.0
 11
1676.9177
 21
1146.6916
 31
0.0
  0
LINE
  5
2B4
330
20
100
AcDbEntity
  8
_0-0_LAYER001
  6
Continuous
 62
     4
100
AcDbLine
 10
1660.2688
 20
1143.9186
 30
0.0
 11
1668.6449
 21
1145.2547
 31
0.0
  0
LINE
  5
2B5
330
20
100
AcDbEntity
  8
_0-0_LAYER001
  6
Continuous
 62
     4
100
AcDbLine
 10
1651.7846
 20
1142.7227
 30
0.0
 11
1660.2688
 21
1143.9186
 31
0.0
  0
LINE
  5
2B6
330
20
100
AcDbEntity
  8
_0-0_LAYER001
  6
Continuous
 62
     4
100
AcDbLine
 10
1643.2489
 20
1141.7149
 30
0.0
 11
1651.7846
 21
1142.7227
 31
0.0
  0
LINE
  5
2B7
330
20
100
AcDbEntity
  8
_0-0_LAYER001
  6
Continuous
 62
     4
100
AcDbLine
 10
1638.1985
 20
1141.2246
 30
0.0
 11
1643.2489
 21
1141.7149
 31
0.0
  0
LINE
  5
2B8
330
20
100
AcDbEntity
  8
_0-0_LAYER001
  6
Continuous
 62
     4
100
AcDbLine
 10
1635.4011
 20
1140.9897
 30
0.0
 11
1638.1985
 21
1141.2246
 31
0.0
  0
LINE
  5
2B9
330
20
100
AcDbEntity
  8
_0-0_LAYER001
  6
Continuous
 62
     4
100
AcDbLine
 10
1630.6871
 20
1140.6622
 30
0.0
 11
1635.4011
 21
1140.9897
 31
0.0
  0
LINE
  5
2BA
330
20
100
AcDbEntity
  8
_0-0_LAYER001
  6
Continuous
 62
     4
100
AcDbLine
 10
1625.862299999999
 20
1140.4304
 30
0.0
 11
1630.6871
 21
1140.6622
 31
0.0
  0
LINE
  5
2BB
330
20
100
AcDbEntity
  8
_0-0_LAYER001
  6
Continuous
 62
     4
100
AcDbLine
 10
1620.961899999999
 20
1140.3174
 30
0.0
 11
1625.862299999999
 21
1140.4304
 31
0.0
  0
LINE
  5
2BC
330
20
100
AcDbEntity
  8
_0-0_LAYER001
  6
Continuous
 62
     4
100
AcDbLine
 10
1615.9884
 20
1140.3451
 30
0.0
 11
1620.961899999999
 21
1140.3174
 31
0.0
  0
LINE
  5
2BD
330
20
100
AcDbEntity
  8
_0-0_LAYER001
  6
Continuous
 62
     4
100
AcDbLine
 10
1611.024399999999
 20
1140.533
 30
0.0
 11
1615.9884
 21
1140.3451
 31
0.0
  0
LINE
  5
2BE
330
20
100
AcDbEntity
  8
_0-0_LAYER001
  6
Continuous
 62
     4
100
AcDbLine
 10
1607.9665
 20
1140.7344
 30
0.0
 11
1611.024399999999
 21
1140.533
 31
0.0
  0
LINE
  5
2BF
330
20
100
AcDbEntity
  8
_0-0_LAYER001
  6
Continuous
 62
     4
100
AcDbLine
 10
1604.0268
 20
1141.0937
 30
0.0
 11
1607.9665
 21
1140.7344
 31
0.0
  0
LINE
  5
2C0
330
20
100
AcDbEntity
  8
_0-0_LAYER001
  6
Continuous
 62
     4
100
AcDbLine
 10
1597.4884
 20
1141.9454
 30
0.0
 11
1604.0268
 21
1141.0937
 31
0.0
  0
LINE
  5
2C1
330
20
100
AcDbEntity
  8
_0-0_LAYER001
  6
Continuous
 62
     4
100
AcDbLine
 10
1590.9086
 20
1143.1257
 30
0.0
 11
1597.4884
 21
1141.9454
 31
0.0
  0
LINE
  5
2C2
330
20
100
AcDbEntity
  8
_0-0_LAYER001
  6
Continuous
 62
     4
100
AcDbLine
 10
1584.4045
 20
1144.6118
 30
0.0
 11
1590.9086
 21
1143.1257
 31
0.0
  0
LINE
  5
2C3
330
20
100
AcDbEntity
  8
_0-0_LAYER001
  6
Continuous
 62
     4
100
AcDbLine
 10
1577.9897
 20
1146.3952
 30
0.0
 11
1584.4045
 21
1144.6118
 31
0.0
  0
LINE
  5
2C4
330
20
100
AcDbEntity
  8
_0-0_LAYER001
  6
Continuous
 62
     4
100
AcDbLine
 10
1571.7693
 20
1148.438
 30
0.0
 11
1577.9897
 21
1146.3952
 31
0.0
  0
LINE
  5
2C5
330
20
100
AcDbEntity
  8
_0-0_LAYER001
  6
Continuous
 62
     4
100
AcDbLine
 10
1568.0454
 20
1149.8128
 30
0.0
 11
1571.7693
 21
1148.438
 31
0.0
  0
LINE
  5
2C6
330
20
100
AcDbEntity
  8
_0-0_LAYER001
  6
Continuous
 62
     4
100
AcDbLine
 10
1563.6331
 20
1151.5904
 30
0.0
 11
1568.0454
 21
1149.8128
 31
0.0
  0
LINE
  5
2C7
330
20
100
AcDbEntity
  8
_0-0_LAYER001
  6
Continuous
 62
     4
100
AcDbLine
 10
1556.4771
 20
1154.8191
 30
0.0
 11
1563.6331
 21
1151.5904
 31
0.0
  0
LINE
  5
2C8
330
20
100
AcDbEntity
  8
_0-0_LAYER001
  6
Continuous
 62
     4
100
AcDbLine
 10
1549.4889
 20
1158.3671
 30
0.0
 11
1556.4771
 21
1154.8191
 31
0.0
  0
LINE
  5
2C9
330
20
100
AcDbEntity
  8
_0-0_LAYER001
  6
Continuous
 62
     4
100
AcDbLine
 10
1542.7512
 20
1162.1256
 30
0.0
 11
1549.4889
 21
1158.3671
 31
0.0
  0
LINE
  5
2CA
330
20
100
AcDbEntity
  8
_0-0_LAYER001
  6
Continuous
 62
     4
100
AcDbLine
 10
1536.2372
 20
1166.0389
 30
0.0
 11
1542.7512
 21
1162.1256
 31
0.0
  0
LINE
  5
2CB
330
20
100
AcDbEntity
  8
_0-0_LAYER001
  6
Continuous
 62
     4
100
AcDbLine
 10
1529.9462
 20
1170.0377
 30
0.0
 11
1536.2372
 21
1166.0389
 31
0.0
  0
LINE
  5
2CC
330
20
100
AcDbEntity
  8
_0-0_LAYER001
  6
Continuous
 62
     4
100
AcDbLine
 10
1526.3406
 20
1172.4079
 30
0.0
 11
1529.9462
 21
1170.0377
 31
0.0
  0
LINE
  5
2CD
330
20
100
AcDbEntity
  8
_0-0_LAYER001
  6
Continuous
 62
     4
100
AcDbLine
 10
1524.0681
 20
1173.9224
 30
0.0
 11
1526.3406
 21
1172.4079
 31
0.0
  0
LINE
  5
2CE
330
20
100
AcDbEntity
  8
_0-0_LAYER001
  6
Continuous
 62
     4
100
AcDbLine
 10
1520.3793
 20
1176.3658
 30
0.0
 11
1524.0681
 21
1173.9224
 31
0.0
  0
LINE
  5
2CF
330
20
100
AcDbEntity
  8
_0-0_LAYER001
  6
Continuous
 62
     4
100
AcDbLine
 10
1516.9516
 20
1178.5424
 30
0.0
 11
1520.3793
 21
1176.3658
 31
0.0
  0
LINE
  5
2D0
330
20
100
AcDbEntity
  8
_0-0_LAYER001
  6
Continuous
 62
     4
100
AcDbLine
 10
1513.7872
 20
1180.3872
 30
0.0
 11
1516.9516
 21
1178.5424
 31
0.0
  0
LINE
  5
2D1
330
20
100
AcDbEntity
  8
_0-0_LAYER001
  6
Continuous
 62
     4
100
AcDbLine
 10
1510.8802
 20
1181.8674
 30
0.0
 11
1513.7872
 21
1180.3872
 31
0.0
  0
LINE
  5
2D2
330
20
100
AcDbEntity
  8
_0-0_LAYER001
  6
Continuous
 62
     4
100
AcDbLine
 10
1508.0169
 20
1183.0613
 30
0.0
 11
1510.8802
 21
1181.8674
 31
0.0
  0
LINE
  5
2D3
330
20
100
AcDbEntity
  8
_0-0_LAYER001
  6
Continuous
 62
     4
100
AcDbLine
 10
1506.5402
 20
1183.5549
 30
0.0
 11
1508.0169
 21
1183.0613
 31
0.0
  0
LINE
  5
2D4
330
20
100
AcDbEntity
  8
_0-0_LAYER001
  6
Continuous
 62
     4
100
AcDbLine
 10
1506.3577
 20
1183.6081
 30
0.0
 11
1506.5402
 21
1183.5549
 31
0.0
  0
LINE
  5
2D5
330
20
100
AcDbEntity
  8
_0-0_LAYER001
  6
Continuous
 62
     4
100
AcDbLine
 10
1505.5637
 20
1183.8154
 30
0.0
 11
1506.3577
 21
1183.6081
 31
0.0
  0
LINE
  5
2D6
330
20
100
AcDbEntity
  8
_0-0_LAYER001
  6
Continuous
 62
     4
100
AcDbLine
 10
1504.9025
 20
1183.9608
 30
0.0
 11
1505.5637
 21
1183.8154
 31
0.0
  0
LINE
  5
2D7
330
20
100
AcDbEntity
  8
_0-0_LAYER001
  6
Continuous
 62
     4
100
AcDbLine
 10
1504.3178
 20
1184.0635
 30
0.0
 11
1504.9025
 21
1183.9608
 31
0.0
  0
LINE
  5
2D8
330
20
100
AcDbEntity
  8
_0-0_LAYER001
  6
Continuous
 62
     4
100
AcDbLine
 10
1504.2776
 20
1184.0687
 30
0.0
 11
1504.3178
 21
1184.0635
 31
0.0
  0
LINE
  5
2D9
330
20
100
AcDbEntity
  8
_0-0_LAYER001
  6
Continuous
 62
     4
100
AcDbLine
 10
1709.6255
 20
1134.2658
 30
0.0
 11
1711.232
 21
1134.5764
 31
0.0
  0
LINE
  5
2DA
330
20
100
AcDbEntity
  8
_0-0_LAYER001
  6
Continuous
 62
     4
100
AcDbLine
 10
1705.4566
 20
1133.4602
 30
0.0
 11
1709.6255
 21
1134.2658
 31
0.0
  0
LINE
  5
2DB
330
20
100
AcDbEntity
  8
_0-0_LAYER001
  6
Continuous
 62
     4
100
AcDbLine
 10
1701.2833
 20
1132.6553
 30
0.0
 11
1705.4566
 21
1133.4602
 31
0.0
  0
LINE
  5
2DC
330
20
100
AcDbEntity
  8
_0-0_LAYER001
  6
Continuous
 62
     4
100
AcDbLine
 10
1697.1054
 20
1131.8519
 30
0.0
 11
1701.2833
 21
1132.6553
 31
0.0
  0
LINE
  5
2DD
330
20
100
AcDbEntity
  8
_0-0_LAYER001
  6
Continuous
 62
     4
100
AcDbLine
 10
1692.9227
 20
1131.0509
 30
0.0
 11
1697.1054
 21
1131.8519
 31
0.0
  0
LINE
  5
2DE
330
20
100
AcDbEntity
  8
_0-0_LAYER001
  6
Continuous
 62
     4
100
AcDbLine
 10
1688.7372
 20
1130.2537
 30
0.0
 11
1692.9227
 21
1131.0509
 31
0.0
  0
LINE
  5
2DF
330
20
100
AcDbEntity
  8
_0-0_LAYER001
  6
Continuous
 62
     4
100
AcDbLine
 10
1686.2984
 20
1129.7916
 30
0.0
 11
1688.7372
 21
1130.2537
 31
0.0
  0
LINE
  5
2E0
330
20
100
AcDbEntity
  8
_0-0_LAYER001
  6
Continuous
 62
     4
100
AcDbLine
 10
1681.593
 20
1128.9066
 30
0.0
 11
1686.2984
 21
1129.7916
 31
0.0
  0
LINE
  5
2E1
330
20
100
AcDbEntity
  8
_0-0_LAYER001
  6
Continuous
 62
     4
100
AcDbLine
 10
1673.4387
 20
1127.4109
 30
0.0
 11
1681.593
 21
1128.9066
 31
0.0
  0
LINE
  5
2E2
330
20
100
AcDbEntity
  8
_0-0_LAYER001
  6
Continuous
 62
     4
100
AcDbLine
 10
1665.1889
 20
1125.978
 30
0.0
 11
1673.4387
 21
1127.4109
 31
0.0
  0
LINE
  5
2E3
330
20
100
AcDbEntity
  8
_0-0_LAYER001
  6
Continuous
 62
     4
100
AcDbLine
 10
1656.8443
 20
1124.6469
 30
0.0
 11
1665.1889
 21
1125.978
 31
0.0
  0
LINE
  5
2E4
330
20
100
AcDbEntity
  8
_0-0_LAYER001
  6
Continuous
 62
     4
100
AcDbLine
 10
1648.4004
 20
1123.4567
 30
0.0
 11
1656.8443
 21
1124.6469
 31
0.0
  0
LINE
  5
2E5
330
20
100
AcDbEntity
  8
_0-0_LAYER001
  6
Continuous
 62
     4
100
AcDbLine
 10
1639.9076
 20
1122.454
 30
0.0
 11
1648.4004
 21
1123.4567
 31
0.0
  0
LINE
  5
2E6
330
20
100
AcDbEntity
  8
_0-0_LAYER001
  6
Continuous
 62
     4
100
AcDbLine
 10
1634.8908
 20
1121.9669
 30
0.0
 11
1639.9076
 21
1122.454
 31
0.0
  0
LINE
  5
2E7
330
20
100
AcDbEntity
  8
_0-0_LAYER001
  6
Continuous
 62
     4
100
AcDbLine
 10
1632.1207
 20
1121.7343
 30
0.0
 11
1634.8908
 21
1121.9669
 31
0.0
  0
LINE
  5
2E8
330
20
100
AcDbEntity
  8
_0-0_LAYER001
  6
Continuous
 62
     4
100
AcDbLine
 10
1627.4423
 20
1121.4093
 30
0.0
 11
1632.1207
 21
1121.7343
 31
0.0
  0
LINE
  5
2E9
330
20
100
AcDbEntity
  8
_0-0_LAYER001
  6
Continuous
 62
     4
100
AcDbLine
 10
1622.663799999999
 20
1121.1797
 30
0.0
 11
1627.4423
 21
1121.4093
 31
0.0
  0
LINE
  5
2EA
330
20
100
AcDbEntity
  8
_0-0_LAYER001
  6
Continuous
 62
     4
100
AcDbLine
 10
1617.817
 20
1121.068
 30
0.0
 11
1622.663799999999
 21
1121.1797
 31
0.0
  0
LINE
  5
2EB
330
20
100
AcDbEntity
  8
_0-0_LAYER001
  6
Continuous
 62
     4
100
AcDbLine
 10
1612.9044
 20
1121.0954
 30
0.0
 11
1617.817
 21
1121.068
 31
0.0
  0
LINE
  5
2EC
330
20
100
AcDbEntity
  8
_0-0_LAYER001
  6
Continuous
 62
     4
100
AcDbLine
 10
1608.0006
 20
1121.2809
 30
0.0
 11
1612.9044
 21
1121.0954
 31
0.0
  0
LINE
  5
2ED
330
20
100
AcDbEntity
  8
_0-0_LAYER001
  6
Continuous
 62
     4
100
AcDbLine
 10
1604.9956
 20
1121.4789
 30
0.0
 11
1608.0006
 21
1121.2809
 31
0.0
  0
LINE
  5
2EE
330
20
100
AcDbEntity
  8
_0-0_LAYER001
  6
Continuous
 62
     4
100
AcDbLine
 10
1601.1195
 20
1121.8324
 30
0.0
 11
1604.9956
 21
1121.4789
 31
0.0
  0
LINE
  5
2EF
330
20
100
AcDbEntity
  8
_0-0_LAYER001
  6
Continuous
 62
     4
100
AcDbLine
 10
1594.6669
 20
1122.6729
 30
0.0
 11
1601.1195
 21
1121.8324
 31
0.0
  0
LINE
  5
2F0
330
20
100
AcDbEntity
  8
_0-0_LAYER001
  6
Continuous
 62
     4
100
AcDbLine
 10
1588.1807
 20
1123.8364
 30
0.0
 11
1594.6669
 21
1122.6729
 31
0.0
  0
LINE
  5
2F1
330
20
100
AcDbEntity
  8
_0-0_LAYER001
  6
Continuous
 62
     4
100
AcDbLine
 10
1581.768
 20
1125.3016
 30
0.0
 11
1588.1807
 21
1123.8364
 31
0.0
  0
LINE
  5
2F2
330
20
100
AcDbEntity
  8
_0-0_LAYER001
  6
Continuous
 62
     4
100
AcDbLine
 10
1575.4425
 20
1127.0602
 30
0.0
 11
1581.768
 21
1125.3016
 31
0.0
  0
LINE
  5
2F3
330
20
100
AcDbEntity
  8
_0-0_LAYER001
  6
Continuous
 62
     4
100
AcDbLine
 10
1569.300499999999
 20
1129.0773
 30
0.0
 11
1575.4425
 21
1127.0602
 31
0.0
  0
LINE
  5
2F4
330
20
100
AcDbEntity
  8
_0-0_LAYER001
  6
Continuous
 62
     4
100
AcDbLine
 10
1565.6382
 20
1130.4293
 30
0.0
 11
1569.300499999999
 21
1129.0773
 31
0.0
  0
LINE
  5
2F5
330
20
100
AcDbEntity
  8
_0-0_LAYER001
  6
Continuous
 62
     4
100
AcDbLine
 10
1561.291
 20
1132.1807
 30
0.0
 11
1565.6382
 21
1130.4293
 31
0.0
  0
LINE
  5
2F6
330
20
100
AcDbEntity
  8
_0-0_LAYER001
  6
Continuous
 62
     4
100
AcDbLine
 10
1554.2141
 20
1135.3737
 30
0.0
 11
1561.291
 21
1132.1807
 31
0.0
  0
LINE
  5
2F7
330
20
100
AcDbEntity
  8
_0-0_LAYER001
  6
Continuous
 62
     4
100
AcDbLine
 10
1547.3017
 20
1138.8832
 30
0.0
 11
1554.2141
 21
1135.3737
 31
0.0
  0
LINE
  5
2F8
330
20
100
AcDbEntity
  8
_0-0_LAYER001
  6
Continuous
 62
     4
100
AcDbLine
 10
1540.6262
 20
1142.6071
 30
0.0
 11
1547.3017
 21
1138.8832
 31
0.0
  0
LINE
  5
2F9
330
20
100
AcDbEntity
  8
_0-0_LAYER001
  6
Continuous
 62
     4
100
AcDbLine
 10
1534.1614
 20
1146.4908
 30
0.0
 11
1540.6262
 21
1142.6071
 31
0.0
  0
LINE
  5
2FA
330
20
100
AcDbEntity
  8
_0-0_LAYER001
  6
Continuous
 62
     4
100
AcDbLine
 10
1527.904599999999
 20
1150.4678
 30
0.0
 11
1534.1614
 21
1146.4908
 31
0.0
  0
LINE
  5
2FB
330
20
100
AcDbEntity
  8
_0-0_LAYER001
  6
Continuous
 62
     4
100
AcDbLine
 10
1524.3171
 20
1152.8261
 30
0.0
 11
1527.904599999999
 21
1150.4678
 31
0.0
  0
LINE
  5
2FC
330
20
100
AcDbEntity
  8
_0-0_LAYER001
  6
Continuous
 62
     4
100
AcDbLine
 10
1522.0476
 20
1154.3386
 30
0.0
 11
1524.3171
 21
1152.8261
 31
0.0
  0
LINE
  5
2FD
330
20
100
AcDbEntity
  8
_0-0_LAYER001
  6
Continuous
 62
     4
100
AcDbLine
 10
1518.3403
 20
1156.7943
 30
0.0
 11
1522.0476
 21
1154.3386
 31
0.0
  0
LINE
  5
2FE
330
20
100
AcDbEntity
  8
_0-0_LAYER001
  6
Continuous
 62
     4
100
AcDbLine
 10
1514.8642
 20
1159.0015
 30
0.0
 11
1518.3403
 21
1156.7943
 31
0.0
  0
LINE
  5
2FF
330
20
100
AcDbEntity
  8
_0-0_LAYER001
  6
Continuous
 62
     4
100
AcDbLine
 10
1511.6179
 20
1160.8941
 30
0.0
 11
1514.8642
 21
1159.0015
 31
0.0
  0
LINE
  5
300
330
20
100
AcDbEntity
  8
_0-0_LAYER001
  6
Continuous
 62
     4
100
AcDbLine
 10
1508.5926
 20
1162.4346
 30
0.0
 11
1511.6179
 21
1160.8941
 31
0.0
  0
LINE
  5
301
330
20
100
AcDbEntity
  8
_0-0_LAYER001
  6
Continuous
 62
     4
100
AcDbLine
 10
1505.5923
 20
1163.6856
 30
0.0
 11
1508.5926
 21
1162.4346
 31
0.0
  0
LINE
  5
302
330
20
100
AcDbEntity
  8
_0-0_LAYER001
  6
Continuous
 62
     4
100
AcDbLine
 10
1504.8354
 20
1163.9386
 30
0.0
 11
1505.5923
 21
1163.6856
 31
0.0
  0
LINE
  5
303
330
20
100
AcDbEntity
  8
_0-0_LAYER001
  6
Continuous
 62
     4
100
AcDbLine
 10
1504.6437
 20
1183.9836
 30
0.0
 11
1504.9958
 21
1163.8124
 31
0.0
  0
LINE
  5
304
330
20
100
AcDbEntity
  8
_0-0_LAYER001
  6
Continuous
 62
     4
100
AcDbLine
 10
1457.3179
 20
1192.1377
 30
0.0
 11
1458.1235
 21
1192.4656
 31
0.0
  0
LINE
  5
305
330
20
100
AcDbEntity
  8
_0-0_LAYER001
  6
Continuous
 62
     4
100
AcDbLine
 10
1458.1235
 20
1192.4656
 30
0.0
 11
1461.6365
 21
1193.8976
 31
0.0
  0
LINE
  5
306
330
20
100
AcDbEntity
  8
_0-0_LAYER001
  6
Continuous
 62
     4
100
AcDbLine
 10
1461.6365
 20
1193.8976
 30
0.0
 11
1465.1566
 21
1195.3391
 31
0.0
  0
LINE
  5
307
330
20
100
AcDbEntity
  8
_0-0_LAYER001
  6
Continuous
 62
     4
100
AcDbLine
 10
1465.1566
 20
1195.3391
 30
0.0
 11
1468.6883
 21
1196.7961
 31
0.0
  0
LINE
  5
308
330
20
100
AcDbEntity
  8
_0-0_LAYER001
  6
Continuous
 62
     4
100
AcDbLine
 10
1468.6883
 20
1196.7961
 30
0.0
 11
1472.2362
 21
1198.2746
 31
0.0
  0
LINE
  5
309
330
20
100
AcDbEntity
  8
_0-0_LAYER001
  6
Continuous
 62
     4
100
AcDbLine
 10
1472.2362
 20
1198.2746
 30
0.0
 11
1475.8047
 21
1199.7805
 31
0.0
  0
LINE
  5
30A
330
20
100
AcDbEntity
  8
_0-0_LAYER001
  6
Continuous
 62
     4
100
AcDbLine
 10
1475.8047
 20
1199.7805
 30
0.0
 11
1477.8857
 21
1200.6688
 31
0.0
  0
LINE
  5
30B
330
20
100
AcDbEntity
  8
_0-0_LAYER001
  6
Continuous
 62
     4
100
AcDbLine
 10
1477.8857
 20
1200.6688
 30
0.0
 11
1479.9426
 21
1201.5519
 31
0.0
  0
LINE
  5
30C
330
20
100
AcDbEntity
  8
_0-0_LAYER001
  6
Continuous
 62
     4
100
AcDbLine
 10
1479.9426
 20
1201.5519
 30
0.0
 11
1483.5112
 21
1203.0472
 31
0.0
  0
LINE
  5
30D
330
20
100
AcDbEntity
  8
_0-0_LAYER001
  6
Continuous
 62
     4
100
AcDbLine
 10
1483.5112
 20
1203.0472
 30
0.0
 11
1487.1091
 21
1204.4246
 31
0.0
  0
LINE
  5
30E
330
20
100
AcDbEntity
  8
_0-0_LAYER001
  6
Continuous
 62
     4
100
AcDbLine
 10
1487.1091
 20
1204.4246
 30
0.0
 11
1490.7379
 21
1205.5866
 31
0.0
  0
LINE
  5
30F
330
20
100
AcDbEntity
  8
_0-0_LAYER001
  6
Continuous
 62
     4
100
AcDbLine
 10
1490.7379
 20
1205.5866
 30
0.0
 11
1494.399
 21
1206.436
 31
0.0
  0
LINE
  5
310
330
20
100
AcDbEntity
  8
_0-0_LAYER001
  6
Continuous
 62
     4
100
AcDbLine
 10
1494.399
 20
1206.436
 30
0.0
 11
1498.0941
 21
1206.8754
 31
0.0
  0
LINE
  5
311
330
20
100
AcDbEntity
  8
_0-0_LAYER001
  6
Continuous
 62
     4
100
AcDbLine
 10
1498.0941
 20
1206.8754
 30
0.0
 11
1500.2533
 21
1206.904
 31
0.0
  0
LINE
  5
312
330
20
100
AcDbEntity
  8
_0-0_LAYER001
  6
Continuous
 62
     4
100
AcDbLine
 10
1500.2533
 20
1206.904
 30
0.0
 11
1501.1038
 21
1206.8649
 31
0.0
  0
LINE
  5
313
330
20
100
AcDbEntity
  8
_0-0_LAYER001
  6
Continuous
 62
     4
100
AcDbLine
 10
1501.1038
 20
1206.8649
 30
0.0
 11
1502.5721
 21
1206.7327
 31
0.0
  0
LINE
  5
314
330
20
100
AcDbEntity
  8
_0-0_LAYER001
  6
Continuous
 62
     4
100
AcDbLine
 10
1502.5721
 20
1206.7327
 30
0.0
 11
1504.0392
 21
1206.5243
 31
0.0
  0
LINE
  5
315
330
20
100
AcDbEntity
  8
_0-0_LAYER001
  6
Continuous
 62
     4
100
AcDbLine
 10
1504.0392
 20
1206.5243
 30
0.0
 11
1505.500599999999
 21
1206.2465
 31
0.0
  0
LINE
  5
316
330
20
100
AcDbEntity
  8
_0-0_LAYER001
  6
Continuous
 62
     4
100
AcDbLine
 10
1505.500599999999
 20
1206.2465
 30
0.0
 11
1506.9522
 21
1205.9058
 31
0.0
  0
LINE
  5
317
330
20
100
AcDbEntity
  8
_0-0_LAYER001
  6
Continuous
 62
     4
100
AcDbLine
 10
1506.9522
 20
1205.9058
 30
0.0
 11
1508.3895
 21
1205.5092
 31
0.0
  0
LINE
  5
318
330
20
100
AcDbEntity
  8
_0-0_LAYER001
  6
Continuous
 62
     4
100
AcDbLine
 10
1508.3895
 20
1205.5092
 30
0.0
 11
1509.2149
 21
1205.2561
 31
0.0
  0
LINE
  5
319
330
20
100
AcDbEntity
  8
_0-0_LAYER001
  6
Continuous
 62
     4
100
AcDbLine
 10
1509.2149
 20
1205.2561
 30
0.0
 11
1511.737099999999
 21
1204.3736
 31
0.0
  0
LINE
  5
31A
330
20
100
AcDbEntity
  8
_0-0_LAYER001
  6
Continuous
 62
     4
100
AcDbLine
 10
1511.737099999999
 20
1204.3736
 30
0.0
 11
1515.9452
 21
1202.5496
 31
0.0
  0
LINE
  5
31B
330
20
100
AcDbEntity
  8
_0-0_LAYER001
  6
Continuous
 62
     4
100
AcDbLine
 10
1515.9452
 20
1202.5496
 30
0.0
 11
1520.0064
 21
1200.4098
 31
0.0
  0
LINE
  5
31C
330
20
100
AcDbEntity
  8
_0-0_LAYER001
  6
Continuous
 62
     4
100
AcDbLine
 10
1520.0064
 20
1200.4098
 30
0.0
 11
1523.9569
 21
1198.0321
 31
0.0
  0
LINE
  5
31D
330
20
100
AcDbEntity
  8
_0-0_LAYER001
  6
Continuous
 62
     4
100
AcDbLine
 10
1523.9569
 20
1198.0321
 30
0.0
 11
1527.8326
 21
1195.4945
 31
0.0
  0
LINE
  5
31E
330
20
100
AcDbEntity
  8
_0-0_LAYER001
  6
Continuous
 62
     4
100
AcDbLine
 10
1527.8326
 20
1195.4945
 30
0.0
 11
1531.6698
 21
1192.875
 31
0.0
  0
LINE
  5
31F
330
20
100
AcDbEntity
  8
_0-0_LAYER001
  6
Continuous
 62
     4
100
AcDbLine
 10
1531.6698
 20
1192.875
 30
0.0
 11
1533.8918
 21
1191.3488
 31
0.0
  0
LINE
  5
320
330
20
100
AcDbEntity
  8
_0-0_LAYER001
  6
Continuous
 62
     4
100
AcDbLine
 10
1533.8918
 20
1191.3488
 30
0.0
 11
1537.2847
 21
1189.05
 31
0.0
  0
LINE
  5
321
330
20
100
AcDbEntity
  8
_0-0_LAYER001
  6
Continuous
 62
     4
100
AcDbLine
 10
1537.2847
 20
1189.05
 30
0.0
 11
1543.1801
 21
1185.1861
 31
0.0
  0
LINE
  5
322
330
20
100
AcDbEntity
  8
_0-0_LAYER001
  6
Continuous
 62
     4
100
AcDbLine
 10
1543.1801
 20
1185.1861
 30
0.0
 11
1549.1512
 21
1181.4845
 31
0.0
  0
LINE
  5
323
330
20
100
AcDbEntity
  8
_0-0_LAYER001
  6
Continuous
 62
     4
100
AcDbLine
 10
1549.1512
 20
1181.4845
 30
0.0
 11
1555.219
 21
1177.9877
 31
0.0
  0
LINE
  5
324
330
20
100
AcDbEntity
  8
_0-0_LAYER001
  6
Continuous
 62
     4
100
AcDbLine
 10
1555.219
 20
1177.9877
 30
0.0
 11
1561.4044
 21
1174.7379
 31
0.0
  0
LINE
  5
325
330
20
100
AcDbEntity
  8
_0-0_LAYER001
  6
Continuous
 62
     4
100
AcDbLine
 10
1561.4044
 20
1174.7379
 30
0.0
 11
1567.7283
 21
1171.7777
 31
0.0
  0
LINE
  5
326
330
20
100
AcDbEntity
  8
_0-0_LAYER001
  6
Continuous
 62
     4
100
AcDbLine
 10
1567.7283
 20
1171.7777
 30
0.0
 11
1571.4679
 21
1170.21
 31
0.0
  0
LINE
  5
327
330
20
100
AcDbEntity
  8
_0-0_LAYER001
  6
Continuous
 62
     4
100
AcDbLine
 10
1571.4679
 20
1170.21
 30
0.0
 11
1574.5594
 21
1169.0194
 31
0.0
  0
LINE
  5
328
330
20
100
AcDbEntity
  8
_0-0_LAYER001
  6
Continuous
 62
     4
100
AcDbLine
 10
1574.5594
 20
1169.0194
 30
0.0
 11
1579.9705
 21
1167.1583
 31
0.0
  0
LINE
  5
329
330
20
100
AcDbEntity
  8
_0-0_LAYER001
  6
Continuous
 62
     4
100
AcDbLine
 10
1579.9705
 20
1167.1583
 30
0.0
 11
1585.4703
 21
1165.5462
 31
0.0
  0
LINE
  5
32A
330
20
100
AcDbEntity
  8
_0-0_LAYER001
  6
Continuous
 62
     4
100
AcDbLine
 10
1585.4703
 20
1165.5462
 30
0.0
 11
1591.0426
 21
1164.1908
 31
0.0
  0
LINE
  5
32B
330
20
100
AcDbEntity
  8
_0-0_LAYER001
  6
Continuous
 62
     4
100
AcDbLine
 10
1591.0426
 20
1164.1908
 30
0.0
 11
1596.6714
 21
1163.0998
 31
0.0
  0
LINE
  5
32C
330
20
100
AcDbEntity
  8
_0-0_LAYER001
  6
Continuous
 62
     4
100
AcDbLine
 10
1596.6714
 20
1163.0998
 30
0.0
 11
1602.340499999999
 21
1162.2807
 31
0.0
  0
LINE
  5
32D
330
20
100
AcDbEntity
  8
_0-0_LAYER001
  6
Continuous
 62
     4
100
AcDbLine
 10
1602.340499999999
 20
1162.2807
 30
0.0
 11
1605.6407
 21
1161.9333
 31
0.0
  0
LINE
  5
32E
330
20
100
AcDbEntity
  8
_0-0_LAYER001
  6
Continuous
 62
     4
100
AcDbLine
 10
1605.6407
 20
1161.9333
 30
0.0
 11
1608.1662
 21
1161.7314
 31
0.0
  0
LINE
  5
32F
330
20
100
AcDbEntity
  8
_0-0_LAYER001
  6
Continuous
 62
     4
100
AcDbLine
 10
1608.1662
 20
1161.7314
 30
0.0
 11
1612.5257
 21
1161.5054
 31
0.0
  0
LINE
  5
330
330
20
100
AcDbEntity
  8
_0-0_LAYER001
  6
Continuous
 62
     4
100
AcDbLine
 10
1612.5257
 20
1161.5054
 30
0.0
 11
1616.8896
 21
1161.4202
 31
0.0
  0
LINE
  5
331
330
20
100
AcDbEntity
  8
_0-0_LAYER001
  6
Continuous
 62
     4
100
AcDbLine
 10
1616.8896
 20
1161.4202
 30
0.0
 11
1621.2553
 21
1161.4599
 31
0.0
  0
LINE
  5
332
330
20
100
AcDbEntity
  8
_0-0_LAYER001
  6
Continuous
 62
     4
100
AcDbLine
 10
1621.2553
 20
1161.4599
 30
0.0
 11
1625.62
 21
1161.6085
 31
0.0
  0
LINE
  5
333
330
20
100
AcDbEntity
  8
_0-0_LAYER001
  6
Continuous
 62
     4
100
AcDbLine
 10
1625.62
 20
1161.6085
 30
0.0
 11
1629.9811
 21
1161.8503
 31
0.0
  0
LINE
  5
334
330
20
100
AcDbEntity
  8
_0-0_LAYER001
  6
Continuous
 62
     4
100
AcDbLine
 10
1629.9811
 20
1161.8503
 30
0.0
 11
1632.5078
 21
1162.027
 31
0.0
  0
LINE
  5
335
330
20
100
AcDbEntity
  8
_0-0_LAYER001
  6
Continuous
 62
     4
100
AcDbLine
 10
1632.5078
 20
1162.027
 30
0.0
 11
1637.2282
 21
1162.4189
 31
0.0
  0
LINE
  5
336
330
20
100
AcDbEntity
  8
_0-0_LAYER001
  6
Continuous
 62
     4
100
AcDbLine
 10
1637.2282
 20
1162.4189
 30
0.0
 11
1645.3471
 21
1163.2627
 31
0.0
  0
LINE
  5
337
330
20
100
AcDbEntity
  8
_0-0_LAYER001
  6
Continuous
 62
     4
100
AcDbLine
 10
1645.3471
 20
1163.2627
 30
0.0
 11
1653.443699999999
 21
1164.2889
 31
0.0
  0
LINE
  5
338
330
20
100
AcDbEntity
  8
_0-0_LAYER001
  6
Continuous
 62
     4
100
AcDbLine
 10
1653.443699999999
 20
1164.2889
 30
0.0
 11
1661.5216
 21
1165.462
 31
0.0
  0
LINE
  5
339
330
20
100
AcDbEntity
  8
_0-0_LAYER001
  6
Continuous
 62
     4
100
AcDbLine
 10
1661.5216
 20
1165.462
 30
0.0
 11
1669.5842
 21
1166.7467
 31
0.0
  0
LINE
  5
33A
330
20
100
AcDbEntity
  8
_0-0_LAYER001
  6
Continuous
 62
     4
100
AcDbLine
 10
1669.5842
 20
1166.7467
 30
0.0
 11
1677.6349
 21
1168.1075
 31
0.0
  0
LINE
  5
33B
330
20
100
AcDbEntity
  8
_0-0_LAYER001
  6
Continuous
 62
     4
100
AcDbLine
 10
1677.6349
 20
1168.1075
 30
0.0
 11
1682.3002
 21
1168.9177
 31
0.0
  0
LINE
  5
33C
330
20
100
AcDbEntity
  8
_0-0_LAYER001
  6
Continuous
 62
     4
100
AcDbLine
 10
1682.3002
 20
1168.9177
 30
0.0
 11
1684.7248
 21
1169.3422
 31
0.0
  0
LINE
  5
33D
330
20
100
AcDbEntity
  8
_0-0_LAYER001
  6
Continuous
 62
     4
100
AcDbLine
 10
1684.7248
 20
1169.3422
 30
0.0
 11
1688.903899999999
 21
1170.0778
 31
0.0
  0
LINE
  5
33E
330
20
100
AcDbEntity
  8
_0-0_LAYER001
  6
Continuous
 62
     4
100
AcDbLine
 10
1688.903899999999
 20
1170.0778
 30
0.0
 11
1693.0818
 21
1170.8175
 31
0.0
  0
LINE
  5
33F
330
20
100
AcDbEntity
  8
_0-0_LAYER001
  6
Continuous
 62
     4
100
AcDbLine
 10
1693.0818
 20
1170.8175
 30
0.0
 11
1697.2586
 21
1171.5604
 31
0.0
  0
LINE
  5
340
330
20
100
AcDbEntity
  8
_0-0_LAYER001
  6
Continuous
 62
     4
100
AcDbLine
 10
1697.2586
 20
1171.5604
 30
0.0
 11
1701.4347
 21
1172.3055
 31
0.0
  0
LINE
  5
341
330
20
100
AcDbEntity
  8
_0-0_LAYER001
  6
Continuous
 62
     4
100
AcDbLine
 10
1701.4347
 20
1172.3055
 30
0.0
 11
1705.6103
 21
1173.0521
 31
0.0
  0
LINE
  5
342
330
20
100
AcDbEntity
  8
_0-0_LAYER001
  6
Continuous
 62
     4
100
AcDbLine
 10
1705.6103
 20
1173.0521
 30
0.0
 11
1708.0321
 21
1173.4854
 31
0.0
  0
LINE
  5
343
330
20
100
AcDbEntity
  8
_0-0_LAYER001
  6
Continuous
 62
     4
100
AcDbLine
 10
1462.8726
 20
1174.9648
 30
0.0
 11
1464.9134
 21
1175.7953
 31
0.0
  0
LINE
  5
344
330
20
100
AcDbEntity
  8
_0-0_LAYER001
  6
Continuous
 62
     4
100
AcDbLine
 10
1464.9134
 20
1175.7953
 30
0.0
 11
1468.4445
 21
1177.2348
 31
0.0
  0
LINE
  5
345
330
20
100
AcDbEntity
  8
_0-0_LAYER001
  6
Continuous
 62
     4
100
AcDbLine
 10
1468.4445
 20
1177.2348
 30
0.0
 11
1471.9995
 21
1178.6906
 31
0.0
  0
LINE
  5
346
330
20
100
AcDbEntity
  8
_0-0_LAYER001
  6
Continuous
 62
     4
100
AcDbLine
 10
1471.9995
 20
1178.6906
 30
0.0
 11
1475.5825
 21
1180.1687
 31
0.0
  0
LINE
  5
347
330
20
100
AcDbEntity
  8
_0-0_LAYER001
  6
Continuous
 62
     4
100
AcDbLine
 10
1475.5825
 20
1180.1687
 30
0.0
 11
1479.1972
 21
1181.675
 31
0.0
  0
LINE
  5
348
330
20
100
AcDbEntity
  8
_0-0_LAYER001
  6
Continuous
 62
     4
100
AcDbLine
 10
1479.1972
 20
1181.675
 30
0.0
 11
1482.8375
 21
1183.2112
 31
0.0
  0
LINE
  5
349
330
20
100
AcDbEntity
  8
_0-0_LAYER001
  6
Continuous
 62
     4
100
AcDbLine
 10
1482.8375
 20
1183.2112
 30
0.0
 11
1484.9696
 21
1184.1214
 31
0.0
  0
LINE
  5
34A
330
20
100
AcDbEntity
  8
_0-0_LAYER001
  6
Continuous
 62
     4
100
AcDbLine
 10
1484.9696
 20
1184.1214
 30
0.0
 11
1486.9713
 21
1184.9807
 31
0.0
  0
LINE
  5
34B
330
20
100
AcDbEntity
  8
_0-0_LAYER001
  6
Continuous
 62
     4
100
AcDbLine
 10
1486.9713
 20
1184.9807
 30
0.0
 11
1490.2088
 21
1186.3373
 31
0.0
  0
LINE
  5
34C
330
20
100
AcDbEntity
  8
_0-0_LAYER001
  6
Continuous
 62
     4
100
AcDbLine
 10
1490.2088
 20
1186.3373
 30
0.0
 11
1493.0762
 21
1187.435
 31
0.0
  0
LINE
  5
34D
330
20
100
AcDbEntity
  8
_0-0_LAYER001
  6
Continuous
 62
     4
100
AcDbLine
 10
1493.0762
 20
1187.435
 30
0.0
 11
1495.5246
 21
1188.2191
 31
0.0
  0
LINE
  5
34E
330
20
100
AcDbEntity
  8
_0-0_LAYER001
  6
Continuous
 62
     4
100
AcDbLine
 10
1495.5246
 20
1188.2191
 30
0.0
 11
1497.505
 21
1188.6785
 31
0.0
  0
LINE
  5
34F
330
20
100
AcDbEntity
  8
_0-0_LAYER001
  6
Continuous
 62
     4
100
AcDbLine
 10
1497.505
 20
1188.6785
 30
0.0
 11
1499.2794
 21
1188.8895
 31
0.0
  0
LINE
  5
350
330
20
100
AcDbEntity
  8
_0-0_LAYER001
  6
Continuous
 62
     4
100
AcDbLine
 10
1499.2794
 20
1188.8895
 30
0.0
 11
1499.9589
 21
1188.8985
 31
0.0
  0
LINE
  5
351
330
20
100
AcDbEntity
  8
_0-0_LAYER001
  6
Continuous
 62
     4
100
AcDbLine
 10
1499.9589
 20
1188.8985
 30
0.0
 11
1499.8827
 21
1188.902
 31
0.0
  0
LINE
  5
352
330
20
100
AcDbEntity
  8
_0-0_LAYER001
  6
Continuous
 62
     4
100
AcDbLine
 10
1499.8827
 20
1188.902
 30
0.0
 11
1500.498
 21
1188.8466
 31
0.0
  0
LINE
  5
353
330
20
100
AcDbEntity
  8
_0-0_LAYER001
  6
Continuous
 62
     4
100
AcDbLine
 10
1500.498
 20
1188.8466
 30
0.0
 11
1501.0908
 21
1188.7624
 31
0.0
  0
LINE
  5
354
330
20
100
AcDbEntity
  8
_0-0_LAYER001
  6
Continuous
 62
     4
100
AcDbLine
 10
1501.0908
 20
1188.7624
 30
0.0
 11
1501.7618
 21
1188.6349
 31
0.0
  0
LINE
  5
355
330
20
100
AcDbEntity
  8
_0-0_LAYER001
  6
Continuous
 62
     4
100
AcDbLine
 10
1501.7618
 20
1188.6349
 30
0.0
 11
1502.5002
 21
1188.4616
 31
0.0
  0
LINE
  5
356
330
20
100
AcDbEntity
  8
_0-0_LAYER001
  6
Continuous
 62
     4
100
AcDbLine
 10
1502.5002
 20
1188.4616
 30
0.0
 11
1503.355799999999
 21
1188.2255
 31
0.0
  0
LINE
  5
357
330
20
100
AcDbEntity
  8
_0-0_LAYER001
  6
Continuous
 62
     4
100
AcDbLine
 10
1503.355799999999
 20
1188.2255
 30
0.0
 11
1503.602
 21
1188.15
 31
0.0
  0
LINE
  5
358
330
20
100
AcDbEntity
  8
_0-0_LAYER001
  6
Continuous
 62
     4
100
AcDbLine
 10
1503.602
 20
1188.15
 30
0.0
 11
1505.1768
 21
1187.5989
 31
0.0
  0
LINE
  5
359
330
20
100
AcDbEntity
  8
_0-0_LAYER001
  6
Continuous
 62
     4
100
AcDbLine
 10
1505.1768
 20
1187.5989
 30
0.0
 11
1508.1594
 21
1186.3061
 31
0.0
  0
LINE
  5
35A
330
20
100
AcDbEntity
  8
_0-0_LAYER001
  6
Continuous
 62
     4
100
AcDbLine
 10
1508.1594
 20
1186.3061
 30
0.0
 11
1511.162899999999
 21
1184.7236
 31
0.0
  0
LINE
  5
35B
330
20
100
AcDbEntity
  8
_0-0_LAYER001
  6
Continuous
 62
     4
100
AcDbLine
 10
1511.162899999999
 20
1184.7236
 30
0.0
 11
1514.3825
 21
1182.7859
 31
0.0
  0
LINE
  5
35C
330
20
100
AcDbEntity
  8
_0-0_LAYER001
  6
Continuous
 62
     4
100
AcDbLine
 10
1514.3825
 20
1182.7859
 30
0.0
 11
1517.8274
 21
1180.5304
 31
0.0
  0
LINE
  5
35D
330
20
100
AcDbEntity
  8
_0-0_LAYER001
  6
Continuous
 62
     4
100
AcDbLine
 10
1517.8274
 20
1180.5304
 30
0.0
 11
1521.5
 21
1178.0232
 31
0.0
  0
LINE
  5
35E
330
20
100
AcDbEntity
  8
_0-0_LAYER001
  6
Continuous
 62
     4
100
AcDbLine
 10
1521.5
 20
1178.0232
 30
0.0
 11
1523.7482
 21
1176.4791
 31
0.0
  0
LINE
  5
35F
330
20
100
AcDbEntity
  8
_0-0_LAYER001
  6
Continuous
 62
     4
100
AcDbLine
 10
1523.7482
 20
1176.4791
 30
0.0
 11
1527.3024
 21
1174.071
 31
0.0
  0
LINE
  5
360
330
20
100
AcDbEntity
  8
_0-0_LAYER001
  6
Continuous
 62
     4
100
AcDbLine
 10
1527.3024
 20
1174.071
 30
0.0
 11
1533.5031
 21
1170.0069
 31
0.0
  0
LINE
  5
361
330
20
100
AcDbEntity
  8
_0-0_LAYER001
  6
Continuous
 62
     4
100
AcDbLine
 10
1533.5031
 20
1170.0069
 30
0.0
 11
1539.913
 21
1166.0333
 31
0.0
  0
LINE
  5
362
330
20
100
AcDbEntity
  8
_0-0_LAYER001
  6
Continuous
 62
     4
100
AcDbLine
 10
1539.913
 20
1166.0333
 30
0.0
 11
1546.5359
 21
1162.2166
 31
0.0
  0
LINE
  5
363
330
20
100
AcDbEntity
  8
_0-0_LAYER001
  6
Continuous
 62
     4
100
AcDbLine
 10
1546.5359
 20
1162.2166
 30
0.0
 11
1553.3986
 21
1158.611
 31
0.0
  0
LINE
  5
364
330
20
100
AcDbEntity
  8
_0-0_LAYER001
  6
Continuous
 62
     4
100
AcDbLine
 10
1553.3986
 20
1158.611
 30
0.0
 11
1560.4302
 21
1155.3194
 31
0.0
  0
LINE
  5
365
330
20
100
AcDbEntity
  8
_0-0_LAYER001
  6
Continuous
 62
     4
100
AcDbLine
 10
1560.4302
 20
1155.3194
 30
0.0
 11
1564.7525
 21
1153.5075
 31
0.0
  0
LINE
  5
366
330
20
100
AcDbEntity
  8
_0-0_LAYER001
  6
Continuous
 62
     4
100
AcDbLine
 10
1564.7525
 20
1153.5075
 30
0.0
 11
1568.395599999999
 21
1152.1045
 31
0.0
  0
LINE
  5
367
330
20
100
AcDbEntity
  8
_0-0_LAYER001
  6
Continuous
 62
     4
100
AcDbLine
 10
1568.395599999999
 20
1152.1045
 30
0.0
 11
1574.5088
 21
1150.0019
 31
0.0
  0
LINE
  5
368
330
20
100
AcDbEntity
  8
_0-0_LAYER001
  6
Continuous
 62
     4
100
AcDbLine
 10
1574.5088
 20
1150.0019
 30
0.0
 11
1580.8092
 21
1148.1551
 31
0.0
  0
LINE
  5
369
330
20
100
AcDbEntity
  8
_0-0_LAYER001
  6
Continuous
 62
     4
100
AcDbLine
 10
1580.8092
 20
1148.1551
 30
0.0
 11
1587.2008
 21
1146.6005
 31
0.0
  0
LINE
  5
36A
330
20
100
AcDbEntity
  8
_0-0_LAYER001
  6
Continuous
 62
     4
100
AcDbLine
 10
1587.2008
 20
1146.6005
 30
0.0
 11
1593.670099999999
 21
1145.3465
 31
0.0
  0
LINE
  5
36B
330
20
100
AcDbEntity
  8
_0-0_LAYER001
  6
Continuous
 62
     4
100
AcDbLine
 10
1593.670099999999
 20
1145.3465
 30
0.0
 11
1600.1104
 21
1144.416
 31
0.0
  0
LINE
  5
36C
330
20
100
AcDbEntity
  8
_0-0_LAYER001
  6
Continuous
 62
     4
100
AcDbLine
 10
1600.1104
 20
1144.416
 30
0.0
 11
1603.9812
 21
1144.0085
 31
0.0
  0
LINE
  5
36D
330
20
100
AcDbEntity
  8
_0-0_LAYER001
  6
Continuous
 62
     4
100
AcDbLine
 10
1603.9812
 20
1144.0085
 30
0.0
 11
1606.9831
 21
1143.7686
 31
0.0
  0
LINE
  5
36E
330
20
100
AcDbEntity
  8
_0-0_LAYER001
  6
Continuous
 62
     4
100
AcDbLine
 10
1606.9831
 20
1143.7686
 30
0.0
 11
1611.8839
 21
1143.5145
 31
0.0
  0
LINE
  5
36F
330
20
100
AcDbEntity
  8
_0-0_LAYER001
  6
Continuous
 62
     4
100
AcDbLine
 10
1611.8839
 20
1143.5145
 30
0.0
 11
1616.7956
 21
1143.4186
 31
0.0
  0
LINE
  5
370
330
20
100
AcDbEntity
  8
_0-0_LAYER001
  6
Continuous
 62
     4
100
AcDbLine
 10
1616.7956
 20
1143.4186
 30
0.0
 11
1621.6435
 21
1143.4626
 31
0.0
  0
LINE
  5
371
330
20
100
AcDbEntity
  8
_0-0_LAYER001
  6
Continuous
 62
     4
100
AcDbLine
 10
1621.6435
 20
1143.4626
 30
0.0
 11
1626.4247
 21
1143.6255
 31
0.0
  0
LINE
  5
372
330
20
100
AcDbEntity
  8
_0-0_LAYER001
  6
Continuous
 62
     4
100
AcDbLine
 10
1626.4247
 20
1143.6255
 30
0.0
 11
1631.1072
 21
1143.8851
 31
0.0
  0
LINE
  5
373
330
20
100
AcDbEntity
  8
_0-0_LAYER001
  6
Continuous
 62
     4
100
AcDbLine
 10
1631.1072
 20
1143.8851
 30
0.0
 11
1633.8803
 21
1144.0791
 31
0.0
  0
LINE
  5
374
330
20
100
AcDbEntity
  8
_0-0_LAYER001
  6
Continuous
 62
     4
100
AcDbLine
 10
1633.8803
 20
1144.0791
 30
0.0
 11
1638.9034
 21
1144.4961
 31
0.0
  0
LINE
  5
375
330
20
100
AcDbEntity
  8
_0-0_LAYER001
  6
Continuous
 62
     4
100
AcDbLine
 10
1638.9034
 20
1144.4961
 30
0.0
 11
1647.4093
 21
1145.3801
 31
0.0
  0
LINE
  5
376
330
20
100
AcDbEntity
  8
_0-0_LAYER001
  6
Continuous
 62
     4
100
AcDbLine
 10
1647.4093
 20
1145.3801
 30
0.0
 11
1655.869
 21
1146.4523
 31
0.0
  0
LINE
  5
377
330
20
100
AcDbEntity
  8
_0-0_LAYER001
  6
Continuous
 62
     4
100
AcDbLine
 10
1655.869
 20
1146.4523
 30
0.0
 11
1664.2314
 21
1147.6667
 31
0.0
  0
LINE
  5
378
330
20
100
AcDbEntity
  8
_0-0_LAYER001
  6
Continuous
 62
     4
100
AcDbLine
 10
1664.2314
 20
1147.6667
 30
0.0
 11
1672.5004
 21
1148.9843
 31
0.0
  0
LINE
  5
379
330
20
100
AcDbEntity
  8
_0-0_LAYER001
  6
Continuous
 62
     4
100
AcDbLine
 10
1672.5004
 20
1148.9843
 30
0.0
 11
1680.6748
 21
1150.366
 31
0.0
  0
LINE
  5
37A
330
20
100
AcDbEntity
  8
_0-0_LAYER001
  6
Continuous
 62
     4
100
AcDbLine
 10
1680.6748
 20
1150.366
 30
0.0
 11
1685.3921
 21
1151.1852
 31
0.0
  0
LINE
  5
37B
330
20
100
AcDbEntity
  8
_0-0_LAYER001
  6
Continuous
 62
     4
100
AcDbLine
 10
1685.3921
 20
1151.1852
 30
0.0
 11
1687.8371
 21
1151.6133
 31
0.0
  0
LINE
  5
37C
330
20
100
AcDbEntity
  8
_0-0_LAYER001
  6
Continuous
 62
     4
100
AcDbLine
 10
1687.8371
 20
1151.6133
 30
0.0
 11
1692.0333
 21
1152.3519
 31
0.0
  0
LINE
  5
37D
330
20
100
AcDbEntity
  8
_0-0_LAYER001
  6
Continuous
 62
     4
100
AcDbLine
 10
1692.0333
 20
1152.3519
 30
0.0
 11
1696.226799999999
 21
1153.0944
 31
0.0
  0
LINE
  5
37E
330
20
100
AcDbEntity
  8
_0-0_LAYER001
  6
Continuous
 62
     4
100
AcDbLine
 10
1696.226799999999
 20
1153.0944
 30
0.0
 11
1700.4155
 21
1153.8394
 31
0.0
  0
LINE
  5
37F
330
20
100
AcDbEntity
  8
_0-0_LAYER001
  6
Continuous
 62
     4
100
AcDbLine
 10
1700.4155
 20
1153.8394
 30
0.0
 11
1704.5996
 21
1154.586
 31
0.0
  0
LINE
  5
380
330
20
100
AcDbEntity
  8
_0-0_LAYER001
  6
Continuous
 62
     4
100
AcDbLine
 10
1704.5996
 20
1154.586
 30
0.0
 11
1708.7794
 21
1155.3333
 31
0.0
  0
LINE
  5
381
330
20
100
AcDbEntity
  8
_0-0_LAYER001
  6
Continuous
 62
     4
100
AcDbLine
 10
1708.7794
 20
1155.3333
 30
0.0
 11
1710.3901
 21
1155.6214
 31
0.0
  0
LINE
  5
382
330
20
100
AcDbEntity
  8
_0-0_LAYER001
  6
Continuous
 62
     4
100
AcDbLine
 10
1456.8967
 20
1191.9643
 30
0.0
 11
1457.3182
 21
1192.1385
 31
0.0
  0
ARC
  5
383
330
20
100
AcDbEntity
  8
_0-0_LAYER001
  6
Continuous
 62
     4
100
AcDbCircle
 10
1458.0422
 20
1189.1916
 30
0.0
 40
3.0
100
AcDbArc
 50
112.44902
 51
165.96481
  0
LINE
  5
384
330
20
100
AcDbEntity
  8
_0-0_LAYER001
  6
Continuous
 62
     4
100
AcDbLine
 10
1456.5102
 20
1172.3571
 30
0.0
 11
1462.8371
 21
1174.9431
 31
0.0
  0
LINE
  5
385
330
20
100
AcDbEntity
  8
_0-0_LAYER001
  6
Continuous
 62
     4
100
AcDbLine
 10
1455.1318
 20
1173.2827
 30
0.0
 11
1455.1318
 21
1189.9192
 31
0.0
  0
ARC
  5
386
330
20
100
AcDbEntity
  8
_0-0_LAYER001
  6
Continuous
 62
     4
100
AcDbCircle
 10
1456.1318
 20
1173.2827
 30
0.0
 40
1.0
100
AcDbArc
 50
180.0
 51
292.23166
  0
LINE
  5
387
330
20
100
AcDbEntity
  8
_0-0_LAYER001
  6
Continuous
 62
     4
100
AcDbLine
 10
1752.2837
 20
1165.7872
 30
0.0
 11
1710.1614
 21
1155.4839
 31
0.0
  0
ARC
  5
388
330
20
100
AcDbEntity
  8
_0-0_LAYER001
  6
Continuous
 62
     4
100
AcDbCircle
 10
1755.7534
 20
1144.9644
 30
0.0
 40
21.109892
100
AcDbArc
 50
78.28228400000004
 51
99.46019200000002
  0
LINE
  5
389
330
20
100
AcDbEntity
  8
_0-0_LAYER001
  6
Continuous
 62
     4
100
AcDbLine
 10
1760.1318
 20
1186.2376
 30
0.0
 11
1760.1318
 21
1107.8566
 31
0.0
  0
LINE
  5
38A
330
20
100
AcDbEntity
  8
_0-0_LAYER001
  6
Continuous
 62
     4
100
AcDbLine
 10
1708.1561
 20
1173.524
 30
0.0
 11
1760.1318
 21
1186.2376
 31
0.0
  0
LINE
  5
38B
330
20
100
AcDbEntity
  8
_0-0_LAYER001
  6
Continuous
 62
     4
100
AcDbLine
 10
1760.2292
 20
1165.8397
 30
0.0
 11
1763.858
 21
1166.907
 31
0.0
  0
LINE
  5
38C
330
20
100
AcDbEntity
  8
_0-0_LAYER001
  6
Continuous
 62
     4
100
AcDbLine
 10
1763.858
 20
1166.907
 30
0.0
 11
1760.2292
 21
1108.2067
 31
0.0
  0
LINE
  5
38D
330
20
100
AcDbEntity
  8
_0-0_LAYER001
  6
Continuous
 62
     4
100
AcDbLine
 10
1715.4182
 20
1153.8737
 30
0.0
 11
1743.1318
 21
1161.1294
 31
0.0
  0
LINE
  5
38E
330
20
100
AcDbEntity
  8
_0-0_LAYER001
  6
Continuous
 62
     4
100
AcDbLine
 10
1743.1318
 20
1142.5719
 30
0.0
 11
1711.2648
 21
1134.5776
 31
0.0
  0
LINE
  5
38F
330
20
100
AcDbEntity
  8
_0-0_LAYER001
  6
Continuous
 62
     4
100
AcDbLine
 10
1760.1318
 20
1107.8566
 30
0.0
 11
1743.1318
 21
1107.8566
 31
0.0
  0
LINE
  5
390
330
20
100
AcDbEntity
  8
_0-0_LAYER001
  6
Continuous
 62
     4
100
AcDbLine
 10
1743.1318
 20
1163.4917
 30
0.0
 11
1743.1318
 21
1107.8566
 31
0.0
  0
LINE
  5
391
330
20
100
AcDbEntity
  8
_0-0_LAYER001
  6
Continuous
 62
     4
100
AcDbLine
 10
1743.1528
 20
1160.9302
 30
0.0
 11
1759.5888
 21
1165.6263
 31
0.0
  0
LINE
  5
392
330
20
100
AcDbEntity
  8
_0-0_LAYER001
  6
Continuous
 62
     4
100
AcDbLine
 10
1742.7258
 20
1142.7865
 30
0.0
 11
1762.3638
 21
1148.3364
 31
0.0
  0
LINE
  5
393
330
20
100
AcDbEntity
  8
_0-0_LAYER001
  6
DASHED1
 62
     2
100
AcDbLine
 10
1553.5037
 20
1154.1121
 30
0.0
 11
1569.5037
 21
1154.1121
 31
0.0
  0
LINE
  5
394
330
20
100
AcDbEntity
  8
_0-0_LAYER001
  6
DASHED1
 62
     2
100
AcDbLine
 10
1569.5037
 20
1154.1121
 30
0.0
 11
1569.5037
 21
1151.1121
 31
0.0
  0
LINE
  5
395
330
20
100
AcDbEntity
  8
_0-0_LAYER001
  6
DASHED1
 62
     2
100
AcDbLine
 10
1553.5037
 20
1154.1121
 30
0.0
 11
1553.5037
 21
1151.1121
 31
0.0
  0
LINE
  5
396
330
20
100
AcDbEntity
  8
_0-0_LAYER001
  6
DASHED1
 62
     2
100
AcDbLine
 10
1553.5037
 20
1151.1121
 30
0.0
 11
1569.5037
 21
1151.1121
 31
0.0
  0
LINE
  5
397
330
20
100
AcDbEntity
  8
_0-0_LAYER001
  6
DASHED1
 62
     2
100
AcDbLine
 10
1564.5037
 20
1096.216
 30
0.0
 11
1561.4535
 21
1081.7071
 31
0.0
  0
LINE
  5
398
330
20
100
AcDbEntity
  8
_0-0_LAYER001
  6
DASHED1
 62
     2
100
AcDbLine
 10
1564.5037
 20
1151.1121
 30
0.0
 11
1564.5037
 21
1096.216
 31
0.0
  0
LINE
  5
399
330
20
100
AcDbEntity
  8
_0-0_LAYER001
  6
DASHED1
 62
     2
100
AcDbLine
 10
1561.4535
 20
1081.7071
 30
0.0
 11
1558.5037
 21
1095.9646
 31
0.0
  0
LINE
  5
39A
330
20
100
AcDbEntity
  8
_0-0_LAYER001
  6
DASHED1
 62
     2
100
AcDbLine
 10
1558.5037
 20
1151.1121
 30
0.0
 11
1558.5037
 21
1095.9646
 31
0.0
  0
LINE
  5
39B
330
20
100
AcDbEntity
  8
_0-0_LAYER001
  6
Continuous
 62
     2
100
AcDbLine
 10
924.7837999999999
 20
1334.9175
 30
0.0
 11
924.7837999999999
 21
1282.4175
 31
0.0
  0
CIRCLE
  5
39C
330
20
100
AcDbEntity
  8
_0-0_LAYER001
  6
Continuous
 62
     2
100
AcDbCircle
 10
924.7837999999999
 20
1332.4175
 30
0.0
 40
1.699999999999999
  0
LINE
  5
39D
330
20
100
AcDbEntity
  8
_0-0_LAYER001
  6
Continuous
 62
     2
100
AcDbLine
 10
924.7837999999999
 20
1332.4175
 30
0.0
 11
1189.7838
 21
1332.4175
 31
0.0
  0
CIRCLE
  5
39E
330
20
100
AcDbEntity
  8
_0-0_LAYER001
  6
Continuous
 62
     2
100
AcDbCircle
 10
1189.7838
 20
1332.4175
 30
0.0
 40
1.699999999999999
  0
LINE
  5
39F
330
20
100
AcDbEntity
  8
_0-0_LAYER001
  6
Continuous
 62
     2
100
AcDbLine
 10
1189.7838
 20
1334.9175
 30
0.0
 11
1189.7838
 21
1282.4175
 31
0.0
  0
CIRCLE
  5
3A0
330
20
100
AcDbEntity
  8
_0-0_LAYER001
  6
Continuous
 62
     2
100
AcDbCircle
 10
1189.7838
 20
1332.4175
 30
0.0
 40
1.699999999999999
  0
LINE
  5
3A1
330
20
100
AcDbEntity
  8
_0-0_LAYER001
  6
Continuous
 62
     2
100
AcDbLine
 10
1189.7838
 20
1332.4175
 30
0.0
 11
1454.7838
 21
1332.4175
 31
0.0
  0
CIRCLE
  5
3A2
330
20
100
AcDbEntity
  8
_0-0_LAYER001
  6
Continuous
 62
     2
100
AcDbCircle
 10
1454.7838
 20
1332.4175
 30
0.0
 40
1.699999999999999
  0
LINE
  5
3A3
330
20
100
AcDbEntity
  8
_0-0_LAYER001
  6
Continuous
 62
     2
100
AcDbLine
 10
1454.7838
 20
1334.9175
 30
0.0
 11
1454.7838
 21
1282.4175
 31
0.0
  0
CIRCLE
  5
3A4
330
20
100
AcDbEntity
  8
_0-0_LAYER001
  6
Continuous
 62
     2
100
AcDbCircle
 10
1454.7838
 20
1332.4175
 30
0.0
 40
1.699999999999999
  0
LINE
  5
3A5
330
20
100
AcDbEntity
  8
_0-0_LAYER001
  6
Continuous
 62
     2
100
AcDbLine
 10
1454.7838
 20
1332.4175
 30
0.0
 11
1759.7838
 21
1332.4175
 31
0.0
  0
CIRCLE
  5
3A6
330
20
100
AcDbEntity
  8
_0-0_LAYER001
  6
Continuous
 62
     2
100
AcDbCircle
 10
1759.7838
 20
1332.4175
 30
0.0
 40
1.699999999999999
  0
LINE
  5
3A7
330
20
100
AcDbEntity
  8
_0-0_LAYER001
  6
Continuous
 62
     2
100
AcDbLine
 10
1759.7838
 20
1334.9175
 30
0.0
 11
1759.7838
 21
1282.4175
 31
0.0
  0
LINE
  5
3A8
330
20
100
AcDbEntity
  8
_0-1_LAYER004
  6
Continuous
 62
     7
100
AcDbLine
 10
924.7837999999999
 20
1282.4175
 30
0.0
 11
924.7837999999999
 21
1334.1175
 31
0.0
  0
LINE
  5
3A9
330
20
100
AcDbEntity
  8
_0-1_LAYER004
  6
Continuous
 62
     7
100
AcDbLine
 10
924.7837999999999
 20
1332.4175
 30
0.0
 11
1759.7838
 21
1332.4175
 31
0.0
  0
LINE
  5
3AA
330
20
100
AcDbEntity
  8
_0-1_LAYER004
  6
Continuous
 62
     7
100
AcDbLine
 10
1759.7838
 20
1334.1175
 30
0.0
 11
1759.7838
 21
1282.4175
 31
0.0
  0
LINE
  5
3AB
330
20
100
AcDbEntity
  8
_0-1_LAYER004
  6
Continuous
 62
     7
100
AcDbLine
 10
1454.7838
 20
1334.1175
 30
0.0
 11
1454.7838
 21
1282.4175
 31
0.0
  0
LINE
  5
3AC
330
20
100
AcDbEntity
  8
_0-1_LAYER004
  6
Continuous
 62
     7
100
AcDbLine
 10
1189.7838
 20
1334.1175
 30
0.0
 11
1189.7838
 21
1282.4175
 31
0.0
  0
LINE
  5
3AD
330
20
100
AcDbEntity
  8
_0-1_LAYER004
  6
Continuous
 62
     7
100
AcDbLine
 10
878.4835000000001
 20
1114.4229
 30
0.0
 11
1682.2528
 21
1114.4229
 31
0.0
  0
LINE
  5
3AE
330
20
100
AcDbEntity
  8
_0-1_LAYER004
  6
Continuous
 62
     7
100
AcDbLine
 10
1682.2528
 20
1114.4229
 30
0.0
 11
1682.2528
 21
1099.4229
 31
0.0
  0
LINE
  5
3AF
330
20
100
AcDbEntity
  8
_0-1_LAYER004
  6
Continuous
 62
     7
100
AcDbLine
 10
1682.2528
 20
1099.4229
 30
0.0
 11
878.4835000000001
 21
1099.4229
 31
0.0
  0
LINE
  5
3B0
330
20
100
AcDbEntity
  8
_0-1_LAYER004
  6
Continuous
 62
     7
100
AcDbLine
 10
878.4835000000001
 20
1094.908
 30
0.0
 11
1682.2528
 21
1094.908
 31
0.0
  0
LINE
  5
3B1
330
20
100
AcDbEntity
  8
_0-1_LAYER004
  6
Continuous
 62
     7
100
AcDbLine
 10
1684.1318
 20
1091.386
 30
0.0
 11
1684.1318
 21
1116.9708
 31
0.0
  0
LINE
  5
3B2
330
20
100
AcDbEntity
  8
_0-1_LAYER004
  6
Continuous
 62
     7
100
AcDbLine
 10
1684.1318
 20
1116.9708
 30
0.0
 11
1729.1318
 21
1127.386
 31
0.0
  0
LINE
  5
3B3
330
20
100
AcDbEntity
  8
_0-1_LAYER004
  6
Continuous
 62
     7
100
AcDbLine
 10
1729.1318
 20
1127.386
 30
0.0
 11
1729.1318
 21
1091.386
 31
0.0
  0
LINE
  5
3B4
330
20
100
AcDbEntity
  8
_0-1_LAYER004
  6
Continuous
 62
     7
100
AcDbLine
 10
1729.1318
 20
1091.386
 30
0.0
 11
1684.1318
 21
1116.9708
 31
0.0
  0
LINE
  5
3B5
330
20
100
AcDbEntity
  8
_0-1_LAYER004
  6
Continuous
 62
     7
100
AcDbLine
 10
1684.1318
 20
1091.386
 30
0.0
 11
1729.1318
 21
1127.386
 31
0.0
  0
LINE
  5
3B6
330
20
100
AcDbEntity
  8
_0-1_LAYER004
  6
Continuous
 62
     7
100
AcDbLine
 10
1710.6186
 20
1110.3768
 30
0.0
 11
1708.6775
 21
1103.1323
 31
0.0
  0
LINE
  5
3B7
330
20
100
AcDbEntity
  8
_0-1_LAYER004
  6
Continuous
 62
     7
100
AcDbLine
 10
1708.6775
 20
1103.1323
 30
0.0
 11
1713.980799999999
 21
1108.4356
 31
0.0
  0
LINE
  5
3B8
330
20
100
AcDbEntity
  8
_0-1_LAYER004
  6
Continuous
 62
     7
100
AcDbLine
 10
1708.6775
 20
1103.1323
 30
0.0
 11
1813.8093
 21
1285.226
 31
0.0
  0
LINE
  5
3B9
330
20
100
AcDbEntity
  8
_0-1_LAYER004
  6
Continuous
 62
     7
100
AcDbLine
 10
1813.8093
 20
1285.226
 30
0.0
 11
2060.2829
 21
1285.226
 31
0.0
  0
LINE
  5
3BA
330
20
100
AcDbEntity
  8
_0-1_LAYER004
  6
Continuous
 62
     7
100
AcDbLine
 10
1677.3203
 20
1257.2108
 30
0.0
 11
1629.3203
 21
1257.2108
 31
0.0
  0
LINE
  5
3BB
330
20
100
AcDbEntity
  8
_0-1_LAYER004
  6
Continuous
 62
     7
100
AcDbLine
 10
1629.3203
 20
1257.2108
 30
0.0
 11
1565.886599999999
 21
1147.3405
 31
0.0
  0
LINE
  5
3BC
330
20
100
AcDbEntity
  8
_0-1_LAYER004
  6
Continuous
 62
     7
100
AcDbLine
 10
1565.886599999999
 20
1147.3405
 30
0.0
 11
1567.8278
 21
1154.5849
 31
0.0
  0
LINE
  5
3BD
330
20
100
AcDbEntity
  8
_0-1_LAYER004
  6
Continuous
 62
     7
100
AcDbLine
 10
1565.886599999999
 20
1147.3405
 30
0.0
 11
1571.1899
 21
1152.6438
 31
0.0
  0
LINE
  5
3BE
330
20
100
AcDbEntity
  8
_0-1_LAYER004
  6
Continuous
 62
     7
100
AcDbLine
 10
1860.4196
 20
911.386
 30
0.0
 11
1912.9196
 21
911.386
 31
0.0
  0
LINE
  5
3BF
330
20
100
AcDbEntity
  8
_0-1_LAYER004
  6
Continuous
 62
     7
100
AcDbLine
 10
1910.4196
 20
911.386
 30
0.0
 11
1910.4196
 21
1127.386
 31
0.0
  0
LINE
  5
3C0
330
20
100
AcDbEntity
  8
_0-1_LAYER004
  6
Continuous
 62
     7
100
AcDbLine
 10
1860.4196
 20
1127.386
 30
0.0
 11
1912.119600000001
 21
1127.386
 31
0.0
  0
LINE
  5
3C1
330
20
100
AcDbEntity
  8
_0-1_LAYER004
  6
Continuous
 62
     7
100
AcDbLine
 10
1860.4196
 20
1091.386
 30
0.0
 11
1912.119600000001
 21
1091.386
 31
0.0
  0
LINE
  5
3C2
330
20
100
AcDbEntity
  8
_0-1_LAYER004
  6
Continuous
 62
     7
100
AcDbLine
 10
1860.4196
 20
1061.386
 30
0.0
 11
1912.119600000001
 21
1061.386
 31
0.0
  0
LINE
  5
3C3
330
20
100
AcDbEntity
  8
_0-1_LAYER004
  6
Continuous
 62
     7
100
AcDbLine
 10
2091.5164
 20
868.8943999999997
 30
0.0
 11
1845.5164
 21
868.8943999999997
 31
0.0
  0
LINE
  5
3C4
330
20
100
AcDbEntity
  8
_0-1_LAYER004
  6
Continuous
 62
     7
100
AcDbLine
 10
1845.5164
 20
868.8943999999997
 30
0.0
 11
1727.0017
 21
1074.1678
 31
0.0
  0
LINE
  5
3C5
330
20
100
AcDbEntity
  8
_0-1_LAYER004
  6
Continuous
 62
     7
100
AcDbLine
 10
1727.0017
 20
1074.1678
 30
0.0
 11
1728.9428
 21
1066.9234
 31
0.0
  0
LINE
  5
3C6
330
20
100
AcDbEntity
  8
_0-1_LAYER004
  6
Continuous
 62
     7
100
AcDbLine
 10
1727.0017
 20
1074.1678
 30
0.0
 11
1732.304999999999
 21
1068.8645
 31
0.0
  0
LINE
  5
3C7
330
20
100
AcDbEntity
  8
_0-1_LAYER004
  6
Continuous
 62
     7
100
AcDbLine
 10
1724.1318
 20
1061.386
 30
0.0
 11
1724.1318
 21
921.386
 31
0.0
  0
LINE
  5
3C8
330
20
100
AcDbEntity
  8
_0-1_LAYER004
  6
Continuous
 62
     7
100
AcDbLine
 10
1724.1318
 20
921.386
 30
0.0
 11
1714.1318
 21
921.386
 31
0.0
  0
LINE
  5
3C9
330
20
100
AcDbEntity
  8
_0-1_LAYER004
  6
Continuous
 62
     7
100
AcDbLine
 10
1714.1318
 20
921.386
 30
0.0
 11
1714.1318
 21
911.386
 31
0.0
  0
LINE
  5
3CA
330
20
100
AcDbEntity
  8
_0-1_LAYER004
  6
Continuous
 62
     7
100
AcDbLine
 10
1714.1318
 20
911.386
 30
0.0
 11
878.4835000000001
 21
911.386
 31
0.0
  0
LINE
  5
3CB
330
20
100
AcDbEntity
  8
_0-1_LAYER004
  6
Continuous
 62
     7
100
AcDbLine
 10
878.4835000000001
 20
921.386
 30
0.0
 11
1714.1318
 21
921.386
 31
0.0
  0
LINE
  5
3CC
330
20
100
AcDbEntity
  8
_0-1_LAYER004
  6
Continuous
 62
     7
100
AcDbLine
 10
1724.1318
 20
876.1421999999999
 30
0.0
 11
1724.1318
 21
824.4421999999998
 31
0.0
  0
LINE
  5
3CD
330
20
100
AcDbEntity
  8
_0-1_LAYER004
  6
Continuous
 62
     7
100
AcDbLine
 10
1724.1318
 20
824.4421999999998
 30
0.0
 11
1724.1318
 21
826.1421999999999
 31
0.0
  0
LINE
  5
3CE
330
20
100
AcDbEntity
  8
_0-1_LAYER004
  6
Continuous
 62
     7
100
AcDbLine
 10
1724.1318
 20
826.1421999999999
 30
0.0
 11
1760.1318
 21
826.1421999999999
 31
0.0
  0
LINE
  5
3CF
330
20
100
AcDbEntity
  8
_0-1_LAYER004
  6
Continuous
 62
     7
100
AcDbLine
 10
1760.1318
 20
824.4421999999998
 30
0.0
 11
1760.1318
 21
876.1421999999999
 31
0.0
  0
LINE
  5
3D0
330
20
100
AcDbEntity
  8
_0-1_LAYER004
  6
Continuous
 62
     7
100
AcDbLine
 10
1739.1318
 20
876.1421999999999
 30
0.0
 11
1739.1318
 21
824.4421999999998
 31
0.0
  0
LINE
  5
3D1
330
20
100
AcDbEntity
  8
_0-1_LAYER004
  6
Continuous
 62
     7
100
AcDbLine
 10
1274.2002
 20
1158.7792
 30
0.0
 11
1276.1413
 21
1166.0236
 31
0.0
  0
LINE
  5
3D2
330
20
100
AcDbEntity
  8
_0-1_LAYER004
  6
Continuous
 62
     7
100
AcDbLine
 10
1274.2002
 20
1158.7792
 30
0.0
 11
1279.5035
 21
1164.0825
 31
0.0
  0
LINE
  5
3D3
330
20
100
AcDbEntity
  8
_0-1_LAYER004
  6
Continuous
 62
     7
100
AcDbLine
 10
1274.2002
 20
1158.7792
 30
0.0
 11
1339.3658
 21
1271.6494
 31
0.0
  0
LINE
  5
3D4
330
20
100
AcDbEntity
  8
_0-1_LAYER004
  6
Continuous
 62
     7
100
AcDbLine
 10
1339.3658
 20
1271.6494
 30
0.0
 11
1379.8658
 21
1271.6494
 31
0.0
  0
LINE
  5
3D5
330
20
100
AcDbEntity
  8
_0-1_LAYER004
  6
Continuous
 62
     7
100
AcDbLine
 10
1649.1318
 20
1091.386
 30
0.0
 11
878.4835000000001
 21
1091.3562
 31
0.0
  0
LINE
  5
3D6
330
20
100
AcDbEntity
  8
_0-1_LAYER004
  6
Continuous
 62
     7
100
AcDbLine
 10
878.4835000000001
 20
996.5918
 30
0.0
 11
973.2777999999999
 21
1091.386
 31
0.0
  0
LINE
  5
3D7
330
20
100
AcDbEntity
  8
_0-1_LAYER004
  6
Continuous
 62
     7
100
AcDbLine
 10
984.5619999719152
 20
1091.3562
 30
0.0
 11
878.4835000000001
 21
985.2777999999998
 31
0.0
  0
LINE
  5
3D8
330
20
100
AcDbEntity
  8
_0-1_LAYER004
  6
Continuous
 62
     7
100
AcDbLine
 10
878.4835000000001
 20
973.9638000000001
 30
0.0
 11
995.9058
 21
1091.386
 31
0.0
  0
LINE
  5
3D9
330
20
100
AcDbEntity
  8
_0-1_LAYER004
  6
Continuous
 62
     7
100
AcDbLine
 10
1157.2802
 20
1100.4437
 30
0.0
 11
1157.2802
 21
1092.9437
 31
0.0
  0
LINE
  5
3DA
330
20
100
AcDbEntity
  8
_0-1_LAYER004
  6
Continuous
 62
     7
100
AcDbLine
 10
1157.2802
 20
1100.4437
 30
0.0
 11
1161.0302
 21
1093.9485
 31
0.0
  0
LINE
  5
3DB
330
20
100
AcDbEntity
  8
_0-1_LAYER004
  6
Continuous
 62
     7
100
AcDbLine
 10
1157.2802
 20
1100.4437
 30
0.0
 11
1250.6233
 21
752.0824
 31
0.0
  0
LINE
  5
3DC
330
20
100
AcDbEntity
  8
_0-1_LAYER004
  6
Continuous
 62
     7
100
AcDbLine
 10
1243.0647
 20
781.949
 30
0.0
 11
1447.8875
 21
781.949
 31
0.0
  0
LINE
  5
3DD
330
20
100
AcDbEntity
  8
_0-1_LAYER004
  6
Continuous
 62
     7
100
AcDbLine
 10
1333.3088
 20
911.386
 30
0.0
 11
1513.279
 21
1091.3562
 31
0.0
  0
LINE
  5
3DE
330
20
100
AcDbEntity
  8
_0-1_LAYER004
  6
Continuous
 62
     7
100
AcDbLine
 10
1524.592999999999
 20
1091.3562
 30
0.0
 11
1344.6228
 21
911.386
 31
0.0
  0
LINE
  5
3DF
330
20
100
AcDbEntity
  8
_0-1_LAYER004
  6
Continuous
 62
     7
100
AcDbLine
 10
1355.9368
 20
911.386
 30
0.0
 11
1535.907
 21
1091.3562
 31
0.0
  0
LINE
  5
3E0
330
20
100
AcDbEntity
  8
_0-1_LAYER004
  6
Continuous
 62
     7
100
AcDbLine
 10
1639.1318
 20
1091.3562
 30
0.0
 11
1639.1318
 21
1051.386
 31
0.0
  0
LINE
  5
3E1
330
20
100
AcDbEntity
  8
_0-1_LAYER004
  6
Continuous
 62
     7
100
AcDbLine
 10
1639.1318
 20
1051.386
 30
0.0
 11
1724.1318
 21
1051.386
 31
0.0
  0
TEXT
  5
3E2
330
20
100
AcDbEntity
  8
_0-2_LAYER005
 62
     7
100
AcDbText
 10
1047.360678520042
 20
1343.556143622164
 30
0.0
 40
20.0
  1
265
100
AcDbText
  0
TEXT
  5
3E3
330
20
100
AcDbEntity
  8
_0-2_LAYER005
 62
     7
100
AcDbText
 10
1327.646999221279
 20
1348.151001338578
 30
0.0
 40
20.0
  1
265
100
AcDbText
  0
TEXT
  5
3E4
330
20
100
AcDbEntity
  8
_0-2_LAYER005
 62
     7
100
AcDbText
 10
1615.97432092624
 20
1342.40742919306
 30
0.0
 40
20.0
  1
305
100
AcDbText
  0
TEXT
  5
3E5
330
20
100
AcDbEntity
  8
_0-2_LAYER005
 62
     7
100
AcDbText
 10
1627.461465217275
 20
1263.146133584924
 30
0.0
 40
20.0
  1
右袖瓦
100
AcDbText
  0
TEXT
  5
3E6
330
20
100
AcDbEntity
  8
_0-2_LAYER005
 62
     7
100
AcDbText
 10
1342.580286799624
 20
1275.781992305061
 30
0.0
 40
20.0
  1
桟　瓦
100
AcDbText
  0
TEXT
  5
3E7
330
20
100
AcDbEntity
  8
_0-2_LAYER005
 62
     7
100
AcDbText
 10
1816.999346019341
 20
1297.607566458027
 30
0.0
 40
20.0
  1
登座：36x45（防腐処理）
100
AcDbText
  0
TEXT
  5
3E8
330
20
100
AcDbEntity
  8
_0-2_LAYER005
 62
     7
100
AcDbText
 10
1941.242745143201
 20
1064.245259230686
 30
0.0
 40
20.0
  1
30
 50
90.0
100
AcDbText
  0
TEXT
  5
3E9
330
20
100
AcDbEntity
  8
_0-2_LAYER005
 62
     7
100
AcDbText
 10
1937.585979314274
 20
1100.81291751996
 30
0.0
 40
20.0
  1
36
 50
90.0
100
AcDbText
  0
TEXT
  5
3EA
330
20
100
AcDbEntity
  8
_0-2_LAYER005
 62
     7
100
AcDbText
 10
1941.242745143201
 20
978.9207232223793
 30
0.0
 40
20.0
  1
150
 50
90.0
100
AcDbText
  0
TEXT
  5
3EB
330
20
100
AcDbEntity
  8
_0-2_LAYER005
 62
     7
100
AcDbText
 10
1250.114003475916
 20
788.7689001181525
 30
0.0
 40
20.0
  1
瓦桟：15x30以上
100
AcDbText
  0
TEXT
  5
3EC
330
20
100
AcDbEntity
  8
_0-2_LAYER005
 62
     7
100
AcDbText
 10
1853.480365248943
 20
875.3123580694353
 30
0.0
 40
20.0
  1
品板：30x90（防腐処理）
100
AcDbText
  0
TEXT
  5
3ED
330
20
100
AcDbEntity
  8
_0-2_LAYER005
 62
     7
100
AcDbText
 10
1720.617873464579
 20
797.3013537189832
 30
0.0
 40
20.0
  1
15
100
AcDbText
  0
TEXT
  5
3EE
330
20
100
AcDbEntity
  8
_0-2_LAYER005
 62
     7
100
AcDbText
 10
1749.872000095999
 20
797.3013537189832
 30
0.0
 40
20.0
  1
20
100
AcDbText
  0
TEXT
  5
3EF
330
20
100
AcDbEntity
  8
_0-2_LAYER005
 62
     7
100
AcDbText
 10
1253.770769304843
 20
757.0769296007815
 30
0.0
 40
20.0
  1
下葺材：ルーフィング
100
AcDbText
  0
LINE
  5
3F0
330
20
100
AcDbEntity
  8
_0-2_LAYER005
  6
Continuous
 62
     7
100
AcDbLine
 10
1250.6233
 20
752.0824
 30
0.0
 11
1483.05065595345
 21
752.0824
 31
0.0
  0
ENDSEC
  0
SECTION
  2
OBJECTS
  0
DICTIONARY
  5
C
330
0
100
AcDbDictionary
281
     1
  3
ACAD_COLOR
350
1B
  3
ACAD_GROUP
350
D
  3
ACAD_LAYOUT
350
19
  3
ACAD_MATERIAL
350
1A
  3
ACAD_MLINESTYLE
350
16
  3
ACAD_PLOTSETTINGS
350
18
  3
ACAD_PLOTSTYLENAME
350
E
  0
DICTIONARY
  5
1B
102
{ACAD_REACTORS
330
C
102
}
330
C
100
AcDbDictionary
281
     1
  0
DICTIONARY
  5
D
102
{ACAD_REACTORS
330
C
102
}
330
C
100
AcDbDictionary
281
     1
  0
DICTIONARY
  5
19
102
{ACAD_REACTORS
330
C
102
}
330
C
100
AcDbDictionary
281
     1
  3
Model
350
23
  3
レイアウト1
350
1F
  0
DICTIONARY
  5
1A
102
{ACAD_REACTORS
330
C
102
}
330
C
100
AcDbDictionary
281
     1
  0
DICTIONARY
  5
16
102
{ACAD_REACTORS
330
C
102
}
330
C
100
AcDbDictionary
281
     1
  3
Standard
350
17
  0
DICTIONARY
  5
18
102
{ACAD_REACTORS
330
C
102
}
330
C
100
AcDbDictionary
281
     1
  0
ACDBDICTIONARYWDFLT
  5
E
102
{ACAD_REACTORS
330
C
102
}
330
C
100
AcDbDictionary
281
     1
  3
Normal
350
F
100
AcDbDictionaryWithDefault
340
F
  0
LAYOUT
  5
23
102
{ACAD_REACTORS
330
19
102
}
330
19
100
AcDbPlotSettings
  1

  2
Microsoft Office Document Image Writer
  4

  6

 40
0.0
 41
0.0
 42
0.0
 43
0.0
 44
0.0
 45
0.0
 46
0.0
 47
0.0
 48
0.0
 49
0.0
140
0.0
141
0.0
142
1.0
143
1.0
 70
  1712
 72
     0
 73
     0
 74
     0
  7

 75
     0
147
1.0
 76
     0
 77
     2
 78
   300
148
0.0
149
0.0
100
AcDbLayout
  1
Model
 70
     1
 71
     0
 10
0.0
 20
0.0
 11
12.0
 21
9.0
 12
0.0
 22
0.0
 32
0.0
 14
0.0
 24
0.0
 34
0.0
 15
0.0
 25
0.0
 35
0.0
146
0.0
 13
0.0
 23
0.0
 33
0.0
 16
1.0
 26
0.0
 36
0.0
 17
0.0
 27
1.0
 37
0.0
 76
     0
330
20
  0
LAYOUT
  5
1F
102
{ACAD_REACTORS
330
19
102
}
330
19
100
AcDbPlotSettings
  1

  2
Microsoft Office Document Image Writer
  4

  6

 40
0.0
 41
0.0
 42
0.0
 43
0.0
 44
0.0
 45
0.0
 46
0.0
 47
0.0
 48
0.0
 49
0.0
140
0.0
141
0.0
142
1.0
143
1.0
 70
   688
 72
     0
 73
     0
 74
     5
  7

 75
    16
147
1.0
 76
     0
 77
     2
 78
   300
148
0.0
149
0.0
100
AcDbLayout
  1
レイアウト1
 70
     1
 71
     1
 10
0.0
 20
0.0
 11
12.0
 21
9.0
 12
0.0
 22
0.0
 32
0.0
 14
1.000000000000000E+20
 24
1.000000000000000E+20
 34
1.000000000000000E+20
 15
-1.000000000000000E+20
 25
-1.000000000000000E+20
 35
-1.000000000000000E+20
146
0.0
 13
0.0
 23
0.0
 33
0.0
 16
1.0
 26
0.0
 36
0.0
 17
0.0
 27
1.0
 37
0.0
 76
     0
330
1C
  0
MLINESTYLE
  5
17
102
{ACAD_REACTORS
330
16
102
}
330
16
100
AcDbMlineStyle
  2
STANDARD
 70
     0
  3

 62
   256
 51
90.0
 52
90.0
 71
     2
 49
0.5
 62
   256
  6
BYLAYER
 49
-0.5
 62
   256
  6
BYLAYER
  0
ACDBPLACEHOLDER
  5
F
102
{ACAD_REACTORS
330
E
102
}
330
E
  0
ENDSEC
  0
EOF
