  0
SECTION
  2
HEADER
  9
$ACADVER
  1
AC1009
  9
$INSBASE
 10
0
 20
0
 30
0
  9
$EXTMIN
 10
0
 20
0
  9
$EXTMAX
 10
2970
 20
2100
  9
$LIMMIN
 10
0
 20
0
  9
$LIMMAX
 10
2970
 20
2100
  9
$LTSCALE
 40
10
  0
ENDSEC
  0
SECTION
  2
TABLES
  0
TABLE
  2
LTYPE
 70
     9
  0
LTYPE
  2
CONTINUOUS
 70
    64
  3
実線
 72
    65
 73
     0
 40
0.0
  0
LTYPE
  2
DASHED1
 70
    64
  3
--  --  --  --  --  --  --  --  
 72
    65
 73
     2
 40
2.5
 49
1.25
 49
-1.25
  0
LTYPE
  2
DASHED2
 70
    64
  3
----    ----    ----    ----    
 72
    65
 73
     2
 40
5.0
 49
2.5
 49
-2.5
  0
LTYPE
  2
DASHED3
 70
    64
  3
------  ------  ------  ------  
 72
    65
 73
     2
 40
5.0
 49
3.75
 49
-1.25
  0
LTYPE
  2
CENTER1
 70
    64
  3
----- - ----- - ----- - ----- - 
 72
    65
 73
     4
 40
10.0
 49
6.25
 49
-1.25
 49
1.25
 49
-1.25
  0
LTYPE
  2
CENTER2
 70
    64
  3
----------  --  ----------  --  
 72
    65
 73
     4
 40
20.0
 49
12.5
 49
-2.5
 49
2.5
 49
-2.5
  0
LTYPE
  2
PHANTOM1
 70
    64
  3
--- - - --- - - --- - - --- - - 
 72
    65
 73
     6
 40
10.0
 49
3.25
 49
-1.25
 49
1.25
 49
-1.25
 49
1.25
 49
-1.25
  0
LTYPE
  2
PHANTOM2
 70
    64
  3
--------  -  -  --------  -  -  
 72
    65
 73
     6
 40
20.0
 49
10.0
 49
-2.5
 49
1.25
 49
-2.5
 49
1.25
 49
-2.5
  0
LTYPE
  2
DOT
 70
    64
  3
-   -   -   -   -   -   -   -   
 72
    65
 73
     2
 40
2.5
 49
0.625
 49
-1.875
  0
LTYPE
  2
DUMMY
 70
    64
  3
ダミー
 72
    65
 73
     0
 40
0.0
  0
LTYPE
  2
RAND1
 70
    64
  3
ランダム線1
 72
    65
 73
     4
 40
10.0
 49
1.0
 49
-2.0
 49
3.0
 49
-4.0
  0
LTYPE
  2
RAND2
 70
    64
  3
ランダム線2
 72
    65
 73
     4
 40
14.0
 49
2.0
 49
-3.0
 49
4.0
 49
-5.0
  0
LTYPE
  2
RAND3
 70
    64
  3
ランダム線3
 72
    65
 73
     4
 40
18.0
 49
3.0
 49
-4.0
 49
5.0
 49
-6.0
  0
LTYPE
  2
RAND4
 70
    64
  3
ランダム線4
 72
    65
 73
     4
 40
22.0
 49
4.0
 49
-5.0
 49
6.0
 49
-7.0
  0
LTYPE
  2
RAND5
 70
    64
  3
ランダム線5
 72
    65
 73
     4
 40
26.0
 49
5.0
 49
-6.0
 49
7.0
 49
-8.0
  0
LTYPE
  2
LONG1
 70
    64
  3
----------  --  ----------  --  
 72
    65
 73
     4
 40
40.0
 49
32.5
 49
-2.5
 49
2.5
 49
-2.5
  0
LTYPE
  2
LONG2
 70
    64
  3
--------  -  -  --------  -  -  
 72
    65
 73
     6
 40
40.0
 49
30.0
 49
-2.5
 49
1.25
 49
-2.5
 49
1.25
 49
-2.5
  0
LTYPE
  2
LONG3
 70
    64
  3
+++++++++++++++..+++++++++++++++
 72
    65
 73
     2
 40
40.0
 49
37.5
 49
-2.5
  0
LTYPE
  2
LONG4
 70
    64
  3
+++++++++++++++..+++++++++++++++
 72
    65
 73
     2
 40
80.0
 49
75.0
 49
-5.0
  0
LTYPE
  2
LONG5
 70
    64
  3
----------  --  ----------  --  
 72
    65
 73
     4
 40
60.0
 49
37.5
 49
-7.5
 49
7.5
 49
-7.5
  0
LTYPE
  2
dashed
 70
   64
  3
-------   -------------   ------
 72
   65
 73
    2
 40
7.5
 49
6
 49
-1.5
  0
LTYPE
  2
dashed_spaced
 70
   64
  3
----        --------        ----
 72
   65
 73
    2
 40
12
 49
6
 49
-6
  0
LTYPE
  2
long_dashed_dotted
 70
   64
  3
------------- --- --------------
 72
   65
 73
    4
 40
15.25
 49
12
 49
-1.5
 49
0.25
 49
-1.5
  0
LTYPE
  2
long_dashed_double-dotted
 70
   64
  3
----------- --- --- ------------
 72
   65
 73
    6
 40
17
 49
12
 49
-1.5
 49
0.25
 49
-1.5
 49
0.25
 49
-1.5
  0
LTYPE
  2
long_dashed_triplicate-dotted
 70
   64
  3
--------- --- --- --- ----------
 72
   65
 73
    8
 40
18.75
 49
12
 49
-1.5
 49
0.25
 49
-1.5
 49
0.25
 49
-1.5
 49
0.25
 49
-1.5
  0
LTYPE
  2
dotted
 70
   64
  3
   -       -       -       -    
 72
   65
 73
    2
 40
1.75
 49
0.25
 49
-1.5
  0
LTYPE
  2
chain
 70
   64
  3
-------------- -- --------------
 72
   65
 73
    4
 40
18.5
 49
12
 49
-1.5
 49
3.5
 49
-1.5
  0
LTYPE
  2
chain_double_dash
 70
   64
  3
------------ -- -- -------------
 72
   65
 73
    6
 40
23.5
 49
12
 49
-1.5
 49
3.5
 49
-1.5
 49
3.5
 49
-1.5
  0
LTYPE
  2
dashed_dotted
 70
   64
  3
-----------     -     ----------
 72
   65
 73
    4
 40
9.25
 49
6
 49
-1.5
 49
0.25
 49
-1.5
  0
LTYPE
  2
double-dashed_dotted
 70
   64
  3
------   -----------   -   -----
 72
   65
 73
    6
 40
16.75
 49
6
 49
-1.5
 49
6
 49
-1.5
 49
0.25
 49
-1.5
  0
LTYPE
  2
dashed_double-dotted
 70
   64
  3
---------    -    -    ---------
 72
   65
 73
    6
 40
11
 49
6
 49
-1.5
 49
0.25
 49
-1.5
 49
0.25
 49
-1.5
  0
LTYPE
  2
double-dashed_double-dotted
 70
   64
  3
-----   ---------   -   -   ----
 72
   65
 73
    8
 40
18.5
 49
6
 49
-1.5
 49
6
 49
-1.5
 49
0.25
 49
-1.5
 49
0.25
 49
-1.5
  0
LTYPE
  2
dashed_triplicate-dotted
 70
   64
  3
-------    -    -    -    ------
 72
   65
 73
    8
 40
12.75
 49
6
 49
-1.5
 49
0.25
 49
-1.5
 49
0.25
 49
-1.5
 49
0.25
 49
-1.5
  0
LTYPE
  2
double-dashed_triplicate-dotted
 70
   64
  3
-----  ---------  -  -  -  -----
 72
   65
 73
   10
 40
20.25
 49
6
 49
-1.5
 49
6
 49
-1.5
 49
0.25
 49
-1.5
 49
0.25
 49
-1.5
 49
0.25
 49
-1.5
  0
LTYPE
  2
undefined
 70
   64
  3
--------------------------------
 72
   65
 73
    0
 40
0
  0
ENDTAB
  0
TABLE
  2
STYLE
  5
3
100
AcDbSymbolTable
 70
     1
  0
STYLE
  5
10
100
AcDbSymbolTableRecord
100
AcDbTextStyleTableRecord
  2
STANDARD
 70
     0
 40
0.0
 41
1.0
 50
0.0
 71
     0
 42
0.2
  3
txt
  4
bigfont.shx
  0
STYLE
  5
26
100
AcDbSymbolTableRecord
100
AcDbTextStyleTableRecord
  2
TATEGAKI
 70
    68
 40
0.0
 41
1.0
 50
0.0
 71
     0
 42
1.0
  3
txt
  4
bigfont.shx
  0
ENDTAB
  0
TABLE
  2
LAYER
 70
    6
  0
LAYER
  2
_0-0_LAYER001
 70
   64
 62
    7
  6
CONTINUOUS
  0
LAYER
  2
_0-1_LAYER003
 70
   64
 62
    7
  6
CONTINUOUS
  0
LAYER
  2
_0-2_LAYER004
 70
   64
 62
    7
  6
CONTINUOUS
  0
LAYER
  2
_0-3_LAYER005
 70
   64
 62
    7
  6
CONTINUOUS
  0
LAYER
  2
_0-4_LAYER009
 70
   64
 62
    7
  6
CONTINUOUS
  0
LAYER
  2
ADD_LINE
 70
   64
 62
    7
  6
CONTINUOUS
  0
ENDTAB
  0
ENDSEC
  0
SECTION
  2
BLOCKS
  0
ENDSEC
  0
SECTION
  2
ENTITIES
  0
LINE
  8
_0-0_LAYER001
  6
CONTINUOUS
 62
    2
 10
1098.4914000000001
 20
880.56960000000004
 11
1154.7525000000001
 21
865.2041999999999
  0
LINE
  8
_0-1_LAYER003
  6
CONTINUOUS
 62
    2
 10
1169.9912999999999
 20
685.6418000000001
 11
1160.8659
 21
681.53539999999998
  0
LINE
  8
_0-1_LAYER003
  6
CONTINUOUS
 62
    2
 10
1169.9855
 20
685.63920000000007
 11
1174.0087000000001
 21
676.4837
  0
LINE
  8
_0-0_LAYER001
  6
CONTINUOUS
 62
    2
 10
1130.5940000000001
 20
576.42100000000005
 11
1109.4739999999999
 21
624.4855
  0
CIRCLE
  8
_0-0_LAYER001
  6
CONTINUOUS
 62
    2
 10
1129.5882999999999
 20
578.70979999999997
 40
1.6999999999999997
  0
LINE
  8
_0-0_LAYER001
  6
CONTINUOUS
 62
    2
 10
1129.5882999999999
 20
578.70979999999997
 11
1193.6746000000001
 21
606.86999999999989
  0
CIRCLE
  8
_0-0_LAYER001
  6
CONTINUOUS
 62
    2
 10
1193.6746000000001
 20
606.86999999999989
 40
1.6999999999999997
  0
LINE
  8
_0-0_LAYER001
  6
CONTINUOUS
 62
    2
 10
1194.6803
 20
604.58120000000008
 11
1173.5603000000001
 21
652.64570000000003
  0
LINE
  8
_0-0_LAYER001
  6
CONTINUOUS
 62
    2
 10
1165.5413000000001
 20
633.60809999999992
 11
1154.4784
 21
658.7847999999999
  0
CIRCLE
  8
_0-0_LAYER001
  6
CONTINUOUS
 62
    2
 10
1164.5355
 20
635.89689999999996
 40
1.6999999999999997
  0
LINE
  8
_0-0_LAYER001
  6
CONTINUOUS
 62
    2
 10
1164.5355
 20
635.89689999999996
 11
1178.2683999999999
 21
641.93129999999996
  0
CIRCLE
  8
_0-0_LAYER001
  6
CONTINUOUS
 62
    2
 10
1178.2683999999999
 20
641.93129999999996
 40
1.6999999999999997
  0
LINE
  8
_0-0_LAYER001
  6
CONTINUOUS
 62
    2
 10
1179.2741000000001
 20
639.64249999999993
 11
1168.2112
 21
664.81909999999993
  0
LINE
  8
_0-3_LAYER005
  6
CONTINUOUS
 62
    2
 10
1088.5790999999999
 20
869.58359999999993
 11
1090.5202999999999
 21
862.33909999999992
  0
LINE
  8
_0-3_LAYER005
  6
CONTINUOUS
 62
    2
 10
1090.5202999999999
 20
862.33909999999992
 11
1085.2170000000001
 21
867.64239999999995
  0
LINE
  8
_0-3_LAYER005
  6
CONTINUOUS
 62
    2
 10
1090.5202999999999
 20
862.33909999999992
 11
1038.8768
 21
951.78819999999996
  0
LINE
  8
_0-3_LAYER005
  6
CONTINUOUS
 62
    2
 10
1038.8768
 20
951.78819999999996
 11
998.3768
 21
951.78819999999996
  0
LINE
  8
_0-4_LAYER009
  6
CONTINUOUS
 62
    2
 10
1097.6790000000001
 20
815.93419999999992
 11
1101.4290000000001
 21
822.42930000000001
  0
LINE
  8
_0-4_LAYER009
  6
CONTINUOUS
 62
    2
 10
1101.4290000000001
 20
822.42930000000001
 11
1101.4290000000001
 21
814.92930000000001
  0
LINE
  8
_0-4_LAYER009
  6
CONTINUOUS
 62
    2
 10
1101.4290000000001
 20
822.42930000000001
 11
1081.5349000000001
 21
748.18360000000007
  0
LINE
  8
_0-4_LAYER009
  6
CONTINUOUS
 62
    2
 10
1081.5349000000001
 20
748.18360000000007
 11
934.53490000000011
 21
748.18360000000007
  0
LINE
  8
_0-3_LAYER005
  6
CONTINUOUS
 62
    2
 10
1570.9276
 20
1115.3145999999999
 11
1572.8687
 21
1108.0700999999999
  0
LINE
  8
_0-3_LAYER005
  6
CONTINUOUS
 62
    2
 10
1572.8687
 20
1108.0700999999999
 11
1567.5654
 21
1113.3733999999999
  0
LINE
  8
_0-3_LAYER005
  6
CONTINUOUS
 62
    2
 10
1572.8687
 20
1108.0700999999999
 11
1517.3108999999999
 21
1204.2991
  0
LINE
  8
_0-3_LAYER005
  6
CONTINUOUS
 62
    2
 10
1517.3108999999999
 20
1204.2991
 11
1476.8108999999999
 21
1204.2991
  0
LINE
  8
_0-0_LAYER001
  6
CONTINUOUS
 62
    2
 10
922.82950000000005
 20
567.60770000000002
 11
970.89400000000001
 21
588.72770000000003
  0
CIRCLE
  8
_0-0_LAYER001
  6
CONTINUOUS
 62
    2
 10
925.11830000000009
 20
568.61339999999996
 40
1.6999999999999997
  0
LINE
  8
_0-0_LAYER001
  6
CONTINUOUS
 62
    2
 10
925.11830000000009
 20
568.61339999999996
 11
864.83930000000009
 21
705.79520000000002
  0
CIRCLE
  8
_0-0_LAYER001
  6
CONTINUOUS
 62
    2
 10
864.83930000000009
 20
705.79520000000002
 40
1.6999999999999997
  0
LINE
  8
_0-0_LAYER001
  6
CONTINUOUS
 62
    2
 10
862.55060000000003
 20
704.78950000000009
 11
910.61509999999998
 21
725.90949999999998
  0
CIRCLE
  8
_0-0_LAYER001
  6
CONTINUOUS
 62
    2
 10
864.83930000000009
 20
705.79520000000002
 40
1.6999999999999997
  0
LINE
  8
_0-0_LAYER001
  6
CONTINUOUS
 62
    2
 10
864.83930000000009
 20
705.79520000000002
 11
852.91159999999991
 21
732.94000000000005
  0
CIRCLE
  8
_0-0_LAYER001
  6
CONTINUOUS
 62
    2
 10
852.91159999999991
 20
732.94000000000005
 40
1.6999999999999997
  0
LINE
  8
_0-0_LAYER001
  6
CONTINUOUS
 62
    2
 10
850.62290000000007
 20
731.93429999999989
 11
898.68740000000003
 21
753.05430000000001
  0
LINE
  8
_0-0_LAYER001
  6
DASHED1
 62
    2
 10
1108.5645
 20
800.55639999999994
 11
1186.0814
 21
835.43900000000008
  0
LINE
  8
_0-0_LAYER001
  6
DASHED1
 62
    2
 10
1117.6840999999999
 20
804.66020000000003
 11
1170.021
 21
685.55839999999989
  0
LINE
  8
_0-0_LAYER001
  6
DASHED1
 62
    2
 10
1182.0581999999999
 20
844.59390000000008
 11
1186.0814
 21
835.43900000000008
  0
LINE
  8
_0-0_LAYER001
  6
CONTINUOUS
 62
    2
 10
1141.6756
 20
894.26260000000002
 11
1113.7156
 21
846.73759999999993
  0
LINE
  8
_0-3_LAYER005
  6
CONTINUOUS
 62
    2
 10
1125.6567
 20
883.38020000000006
 11
1127.5978
 21
876.13580000000002
  0
LINE
  8
_0-3_LAYER005
  6
CONTINUOUS
 62
    2
 10
1127.5978
 20
876.13580000000002
 11
1122.2945
 21
881.43910000000005
  0
LINE
  8
_0-3_LAYER005
  6
CONTINUOUS
 62
    2
 10
1127.5978
 20
876.13580000000002
 11
1045.5856000000001
 21
1018.1850999999999
  0
LINE
  8
_0-3_LAYER005
  6
CONTINUOUS
 62
    2
 10
1045.5856000000001
 20
1018.1850999999999
 11
807.08560000000011
 21
1018.1850999999999
  0
LINE
  8
_0-3_LAYER005
  6
CONTINUOUS
 62
    2
 10
1205.1722
 20
945.75160000000005
 11
1207.1133
 21
938.50710000000004
  0
LINE
  8
_0-3_LAYER005
  6
CONTINUOUS
 62
    2
 10
1207.1133
 20
938.50710000000004
 11
1201.8099999999999
 21
943.81040000000007
  0
LINE
  8
_0-3_LAYER005
  6
CONTINUOUS
 62
    2
 10
1207.1133
 20
938.50710000000004
 11
1115.8197
 21
1096.6323
  0
LINE
  8
_0-3_LAYER005
  6
CONTINUOUS
 62
    2
 10
1115.8197
 20
1096.6323
 11
1051.3197
 21
1096.6323
  0
LINE
  8
_0-1_LAYER003
  6
DASHED1
 62
    2
 10
1169.9855
 20
685.63920000000007
 11
2158.8107
 21
1130.6110000000001
  0
LINE
  8
_0-1_LAYER003
  6
CONTINUOUS
 62
    2
 10
1174.0087000000001
 20
676.4837
 11
2162.9142999999999
 21
1121.4918
  0
LINE
  8
_0-0_LAYER001
  6
CONTINUOUS
 62
    2
 10
1268.5745999999999
 20
923.79099999999994
 11
1295.9315999999999
 21
936.10339999999997
  0
LINE
  8
_0-0_LAYER001
  6
CONTINUOUS
 62
    2
 10
1295.9315999999999
 20
936.10339999999997
 11
1289.7755000000002
 21
949.78189999999995
  0
LINE
  8
_0-0_LAYER001
  6
CONTINUOUS
 62
    2
 10
1289.7755000000002
 20
949.78189999999995
 11
1262.4185
 21
937.46949999999993
  0
LINE
  8
_0-0_LAYER001
  6
CONTINUOUS
 62
    2
 10
1262.4185
 20
937.46949999999993
 11
1268.5745999999999
 21
923.79099999999994
  0
LINE
  8
_0-0_LAYER001
  6
CONTINUOUS
 62
    2
 10
1289.7755000000002
 20
949.78189999999995
 11
1268.5745999999999
 21
923.79099999999994
  0
LINE
  8
_0-0_LAYER001
  6
CONTINUOUS
 62
    4
 10
1304.3647000000001
 20
942.16329999999994
 11
1294.0193999999999
 21
970.49360000000001
  0
LINE
  8
_0-0_LAYER001
  6
CONTINUOUS
 62
    2
 10
1483.7829999999999
 20
1020.6484
 11
1511.1399999999999
 21
1032.9608000000001
  0
LINE
  8
_0-0_LAYER001
  6
CONTINUOUS
 62
    2
 10
1511.1399999999999
 20
1032.9608000000001
 11
1504.9838
 21
1046.6393
  0
LINE
  8
_0-0_LAYER001
  6
CONTINUOUS
 62
    2
 10
1504.9838
 20
1046.6393
 11
1477.6268
 21
1034.3269
  0
LINE
  8
_0-0_LAYER001
  6
CONTINUOUS
 62
    2
 10
1477.6268
 20
1034.3269
 11
1483.7829999999999
 21
1020.6484
  0
LINE
  8
_0-0_LAYER001
  6
CONTINUOUS
 62
    2
 10
1504.9838
 20
1046.6393
 11
1483.7829999999999
 21
1020.6484
  0
LINE
  8
_0-0_LAYER001
  6
CONTINUOUS
 62
    4
 10
1519.2112000000002
 20
1038.9178999999999
 11
1508.8658999999998
 21
1067.2481
  0
LINE
  8
_0-0_LAYER001
  6
CONTINUOUS
 62
    2
 10
1698.9913999999999
 20
1117.5057999999999
 11
1726.3483999999999
 21
1129.8181999999999
  0
LINE
  8
_0-0_LAYER001
  6
CONTINUOUS
 62
    2
 10
1726.3483999999999
 20
1129.8181999999999
 11
1720.1922
 21
1143.4966999999999
  0
LINE
  8
_0-0_LAYER001
  6
CONTINUOUS
 62
    2
 10
1720.1922
 20
1143.4966999999999
 11
1692.8352
 21
1131.1842999999999
  0
LINE
  8
_0-0_LAYER001
  6
CONTINUOUS
 62
    2
 10
1692.8352
 20
1131.1842999999999
 11
1698.9913999999999
 21
1117.5057999999999
  0
LINE
  8
_0-0_LAYER001
  6
CONTINUOUS
 62
    2
 10
1720.1922
 20
1143.4966999999999
 11
1698.9913999999999
 21
1117.5057999999999
  0
LINE
  8
_0-0_LAYER001
  6
CONTINUOUS
 62
    4
 10
1734.0576999999998
 20
1135.6723999999999
 11
1723.7125000000001
 21
1164.0027
  0
LINE
  8
_0-0_LAYER001
  6
CONTINUOUS
 62
    2
 10
1914.1997999999999
 20
1214.3632
 11
1941.5567999999998
 21
1226.6756
  0
LINE
  8
_0-0_LAYER001
  6
CONTINUOUS
 62
    2
 10
1941.5567999999998
 20
1226.6756
 11
1935.4005999999999
 21
1240.354
  0
LINE
  8
_0-0_LAYER001
  6
CONTINUOUS
 62
    2
 10
1935.4005999999999
 20
1240.354
 11
1908.0436
 21
1228.0417
  0
LINE
  8
_0-0_LAYER001
  6
CONTINUOUS
 62
    2
 10
1908.0436
 20
1228.0417
 11
1914.1997999999999
 21
1214.3632
  0
LINE
  8
_0-0_LAYER001
  6
CONTINUOUS
 62
    2
 10
1935.4005999999999
 20
1240.354
 11
1914.1997999999999
 21
1214.3632
  0
LINE
  8
_0-0_LAYER001
  6
CONTINUOUS
 62
    4
 10
1948.9043000000001
 20
1232.4269999999999
 11
1938.5590000000002
 21
1260.7572
  0
LINE
  8
_0-0_LAYER001
  6
CONTINUOUS
 62
    4
 10
1948.9043000000001
 20
1232.4269999999999
 11
1941.1044000000002
 21
1229.5971999999999
  0
LINE
  8
_0-0_LAYER001
  6
CONTINUOUS
 62
    4
 10
1936.8481000000002
 20
1241.3289
 11
1941.1044000000002
 21
1229.5971999999999
  0
LINE
  8
_0-0_LAYER001
  6
CONTINUOUS
 62
    4
 10
1734.0576999999998
 20
1135.6723999999999
 11
1725.9052000000001
 21
1132.7146
  0
LINE
  8
_0-0_LAYER001
  6
CONTINUOUS
 62
    4
 10
1721.6489000000001
 20
1144.4464
 11
1725.9052000000001
 21
1132.7146
  0
LINE
  8
_0-0_LAYER001
  6
CONTINUOUS
 62
    4
 10
1519.2112000000002
 20
1038.9178999999999
 11
1510.7058999999999
 21
1035.8321000000001
  0
LINE
  8
_0-0_LAYER001
  6
CONTINUOUS
 62
    4
 10
1506.4495999999999
 20
1047.5639000000001
 11
1510.7058999999999
 21
1035.8321000000001
  0
LINE
  8
_0-0_LAYER001
  6
CONTINUOUS
 62
    4
 10
1876.5277999999998
 20
1257.0597
 11
2070.2768999999998
 21
1327.3525
  0
LINE
  8
_0-0_LAYER001
  6
CONTINUOUS
 62
    4
 10
1859.2078999999999
 20
1304.7989000000002
 11
2049.3784999999998
 21
1373.7933
  0
LINE
  8
_0-0_LAYER001
  6
CONTINUOUS
 62
    4
 10
1050.8765000000001
 20
863.47299999999996
 11
1291.2502999999997
 21
950.68139999999994
  0
LINE
  8
_0-0_LAYER001
  6
CONTINUOUS
 62
    4
 10
1304.3647000000001
 20
942.16329999999994
 11
1295.5066999999999
 21
938.94959999999992
  0
LINE
  8
_0-0_LAYER001
  6
CONTINUOUS
 62
    4
 10
1291.2502999999997
 20
950.68139999999994
 11
1295.5066999999999
 21
938.94959999999992
  0
ARC
  8
_0-0_LAYER001
  6
CONTINUOUS
 62
    4
 10
1450.3562999999999
 20
1053.7650000000001
 40
10.4
 50
109.94091000000002
 51
199.94091
  0
ARC
  8
_0-0_LAYER001
  6
CONTINUOUS
 62
    4
 10
1665.2028
 20
1150.5195000000001
 40
10.4
 50
109.94091000000002
 51
199.94091
  0
ARC
  8
_0-0_LAYER001
  6
CONTINUOUS
 62
    4
 10
1880.0493000000001
 20
1247.2741000000001
 40
10.4
 50
109.94091000000002
 51
199.94091
  0
ARC
  8
_0-0_LAYER001
  6
CONTINUOUS
 62
    4
 10
1235.5097000000001
 20
957.01039999999989
 40
10.4
 50
109.94091000000002
 51
199.94091
  0
ARC
  8
_0-0_LAYER001
  6
CONTINUOUS
 62
    4
 10
984.77890000000002
 20
1027.7768000000001
 40
108.38132
 50
268.69240000000002
 51
288.42793999999998
  0
LINE
  8
_0-0_LAYER001
  6
CONTINUOUS
 62
    4
 10
1037.7620999999999
 20
838.99420000000009
 11
1043.2561000000001
 21
816.4550999999999
  0
ARC
  8
_0-0_LAYER001
  6
CONTINUOUS
 62
    4
 10
1057.9703999999999
 20
843.92010000000005
 40
20.800000000000001
 50
109.94091000000002
 51
193.69899000000001
  0
LINE
  8
_0-0_LAYER001
  6
CONTINUOUS
 62
    4
 10
1211.9603
 20
991.42620000000011
 11
1228.2161000000001
 21
946.61999999999989
  0
ARC
  8
_0-0_LAYER001
  6
CONTINUOUS
 62
    4
 10
1231.5132000000001
 20
998.51999999999998
 40
20.800000000000001
 50
109.94091000000002
 51
199.94091
  0
LINE
  8
_0-0_LAYER001
  6
CONTINUOUS
 62
    4
 10
1723.7125000000001
 20
1164.0027
 11
1936.8481000000002
 21
1241.3289
  0
LINE
  8
_0-0_LAYER001
  6
CONTINUOUS
 62
    4
 10
1019.1069
 20
924.7672
 11
1210.7998
 21
994.31400000000008
  0
LINE
  8
_0-0_LAYER001
  6
CONTINUOUS
 62
    4
 10
1224.4194
 20
1018.0730000000001
 11
1425.6431
 21
1091.0775000000001
  0
ARC
  8
_0-0_LAYER001
  6
CONTINUOUS
 62
    4
 10
1433.0364
 20
1101.5041000000001
 40
10.4
 50
109.94091000000002
 51
199.94091
  0
LINE
  8
_0-0_LAYER001
  6
CONTINUOUS
 62
    4
 10
1423.2599
 20
1097.9572000000001
 11
1443.0626000000002
 21
1043.3744999999999
  0
LINE
  8
_0-0_LAYER001
  6
CONTINUOUS
 62
    4
 10
1432.8366000000001
 20
1071.5607
 11
1443.0626000000002
 21
1043.3744999999999
  0
LINE
  8
_0-0_LAYER001
  6
CONTINUOUS
 62
    4
 10
1231.9628
 20
966.78690000000006
 11
1721.6489000000001
 21
1144.4464
  0
LINE
  8
_0-0_LAYER001
  6
CONTINUOUS
 62
    4
 10
1429.4893999999999
 20
1111.2806
 11
1640.4895999999999
 21
1187.8321000000001
  0
ARC
  8
_0-0_LAYER001
  6
CONTINUOUS
 62
    4
 10
1647.8829000000001
 20
1198.2587000000001
 40
10.4
 50
109.94091000000002
 51
199.94091
  0
LINE
  8
_0-0_LAYER001
  6
CONTINUOUS
 62
    4
 10
1638.1064000000001
 20
1194.7117000000001
 11
1657.9092000000001
 21
1140.1291000000001
  0
LINE
  8
_0-0_LAYER001
  6
CONTINUOUS
 62
    4
 10
1638.1064000000001
 20
1194.7117000000001
 11
1657.9092000000001
 21
1140.1291000000001
  0
LINE
  8
_0-0_LAYER001
  6
CONTINUOUS
 62
    4
 10
1446.8092999999999
 20
1063.5414000000001
 11
1723.7125000000001
 21
1164.0027
  0
LINE
  8
_0-0_LAYER001
  6
CONTINUOUS
 62
    4
 10
1645.2671999999998
 20
1208.373
 11
1855.3362000000002
 21
1284.5866000000001
  0
LINE
  8
_0-0_LAYER001
  6
CONTINUOUS
 62
    4
 10
1858.9828000000002
 20
1274.8462999999999
 11
1872.7557000000002
 21
1236.8835999999999
  0
LINE
  8
_0-0_LAYER001
  6
CONTINUOUS
 62
    4
 10
1661.6559000000002
 20
1160.296
 11
2077.5524999999998
 21
1311.1844999999998
  0
LINE
  8
_0-0_LAYER001
  6
CONTINUOUS
 62
    4
 10
1852.953
 20
1291.4663
 11
1872.7557000000002
 21
1236.8835999999999
  0
ARC
  8
_0-0_LAYER001
  6
CONTINUOUS
 62
    4
 10
1862.7294000000002
 20
1295.0132000000003
 40
10.4
 50
109.94091000000002
 51
199.94091
  0
LINE
  8
_0-0_LAYER001
  6
CONTINUOUS
 62
    4
 10
982.49099999999999
 20
919.24510000000009
 11
1012.5616
 21
822.83300000000008
  0
ARC
  8
_0-0_LAYER001
  6
CONTINUOUS
 62
    4
 10
1170.1713
 20
925.66390000000001
 40
188.27051
 50
181.81043
 51
212.85045999999997
  0
LINE
  8
_0-0_LAYER001
  6
CONTINUOUS
 62
    4
 10
1011.1367
 20
867.92800000000011
 11
1011.0583999999999
 21
867.25420000000008
  0
LINE
  8
_0-0_LAYER001
  6
CONTINUOUS
 62
    4
 10
1506.4495999999999
 20
1047.5639000000001
 11
1010.9224999999999
 21
867.78520000000003
  0
LINE
  8
_0-0_LAYER001
  6
CONTINUOUS
 62
    4
 10
1012.5616
 20
822.83300000000008
 11
1022.9962
 21
826.61869999999999
  0
LINE
  8
_0-0_LAYER001
  6
CONTINUOUS
 62
    4
 10
1010.9224999999999
 20
867.78520000000003
 11
1027.6388999999999
 21
810.78919999999994
  0
LINE
  8
_0-0_LAYER001
  6
CONTINUOUS
 62
    4
 10
1043.2561000000001
 20
816.4550999999999
 11
1027.6388999999999
 21
810.78919999999994
  0
LINE
  8
_0-0_LAYER001
  6
CONTINUOUS
 62
    2
 10
922.84269999999992
 20
1097.2409
 11
940.85089999999991
 21
1047.9259999999999
  0
CIRCLE
  8
_0-0_LAYER001
  6
CONTINUOUS
 62
    2
 10
923.70029999999997
 20
1094.8925999999999
 40
1.6999999999999997
  0
LINE
  8
_0-0_LAYER001
  6
CONTINUOUS
 62
    2
 10
923.70029999999997
 20
1094.8925999999999
 11
1144.443
 21
1175.5005000000001
  0
CIRCLE
  8
_0-0_LAYER001
  6
CONTINUOUS
 62
    2
 10
1144.443
 20
1175.5005000000001
 40
1.6999999999999997
  0
LINE
  8
_0-0_LAYER001
  6
CONTINUOUS
 62
    2
 10
1143.5854999999999
 20
1177.8488
 11
1161.5936999999999
 21
1128.5338999999999
  0
LINE
  8
_0-0_LAYER001
  6
CONTINUOUS
 62
    2
 10
1129.865
 20
1215.422
 11
1147.8732
 21
1166.1071999999999
  0
CIRCLE
  8
_0-0_LAYER001
  6
CONTINUOUS
 62
    2
 10
1130.7225000000001
 20
1213.0736999999999
 40
1.6999999999999997
  0
LINE
  8
_0-0_LAYER001
  6
CONTINUOUS
 62
    2
 10
1130.7225000000001
 20
1213.0736999999999
 11
1351.4653000000001
 21
1293.6815999999999
  0
CIRCLE
  8
_0-0_LAYER001
  6
CONTINUOUS
 62
    2
 10
1351.4653000000001
 20
1293.6815999999999
 40
1.6999999999999997
  0
LINE
  8
_0-0_LAYER001
  6
CONTINUOUS
 62
    2
 10
1350.6078
 20
1296.0299
 11
1368.6159
 21
1246.7150999999999
  0
LINE
  8
_0-0_LAYER001
  6
CONTINUOUS
 62
    2
 10
1336.8873000000003
 20
1333.6032
 11
1354.8954000000001
 21
1284.2883000000002
  0
CIRCLE
  8
_0-0_LAYER001
  6
CONTINUOUS
 62
    2
 10
1337.7447999999999
 20
1331.2547999999997
 40
1.6999999999999997
  0
LINE
  8
_0-0_LAYER001
  6
CONTINUOUS
 62
    2
 10
1337.7447999999999
 20
1331.2547999999997
 11
1558.4875999999999
 21
1411.8626999999997
  0
CIRCLE
  8
_0-0_LAYER001
  6
CONTINUOUS
 62
    2
 10
1558.4875999999999
 20
1411.8626999999997
 40
1.6999999999999997
  0
LINE
  8
_0-0_LAYER001
  6
CONTINUOUS
 62
    2
 10
1557.6300000000001
 20
1414.2111
 11
1575.6381999999999
 21
1364.8962000000001
  0
LINE
  8
_0-0_LAYER001
  6
CONTINUOUS
 62
    2
 10
1543.9096
 20
1451.7842999999998
 11
1561.9177
 21
1402.4694
  0
CIRCLE
  8
_0-0_LAYER001
  6
CONTINUOUS
 62
    2
 10
1544.7671
 20
1449.4360000000001
 40
1.6999999999999997
  0
LINE
  8
_0-0_LAYER001
  6
CONTINUOUS
 62
    2
 10
1544.7671
 20
1449.4360000000001
 11
1765.5097999999998
 21
1530.0439000000001
  0
CIRCLE
  8
_0-0_LAYER001
  6
CONTINUOUS
 62
    2
 10
1765.5097999999998
 20
1530.0439000000001
 40
1.6999999999999997
  0
LINE
  8
_0-0_LAYER001
  6
CONTINUOUS
 62
    2
 10
1764.6523000000002
 20
1532.3921999999998
 11
1782.6605
 21
1483.0772999999999
  0
LINE
  8
_0-0_LAYER001
  6
CONTINUOUS
 62
    2
 10
2049.8031999999998
 20
980.33030000000008
 11
2028.6831999999999
 21
1028.3948
  0
CIRCLE
  8
_0-0_LAYER001
  6
CONTINUOUS
 62
    2
 10
2048.7975000000001
 20
982.61909999999989
 40
1.6999999999999997
  0
LINE
  8
_0-0_LAYER001
  6
CONTINUOUS
 62
    2
 10
2048.7975000000001
 20
982.61909999999989
 11
1832.7447000000002
 21
887.68350000000009
  0
CIRCLE
  8
_0-0_LAYER001
  6
CONTINUOUS
 62
    2
 10
1832.7447000000002
 20
887.68350000000009
 40
1.6999999999999997
  0
LINE
  8
_0-0_LAYER001
  6
CONTINUOUS
 62
    2
 10
1833.7503999999999
 20
885.39470000000006
 11
1812.6304
 21
933.45920000000001
  0
CIRCLE
  8
_0-0_LAYER001
  6
CONTINUOUS
 62
    2
 10
1832.7447000000002
 20
887.68350000000009
 40
1.6999999999999997
  0
LINE
  8
_0-0_LAYER001
  6
CONTINUOUS
 62
    2
 10
1832.7447000000002
 20
887.68350000000009
 11
1616.6918999999998
 21
792.7478000000001
  0
CIRCLE
  8
_0-0_LAYER001
  6
CONTINUOUS
 62
    2
 10
1616.6918999999998
 20
792.7478000000001
 40
1.6999999999999997
  0
LINE
  8
_0-0_LAYER001
  6
CONTINUOUS
 62
    2
 10
1617.6976
 20
790.45900000000006
 11
1596.5776000000001
 21
838.52350000000001
  0
CIRCLE
  8
_0-0_LAYER001
  6
CONTINUOUS
 62
    2
 10
1616.6918999999998
 20
792.7478000000001
 40
1.6999999999999997
  0
LINE
  8
_0-0_LAYER001
  6
CONTINUOUS
 62
    2
 10
1616.6918999999998
 20
792.7478000000001
 11
1400.6391000000003
 21
697.8121000000001
  0
CIRCLE
  8
_0-0_LAYER001
  6
CONTINUOUS
 62
    2
 10
1400.6391000000003
 20
697.8121000000001
 40
1.6999999999999997
  0
LINE
  8
_0-0_LAYER001
  6
CONTINUOUS
 62
    2
 10
1401.6448
 20
695.52330000000006
 11
1380.5248000000001
 21
743.58780000000002
  0
CIRCLE
  8
_0-0_LAYER001
  6
CONTINUOUS
 62
    2
 10
1400.6391000000003
 20
697.8121000000001
 40
1.6999999999999997
  0
LINE
  8
_0-0_LAYER001
  6
CONTINUOUS
 62
    2
 10
1400.6391000000003
 20
697.8121000000001
 11
1194.1324
 21
607.07109999999989
  0
CIRCLE
  8
_0-0_LAYER001
  6
CONTINUOUS
 62
    2
 10
1194.1324
 20
607.07109999999989
 40
1.6999999999999997
  0
LINE
  8
_0-0_LAYER001
  6
CONTINUOUS
 62
    2
 10
1195.1380999999999
 20
604.78230000000008
 11
1174.0181
 21
652.84680000000003
  0
LINE
  8
_0-1_LAYER003
  6
CONTINUOUS
 62
    2
 10
1160.8685
 20
867.95650000000001
 11
2089.0484999999999
 21
1285.6378999999997
  0
LINE
  8
_0-2_LAYER004
  6
DASHED3
 62
    2
 10
1106.6874
 20
847.96149999999989
 11
2087.4072999999999
 21
1289.2850000000001
  0
LINE
  8
_0-1_LAYER003
  6
CONTINUOUS
 62
    2
 10
1172.9386
 20
840.49009999999998
 11
2101.3595999999998
 21
1258.28
  0
LINE
  8
_0-1_LAYER003
  6
CONTINUOUS
 62
    3
 10
1078.7925
 20
831.02240000000006
 11
1090.8625
 21
803.55639999999994
  0
LINE
  8
_0-1_LAYER003
  6
CONTINUOUS
 62
    3
 10
1160.8685
 20
867.95640000000003
 11
1078.7925
 21
831.02240000000006
  0
LINE
  8
_0-1_LAYER003
  6
CONTINUOUS
 62
    3
 10
1160.8685
 20
867.95650000000001
 11
1172.9386
 21
840.49009999999998
  0
LINE
  8
_0-1_LAYER003
  6
CONTINUOUS
 62
    2
 10
1104.5415
 20
809.71139999999991
 11
1160.8659
 21
681.53539999999998
  0
LINE
  8
_0-1_LAYER003
  6
CONTINUOUS
 62
    2
 10
1098.4914000000001
 20
880.56960000000004
 11
1141.6756
 21
894.26260000000002
  0
LINE
  8
_0-1_LAYER003
  6
CONTINUOUS
 62
    2
 10
1098.4914000000001
 20
880.56960000000004
 11
1113.7156
 21
846.73749999999995
  0
LINE
  8
_0-1_LAYER003
  6
CONTINUOUS
 62
    2
 10
1141.6756
 20
894.26260000000002
 11
1154.7526
 21
865.20409999999993
  0
LINE
  8
_0-3_LAYER005
  6
CONTINUOUS
 62
    2
 10
1072.5187000000001
 20
872.27469999999994
 11
1089.0125
 21
835.62139999999999
  0
LINE
  8
_0-1_LAYER003
  6
DASHED1
 62
    2
 10
1072.5187000000001
 20
872.27469999999994
 11
1055.9545000000001
 21
909.08439999999996
  0
LINE
  8
_0-1_LAYER003
  6
CONTINUOUS
 62
    2
 10
1328.7155000000002
 20
910.58940000000007
 11
1257.1206
 21
713.88409999999999
  0
LINE
  8
_0-1_LAYER003
  6
CONTINUOUS
 62
    2
 10
1303.2625000000003
 20
899.13640000000009
 11
1231.6672000000001
 21
702.43010000000004
  0
LINE
  8
_0-1_LAYER003
  6
CONTINUOUS
 62
    2
 10
1315.9895000000001
 20
904.86339999999996
 11
1244.3942999999999
 21
708.15730000000008
  0
LINE
  8
_0-1_LAYER003
  6
CONTINUOUS
 62
    2
 10
1726.2964999999999
 20
1089.5014000000001
 11
1654.7013999999999
 21
892.7956999999999
  0
LINE
  8
_0-1_LAYER003
  6
CONTINUOUS
 62
    2
 10
1739.0225
 20
1095.2284
 11
1667.4272999999998
 21
898.52240000000006
  0
LINE
  8
_0-1_LAYER003
  6
CONTINUOUS
 62
    2
 10
1751.7485000000001
 20
1100.9544000000001
 11
1680.1536000000001
 21
904.24919999999997
  0
LINE
  8
_0-1_LAYER003
  6
CONTINUOUS
 62
    2
 10
2111.7197999999999
 20
1235.2574
 11
2052.1758
 21
1071.6594
  0
LINE
  8
_0-1_LAYER003
  6
CONTINUOUS
 62
    2
 10
2117.6033000000002
 20
1222.1828
 11
2064.9014999999999
 21
1077.386
  0
LINE
  8
_0-1_LAYER003
  6
CONTINUOUS
 62
    2
 10
2123.4865
 20
1209.1092000000001
 11
2077.6273999999999
 21
1083.1125999999999
  0
LINE
  8
_0-1_LAYER003
  6
CONTINUOUS
 62
    2
 10
1086.0454999999999
 20
814.51739999999995
 11
1095.0995
 21
805.46340000000009
  0
LINE
  8
_0-1_LAYER003
  6
CONTINUOUS
 62
    2
 10
1080.2145
 20
831.66239999999993
 11
1102.9024999999999
 21
808.97440000000006
  0
LINE
  8
_0-1_LAYER003
  6
CONTINUOUS
 62
    2
 10
1088.0165
 20
835.1733999999999
 11
1110.7045000000001
 21
812.48540000000003
  0
LINE
  8
_0-1_LAYER003
  6
CONTINUOUS
 62
    2
 10
1095.8195000000001
 20
838.6844000000001
 11
1118.5074999999999
 21
815.99639999999999
  0
LINE
  8
_0-1_LAYER003
  6
CONTINUOUS
 62
    2
 10
1103.6215
 20
842.19540000000006
 11
1126.3095000000001
 21
819.50739999999996
  0
LINE
  8
_0-1_LAYER003
  6
CONTINUOUS
 62
    2
 10
1111.4245000000001
 20
845.70640000000003
 11
1134.1125
 21
823.01839999999993
  0
LINE
  8
_0-1_LAYER003
  6
CONTINUOUS
 62
    2
 10
1119.2265
 20
849.2174
 11
1141.9145000000001
 21
826.5293999999999
  0
LINE
  8
_0-1_LAYER003
  6
CONTINUOUS
 62
    2
 10
1127.0295000000001
 20
852.72839999999997
 11
1149.7175
 21
830.04140000000007
  0
LINE
  8
_0-1_LAYER003
  6
CONTINUOUS
 62
    2
 10
1134.8325
 20
856.24039999999991
 11
1157.5205000000001
 21
833.55240000000003
  0
LINE
  8
_0-1_LAYER003
  6
CONTINUOUS
 62
    2
 10
1142.6344999999999
 20
859.7514000000001
 11
1165.3225
 21
837.0634
  0
LINE
  8
_0-1_LAYER003
  6
CONTINUOUS
 62
    2
 10
1150.4375
 20
863.26240000000007
 11
1172.7255
 21
840.97340000000008
  0
LINE
  8
_0-1_LAYER003
  6
CONTINUOUS
 62
    2
 10
1158.2394999999999
 20
866.77340000000004
 11
1163.8565000000001
 21
861.15640000000008
  0
LINE
  8
_0-1_LAYER003
  6
CONTINUOUS
 62
    3
 10
1090.8625
 20
803.55639999999994
 11
1172.9425000000001
 21
840.49240000000009
  0
ARC
  8
_0-1_LAYER003
  6
DASHED1
 62
    2
 10
1070.8105
 20
875.97540000000004
 40
36.289999999999999
 50
25.317412999999998
 51
114.16601
  0
CIRCLE
  8
_0-3_LAYER005
  6
CONTINUOUS
 62
    2
 10
1092.4715000000001
 20
849.96939999999995
 40
0.3049999999999999
  0
CIRCLE
  8
_0-3_LAYER005
  6
CONTINUOUS
 62
    2
 10
1094.8415
 20
851.90840000000003
 40
0.3049999999999999
  0
CIRCLE
  8
_0-3_LAYER005
  6
CONTINUOUS
 62
    2
 10
1092.6875
 20
851.90840000000003
 40
0.3049999999999999
  0
CIRCLE
  8
_0-3_LAYER005
  6
CONTINUOUS
 62
    2
 10
1091.3945000000001
 20
853.84740000000011
 40
0.3049999999999999
  0
CIRCLE
  8
_0-3_LAYER005
  6
CONTINUOUS
 62
    2
 10
1090.9635000000001
 20
855.35539999999992
 40
0.3049999999999999
  0
CIRCLE
  8
_0-3_LAYER005
  6
CONTINUOUS
 62
    2
 10
1089.2405000000001
 20
856.2174
 40
0.3049999999999999
  0
CIRCLE
  8
_0-3_LAYER005
  6
CONTINUOUS
 62
    2
 10
1092.9024999999999
 20
857.72540000000004
 40
0.3049999999999999
  0
CIRCLE
  8
_0-3_LAYER005
  6
CONTINUOUS
 62
    2
 10
1089.8865000000001
 20
857.51039999999989
 40
0.3049999999999999
  0
CIRCLE
  8
_0-3_LAYER005
  6
CONTINUOUS
 62
    2
 10
1093.3335
 20
857.2944
 40
0.3049999999999999
  0
CIRCLE
  8
_0-3_LAYER005
  6
CONTINUOUS
 62
    2
 10
1099.7964999999999
 20
850.61640000000011
 40
0.3049999999999999
  0
CIRCLE
  8
_0-3_LAYER005
  6
CONTINUOUS
 62
    2
 10
1100.0125
 20
851.69340000000011
 40
0.3049999999999999
  0
CIRCLE
  8
_0-3_LAYER005
  6
CONTINUOUS
 62
    2
 10
1102.3815
 20
854.49340000000007
 40
0.3049999999999999
  0
CIRCLE
  8
_0-3_LAYER005
  6
CONTINUOUS
 62
    2
 10
1095.9185
 20
854.27839999999992
 40
0.3049999999999999
  0
CIRCLE
  8
_0-3_LAYER005
  6
CONTINUOUS
 62
    2
 10
1095.7035000000001
 20
847.60040000000004
 40
0.3049999999999999
  0
CIRCLE
  8
_0-3_LAYER005
  6
CONTINUOUS
 62
    2
 10
1100.6585
 20
848.46139999999991
 40
0.3049999999999999
  0
CIRCLE
  8
_0-3_LAYER005
  6
CONTINUOUS
 62
    2
 10
1105.6134999999999
 20
847.81539999999995
 40
0.3049999999999999
  0
CIRCLE
  8
_0-3_LAYER005
  6
CONTINUOUS
 62
    2
 10
1103.6745000000001
 20
845.66139999999996
 40
0.3049999999999999
  0
CIRCLE
  8
_0-3_LAYER005
  6
CONTINUOUS
 62
    2
 10
1097.6424999999999
 20
843.50639999999999
 40
0.3049999999999999
  0
CIRCLE
  8
_0-3_LAYER005
  6
CONTINUOUS
 62
    2
 10
1090.7484999999999
 20
841.78340000000003
 40
0.3049999999999999
  0
CIRCLE
  8
_0-3_LAYER005
  6
CONTINUOUS
 62
    2
 10
1089.0245
 20
842.42939999999999
 40
0.3049999999999999
  0
CIRCLE
  8
_0-3_LAYER005
  6
CONTINUOUS
 62
    2
 10
1086.4395
 20
844.58339999999998
 40
0.3049999999999999
  0
CIRCLE
  8
_0-3_LAYER005
  6
CONTINUOUS
 62
    2
 10
1085.7935
 20
848.67740000000003
 40
0.3049999999999999
  0
CIRCLE
  8
_0-3_LAYER005
  6
CONTINUOUS
 62
    2
 10
1084.9314999999999
 20
852.33940000000007
 40
0.3049999999999999
  0
CIRCLE
  8
_0-3_LAYER005
  6
CONTINUOUS
 62
    2
 10
1084.5005000000001
 20
854.70939999999996
 40
0.3049999999999999
  0
CIRCLE
  8
_0-3_LAYER005
  6
CONTINUOUS
 62
    2
 10
1082.7774999999999
 20
859.87940000000003
 40
0.3049999999999999
  0
CIRCLE
  8
_0-3_LAYER005
  6
CONTINUOUS
 62
    2
 10
1081.0535
 20
865.91239999999993
 40
0.3049999999999999
  0
CIRCLE
  8
_0-3_LAYER005
  6
CONTINUOUS
 62
    2
 10
1079.3305
 20
871.51340000000005
 40
0.3049999999999999
  0
CIRCLE
  8
_0-3_LAYER005
  6
CONTINUOUS
 62
    2
 10
1076.5295000000001
 20
876.03739999999993
 40
0.3049999999999999
  0
CIRCLE
  8
_0-3_LAYER005
  6
CONTINUOUS
 62
    2
 10
1076.5295000000001
 20
878.19139999999993
 40
0.3049999999999999
  0
CIRCLE
  8
_0-3_LAYER005
  6
CONTINUOUS
 62
    2
 10
1081.9155000000001
 20
875.60639999999989
 40
0.3049999999999999
  0
CIRCLE
  8
_0-3_LAYER005
  6
CONTINUOUS
 62
    2
 10
1084.7165
 20
867.63539999999989
 40
0.3049999999999999
  0
CIRCLE
  8
_0-3_LAYER005
  6
CONTINUOUS
 62
    2
 10
1087.7325000000001
 20
864.4043999999999
 40
0.3049999999999999
  0
CIRCLE
  8
_0-3_LAYER005
  6
CONTINUOUS
 62
    2
 10
1093.7645
 20
866.55839999999989
 40
0.3049999999999999
  0
CIRCLE
  8
_0-3_LAYER005
  6
CONTINUOUS
 62
    2
 10
1090.5325
 20
869.14339999999993
 40
0.3049999999999999
  0
CIRCLE
  8
_0-3_LAYER005
  6
CONTINUOUS
 62
    2
 10
1093.7645
 20
862.46540000000005
 40
0.3049999999999999
  0
CIRCLE
  8
_0-3_LAYER005
  6
CONTINUOUS
 62
    2
 10
1093.5485000000001
 20
863.97340000000008
 40
0.3049999999999999
  0
CIRCLE
  8
_0-3_LAYER005
  6
CONTINUOUS
 62
    2
 10
1096.5654999999999
 20
865.91239999999993
 40
0.3049999999999999
  0
CIRCLE
  8
_0-3_LAYER005
  6
CONTINUOUS
 62
    2
 10
1090.9635000000001
 20
872.15940000000001
 40
0.3049999999999999
  0
CIRCLE
  8
_0-3_LAYER005
  6
CONTINUOUS
 62
    2
 10
1089.8865000000001
 20
875.17540000000008
 40
0.3049999999999999
  0
CIRCLE
  8
_0-3_LAYER005
  6
CONTINUOUS
 62
    2
 10
1087.7325000000001
 20
877.76140000000009
 40
0.3049999999999999
  0
CIRCLE
  8
_0-3_LAYER005
  6
CONTINUOUS
 62
    2
 10
1089.2405000000001
 20
880.56140000000005
 40
0.3049999999999999
  0
CIRCLE
  8
_0-3_LAYER005
  6
CONTINUOUS
 62
    2
 10
1091.3945000000001
 20
879.26939999999991
 40
0.3049999999999999
  0
CIRCLE
  8
_0-3_LAYER005
  6
CONTINUOUS
 62
    2
 10
1097.2114999999999
 20
873.4523999999999
 40
0.3049999999999999
  0
CIRCLE
  8
_0-3_LAYER005
  6
CONTINUOUS
 62
    2
 10
1100.2275
 20
869.57439999999997
 40
0.3049999999999999
  0
CIRCLE
  8
_0-3_LAYER005
  6
CONTINUOUS
 62
    2
 10
1099.5815
 20
864.4043999999999
 40
0.3049999999999999
  0
CIRCLE
  8
_0-3_LAYER005
  6
CONTINUOUS
 62
    2
 10
1098.2885000000001
 20
862.68039999999996
 40
0.3049999999999999
  0
CIRCLE
  8
_0-3_LAYER005
  6
CONTINUOUS
 62
    2
 10
1098.9345000000001
 20
858.37139999999999
 40
0.3049999999999999
  0
CIRCLE
  8
_0-3_LAYER005
  6
CONTINUOUS
 62
    2
 10
1097.2114999999999
 20
856.64840000000004
 40
0.3049999999999999
  0
CIRCLE
  8
_0-3_LAYER005
  6
CONTINUOUS
 62
    2
 10
1100.8734999999999
 20
857.51039999999989
 40
0.3049999999999999
  0
CIRCLE
  8
_0-3_LAYER005
  6
CONTINUOUS
 62
    2
 10
1101.7355
 20
859.66439999999989
 40
0.3049999999999999
  0
CIRCLE
  8
_0-3_LAYER005
  6
CONTINUOUS
 62
    2
 10
1103.2435
 20
854.0634
 40
0.3049999999999999
  0
CIRCLE
  8
_0-3_LAYER005
  6
CONTINUOUS
 62
    2
 10
1106.2594999999999
 20
852.33940000000007
 40
0.3049999999999999
  0
CIRCLE
  8
_0-3_LAYER005
  6
CONTINUOUS
 62
    2
 10
1107.9835
 20
851.69340000000011
 40
0.3049999999999999
  0
CIRCLE
  8
_0-3_LAYER005
  6
CONTINUOUS
 62
    2
 10
1105.6134999999999
 20
855.78639999999996
 40
0.3049999999999999
  0
CIRCLE
  8
_0-3_LAYER005
  6
CONTINUOUS
 62
    2
 10
1101.0895
 20
854.27839999999992
 40
0.3049999999999999
  0
CIRCLE
  8
_0-3_LAYER005
  6
CONTINUOUS
 62
    2
 10
1088.1635000000001
 20
848.0304000000001
 40
0.3049999999999999
  0
CIRCLE
  8
_0-3_LAYER005
  6
CONTINUOUS
 62
    2
 10
1087.9475
 20
846.9534000000001
 40
0.3049999999999999
  0
CIRCLE
  8
_0-3_LAYER005
  6
CONTINUOUS
 62
    2
 10
1092.4715000000001
 20
845.01440000000002
 40
0.3049999999999999
  0
CIRCLE
  8
_0-3_LAYER005
  6
CONTINUOUS
 62
    2
 10
1092.6875
 20
847.1694
 40
0.3049999999999999
  0
CIRCLE
  8
_0-3_LAYER005
  6
CONTINUOUS
 62
    2
 10
1099.3655000000001
 20
845.8764000000001
 40
0.3049999999999999
  0
CIRCLE
  8
_0-3_LAYER005
  6
CONTINUOUS
 62
    2
 10
1089.6714999999999
 20
854.49340000000007
 40
0.3049999999999999
  0
CIRCLE
  8
_0-3_LAYER005
  6
CONTINUOUS
 62
    2
 10
1085.7935
 20
857.94039999999995
 40
0.3049999999999999
  0
CIRCLE
  8
_0-3_LAYER005
  6
CONTINUOUS
 62
    2
 10
1085.1465000000001
 20
860.52639999999997
 40
0.3049999999999999
  0
CIRCLE
  8
_0-3_LAYER005
  6
CONTINUOUS
 62
    2
 10
1079.3305
 20
860.95740000000001
 40
0.3049999999999999
  0
CIRCLE
  8
_0-3_LAYER005
  6
CONTINUOUS
 62
    2
 10
1078.6835000000001
 20
864.1884
 40
0.3049999999999999
  0
CIRCLE
  8
_0-3_LAYER005
  6
CONTINUOUS
 62
    2
 10
1079.1144999999999
 20
868.71239999999989
 40
0.3049999999999999
  0
CIRCLE
  8
_0-3_LAYER005
  6
CONTINUOUS
 62
    2
 10
1077.6065000000001
 20
868.71239999999989
 40
0.3049999999999999
  0
CIRCLE
  8
_0-3_LAYER005
  6
CONTINUOUS
 62
    2
 10
1080.6224999999999
 20
871.2983999999999
 40
0.3049999999999999
  0
CIRCLE
  8
_0-3_LAYER005
  6
CONTINUOUS
 62
    2
 10
1077.3915
 20
873.66740000000004
 40
0.3049999999999999
  0
CIRCLE
  8
_0-3_LAYER005
  6
CONTINUOUS
 62
    2
 10
1072.2204999999999
 20
878.83840000000009
 40
0.3049999999999999
  0
CIRCLE
  8
_0-3_LAYER005
  6
CONTINUOUS
 62
    2
 10
1083.4235000000001
 20
880.99240000000009
 40
0.3049999999999999
  0
CIRCLE
  8
_0-3_LAYER005
  6
CONTINUOUS
 62
    2
 10
1086.8705
 20
884.00839999999994
 40
0.3049999999999999
  0
CIRCLE
  8
_0-3_LAYER005
  6
CONTINUOUS
 62
    2
 10
1083.6385
 20
877.54539999999997
 40
0.3049999999999999
  0
CIRCLE
  8
_0-3_LAYER005
  6
CONTINUOUS
 62
    2
 10
1089.6714999999999
 20
871.08240000000001
 40
0.3049999999999999
  0
CIRCLE
  8
_0-3_LAYER005
  6
CONTINUOUS
 62
    2
 10
1087.3015
 20
870.22039999999993
 40
0.3049999999999999
  0
CIRCLE
  8
_0-3_LAYER005
  6
CONTINUOUS
 62
    2
 10
1086.4395
 20
863.32639999999992
 40
0.3049999999999999
  0
CIRCLE
  8
_0-3_LAYER005
  6
CONTINUOUS
 62
    2
 10
1087.5165
 20
861.38740000000007
 40
0.3049999999999999
  0
CIRCLE
  8
_0-3_LAYER005
  6
CONTINUOUS
 62
    2
 10
1093.9794999999999
 20
878.19139999999993
 40
0.3049999999999999
  0
CIRCLE
  8
_0-3_LAYER005
  6
CONTINUOUS
 62
    2
 10
1093.7645
 20
881.85439999999994
 40
0.3049999999999999
  0
CIRCLE
  8
_0-3_LAYER005
  6
CONTINUOUS
 62
    2
 10
1090.1015
 20
884.87040000000002
 40
0.3049999999999999
  0
CIRCLE
  8
_0-3_LAYER005
  6
CONTINUOUS
 62
    2
 10
1087.0854999999999
 20
884.87040000000002
 40
0.3049999999999999
  0
CIRCLE
  8
_0-3_LAYER005
  6
CONTINUOUS
 62
    2
 10
1073.7284999999999
 20
881.63840000000005
 40
0.3049999999999999
  0
CIRCLE
  8
_0-3_LAYER005
  6
CONTINUOUS
 62
    2
 10
1070.9285
 20
876.89940000000001
 40
0.3049999999999999
  0
CIRCLE
  8
_0-3_LAYER005
  6
CONTINUOUS
 62
    2
 10
1073.0825
 20
874.09840000000008
 40
0.3049999999999999
  0
CIRCLE
  8
_0-3_LAYER005
  6
CONTINUOUS
 62
    2
 10
1074.5905
 20
870.43640000000005
 40
0.3049999999999999
  0
CIRCLE
  8
_0-3_LAYER005
  6
CONTINUOUS
 62
    2
 10
1081.6994999999999
 20
857.94039999999995
 40
0.3049999999999999
  0
CIRCLE
  8
_0-3_LAYER005
  6
CONTINUOUS
 62
    2
 10
1083.4235000000001
 20
854.49340000000007
 40
0.3049999999999999
  0
CIRCLE
  8
_0-3_LAYER005
  6
CONTINUOUS
 62
    2
 10
1086.8705
 20
854.0634
 40
0.3049999999999999
  0
CIRCLE
  8
_0-3_LAYER005
  6
CONTINUOUS
 62
    2
 10
1087.3015
 20
851.90840000000003
 40
0.3049999999999999
  0
CIRCLE
  8
_0-3_LAYER005
  6
CONTINUOUS
 62
    2
 10
1089.0245
 20
860.95740000000001
 40
0.3049999999999999
  0
CIRCLE
  8
_0-3_LAYER005
  6
CONTINUOUS
 62
    2
 10
1090.5325
 20
862.03440000000001
 40
0.3049999999999999
  0
CIRCLE
  8
_0-3_LAYER005
  6
CONTINUOUS
 62
    2
 10
1084.2855
 20
863.32639999999992
 40
0.3049999999999999
  0
CIRCLE
  8
_0-3_LAYER005
  6
CONTINUOUS
 62
    2
 10
1083.4235000000001
 20
868.06639999999993
 40
0.3049999999999999
  0
CIRCLE
  8
_0-3_LAYER005
  6
CONTINUOUS
 62
    2
 10
1098.9345000000001
 20
859.23340000000007
 40
0.3049999999999999
  0
CIRCLE
  8
_0-3_LAYER005
  6
CONTINUOUS
 62
    2
 10
1097.2114999999999
 20
860.09539999999993
 40
0.3049999999999999
  0
CIRCLE
  8
_0-3_LAYER005
  6
CONTINUOUS
 62
    2
 10
1100.8734999999999
 20
861.60339999999997
 40
0.3049999999999999
  0
CIRCLE
  8
_0-3_LAYER005
  6
CONTINUOUS
 62
    2
 10
1097.8575000000001
 20
861.38740000000007
 40
0.3049999999999999
  0
CIRCLE
  8
_0-3_LAYER005
  6
CONTINUOUS
 62
    2
 10
1097.6424999999999
 20
858.37139999999999
 40
0.3049999999999999
  0
CIRCLE
  8
_0-3_LAYER005
  6
CONTINUOUS
 62
    2
 10
1102.1665
 20
854.92440000000011
 40
0.3049999999999999
  0
CIRCLE
  8
_0-3_LAYER005
  6
CONTINUOUS
 62
    2
 10
1100.4425000000001
 20
855.78639999999996
 40
0.3049999999999999
  0
CIRCLE
  8
_0-3_LAYER005
  6
CONTINUOUS
 62
    2
 10
1104.1054999999999
 20
857.2944
 40
0.3049999999999999
  0
CIRCLE
  8
_0-3_LAYER005
  6
CONTINUOUS
 62
    2
 10
1101.0895
 20
857.07940000000008
 40
0.3049999999999999
  0
CIRCLE
  8
_0-3_LAYER005
  6
CONTINUOUS
 62
    2
 10
1100.8734999999999
 20
854.0634
 40
0.3049999999999999
  0
CIRCLE
  8
_0-3_LAYER005
  6
CONTINUOUS
 62
    2
 10
1102.8125
 20
848.24639999999999
 40
0.3049999999999999
  0
CIRCLE
  8
_0-3_LAYER005
  6
CONTINUOUS
 62
    2
 10
1101.0895
 20
849.10840000000007
 40
0.3049999999999999
  0
CIRCLE
  8
_0-3_LAYER005
  6
CONTINUOUS
 62
    2
 10
1104.7515000000001
 20
850.61640000000011
 40
0.3049999999999999
  0
CIRCLE
  8
_0-3_LAYER005
  6
CONTINUOUS
 62
    2
 10
1101.7355
 20
850.40039999999999
 40
0.3049999999999999
  0
CIRCLE
  8
_0-3_LAYER005
  6
CONTINUOUS
 62
    2
 10
1101.5205000000001
 20
847.38439999999991
 40
0.3049999999999999
  0
CIRCLE
  8
_0-3_LAYER005
  6
CONTINUOUS
 62
    2
 10
1096.7805000000001
 20
841.13640000000009
 40
0.3049999999999999
  0
CIRCLE
  8
_0-3_LAYER005
  6
CONTINUOUS
 62
    2
 10
1095.0574999999999
 20
841.99839999999995
 40
0.3049999999999999
  0
CIRCLE
  8
_0-3_LAYER005
  6
CONTINUOUS
 62
    2
 10
1098.7194999999999
 20
843.50639999999999
 40
0.3049999999999999
  0
CIRCLE
  8
_0-3_LAYER005
  6
CONTINUOUS
 62
    2
 10
1095.7035000000001
 20
843.29140000000007
 40
0.3049999999999999
  0
CIRCLE
  8
_0-3_LAYER005
  6
CONTINUOUS
 62
    2
 10
1095.4875
 20
840.27539999999999
 40
0.3049999999999999
  0
CIRCLE
  8
_0-3_LAYER005
  6
CONTINUOUS
 62
    2
 10
1094.4105
 20
861.60339999999997
 40
0.3049999999999999
  0
CIRCLE
  8
_0-3_LAYER005
  6
CONTINUOUS
 62
    2
 10
1092.6875
 20
862.46540000000005
 40
0.3049999999999999
  0
CIRCLE
  8
_0-3_LAYER005
  6
CONTINUOUS
 62
    2
 10
1096.3495
 20
863.97340000000008
 40
0.3049999999999999
  0
CIRCLE
  8
_0-3_LAYER005
  6
CONTINUOUS
 62
    2
 10
1093.3335
 20
863.75739999999996
 40
0.3049999999999999
  0
CIRCLE
  8
_0-3_LAYER005
  6
CONTINUOUS
 62
    2
 10
1093.1185
 20
860.74140000000011
 40
0.3049999999999999
  0
CIRCLE
  8
_0-3_LAYER005
  6
CONTINUOUS
 62
    2
 10
1096.3495
 20
871.29739999999993
 40
0.3049999999999999
  0
CIRCLE
  8
_0-3_LAYER005
  6
CONTINUOUS
 62
    2
 10
1094.6265000000001
 20
872.15940000000001
 40
0.3049999999999999
  0
CIRCLE
  8
_0-3_LAYER005
  6
CONTINUOUS
 62
    2
 10
1098.2885000000001
 20
873.66740000000004
 40
0.3049999999999999
  0
CIRCLE
  8
_0-3_LAYER005
  6
CONTINUOUS
 62
    2
 10
1095.2725
 20
873.4523999999999
 40
0.3049999999999999
  0
CIRCLE
  8
_0-3_LAYER005
  6
CONTINUOUS
 62
    2
 10
1095.0574999999999
 20
870.43640000000005
 40
0.3049999999999999
  0
CIRCLE
  8
_0-3_LAYER005
  6
CONTINUOUS
 62
    2
 10
1094.4105
 20
869.57439999999997
 40
0.3049999999999999
  0
CIRCLE
  8
_0-3_LAYER005
  6
CONTINUOUS
 62
    2
 10
1092.6875
 20
870.43640000000005
 40
0.3049999999999999
  0
CIRCLE
  8
_0-3_LAYER005
  6
CONTINUOUS
 62
    2
 10
1096.3495
 20
871.94440000000009
 40
0.3049999999999999
  0
CIRCLE
  8
_0-3_LAYER005
  6
CONTINUOUS
 62
    2
 10
1093.3335
 20
871.72839999999997
 40
0.3049999999999999
  0
CIRCLE
  8
_0-3_LAYER005
  6
CONTINUOUS
 62
    2
 10
1093.1185
 20
868.71239999999989
 40
0.3049999999999999
  0
CIRCLE
  8
_0-3_LAYER005
  6
CONTINUOUS
 62
    2
 10
1089.0245
 20
872.59040000000005
 40
0.3049999999999999
  0
CIRCLE
  8
_0-3_LAYER005
  6
CONTINUOUS
 62
    2
 10
1087.3015
 20
873.4523999999999
 40
0.3049999999999999
  0
CIRCLE
  8
_0-3_LAYER005
  6
CONTINUOUS
 62
    2
 10
1090.9635000000001
 20
874.96039999999994
 40
0.3049999999999999
  0
CIRCLE
  8
_0-3_LAYER005
  6
CONTINUOUS
 62
    2
 10
1087.9475
 20
874.74540000000002
 40
0.3049999999999999
  0
CIRCLE
  8
_0-3_LAYER005
  6
CONTINUOUS
 62
    2
 10
1087.7325000000001
 20
871.72839999999997
 40
0.3049999999999999
  0
CIRCLE
  8
_0-3_LAYER005
  6
CONTINUOUS
 62
    2
 10
1086.6545000000001
 20
872.59040000000005
 40
0.3049999999999999
  0
CIRCLE
  8
_0-3_LAYER005
  6
CONTINUOUS
 62
    2
 10
1084.9314999999999
 20
873.4523999999999
 40
0.3049999999999999
  0
CIRCLE
  8
_0-3_LAYER005
  6
CONTINUOUS
 62
    2
 10
1088.5934999999999
 20
874.96039999999994
 40
0.3049999999999999
  0
CIRCLE
  8
_0-3_LAYER005
  6
CONTINUOUS
 62
    2
 10
1085.5775000000001
 20
874.74540000000002
 40
0.3049999999999999
  0
CIRCLE
  8
_0-3_LAYER005
  6
CONTINUOUS
 62
    2
 10
1085.3625
 20
871.72839999999997
 40
0.3049999999999999
  0
CIRCLE
  8
_0-3_LAYER005
  6
CONTINUOUS
 62
    2
 10
1084.0695000000001
 20
872.80639999999994
 40
0.3049999999999999
  0
CIRCLE
  8
_0-3_LAYER005
  6
CONTINUOUS
 62
    2
 10
1082.3465000000001
 20
873.66740000000004
 40
0.3049999999999999
  0
CIRCLE
  8
_0-3_LAYER005
  6
CONTINUOUS
 62
    2
 10
1086.0084999999999
 20
875.17540000000008
 40
0.3049999999999999
  0
CIRCLE
  8
_0-3_LAYER005
  6
CONTINUOUS
 62
    2
 10
1082.9925000000001
 20
874.96039999999994
 40
0.3049999999999999
  0
CIRCLE
  8
_0-3_LAYER005
  6
CONTINUOUS
 62
    2
 10
1082.7774999999999
 20
871.94440000000009
 40
0.3049999999999999
  0
CIRCLE
  8
_0-3_LAYER005
  6
CONTINUOUS
 62
    2
 10
1082.3465000000001
 20
878.19139999999993
 40
0.3049999999999999
  0
CIRCLE
  8
_0-3_LAYER005
  6
CONTINUOUS
 62
    2
 10
1080.6224999999999
 20
879.05340000000001
 40
0.3049999999999999
  0
CIRCLE
  8
_0-3_LAYER005
  6
CONTINUOUS
 62
    2
 10
1084.2855
 20
880.56140000000005
 40
0.3049999999999999
  0
CIRCLE
  8
_0-3_LAYER005
  6
CONTINUOUS
 62
    2
 10
1081.2695000000001
 20
880.3463999999999
 40
0.3049999999999999
  0
CIRCLE
  8
_0-3_LAYER005
  6
CONTINUOUS
 62
    2
 10
1081.0535
 20
877.33040000000005
 40
0.3049999999999999
  0
CIRCLE
  8
_0-3_LAYER005
  6
CONTINUOUS
 62
    2
 10
1083.8544999999999
 20
879.91540000000009
 40
0.3049999999999999
  0
CIRCLE
  8
_0-3_LAYER005
  6
CONTINUOUS
 62
    2
 10
1082.1305
 20
880.77739999999994
 40
0.3049999999999999
  0
CIRCLE
  8
_0-3_LAYER005
  6
CONTINUOUS
 62
    2
 10
1085.7935
 20
882.28539999999998
 40
0.3049999999999999
  0
CIRCLE
  8
_0-3_LAYER005
  6
CONTINUOUS
 62
    2
 10
1082.7774999999999
 20
882.06940000000009
 40
0.3049999999999999
  0
CIRCLE
  8
_0-3_LAYER005
  6
CONTINUOUS
 62
    2
 10
1082.5615
 20
879.05340000000001
 40
0.3049999999999999
  0
CIRCLE
  8
_0-3_LAYER005
  6
CONTINUOUS
 62
    2
 10
1080.6224999999999
 20
877.33040000000005
 40
0.3049999999999999
  0
CIRCLE
  8
_0-3_LAYER005
  6
CONTINUOUS
 62
    2
 10
1078.8995
 20
878.19139999999993
 40
0.3049999999999999
  0
CIRCLE
  8
_0-3_LAYER005
  6
CONTINUOUS
 62
    2
 10
1082.5615
 20
879.69939999999997
 40
0.3049999999999999
  0
CIRCLE
  8
_0-3_LAYER005
  6
CONTINUOUS
 62
    2
 10
1079.5454999999999
 20
879.48440000000005
 40
0.3049999999999999
  0
CIRCLE
  8
_0-3_LAYER005
  6
CONTINUOUS
 62
    2
 10
1079.3305
 20
876.46839999999997
 40
0.3049999999999999
  0
CIRCLE
  8
_0-3_LAYER005
  6
CONTINUOUS
 62
    2
 10
1081.4845
 20
873.02140000000009
 40
0.3049999999999999
  0
CIRCLE
  8
_0-3_LAYER005
  6
CONTINUOUS
 62
    2
 10
1079.7615000000001
 20
873.88339999999994
 40
0.3049999999999999
  0
CIRCLE
  8
_0-3_LAYER005
  6
CONTINUOUS
 62
    2
 10
1083.4235000000001
 20
875.39139999999998
 40
0.3049999999999999
  0
CIRCLE
  8
_0-3_LAYER005
  6
CONTINUOUS
 62
    2
 10
1080.4075
 20
875.17540000000008
 40
0.3049999999999999
  0
CIRCLE
  8
_0-3_LAYER005
  6
CONTINUOUS
 62
    2
 10
1080.1914999999999
 20
872.15940000000001
 40
0.3049999999999999
  0
CIRCLE
  8
_0-3_LAYER005
  6
CONTINUOUS
 62
    2
 10
1082.5615
 20
865.48139999999989
 40
0.3049999999999999
  0
CIRCLE
  8
_0-3_LAYER005
  6
CONTINUOUS
 62
    2
 10
1080.8385000000001
 20
866.3424
 40
0.3049999999999999
  0
CIRCLE
  8
_0-3_LAYER005
  6
CONTINUOUS
 62
    2
 10
1084.5005000000001
 20
867.85140000000001
 40
0.3049999999999999
  0
CIRCLE
  8
_0-3_LAYER005
  6
CONTINUOUS
 62
    2
 10
1081.4845
 20
867.63539999999989
 40
0.3049999999999999
  0
CIRCLE
  8
_0-3_LAYER005
  6
CONTINUOUS
 62
    2
 10
1081.2695000000001
 20
864.61940000000004
 40
0.3049999999999999
  0
CIRCLE
  8
_0-3_LAYER005
  6
CONTINUOUS
 62
    2
 10
1086.6545000000001
 20
858.58739999999989
 40
0.3049999999999999
  0
CIRCLE
  8
_0-3_LAYER005
  6
CONTINUOUS
 62
    2
 10
1084.9314999999999
 20
859.44839999999999
 40
0.3049999999999999
  0
CIRCLE
  8
_0-3_LAYER005
  6
CONTINUOUS
 62
    2
 10
1088.5934999999999
 20
860.95740000000001
 40
0.3049999999999999
  0
CIRCLE
  8
_0-3_LAYER005
  6
CONTINUOUS
 62
    2
 10
1085.5775000000001
 20
860.74140000000011
 40
0.3049999999999999
  0
CIRCLE
  8
_0-3_LAYER005
  6
CONTINUOUS
 62
    2
 10
1085.3625
 20
857.72540000000004
 40
0.3049999999999999
  0
CIRCLE
  8
_0-3_LAYER005
  6
CONTINUOUS
 62
    2
 10
1080.4075
 20
863.75739999999996
 40
0.3049999999999999
  0
CIRCLE
  8
_0-3_LAYER005
  6
CONTINUOUS
 62
    2
 10
1078.6835000000001
 20
864.61940000000004
 40
0.3049999999999999
  0
CIRCLE
  8
_0-3_LAYER005
  6
CONTINUOUS
 62
    2
 10
1082.3465000000001
 20
866.12740000000008
 40
0.3049999999999999
  0
CIRCLE
  8
_0-3_LAYER005
  6
CONTINUOUS
 62
    2
 10
1079.3305
 20
865.91239999999993
 40
0.3049999999999999
  0
CIRCLE
  8
_0-3_LAYER005
  6
CONTINUOUS
 62
    2
 10
1079.1144999999999
 20
862.89540000000011
 40
0.3049999999999999
  0
LINE
  8
_0-0_LAYER001
  6
CONTINUOUS
 62
    2
 10
1804.4346
 20
771.91139999999996
 11
2009.2573000000002
 21
771.91139999999996
  0
LINE
  8
_0-0_LAYER001
  6
CONTINUOUS
 62
    2
 10
1709.8136
 20
1118.98
 11
1709.8136
 21
1126.48
  0
LINE
  8
_0-0_LAYER001
  6
CONTINUOUS
 62
    2
 10
1709.8136
 20
1126.48
 11
1713.5636
 21
1119.9848
  0
LINE
  8
_0-0_LAYER001
  6
CONTINUOUS
 62
    2
 10
1709.8136
 20
1126.48
 11
1812.7671
 21
742.2521999999999
  0
LINE
  8
_0-1_LAYER003
  6
CONTINUOUS
 62
    7
 10
934.53490000000011
 20
748.18360000000007
 11
1081.5349000000001
 21
748.18360000000007
  0
LINE
  8
_0-1_LAYER003
  6
CONTINUOUS
 62
    7
 10
1081.5349000000001
 20
748.18360000000007
 11
1101.4290000000001
 21
821.76089999999988
  0
LINE
  8
_0-1_LAYER003
  6
CONTINUOUS
 62
    7
 10
1101.4290000000001
 20
821.76089999999988
 11
1097.6790000000001
 21
815.93419999999992
  0
LINE
  8
_0-1_LAYER003
  6
CONTINUOUS
 62
    7
 10
1097.6790000000001
 20
815.93419999999992
 11
1101.4290000000001
 21
821.76089999999988
  0
LINE
  8
_0-1_LAYER003
  6
CONTINUOUS
 62
    7
 10
1101.4290000000001
 20
821.76089999999988
 11
1101.4290000000001
 21
814.92930000000001
  0
LINE
  8
_0-1_LAYER003
  6
CONTINUOUS
 62
    7
 10
1104.5415
 20
809.71139999999991
 11
1160.8659
 21
681.53539999999998
  0
LINE
  8
_0-1_LAYER003
  6
CONTINUOUS
 62
    7
 10
1160.8659
 20
681.53539999999998
 11
1169.9855
 21
685.63920000000007
  0
LINE
  8
_0-1_LAYER003
  6
CONTINUOUS
 62
    7
 10
1170.021
 20
685.55839999999989
 11
1117.6840999999999
 21
804.66020000000003
  0
LINE
  8
_0-1_LAYER003
  6
CONTINUOUS
 62
    7
 10
1186.0814
 20
835.43900000000008
 11
1182.0581999999999
 21
844.59390000000008
  0
LINE
  8
_0-1_LAYER003
  6
CONTINUOUS
 62
    7
 10
1108.5645
 20
800.55639999999994
 11
1186.0814
 21
835.43900000000008
  0
LINE
  8
_0-1_LAYER003
  6
CONTINUOUS
 62
    7
 10
1089.0125
 20
835.62139999999999
 11
1072.9565277026886
 21
871.47404360614701
  0
LINE
  8
_0-1_LAYER003
  6
CONTINUOUS
 62
    7
 10
1154.23076417011
 20
865.03240934987593
 11
1113.7155214519062
 21
846.73767455412894
  0
LINE
  8
_0-1_LAYER003
  6
CONTINUOUS
 62
    7
 10
1113.7156
 20
846.73749999999995
 11
1141.6756
 21
894.26260000000002
  0
LINE
  8
_0-1_LAYER003
  6
CONTINUOUS
 62
    7
 10
1098.9990122354391
 20
880.430966645117
 11
1154.7525000000001
 21
865.2041999999999
  0
LINE
  8
_0-1_LAYER003
  6
CONTINUOUS
 62
    7
 10
1098.4914000000001
 20
880.56960000000004
 11
1113.7156
 21
846.73749999999995
  0
LINE
  8
_0-1_LAYER003
  6
CONTINUOUS
 62
    7
 10
1098.4914000000001
 20
880.56960000000004
 11
1141.6756
 21
894.26260000000002
  0
LINE
  8
_0-1_LAYER003
  6
CONTINUOUS
 62
    7
 10
1154.7524793899461
 20
865.20420562878644
 11
1141.6756
 21
894.26260000000002
  0
LINE
  8
_0-1_LAYER003
  6
CONTINUOUS
 62
    7
 10
1127.5978
 20
876.13580000000002
 11
1122.2945
 21
881.43910000000005
  0
LINE
  8
_0-1_LAYER003
  6
CONTINUOUS
 62
    7
 10
1127.5978
 20
876.13580000000002
 11
1125.6567
 21
883.38020000000006
  0
LINE
  8
_0-1_LAYER003
  6
CONTINUOUS
 62
    7
 10
1127.5978
 20
876.13580000000002
 11
1045.5856000000001
 21
1018.1850999999999
  0
LINE
  8
_0-1_LAYER003
  6
CONTINUOUS
 62
    7
 10
1045.5856000000001
 20
1018.1850999999999
 11
807.08560000000011
 21
1018.1850999999999
  0
LINE
  8
_0-1_LAYER003
  6
CONTINUOUS
 62
    7
 10
998.3768
 20
951.78819999999996
 11
1038.8768
 21
951.78819999999996
  0
LINE
  8
_0-1_LAYER003
  6
CONTINUOUS
 62
    7
 10
1038.8768
 20
951.78819999999996
 11
1090.5202462539874
 21
862.33915374601247
  0
LINE
  8
_0-1_LAYER003
  6
CONTINUOUS
 62
    7
 10
1090.5202999999999
 20
862.33909999999992
 11
1088.5790999999999
 21
869.58359999999993
  0
LINE
  8
_0-1_LAYER003
  6
CONTINUOUS
 62
    7
 10
1084.7951775294459
 20
867.93007752944561
 11
1090.5202851797635
 21
862.3391553086766
  0
LINE
  8
_0-1_LAYER003
  6
CONTINUOUS
 62
    7
 10
1106.6874
 20
847.96149999999989
 11
2087.4072999999999
 21
1289.2850000000001
  0
LINE
  8
_0-1_LAYER003
  6
CONTINUOUS
 62
    7
 10
2089.0484999999999
 20
1285.6378999999997
 11
1160.8685
 21
867.95640000000003
  0
LINE
  8
_0-1_LAYER003
  6
CONTINUOUS
 62
    7
 10
1182.0581999999999
 20
844.59390000000008
 11
2101.3595999999998
 21
1258.28
  0
LINE
  8
_0-1_LAYER003
  6
CONTINUOUS
 62
    7
 10
1206.8952879369053
 20
938.88470808073384
 11
1205.1722
 21
945.75160000000005
  0
LINE
  8
_0-1_LAYER003
  6
CONTINUOUS
 62
    7
 10
1206.8952879369053
 20
938.88470808073384
 11
1201.8099999999999
 21
943.81040000000007
  0
LINE
  8
_0-1_LAYER003
  6
CONTINUOUS
 62
    7
 10
1207.0017719435564
 20
938.92334079383158
 11
1115.8197
 21
1096.6323
  0
LINE
  8
_0-1_LAYER003
  6
CONTINUOUS
 62
    7
 10
1115.8197
 20
1096.6323
 11
1051.3197
 21
1096.6323
  0
LINE
  8
_0-1_LAYER003
  6
CONTINUOUS
 62
    7
 10
923.11710979495888
 20
1096.4894372442875
 11
940.85089999999991
 21
1047.9259999999999
  0
LINE
  8
_0-1_LAYER003
  6
CONTINUOUS
 62
    7
 10
923.70029999999997
 20
1094.8925999999999
 11
1144.443
 21
1175.5005000000001
  0
LINE
  8
_0-1_LAYER003
  6
CONTINUOUS
 62
    7
 10
1161.5936999999999
 20
1128.5338999999999
 11
1130.1393985196376
 21
1214.670569645149
  0
LINE
  8
_0-1_LAYER003
  6
CONTINUOUS
 62
    7
 10
1130.7225000000001
 20
1213.0736999999999
 11
1351.4652919979758
 21
1293.6815970779278
  0
LINE
  8
_0-1_LAYER003
  6
CONTINUOUS
 62
    7
 10
1368.6159
 20
1246.7150999999999
 11
1337.1617289045817
 21
1332.8516807399701
  0
LINE
  8
_0-1_LAYER003
  6
CONTINUOUS
 62
    7
 10
1337.7447999999999
 20
1331.2547999999997
 11
1558.4875641916622
 21
1411.8626869239906
  0
LINE
  8
_0-1_LAYER003
  6
CONTINUOUS
 62
    7
 10
1575.6381999999999
 20
1364.8962000000001
 11
1544.1839966842153
 21
1451.0328689749383
  0
LINE
  8
_0-1_LAYER003
  6
CONTINUOUS
 62
    7
 10
1544.7671170464091
 20
1449.4360062247822
 11
1765.5097999999998
 21
1530.0439000000001
  0
LINE
  8
_0-1_LAYER003
  6
CONTINUOUS
 62
    7
 10
1764.9266980286816
 20
1531.6407694658753
 11
1782.6605
 21
1483.0772999999999
  0
LINE
  8
_0-1_LAYER003
  6
CONTINUOUS
 62
    7
 10
1476.8108999999999
 20
1204.2991
 11
1517.3108999999999
 21
1204.2991
  0
LINE
  8
_0-1_LAYER003
  6
CONTINUOUS
 62
    7
 10
1517.3108999999999
 20
1204.2991
 11
1571.9837421425968
 21
1108.9550578574031
  0
LINE
  8
_0-1_LAYER003
  6
CONTINUOUS
 62
    7
 10
1571.9837421425968
 20
1108.9550578574031
 11
1567.5654
 21
1113.3733999999999
  0
LINE
  8
_0-1_LAYER003
  6
CONTINUOUS
 62
    7
 10
1570.9276
 20
1115.3145999999999
 11
1571.9837421425968
 21
1108.9550578574031
  0
LINE
  8
_0-1_LAYER003
  6
CONTINUOUS
 62
    7
 10
1477.6268
 20
1034.3269
 11
1504.9838
 21
1046.6393
  0
LINE
  8
_0-1_LAYER003
  6
CONTINUOUS
 62
    7
 10
1504.9838
 20
1046.6393
 11
1511.1399999999999
 21
1032.9608000000001
  0
LINE
  8
_0-1_LAYER003
  6
CONTINUOUS
 62
    7
 10
1511.1399999999999
 20
1032.9608000000001
 11
1483.7829999999999
 21
1020.6484
  0
LINE
  8
_0-1_LAYER003
  6
CONTINUOUS
 62
    7
 10
1483.7829999999999
 20
1020.6484
 11
1477.6268
 21
1034.3269
  0
LINE
  8
_0-1_LAYER003
  6
CONTINUOUS
 62
    7
 10
1483.7829999999999
 20
1020.6484
 11
1504.9838
 21
1046.6393
  0
LINE
  8
_0-1_LAYER003
  6
CONTINUOUS
 62
    7
 10
1268.5745999999999
 20
923.79099999999994
 11
1262.4185
 21
937.46949999999993
  0
LINE
  8
_0-1_LAYER003
  6
CONTINUOUS
 62
    7
 10
1262.4185
 20
937.46949999999993
 11
1289.7755000000002
 21
949.78189999999995
  0
LINE
  8
_0-1_LAYER003
  6
CONTINUOUS
 62
    7
 10
1289.7755000000002
 20
949.78189999999995
 11
1295.9315999999999
 21
936.10339999999997
  0
LINE
  8
_0-1_LAYER003
  6
CONTINUOUS
 62
    7
 10
1268.5745999999999
 20
923.79099999999994
 11
1295.9315999999999
 21
936.10339999999997
  0
LINE
  8
_0-1_LAYER003
  6
CONTINUOUS
 62
    7
 10
1289.7755000000002
 20
949.78189999999995
 11
1268.5745999999999
 21
923.79099999999994
  0
LINE
  8
_0-1_LAYER003
  6
CONTINUOUS
 62
    7
 10
1692.8352
 20
1131.1842999999999
 11
1698.9913999999999
 21
1117.5057999999999
  0
LINE
  8
_0-1_LAYER003
  6
CONTINUOUS
 62
    7
 10
1698.9913999999999
 20
1117.5057999999999
 11
1726.3483999999999
 21
1129.8181999999999
  0
LINE
  8
_0-1_LAYER003
  6
CONTINUOUS
 62
    7
 10
1726.3483999999999
 20
1129.8181999999999
 11
1720.1922
 21
1143.4966999999999
  0
LINE
  8
_0-1_LAYER003
  6
CONTINUOUS
 62
    7
 10
1720.1922
 20
1143.4966999999999
 11
1692.8352
 21
1131.1842999999999
  0
LINE
  8
_0-1_LAYER003
  6
CONTINUOUS
 62
    7
 10
1692.8352
 20
1131.1842999999999
 11
1698.9913999999999
 21
1117.5057999999999
  0
LINE
  8
_0-1_LAYER003
  6
CONTINUOUS
 62
    7
 10
1698.9913999999999
 20
1117.5057999999999
 11
1720.1922
 21
1143.4966999999999
  0
LINE
  8
_0-1_LAYER003
  6
CONTINUOUS
 62
    7
 10
1709.8136
 20
1119.3680101826731
 11
1709.8136
 21
1126.48
  0
LINE
  8
_0-1_LAYER003
  6
CONTINUOUS
 62
    7
 10
1713.0729114113319
 20
1120.8346988056314
 11
1709.8136
 21
1126.48
  0
LINE
  8
_0-1_LAYER003
  6
CONTINUOUS
 62
    7
 10
1709.8136
 20
1126.48
 11
1812.7671
 21
742.2521999999999
  0
LINE
  8
_0-1_LAYER003
  6
CONTINUOUS
 62
    7
 10
1804.8199435287609
 20
771.91139999999996
 11
2009.2573000000002
 21
771.91139999999996
  0
LINE
  8
_0-1_LAYER003
  6
CONTINUOUS
 62
    7
 10
1812.7671
 20
742.2521999999999
 11
2149.3544000000002
 21
742.2521999999999
  0
LINE
  8
_0-1_LAYER003
  6
CONTINUOUS
 62
    7
 10
2162.9142999999999
 20
1121.4918
 11
1174.0087000000001
 21
676.4837
  0
LINE
  8
_0-1_LAYER003
  6
CONTINUOUS
 62
    7
 10
1174.0087000000001
 20
676.4837
 11
1169.9854950395816
 21
685.63919776782257
  0
LINE
  8
_0-1_LAYER003
  6
CONTINUOUS
 62
    7
 10
1169.9854950395816
 20
685.63919776782257
 11
2158.8107
 21
1130.6110000000001
  0
LINE
  8
_0-1_LAYER003
  6
CONTINUOUS
 62
    7
 10
1908.0436
 20
1228.0417
 11
1935.4005999999999
 21
1240.354
  0
LINE
  8
_0-1_LAYER003
  6
CONTINUOUS
 62
    7
 10
1935.4005999999999
 20
1240.354
 11
1941.5567999999998
 21
1226.6756
  0
LINE
  8
_0-1_LAYER003
  6
CONTINUOUS
 62
    7
 10
1941.5567999999998
 20
1226.6756
 11
1914.1997999999999
 21
1214.3632
  0
LINE
  8
_0-1_LAYER003
  6
CONTINUOUS
 62
    7
 10
1914.1997999999999
 20
1214.3632
 11
1908.0436
 21
1228.0417
  0
LINE
  8
_0-1_LAYER003
  6
CONTINUOUS
 62
    7
 10
1914.1997999999999
 20
1214.3632
 11
1935.4005999999999
 21
1240.354
  0
LINE
  8
_0-1_LAYER003
  6
CONTINUOUS
 62
    7
 10
2111.7197999999999
 20
1235.2574
 11
2052.1758043747727
 21
1071.6594120197512
  0
LINE
  8
_0-1_LAYER003
  6
CONTINUOUS
 62
    7
 10
2117.6033000000002
 20
1222.1828
 11
2064.9014999999999
 21
1077.386
  0
LINE
  8
_0-1_LAYER003
  6
CONTINUOUS
 62
    7
 10
2123.4865
 20
1209.1092000000001
 11
2077.6273999999999
 21
1083.1125999999999
  0
LINE
  8
_0-1_LAYER003
  6
CONTINUOUS
 62
    7
 10
1751.7485000000001
 20
1100.9544000000001
 11
1680.1536000000001
 21
904.24919999999997
  0
LINE
  8
_0-1_LAYER003
  6
CONTINUOUS
 62
    7
 10
1667.4272999999998
 20
898.52240000000006
 11
1739.0223780192327
 21
1095.2280648609283
  0
LINE
  8
_0-1_LAYER003
  6
CONTINUOUS
 62
    7
 10
1726.2964999999999
 20
1089.5014000000001
 11
1654.7013999999999
 21
892.7956999999999
  0
LINE
  8
_0-1_LAYER003
  6
CONTINUOUS
 62
    7
 10
1231.6672000000001
 20
702.43010000000004
 11
1303.2622810494304
 21
899.13579843877415
  0
LINE
  8
_0-1_LAYER003
  6
CONTINUOUS
 62
    7
 10
1315.989349170723
 20
904.86298560016849
 11
1244.3942999999999
 21
708.15730000000008
  0
LINE
  8
_0-1_LAYER003
  6
CONTINUOUS
 62
    7
 10
1257.1206016303572
 20
713.88410447936792
 11
1328.7155000000002
 21
910.58940000000007
  0
LINE
  8
_0-1_LAYER003
  6
CONTINUOUS
 62
    7
 10
1182.0581999999999
 20
844.59390000000008
 11
1172.9386
 21
840.49009999999998
  0
LINE
  8
_0-1_LAYER003
  6
CONTINUOUS
 62
    7
 10
1154.4784
 20
658.7847999999999
 11
1165.2194517928046
 21
634.34055494021425
  0
LINE
  8
_0-1_LAYER003
  6
CONTINUOUS
 62
    7
 10
1164.5355652289923
 20
635.89692866239693
 11
1178.5250000000001
 21
642.5902000000001
  0
LINE
  8
_0-1_LAYER003
  6
CONTINUOUS
 62
    7
 10
1174.0181
 20
652.84680000000003
 11
1194.1324
 21
607.07109999999989
  0
LINE
  8
_0-1_LAYER003
  6
CONTINUOUS
 62
    7
 10
1130.2721684095318
 20
577.15341829924523
 11
1109.4739999999999
 21
624.4855
  0
LINE
  8
_0-1_LAYER003
  6
CONTINUOUS
 62
    7
 10
1129.5882999999999
 20
578.70979999999997
 11
2048.7975000000001
 21
982.61909999999989
  0
LINE
  8
_0-1_LAYER003
  6
CONTINUOUS
 62
    7
 10
2049.4813684095316
 20
981.06271829924492
 11
2028.6831999999999
 21
1028.3948
  0
LINE
  8
_0-1_LAYER003
  6
CONTINUOUS
 62
    7
 10
1833.4285684095316
 20
886.12711829924524
 11
1812.6304
 21
933.45920000000001
  0
LINE
  8
_0-1_LAYER003
  6
CONTINUOUS
 62
    7
 10
1617.6976
 20
790.45900000000006
 11
1596.5776000000001
 21
838.52350000000001
  0
LINE
  8
_0-1_LAYER003
  6
CONTINUOUS
 62
    7
 10
1401.3229684095318
 20
696.25571829924525
 11
1380.5248000000001
 21
743.58780000000002
  0
LINE
  8
_0-1_LAYER003
  6
CONTINUOUS
 62
    7
 10
851.35523448264939
 20
732.25609476065597
 11
898.68740000000003
 21
753.05430000000001
  0
LINE
  8
_0-1_LAYER003
  6
CONTINUOUS
 62
    7
 10
863.28293448264947
 20
705.11129476065639
 11
910.61509999999998
 21
725.90949999999998
  0
LINE
  8
_0-1_LAYER003
  6
CONTINUOUS
 62
    7
 10
923.56191829924524
 20
567.92953159046829
 11
970.89400000000001
 21
588.72770000000003
  0
LINE
  8
_0-1_LAYER003
  6
CONTINUOUS
 62
    7
 10
925.11829242668477
 20
568.6134172352065
 11
852.91159999999991
 21
732.94000000000005
  0
TEXT
  8
_0-2_LAYER004
 62
    7
 10
1812.9703656419492
 20
784.24423759161402
 40
20
 41
1
 50
0
  1
瓦桟：15x30以上
  0
TEXT
  8
_0-2_LAYER004
 62
    7
 10
1454.5956991194873
 20
1209.6943764578521
 40
20
 41
1
 50
0
  1
桟　瓦
  0
TEXT
  8
_0-0_LAYER001
 62
    7
 10
1017.5123332459765
 20
1146.611284076726
 40
20
 41
1
 50
20.060507000000005
  1
235
  0
TEXT
  8
_0-2_LAYER004
 62
    7
 10
1950.3133727448403
 20
903.65368754631822
 40
20
 41
1
 50
20.060507000000005
  1
236
  0
TEXT
  8
_0-2_LAYER004
 62
    7
 10
1737.9785345965429
 20
813.33215191607223
 40
20
 41
1
 50
20.060506999999973
  1
236
  0
TEXT
  8
_0-2_LAYER004
 62
    7
 10
1520.097637242879
 20
712.71079204728926
 40
20
 41
1
 50
20.06050700000003
  1
236
  0
TEXT
  8
_0-2_LAYER004
 62
    7
 10
1286.3708564453125
 20
616.84319721167731
 40
20
 41
1
 50
20.060507000000037
  1
236
  0
TEXT
  8
_0-2_LAYER004
 62
    7
 10
1159.60378889409
 20
649.32725827167815
 40
20
 41
1
 50
20.060507000000015
  1
15
  0
TEXT
  8
_0-2_LAYER004
 62
    7
 10
1168.3190247882364
 20
566.9286643633834
 40
20
 41
1
 50
20.060507000000015
  1
70
  0
TEXT
  8
_0-2_LAYER004
 62
    7
 10
1438.4913375067797
 20
1379.0301908634026
 40
20
 41
1
 50
20.06050700000003
  1
235
  0
TEXT
  8
_0-2_LAYER004
 62
    7
 10
1234.0794410804333
 20
1261.7706533785217
 40
20
 41
1
 50
20.060506999999973
  1
235
  0
TEXT
  8
_0-2_LAYER004
 62
    7
 10
1646.0724106219063
 20
1494.7051400038931
 40
20
 41
1
 50
20.060507000000037
  1
235
  0
TEXT
  8
_0-0_LAYER001
 62
    7
 10
855.5193935670095
 20
704.00426204942414
 40
15
 41
1.3333333333333333
 50
113.72110000000006
  1
30
  0
TEXT
  8
_0-2_LAYER004
 62
    7
 10
887.42069146916663
 20
617.63733358260856
 40
15
 41
1.3333333333333333
 50
113.72110000000002
  1
150
  0
TEXT
  8
_0-0_LAYER001
 62
    7
 10
948.11096552692902
 20
725.0124338386496
 40
20
 41
1
 50
0
  1
（防腐処理）
  0
TEXT
  8
_0-3_LAYER005
 62
    7
 10
773.54877133841478
 20
1022.8239857219739
 40
20
 41
1
 50
0
  1
瓦　座：36x45（防腐処理）
  0
TEXT
  8
_0-3_LAYER005
 62
    7
 10
1026.2417759778371
 20
1102.1578360157459
 40
20
 41
1
 50
0
  1
万十軒瓦
  0
LINE
  8
_0-2_LAYER004
  6
CONTINUOUS
 62
    7
 10
1476.8108999999999
 20
1204.2991
 11
1459.6396618419622
 21
1204.2991
  0
LINE
  8
_0-2_LAYER004
  6
CONTINUOUS
 62
    7
 10
1051.3197
 20
1096.6323
 11
1033.5875028568898
 21
1096.6323
  0
LINE
  8
_0-2_LAYER004
  6
CONTINUOUS
 62
    7
 10
807.08560000000011
 20
1018.1850999999999
 11
775.01791671422541
 21
1018.1850999999999
  0
TEXT
  8
_0-3_LAYER005
 62
    7
 10
966.37260541891828
 20
956.39645619628243
 40
20
 41
1
 50
0
  1
面　戸
  0
LINE
  8
_0-2_LAYER004
  6
CONTINUOUS
 62
    7
 10
998.3768
 20
951.78819999999996
 11
970.24949510902184
 21
951.78819999999996
  0
TEXT
  8
_0-4_LAYER009
 62
    7
 10
931.48059820798551
 20
755.7674147334194
 40
20
 41
1
 50
0
  1
広小舞：30x90
  0
TEXT
  8
_0-2_LAYER004
 62
    7
 10
1815.4154763195943
 20
745.66654777172619
 40
20
 41
1
 50
0
  1
下葺材：ルーフィング
  0
LINE
  8
_0-2_LAYER004
  6
CONTINUOUS
 62
    7
 10
1812.7671
 20
742.2521999999999
 11
2043.7876070473767
 21
742.2521999999999
  0
ENDSEC
  0
EOF
