  0
SECTION
  2
HEADER
  9
$ACADVER
  1
AC1009
  9
$INSBASE
 10
0
 20
0
 30
0
  9
$EXTMIN
 10
0
 20
0
  9
$EXTMAX
 10
2970
 20
2100
  9
$LIMMIN
 10
0
 20
0
  9
$LIMMAX
 10
2970
 20
2100
  9
$LTSCALE
 40
10
  0
ENDSEC
  0
SECTION
  2
TABLES
  0
TABLE
  2
LTYPE
 70
     9
  0
LTYPE
  2
CONTINUOUS
 70
    64
  3
実線
 72
    65
 73
     0
 40
0.0
  0
LTYPE
  2
DASHED1
 70
    64
  3
--  --  --  --  --  --  --  --  
 72
    65
 73
     2
 40
2.5
 49
1.25
 49
-1.25
  0
LTYPE
  2
DASHED2
 70
    64
  3
----    ----    ----    ----    
 72
    65
 73
     2
 40
5.0
 49
2.5
 49
-2.5
  0
LTYPE
  2
DASHED3
 70
    64
  3
------  ------  ------  ------  
 72
    65
 73
     2
 40
5.0
 49
3.75
 49
-1.25
  0
LTYPE
  2
CENTER1
 70
    64
  3
----- - ----- - ----- - ----- - 
 72
    65
 73
     4
 40
10.0
 49
6.25
 49
-1.25
 49
1.25
 49
-1.25
  0
LTYPE
  2
CENTER2
 70
    64
  3
----------  --  ----------  --  
 72
    65
 73
     4
 40
20.0
 49
12.5
 49
-2.5
 49
2.5
 49
-2.5
  0
LTYPE
  2
PHANTOM1
 70
    64
  3
--- - - --- - - --- - - --- - - 
 72
    65
 73
     6
 40
10.0
 49
3.25
 49
-1.25
 49
1.25
 49
-1.25
 49
1.25
 49
-1.25
  0
LTYPE
  2
PHANTOM2
 70
    64
  3
--------  -  -  --------  -  -  
 72
    65
 73
     6
 40
20.0
 49
10.0
 49
-2.5
 49
1.25
 49
-2.5
 49
1.25
 49
-2.5
  0
LTYPE
  2
DOT
 70
    64
  3
-   -   -   -   -   -   -   -   
 72
    65
 73
     2
 40
2.5
 49
0.625
 49
-1.875
  0
LTYPE
  2
DUMMY
 70
    64
  3
ダミー
 72
    65
 73
     0
 40
0.0
  0
LTYPE
  2
RAND1
 70
    64
  3
ランダム線1
 72
    65
 73
     4
 40
10.0
 49
1.0
 49
-2.0
 49
3.0
 49
-4.0
  0
LTYPE
  2
RAND2
 70
    64
  3
ランダム線2
 72
    65
 73
     4
 40
14.0
 49
2.0
 49
-3.0
 49
4.0
 49
-5.0
  0
LTYPE
  2
RAND3
 70
    64
  3
ランダム線3
 72
    65
 73
     4
 40
18.0
 49
3.0
 49
-4.0
 49
5.0
 49
-6.0
  0
LTYPE
  2
RAND4
 70
    64
  3
ランダム線4
 72
    65
 73
     4
 40
22.0
 49
4.0
 49
-5.0
 49
6.0
 49
-7.0
  0
LTYPE
  2
RAND5
 70
    64
  3
ランダム線5
 72
    65
 73
     4
 40
26.0
 49
5.0
 49
-6.0
 49
7.0
 49
-8.0
  0
LTYPE
  2
LONG1
 70
    64
  3
----------  --  ----------  --  
 72
    65
 73
     4
 40
40.0
 49
32.5
 49
-2.5
 49
2.5
 49
-2.5
  0
LTYPE
  2
LONG2
 70
    64
  3
--------  -  -  --------  -  -  
 72
    65
 73
     6
 40
40.0
 49
30.0
 49
-2.5
 49
1.25
 49
-2.5
 49
1.25
 49
-2.5
  0
LTYPE
  2
LONG3
 70
    64
  3
+++++++++++++++..+++++++++++++++
 72
    65
 73
     2
 40
40.0
 49
37.5
 49
-2.5
  0
LTYPE
  2
LONG4
 70
    64
  3
+++++++++++++++..+++++++++++++++
 72
    65
 73
     2
 40
80.0
 49
75.0
 49
-5.0
  0
LTYPE
  2
LONG5
 70
    64
  3
----------  --  ----------  --  
 72
    65
 73
     4
 40
60.0
 49
37.5
 49
-7.5
 49
7.5
 49
-7.5
  0
LTYPE
  2
dashed
 70
   64
  3
-------   -------------   ------
 72
   65
 73
    2
 40
7.5
 49
6
 49
-1.5
  0
LTYPE
  2
dashed_spaced
 70
   64
  3
----        --------        ----
 72
   65
 73
    2
 40
12
 49
6
 49
-6
  0
LTYPE
  2
long_dashed_dotted
 70
   64
  3
------------- --- --------------
 72
   65
 73
    4
 40
15.25
 49
12
 49
-1.5
 49
0.25
 49
-1.5
  0
LTYPE
  2
long_dashed_double-dotted
 70
   64
  3
----------- --- --- ------------
 72
   65
 73
    6
 40
17
 49
12
 49
-1.5
 49
0.25
 49
-1.5
 49
0.25
 49
-1.5
  0
LTYPE
  2
long_dashed_triplicate-dotted
 70
   64
  3
--------- --- --- --- ----------
 72
   65
 73
    8
 40
18.75
 49
12
 49
-1.5
 49
0.25
 49
-1.5
 49
0.25
 49
-1.5
 49
0.25
 49
-1.5
  0
LTYPE
  2
dotted
 70
   64
  3
   -       -       -       -    
 72
   65
 73
    2
 40
1.75
 49
0.25
 49
-1.5
  0
LTYPE
  2
chain
 70
   64
  3
-------------- -- --------------
 72
   65
 73
    4
 40
18.5
 49
12
 49
-1.5
 49
3.5
 49
-1.5
  0
LTYPE
  2
chain_double_dash
 70
   64
  3
------------ -- -- -------------
 72
   65
 73
    6
 40
23.5
 49
12
 49
-1.5
 49
3.5
 49
-1.5
 49
3.5
 49
-1.5
  0
LTYPE
  2
dashed_dotted
 70
   64
  3
-----------     -     ----------
 72
   65
 73
    4
 40
9.25
 49
6
 49
-1.5
 49
0.25
 49
-1.5
  0
LTYPE
  2
double-dashed_dotted
 70
   64
  3
------   -----------   -   -----
 72
   65
 73
    6
 40
16.75
 49
6
 49
-1.5
 49
6
 49
-1.5
 49
0.25
 49
-1.5
  0
LTYPE
  2
dashed_double-dotted
 70
   64
  3
---------    -    -    ---------
 72
   65
 73
    6
 40
11
 49
6
 49
-1.5
 49
0.25
 49
-1.5
 49
0.25
 49
-1.5
  0
LTYPE
  2
double-dashed_double-dotted
 70
   64
  3
-----   ---------   -   -   ----
 72
   65
 73
    8
 40
18.5
 49
6
 49
-1.5
 49
6
 49
-1.5
 49
0.25
 49
-1.5
 49
0.25
 49
-1.5
  0
LTYPE
  2
dashed_triplicate-dotted
 70
   64
  3
-------    -    -    -    ------
 72
   65
 73
    8
 40
12.75
 49
6
 49
-1.5
 49
0.25
 49
-1.5
 49
0.25
 49
-1.5
 49
0.25
 49
-1.5
  0
LTYPE
  2
double-dashed_triplicate-dotted
 70
   64
  3
-----  ---------  -  -  -  -----
 72
   65
 73
   10
 40
20.25
 49
6
 49
-1.5
 49
6
 49
-1.5
 49
0.25
 49
-1.5
 49
0.25
 49
-1.5
 49
0.25
 49
-1.5
  0
LTYPE
  2
undefined
 70
   64
  3
--------------------------------
 72
   65
 73
    0
 40
0
  0
ENDTAB
  0
TABLE
  2
STYLE
  5
3
100
AcDbSymbolTable
 70
     1
  0
STYLE
  5
10
100
AcDbSymbolTableRecord
100
AcDbTextStyleTableRecord
  2
STANDARD
 70
     0
 40
0.0
 41
1.0
 50
0.0
 71
     0
 42
0.2
  3
txt
  4
bigfont.shx
  0
STYLE
  5
26
100
AcDbSymbolTableRecord
100
AcDbTextStyleTableRecord
  2
TATEGAKI
 70
    68
 40
0.0
 41
1.0
 50
0.0
 71
     0
 42
1.0
  3
txt
  4
bigfont.shx
  0
ENDTAB
  0
TABLE
  2
LAYER
 70
    9
  0
LAYER
  2
_0-0_LAYER001
 70
   64
 62
    7
  6
CONTINUOUS
  0
LAYER
  2
_0-1_LAYER002
 70
   64
 62
    7
  6
CONTINUOUS
  0
LAYER
  2
_0-2_LAYER003
 70
   64
 62
    7
  6
CONTINUOUS
  0
LAYER
  2
_0-3_LAYER004
 70
   64
 62
    7
  6
CONTINUOUS
  0
LAYER
  2
_0-4_LAYER005
 70
   64
 62
    7
  6
CONTINUOUS
  0
LAYER
  2
_0-5_LAYER006
 70
   64
 62
    7
  6
CONTINUOUS
  0
LAYER
  2
_0-6_LAYER007
 70
   64
 62
    7
  6
CONTINUOUS
  0
LAYER
  2
_0-7_LAYER009
 70
   64
 62
    7
  6
CONTINUOUS
  0
LAYER
  2
ADD_LINE
 70
   64
 62
    7
  6
CONTINUOUS
  0
ENDTAB
  0
ENDSEC
  0
SECTION
  2
BLOCKS
  0
ENDSEC
  0
SECTION
  2
ENTITIES
  0
LINE
  8
_0-0_LAYER001
  6
CONTINUOUS
 62
    2
 10
1241.4376
 20
1045.6389999999999
 11
1247.5938000000001
 21
1031.9604999999999
  0
LINE
  8
_0-3_LAYER004
  6
CONTINUOUS
 62
    2
 10
1824.3175999999999
 20
912.2222999999999
 11
1845.8557000000001
 21
874.91730000000007
  0
LINE
  8
_0-0_LAYER001
  6
CONTINUOUS
 62
    2
 10
780.99620000000004
 20
770.62159999999994
 11
1508.3308000000002
 21
1097.9213
  0
LINE
  8
_0-0_LAYER001
  6
CONTINUOUS
 62
    1
 10
779.9996000000001
 20
772.83639999999991
 11
854.90879999999993
 21
847.74559999999997
  0
LINE
  8
_0-0_LAYER001
  6
CONTINUOUS
 62
    3
 10
1522.8218000000002
 20
1307.7487000000001
 11
1522.8017
 21
1307.2834
  0
LINE
  8
_0-0_LAYER001
  6
CONTINUOUS
 62
    3
 10
1522.8017
 20
1307.2834
 11
1522.7473
 21
1306.0202999999999
  0
LINE
  8
_0-0_LAYER001
  6
CONTINUOUS
 62
    3
 10
1522.7473
 20
1306.0202999999999
 11
1522.6671000000001
 21
1304.1588999999999
  0
LINE
  8
_0-0_LAYER001
  6
CONTINUOUS
 62
    3
 10
1522.6671000000001
 20
1304.1588999999999
 11
1522.5695999999998
 21
1301.8986999999997
  0
LINE
  8
_0-0_LAYER001
  6
CONTINUOUS
 62
    3
 10
1522.5695999999998
 20
1301.8986999999997
 11
1522.4636
 21
1299.4390000000001
  0
LINE
  8
_0-0_LAYER001
  6
CONTINUOUS
 62
    3
 10
1522.4636
 20
1299.4390000000001
 11
1522.3575999999998
 21
1296.9793
  0
LINE
  8
_0-0_LAYER001
  6
CONTINUOUS
 62
    3
 10
1522.3575999999998
 20
1296.9793
 11
1522.2602000000002
 21
1294.7190000000001
  0
LINE
  8
_0-0_LAYER001
  6
CONTINUOUS
 62
    3
 10
1522.2602000000002
 20
1294.7190000000001
 11
1522.1799000000001
 21
1292.8576
  0
LINE
  8
_0-0_LAYER001
  6
CONTINUOUS
 62
    3
 10
1522.1799000000001
 20
1292.8576
 11
1522.1255000000001
 21
1291.5944999999999
  0
LINE
  8
_0-0_LAYER001
  6
CONTINUOUS
 62
    3
 10
1522.1255000000001
 20
1291.5944999999999
 11
1522.1053999999999
 21
1291.1292000000001
  0
LINE
  8
_0-0_LAYER001
  6
CONTINUOUS
 62
    3
 10
1522.1053999999999
 20
1291.1292000000001
 11
1523.2527
 21
1291.0996
  0
LINE
  8
_0-0_LAYER001
  6
CONTINUOUS
 62
    3
 10
1523.2527
 20
1291.0996
 11
1526.6199999999999
 21
1290.8588
  0
LINE
  8
_0-0_LAYER001
  6
CONTINUOUS
 62
    3
 10
1526.6199999999999
 20
1290.8588
 11
1532.0958000000001
 21
1290.1785
  0
LINE
  8
_0-0_LAYER001
  6
CONTINUOUS
 62
    3
 10
1532.0958000000001
 20
1290.1785
 11
1539.5682000000002
 21
1288.8303000000001
  0
LINE
  8
_0-0_LAYER001
  6
CONTINUOUS
 62
    3
 10
1539.5682000000002
 20
1288.8303000000001
 11
1548.9256
 21
1286.5859
  0
LINE
  8
_0-0_LAYER001
  6
CONTINUOUS
 62
    3
 10
1548.9256
 20
1286.5859
 11
1560.0563000000002
 21
1283.2170999999998
  0
LINE
  8
_0-0_LAYER001
  6
CONTINUOUS
 62
    3
 10
1560.0563000000002
 20
1283.2170999999998
 11
1572.8485000000001
 21
1278.4956
  0
LINE
  8
_0-0_LAYER001
  6
CONTINUOUS
 62
    3
 10
1572.8485000000001
 20
1278.4956
 11
1587.1905999999999
 21
1272.1931
  0
LINE
  8
_0-0_LAYER001
  6
CONTINUOUS
 62
    3
 10
1587.1905999999999
 20
1272.1931
 11
1602.9708999999998
 21
1264.0812000000001
  0
LINE
  8
_0-0_LAYER001
  6
CONTINUOUS
 62
    3
 10
1602.9708999999998
 20
1264.0812000000001
 11
1620.0776999999998
 21
1253.9317000000001
  0
LINE
  8
_0-0_LAYER001
  6
CONTINUOUS
 62
    3
 10
1620.0776999999998
 20
1253.9317000000001
 11
1620.1104
 21
1254.6891000000001
  0
LINE
  8
_0-0_LAYER001
  6
CONTINUOUS
 62
    3
 10
1620.1104
 20
1254.6891000000001
 11
1620.1990000000001
 21
1256.7447
  0
LINE
  8
_0-0_LAYER001
  6
CONTINUOUS
 62
    3
 10
1620.1990000000001
 20
1256.7447
 11
1620.3294999999998
 21
1259.7741000000001
  0
LINE
  8
_0-0_LAYER001
  6
CONTINUOUS
 62
    3
 10
1620.3294999999998
 20
1259.7741000000001
 11
1620.4881
 21
1263.4526000000001
  0
LINE
  8
_0-0_LAYER001
  6
CONTINUOUS
 62
    3
 10
1620.4881
 20
1263.4526000000001
 11
1620.6606999999999
 21
1267.4556
  0
LINE
  8
_0-0_LAYER001
  6
CONTINUOUS
 62
    3
 10
1620.6606999999999
 20
1267.4556
 11
1620.8332
 21
1271.4586999999999
  0
LINE
  8
_0-0_LAYER001
  6
CONTINUOUS
 62
    3
 10
1620.8332
 20
1271.4586999999999
 11
1620.9917999999998
 21
1275.1371999999999
  0
LINE
  8
_0-0_LAYER001
  6
CONTINUOUS
 62
    3
 10
1620.9917999999998
 20
1275.1371999999999
 11
1621.1224000000002
 21
1278.1666
  0
LINE
  8
_0-0_LAYER001
  6
CONTINUOUS
 62
    3
 10
1621.1224000000002
 20
1278.1666
 11
1621.2109999999998
 21
1280.2222000000002
  0
LINE
  8
_0-0_LAYER001
  6
CONTINUOUS
 62
    3
 10
1621.2109999999998
 20
1280.2222000000002
 11
1621.2435999999998
 21
1280.9794999999999
  0
LINE
  8
_0-0_LAYER001
  6
CONTINUOUS
 62
    3
 10
1621.2435999999998
 20
1280.9794999999999
 11
1619.6033000000002
 21
1281.6369
  0
LINE
  8
_0-0_LAYER001
  6
CONTINUOUS
 62
    3
 10
1619.6033000000002
 20
1281.6369
 11
1614.9740000000002
 21
1283.4358999999999
  0
LINE
  8
_0-0_LAYER001
  6
CONTINUOUS
 62
    3
 10
1614.9740000000002
 20
1283.4358999999999
 11
1607.7930999999999
 21
1286.1166000000001
  0
LINE
  8
_0-0_LAYER001
  6
CONTINUOUS
 62
    3
 10
1607.7930999999999
 20
1286.1166000000001
 11
1598.498
 21
1289.4193
  0
LINE
  8
_0-0_LAYER001
  6
CONTINUOUS
 62
    3
 10
1598.498
 20
1289.4193
 11
1587.5259999999998
 21
1293.0842000000002
  0
LINE
  8
_0-0_LAYER001
  6
CONTINUOUS
 62
    3
 10
1587.5259999999998
 20
1293.0842000000002
 11
1575.3146000000002
 21
1296.8515
  0
LINE
  8
_0-0_LAYER001
  6
CONTINUOUS
 62
    3
 10
1575.3146000000002
 20
1296.8515
 11
1562.3011000000001
 21
1300.4613999999997
  0
LINE
  8
_0-0_LAYER001
  6
CONTINUOUS
 62
    3
 10
1562.3011000000001
 20
1300.4613999999997
 11
1548.9227999999998
 21
1303.6541
  0
LINE
  8
_0-0_LAYER001
  6
CONTINUOUS
 62
    3
 10
1548.9227999999998
 20
1303.6541
 11
1535.6172999999999
 21
1306.1697999999999
  0
LINE
  8
_0-0_LAYER001
  6
CONTINUOUS
 62
    3
 10
1522.8218000000002
 20
1307.7487000000001
 11
1535.7287999999999
 21
1306.1487
  0
LINE
  8
_0-0_LAYER001
  6
CONTINUOUS
 62
    3
 10
1528.1587
 20
1276.8679999999999
 11
1528.1387
 21
1276.4025999999999
  0
LINE
  8
_0-0_LAYER001
  6
CONTINUOUS
 62
    3
 10
1528.1387
 20
1276.4025999999999
 11
1528.0841999999998
 21
1275.1395
  0
LINE
  8
_0-0_LAYER001
  6
CONTINUOUS
 62
    3
 10
1528.0841999999998
 20
1275.1395
 11
1528.0039999999999
 21
1273.2781
  0
LINE
  8
_0-0_LAYER001
  6
CONTINUOUS
 62
    3
 10
1528.0039999999999
 20
1273.2781
 11
1527.9065999999998
 21
1271.0179000000001
  0
LINE
  8
_0-0_LAYER001
  6
CONTINUOUS
 62
    3
 10
1527.9065999999998
 20
1271.0179000000001
 11
1527.8004999999998
 21
1268.5581999999999
  0
LINE
  8
_0-0_LAYER001
  6
CONTINUOUS
 62
    3
 10
1527.8004999999998
 20
1268.5581999999999
 11
1527.6945000000001
 21
1266.0985000000001
  0
LINE
  8
_0-0_LAYER001
  6
CONTINUOUS
 62
    3
 10
1527.6945000000001
 20
1266.0985000000001
 11
1527.5971
 21
1263.8381999999999
  0
LINE
  8
_0-0_LAYER001
  6
CONTINUOUS
 62
    3
 10
1527.5971
 20
1263.8381999999999
 11
1527.5167999999999
 21
1261.9767999999999
  0
LINE
  8
_0-0_LAYER001
  6
CONTINUOUS
 62
    3
 10
1527.5167999999999
 20
1261.9767999999999
 11
1527.4623999999999
 21
1260.7137
  0
LINE
  8
_0-0_LAYER001
  6
CONTINUOUS
 62
    3
 10
1527.4623999999999
 20
1260.7137
 11
1527.4423000000002
 21
1260.2483999999999
  0
LINE
  8
_0-0_LAYER001
  6
CONTINUOUS
 62
    3
 10
1527.4423000000002
 20
1260.2483999999999
 11
1528.5895999999998
 21
1260.2189000000001
  0
LINE
  8
_0-0_LAYER001
  6
CONTINUOUS
 62
    3
 10
1528.5895999999998
 20
1260.2189000000001
 11
1531.9569999999999
 21
1259.9781
  0
LINE
  8
_0-0_LAYER001
  6
CONTINUOUS
 62
    3
 10
1531.9569999999999
 20
1259.9781
 11
1537.4326999999998
 21
1259.2977000000001
  0
LINE
  8
_0-0_LAYER001
  6
CONTINUOUS
 62
    3
 10
1537.4326999999998
 20
1259.2977000000001
 11
1544.9050999999999
 21
1257.9494999999999
  0
LINE
  8
_0-0_LAYER001
  6
CONTINUOUS
 62
    3
 10
1544.9050999999999
 20
1257.9494999999999
 11
1554.2624999999998
 21
1255.7050999999999
  0
LINE
  8
_0-0_LAYER001
  6
CONTINUOUS
 62
    3
 10
1554.2624999999998
 20
1255.7050999999999
 11
1565.3932
 21
1252.3362999999999
  0
LINE
  8
_0-0_LAYER001
  6
CONTINUOUS
 62
    3
 10
1565.3932
 20
1252.3362999999999
 11
1578.1853999999998
 21
1247.6148000000001
  0
LINE
  8
_0-0_LAYER001
  6
CONTINUOUS
 62
    3
 10
1578.1853999999998
 20
1247.6148000000001
 11
1592.5275999999999
 21
1241.3123000000001
  0
LINE
  8
_0-0_LAYER001
  6
CONTINUOUS
 62
    3
 10
1592.5275999999999
 20
1241.3123000000001
 11
1608.3078999999998
 21
1233.2003999999999
  0
LINE
  8
_0-0_LAYER001
  6
CONTINUOUS
 62
    3
 10
1608.3078999999998
 20
1233.2003999999999
 11
1625.4146000000001
 21
1223.0509
  0
LINE
  8
_0-0_LAYER001
  6
CONTINUOUS
 62
    3
 10
1625.4146000000001
 20
1223.0509
 11
1625.4472999999998
 21
1223.8082999999999
  0
LINE
  8
_0-0_LAYER001
  6
CONTINUOUS
 62
    3
 10
1625.4472999999998
 20
1223.8082999999999
 11
1625.5358999999999
 21
1225.8639000000001
  0
LINE
  8
_0-0_LAYER001
  6
CONTINUOUS
 62
    3
 10
1625.5358999999999
 20
1225.8639000000001
 11
1625.6664999999998
 21
1228.8933
  0
LINE
  8
_0-0_LAYER001
  6
CONTINUOUS
 62
    3
 10
1625.6664999999998
 20
1228.8933
 11
1625.8249999999998
 21
1232.5717999999999
  0
LINE
  8
_0-0_LAYER001
  6
CONTINUOUS
 62
    3
 10
1625.8249999999998
 20
1232.5717999999999
 11
1625.9976000000001
 21
1236.5748000000001
  0
LINE
  8
_0-0_LAYER001
  6
CONTINUOUS
 62
    3
 10
1625.9976000000001
 20
1236.5748000000001
 11
1626.1702
 21
1240.5779
  0
LINE
  8
_0-0_LAYER001
  6
CONTINUOUS
 62
    3
 10
1626.1702
 20
1240.5779
 11
1626.3287
 21
1244.2564
  0
LINE
  8
_0-0_LAYER001
  6
CONTINUOUS
 62
    3
 10
1626.3287
 20
1244.2564
 11
1626.4593
 21
1247.2858000000001
  0
LINE
  8
_0-0_LAYER001
  6
CONTINUOUS
 62
    3
 10
1626.4593
 20
1247.2858000000001
 11
1626.5479
 21
1249.3414
  0
LINE
  8
_0-0_LAYER001
  6
CONTINUOUS
 62
    3
 10
1626.5479
 20
1249.3414
 11
1626.5805999999998
 21
1250.0988
  0
LINE
  8
_0-0_LAYER001
  6
CONTINUOUS
 62
    3
 10
1626.5805999999998
 20
1250.0988
 11
1624.9403000000002
 21
1250.7561000000001
  0
LINE
  8
_0-0_LAYER001
  6
CONTINUOUS
 62
    3
 10
1624.9403000000002
 20
1250.7561000000001
 11
1620.3110000000001
 21
1252.5551
  0
LINE
  8
_0-0_LAYER001
  6
CONTINUOUS
 62
    3
 10
1620.3110000000001
 20
1252.5551
 11
1613.1300999999999
 21
1255.2357999999999
  0
LINE
  8
_0-0_LAYER001
  6
CONTINUOUS
 62
    3
 10
1613.1300999999999
 20
1255.2357999999999
 11
1603.8348999999998
 21
1258.5385000000001
  0
LINE
  8
_0-0_LAYER001
  6
CONTINUOUS
 62
    3
 10
1603.8348999999998
 20
1258.5385000000001
 11
1592.8629999999998
 21
1262.2034000000001
  0
LINE
  8
_0-0_LAYER001
  6
CONTINUOUS
 62
    3
 10
1592.8629999999998
 20
1262.2034000000001
 11
1580.6514999999999
 21
1265.9707000000001
  0
LINE
  8
_0-0_LAYER001
  6
CONTINUOUS
 62
    3
 10
1580.6514999999999
 20
1265.9707000000001
 11
1567.6379999999999
 21
1269.5806
  0
LINE
  8
_0-0_LAYER001
  6
CONTINUOUS
 62
    3
 10
1567.6379999999999
 20
1269.5806
 11
1554.2597999999998
 21
1272.7733000000001
  0
LINE
  8
_0-0_LAYER001
  6
CONTINUOUS
 62
    3
 10
1554.2597999999998
 20
1272.7733000000001
 11
1540.9542000000001
 21
1275.289
  0
LINE
  8
_0-0_LAYER001
  6
CONTINUOUS
 62
    3
 10
1528.1587
 20
1276.8679999999999
 11
1541.0657999999999
 21
1275.2679000000001
  0
LINE
  8
_0-0_LAYER001
  6
CONTINUOUS
 62
    3
 10
1532.8217
 20
1246.2929999999999
 11
1532.8017
 21
1245.8276000000001
  0
LINE
  8
_0-0_LAYER001
  6
CONTINUOUS
 62
    3
 10
1532.8017
 20
1245.8276000000001
 11
1532.7471999999998
 21
1244.5645
  0
LINE
  8
_0-0_LAYER001
  6
CONTINUOUS
 62
    3
 10
1532.7471999999998
 20
1244.5645
 11
1532.6669999999999
 21
1242.7030999999999
  0
LINE
  8
_0-0_LAYER001
  6
CONTINUOUS
 62
    3
 10
1532.6669999999999
 20
1242.7030999999999
 11
1532.5695999999998
 21
1240.4429
  0
LINE
  8
_0-0_LAYER001
  6
CONTINUOUS
 62
    3
 10
1532.5695999999998
 20
1240.4429
 11
1532.4634999999998
 21
1237.9831999999999
  0
LINE
  8
_0-0_LAYER001
  6
CONTINUOUS
 62
    3
 10
1532.4634999999998
 20
1237.9831999999999
 11
1532.3575000000001
 21
1235.5235
  0
LINE
  8
_0-0_LAYER001
  6
CONTINUOUS
 62
    3
 10
1532.3575000000001
 20
1235.5235
 11
1532.2601
 21
1233.2632000000001
  0
LINE
  8
_0-0_LAYER001
  6
CONTINUOUS
 62
    3
 10
1532.2601
 20
1233.2632000000001
 11
1532.1797999999999
 21
1231.4018000000001
  0
LINE
  8
_0-0_LAYER001
  6
CONTINUOUS
 62
    3
 10
1532.1797999999999
 20
1231.4018000000001
 11
1532.1253999999999
 21
1230.1387
  0
LINE
  8
_0-0_LAYER001
  6
CONTINUOUS
 62
    3
 10
1532.1253999999999
 20
1230.1387
 11
1532.1053000000002
 21
1229.6733999999999
  0
LINE
  8
_0-0_LAYER001
  6
CONTINUOUS
 62
    3
 10
1532.1053000000002
 20
1229.6733999999999
 11
1533.2525999999998
 21
1229.6439
  0
LINE
  8
_0-0_LAYER001
  6
CONTINUOUS
 62
    3
 10
1533.2525999999998
 20
1229.6439
 11
1536.6199999999999
 21
1229.4031
  0
LINE
  8
_0-0_LAYER001
  6
CONTINUOUS
 62
    3
 10
1536.6199999999999
 20
1229.4031
 11
1542.0956999999999
 21
1228.7227
  0
LINE
  8
_0-0_LAYER001
  6
CONTINUOUS
 62
    3
 10
1542.0956999999999
 20
1228.7227
 11
1549.5681
 21
1227.3744999999999
  0
LINE
  8
_0-0_LAYER001
  6
CONTINUOUS
 62
    3
 10
1549.5681
 20
1227.3744999999999
 11
1558.9254999999998
 21
1225.1301000000001
  0
LINE
  8
_0-0_LAYER001
  6
CONTINUOUS
 62
    3
 10
1558.9254999999998
 20
1225.1301000000001
 11
1570.0562
 21
1221.7612999999999
  0
LINE
  8
_0-0_LAYER001
  6
CONTINUOUS
 62
    3
 10
1570.0562
 20
1221.7612999999999
 11
1582.8483999999999
 21
1217.0398
  0
LINE
  8
_0-0_LAYER001
  6
CONTINUOUS
 62
    3
 10
1582.8483999999999
 20
1217.0398
 11
1597.1905999999999
 21
1210.7373
  0
LINE
  8
_0-0_LAYER001
  6
CONTINUOUS
 62
    3
 10
1597.1905999999999
 20
1210.7373
 11
1612.9708999999998
 21
1202.6253999999999
  0
LINE
  8
_0-0_LAYER001
  6
CONTINUOUS
 62
    3
 10
1612.9708999999998
 20
1202.6253999999999
 11
1630.0776000000001
 21
1192.4758999999999
  0
LINE
  8
_0-0_LAYER001
  6
CONTINUOUS
 62
    3
 10
1630.0776000000001
 20
1192.4758999999999
 11
1630.1102999999998
 21
1193.2333000000001
  0
LINE
  8
_0-0_LAYER001
  6
CONTINUOUS
 62
    3
 10
1630.1102999999998
 20
1193.2333000000001
 11
1630.1988999999999
 21
1195.2889
  0
LINE
  8
_0-0_LAYER001
  6
CONTINUOUS
 62
    3
 10
1630.1988999999999
 20
1195.2889
 11
1630.3294999999998
 21
1198.3182999999999
  0
LINE
  8
_0-0_LAYER001
  6
CONTINUOUS
 62
    3
 10
1630.3294999999998
 20
1198.3182999999999
 11
1630.4879999999998
 21
1201.9967999999999
  0
LINE
  8
_0-0_LAYER001
  6
CONTINUOUS
 62
    3
 10
1630.4879999999998
 20
1201.9967999999999
 11
1630.6606000000002
 21
1205.9998000000001
  0
LINE
  8
_0-0_LAYER001
  6
CONTINUOUS
 62
    3
 10
1630.6606000000002
 20
1205.9998000000001
 11
1630.8332
 21
1210.0029
  0
LINE
  8
_0-0_LAYER001
  6
CONTINUOUS
 62
    3
 10
1630.8332
 20
1210.0029
 11
1630.9917
 21
1213.6813999999999
  0
LINE
  8
_0-0_LAYER001
  6
CONTINUOUS
 62
    3
 10
1630.9917
 20
1213.6813999999999
 11
1631.1223
 21
1216.7108000000001
  0
LINE
  8
_0-0_LAYER001
  6
CONTINUOUS
 62
    3
 10
1631.1223
 20
1216.7108000000001
 11
1631.2109
 21
1218.7664
  0
LINE
  8
_0-0_LAYER001
  6
CONTINUOUS
 62
    3
 10
1631.2109
 20
1218.7664
 11
1631.2435999999998
 21
1219.5237999999999
  0
LINE
  8
_0-0_LAYER001
  6
CONTINUOUS
 62
    3
 10
1631.2435999999998
 20
1219.5237999999999
 11
1629.6033000000002
 21
1220.1811
  0
LINE
  8
_0-0_LAYER001
  6
CONTINUOUS
 62
    3
 10
1629.6033000000002
 20
1220.1811
 11
1624.9740000000002
 21
1221.9801
  0
LINE
  8
_0-0_LAYER001
  6
CONTINUOUS
 62
    3
 10
1624.9740000000002
 20
1221.9801
 11
1617.7930999999999
 21
1224.6608000000001
  0
LINE
  8
_0-0_LAYER001
  6
CONTINUOUS
 62
    3
 10
1617.7930999999999
 20
1224.6608000000001
 11
1608.4978999999998
 21
1227.9635000000001
  0
LINE
  8
_0-0_LAYER001
  6
CONTINUOUS
 62
    3
 10
1608.4978999999998
 20
1227.9635000000001
 11
1597.5259999999998
 21
1231.6284000000001
  0
LINE
  8
_0-0_LAYER001
  6
CONTINUOUS
 62
    3
 10
1597.5259999999998
 20
1231.6284000000001
 11
1585.3145
 21
1235.3957
  0
LINE
  8
_0-0_LAYER001
  6
CONTINUOUS
 62
    3
 10
1585.3145
 20
1235.3957
 11
1572.3009999999999
 21
1239.0056
  0
LINE
  8
_0-0_LAYER001
  6
CONTINUOUS
 62
    3
 10
1572.3009999999999
 20
1239.0056
 11
1558.9227999999998
 21
1242.1983
  0
LINE
  8
_0-0_LAYER001
  6
CONTINUOUS
 62
    3
 10
1558.9227999999998
 20
1242.1983
 11
1545.6172000000001
 21
1244.7139999999999
  0
LINE
  8
_0-0_LAYER001
  6
CONTINUOUS
 62
    3
 10
1532.8217
 20
1246.2929999999999
 11
1545.7287999999999
 21
1244.6929
  0
LINE
  8
_0-0_LAYER001
  6
CONTINUOUS
 62
    3
 10
1493.8398000000002
 20
1307.7487000000001
 11
1493.8598999999999
 21
1307.2834
  0
LINE
  8
_0-0_LAYER001
  6
CONTINUOUS
 62
    3
 10
1493.8598999999999
 20
1307.2834
 11
1493.9142999999999
 21
1306.0202999999999
  0
LINE
  8
_0-0_LAYER001
  6
CONTINUOUS
 62
    3
 10
1493.9142999999999
 20
1306.0202999999999
 11
1493.9944999999998
 21
1304.1588999999999
  0
LINE
  8
_0-0_LAYER001
  6
CONTINUOUS
 62
    3
 10
1493.9944999999998
 20
1304.1588999999999
 11
1494.0920000000001
 21
1301.8986999999997
  0
LINE
  8
_0-0_LAYER001
  6
CONTINUOUS
 62
    3
 10
1494.0920000000001
 20
1301.8986999999997
 11
1494.1979999999999
 21
1299.4390000000001
  0
LINE
  8
_0-0_LAYER001
  6
CONTINUOUS
 62
    3
 10
1494.1979999999999
 20
1299.4390000000001
 11
1494.3040000000001
 21
1296.9793
  0
LINE
  8
_0-0_LAYER001
  6
CONTINUOUS
 62
    3
 10
1494.3040000000001
 20
1296.9793
 11
1494.4014999999999
 21
1294.7190000000001
  0
LINE
  8
_0-0_LAYER001
  6
CONTINUOUS
 62
    3
 10
1494.4014999999999
 20
1294.7190000000001
 11
1494.4816999999998
 21
1292.8576
  0
LINE
  8
_0-0_LAYER001
  6
CONTINUOUS
 62
    3
 10
1494.4816999999998
 20
1292.8576
 11
1494.5360999999998
 21
1291.5944999999999
  0
LINE
  8
_0-0_LAYER001
  6
CONTINUOUS
 62
    3
 10
1494.5360999999998
 20
1291.5944999999999
 11
1494.5562
 21
1291.1292000000001
  0
LINE
  8
_0-0_LAYER001
  6
CONTINUOUS
 62
    3
 10
1494.5562
 20
1291.1292000000001
 11
1493.4088999999999
 21
1291.0996
  0
LINE
  8
_0-0_LAYER001
  6
CONTINUOUS
 62
    3
 10
1493.4088999999999
 20
1291.0996
 11
1490.0416
 21
1290.8588
  0
LINE
  8
_0-0_LAYER001
  6
CONTINUOUS
 62
    3
 10
1490.0416
 20
1290.8588
 11
1484.5657999999999
 21
1290.1785
  0
LINE
  8
_0-0_LAYER001
  6
CONTINUOUS
 62
    3
 10
1484.5657999999999
 20
1290.1785
 11
1477.0934000000002
 21
1288.8303000000001
  0
LINE
  8
_0-0_LAYER001
  6
CONTINUOUS
 62
    3
 10
1477.0934000000002
 20
1288.8303000000001
 11
1467.7359999999999
 21
1286.5859
  0
LINE
  8
_0-0_LAYER001
  6
CONTINUOUS
 62
    3
 10
1467.7359999999999
 20
1286.5859
 11
1456.6053000000002
 21
1283.2170999999998
  0
LINE
  8
_0-0_LAYER001
  6
CONTINUOUS
 62
    3
 10
1456.6053000000002
 20
1283.2170999999998
 11
1443.8130999999998
 21
1278.4956
  0
LINE
  8
_0-0_LAYER001
  6
CONTINUOUS
 62
    3
 10
1443.8130999999998
 20
1278.4956
 11
1429.471
 21
1272.1931
  0
LINE
  8
_0-0_LAYER001
  6
CONTINUOUS
 62
    3
 10
1429.471
 20
1272.1931
 11
1413.6907000000001
 21
1264.0812000000001
  0
LINE
  8
_0-0_LAYER001
  6
CONTINUOUS
 62
    3
 10
1413.6907000000001
 20
1264.0812000000001
 11
1396.5839000000001
 21
1253.9317000000001
  0
LINE
  8
_0-0_LAYER001
  6
CONTINUOUS
 62
    3
 10
1396.5839000000001
 20
1253.9317000000001
 11
1396.5513000000001
 21
1254.6891000000001
  0
LINE
  8
_0-0_LAYER001
  6
CONTINUOUS
 62
    3
 10
1396.5513000000001
 20
1254.6891000000001
 11
1396.4626000000001
 21
1256.7447
  0
LINE
  8
_0-0_LAYER001
  6
CONTINUOUS
 62
    3
 10
1396.4626000000001
 20
1256.7447
 11
1396.3321000000001
 21
1259.7741000000001
  0
LINE
  8
_0-0_LAYER001
  6
CONTINUOUS
 62
    3
 10
1396.3321000000001
 20
1259.7741000000001
 11
1396.1735000000001
 21
1263.4526000000001
  0
LINE
  8
_0-0_LAYER001
  6
CONTINUOUS
 62
    3
 10
1396.1735000000001
 20
1263.4526000000001
 11
1396.0009
 21
1267.4556
  0
LINE
  8
_0-0_LAYER001
  6
CONTINUOUS
 62
    3
 10
1396.0009
 20
1267.4556
 11
1395.8284000000001
 21
1271.4586999999999
  0
LINE
  8
_0-0_LAYER001
  6
CONTINUOUS
 62
    3
 10
1395.8284000000001
 20
1271.4586999999999
 11
1395.6698000000001
 21
1275.1371999999999
  0
LINE
  8
_0-0_LAYER001
  6
CONTINUOUS
 62
    3
 10
1395.6698000000001
 20
1275.1371999999999
 11
1395.5392000000002
 21
1278.1666
  0
LINE
  8
_0-0_LAYER001
  6
CONTINUOUS
 62
    3
 10
1395.5392000000002
 20
1278.1666
 11
1395.4505999999997
 21
1280.2222000000002
  0
LINE
  8
_0-0_LAYER001
  6
CONTINUOUS
 62
    3
 10
1395.4505999999997
 20
1280.2222000000002
 11
1395.4179999999999
 21
1280.9794999999999
  0
LINE
  8
_0-0_LAYER001
  6
CONTINUOUS
 62
    3
 10
1395.4179999999999
 20
1280.9794999999999
 11
1397.0582999999999
 21
1281.6369
  0
LINE
  8
_0-0_LAYER001
  6
CONTINUOUS
 62
    3
 10
1397.0582999999999
 20
1281.6369
 11
1401.6876
 21
1283.4358999999999
  0
LINE
  8
_0-0_LAYER001
  6
CONTINUOUS
 62
    3
 10
1401.6876
 20
1283.4358999999999
 11
1408.8685
 21
1286.1166000000001
  0
LINE
  8
_0-0_LAYER001
  6
CONTINUOUS
 62
    3
 10
1408.8685
 20
1286.1166000000001
 11
1418.1636000000001
 21
1289.4193
  0
LINE
  8
_0-0_LAYER001
  6
CONTINUOUS
 62
    3
 10
1418.1636000000001
 20
1289.4193
 11
1429.1356000000001
 21
1293.0842000000002
  0
LINE
  8
_0-0_LAYER001
  6
CONTINUOUS
 62
    3
 10
1429.1356000000001
 20
1293.0842000000002
 11
1441.3470000000002
 21
1296.8515
  0
LINE
  8
_0-0_LAYER001
  6
CONTINUOUS
 62
    3
 10
1441.3470000000002
 20
1296.8515
 11
1454.3606
 21
1300.4613999999997
  0
LINE
  8
_0-0_LAYER001
  6
CONTINUOUS
 62
    3
 10
1454.3606
 20
1300.4613999999997
 11
1467.7388000000001
 21
1303.6541
  0
LINE
  8
_0-0_LAYER001
  6
CONTINUOUS
 62
    3
 10
1467.7388000000001
 20
1303.6541
 11
1481.0443
 21
1306.1697999999999
  0
LINE
  8
_0-0_LAYER001
  6
CONTINUOUS
 62
    3
 10
1493.8398000000002
 20
1307.7487000000001
 11
1480.9328
 21
1306.1487
  0
LINE
  8
_0-0_LAYER001
  6
CONTINUOUS
 62
    3
 10
1488.5029
 20
1276.8679999999999
 11
1488.5228999999999
 21
1276.4025999999999
  0
LINE
  8
_0-0_LAYER001
  6
CONTINUOUS
 62
    3
 10
1488.5228999999999
 20
1276.4025999999999
 11
1488.5774000000001
 21
1275.1395
  0
LINE
  8
_0-0_LAYER001
  6
CONTINUOUS
 62
    3
 10
1488.5774000000001
 20
1275.1395
 11
1488.6576
 21
1273.2781
  0
LINE
  8
_0-0_LAYER001
  6
CONTINUOUS
 62
    3
 10
1488.6576
 20
1273.2781
 11
1488.7550000000001
 21
1271.0179000000001
  0
LINE
  8
_0-0_LAYER001
  6
CONTINUOUS
 62
    3
 10
1488.7550000000001
 20
1271.0179000000001
 11
1488.8611000000001
 21
1268.5581999999999
  0
LINE
  8
_0-0_LAYER001
  6
CONTINUOUS
 62
    3
 10
1488.8611000000001
 20
1268.5581999999999
 11
1488.9670999999998
 21
1266.0985000000001
  0
LINE
  8
_0-0_LAYER001
  6
CONTINUOUS
 62
    3
 10
1488.9670999999998
 20
1266.0985000000001
 11
1489.0645
 21
1263.8381999999999
  0
LINE
  8
_0-0_LAYER001
  6
CONTINUOUS
 62
    3
 10
1489.0645
 20
1263.8381999999999
 11
1489.1448
 21
1261.9767999999999
  0
LINE
  8
_0-0_LAYER001
  6
CONTINUOUS
 62
    3
 10
1489.1448
 20
1261.9767999999999
 11
1489.1992
 21
1260.7137
  0
LINE
  8
_0-0_LAYER001
  6
CONTINUOUS
 62
    3
 10
1489.1992
 20
1260.7137
 11
1489.2193000000002
 21
1260.2483999999999
  0
LINE
  8
_0-0_LAYER001
  6
CONTINUOUS
 62
    3
 10
1489.2193000000002
 20
1260.2483999999999
 11
1488.0720000000001
 21
1260.2189000000001
  0
LINE
  8
_0-0_LAYER001
  6
CONTINUOUS
 62
    3
 10
1488.0720000000001
 20
1260.2189000000001
 11
1484.7046
 21
1259.9781
  0
LINE
  8
_0-0_LAYER001
  6
CONTINUOUS
 62
    3
 10
1484.7046
 20
1259.9781
 11
1479.2289000000001
 21
1259.2977000000001
  0
LINE
  8
_0-0_LAYER001
  6
CONTINUOUS
 62
    3
 10
1479.2289000000001
 20
1259.2977000000001
 11
1471.7565
 21
1257.9494999999999
  0
LINE
  8
_0-0_LAYER001
  6
CONTINUOUS
 62
    3
 10
1471.7565
 20
1257.9494999999999
 11
1462.3991000000001
 21
1255.7050999999999
  0
LINE
  8
_0-0_LAYER001
  6
CONTINUOUS
 62
    3
 10
1462.3991000000001
 20
1255.7050999999999
 11
1451.2683999999999
 21
1252.3362999999999
  0
LINE
  8
_0-0_LAYER001
  6
CONTINUOUS
 62
    3
 10
1451.2683999999999
 20
1252.3362999999999
 11
1438.4762000000001
 21
1247.6148000000001
  0
LINE
  8
_0-0_LAYER001
  6
CONTINUOUS
 62
    3
 10
1438.4762000000001
 20
1247.6148000000001
 11
1424.134
 21
1241.3123000000001
  0
LINE
  8
_0-0_LAYER001
  6
CONTINUOUS
 62
    3
 10
1424.134
 20
1241.3123000000001
 11
1408.3536999999999
 21
1233.2003999999999
  0
LINE
  8
_0-0_LAYER001
  6
CONTINUOUS
 62
    3
 10
1408.3536999999999
 20
1233.2003999999999
 11
1391.2470000000003
 21
1223.0509
  0
LINE
  8
_0-0_LAYER001
  6
CONTINUOUS
 62
    3
 10
1391.2470000000003
 20
1223.0509
 11
1391.2143000000001
 21
1223.8082999999999
  0
LINE
  8
_0-0_LAYER001
  6
CONTINUOUS
 62
    3
 10
1391.2143000000001
 20
1223.8082999999999
 11
1391.1257000000001
 21
1225.8639000000001
  0
LINE
  8
_0-0_LAYER001
  6
CONTINUOUS
 62
    3
 10
1391.1257000000001
 20
1225.8639000000001
 11
1390.9951000000001
 21
1228.8933
  0
LINE
  8
_0-0_LAYER001
  6
CONTINUOUS
 62
    3
 10
1390.9951000000001
 20
1228.8933
 11
1390.8366000000001
 21
1232.5717999999999
  0
LINE
  8
_0-0_LAYER001
  6
CONTINUOUS
 62
    3
 10
1390.8366000000001
 20
1232.5717999999999
 11
1390.6639999999998
 21
1236.5748000000001
  0
LINE
  8
_0-0_LAYER001
  6
CONTINUOUS
 62
    3
 10
1390.6639999999998
 20
1236.5748000000001
 11
1390.4915000000001
 21
1240.5779
  0
LINE
  8
_0-0_LAYER001
  6
CONTINUOUS
 62
    3
 10
1390.4915000000001
 20
1240.5779
 11
1390.3329000000003
 21
1244.2564
  0
LINE
  8
_0-0_LAYER001
  6
CONTINUOUS
 62
    3
 10
1390.3329000000003
 20
1244.2564
 11
1390.2022999999999
 21
1247.2858000000001
  0
LINE
  8
_0-0_LAYER001
  6
CONTINUOUS
 62
    3
 10
1390.2022999999999
 20
1247.2858000000001
 11
1390.1136999999999
 21
1249.3414
  0
LINE
  8
_0-0_LAYER001
  6
CONTINUOUS
 62
    3
 10
1390.1136999999999
 20
1249.3414
 11
1390.0811000000001
 21
1250.0988
  0
LINE
  8
_0-0_LAYER001
  6
CONTINUOUS
 62
    3
 10
1390.0811000000001
 20
1250.0988
 11
1391.7212999999997
 21
1250.7561000000001
  0
LINE
  8
_0-0_LAYER001
  6
CONTINUOUS
 62
    3
 10
1391.7212999999997
 20
1250.7561000000001
 11
1396.3506000000002
 21
1252.5551
  0
LINE
  8
_0-0_LAYER001
  6
CONTINUOUS
 62
    3
 10
1396.3506000000002
 20
1252.5551
 11
1403.5315000000001
 21
1255.2357999999999
  0
LINE
  8
_0-0_LAYER001
  6
CONTINUOUS
 62
    3
 10
1403.5315000000001
 20
1255.2357999999999
 11
1412.8267000000001
 21
1258.5385000000001
  0
LINE
  8
_0-0_LAYER001
  6
CONTINUOUS
 62
    3
 10
1412.8267000000001
 20
1258.5385000000001
 11
1423.7986000000001
 21
1262.2034000000001
  0
LINE
  8
_0-0_LAYER001
  6
CONTINUOUS
 62
    3
 10
1423.7986000000001
 20
1262.2034000000001
 11
1436.0101
 21
1265.9707000000001
  0
LINE
  8
_0-0_LAYER001
  6
CONTINUOUS
 62
    3
 10
1436.0101
 20
1265.9707000000001
 11
1449.0236
 21
1269.5806
  0
LINE
  8
_0-0_LAYER001
  6
CONTINUOUS
 62
    3
 10
1449.0236
 20
1269.5806
 11
1462.4018000000001
 21
1272.7733000000001
  0
LINE
  8
_0-0_LAYER001
  6
CONTINUOUS
 62
    3
 10
1462.4018000000001
 20
1272.7733000000001
 11
1475.7073999999998
 21
1275.289
  0
LINE
  8
_0-0_LAYER001
  6
CONTINUOUS
 62
    3
 10
1488.5029
 20
1276.8679999999999
 11
1475.5958999999998
 21
1275.2679000000001
  0
LINE
  8
_0-0_LAYER001
  6
CONTINUOUS
 62
    3
 10
1483.8398999999999
 20
1246.2929999999999
 11
1483.8598999999999
 21
1245.8276000000001
  0
LINE
  8
_0-0_LAYER001
  6
CONTINUOUS
 62
    3
 10
1483.8598999999999
 20
1245.8276000000001
 11
1483.9144000000001
 21
1244.5645
  0
LINE
  8
_0-0_LAYER001
  6
CONTINUOUS
 62
    3
 10
1483.9144000000001
 20
1244.5645
 11
1483.9946
 21
1242.7030999999999
  0
LINE
  8
_0-0_LAYER001
  6
CONTINUOUS
 62
    3
 10
1483.9946
 20
1242.7030999999999
 11
1484.0920000000001
 21
1240.4429
  0
LINE
  8
_0-0_LAYER001
  6
CONTINUOUS
 62
    3
 10
1484.0920000000001
 20
1240.4429
 11
1484.1981000000001
 21
1237.9831999999999
  0
LINE
  8
_0-0_LAYER001
  6
CONTINUOUS
 62
    3
 10
1484.1981000000001
 20
1237.9831999999999
 11
1484.3040999999998
 21
1235.5235
  0
LINE
  8
_0-0_LAYER001
  6
CONTINUOUS
 62
    3
 10
1484.3040999999998
 20
1235.5235
 11
1484.4014999999999
 21
1233.2632000000001
  0
LINE
  8
_0-0_LAYER001
  6
CONTINUOUS
 62
    3
 10
1484.4014999999999
 20
1233.2632000000001
 11
1484.4818
 21
1231.4018000000001
  0
LINE
  8
_0-0_LAYER001
  6
CONTINUOUS
 62
    3
 10
1484.4818
 20
1231.4018000000001
 11
1484.5362
 21
1230.1387
  0
LINE
  8
_0-0_LAYER001
  6
CONTINUOUS
 62
    3
 10
1484.5362
 20
1230.1387
 11
1484.5563000000002
 21
1229.6733999999999
  0
LINE
  8
_0-0_LAYER001
  6
CONTINUOUS
 62
    3
 10
1484.5563000000002
 20
1229.6733999999999
 11
1483.4090000000001
 21
1229.6439
  0
LINE
  8
_0-0_LAYER001
  6
CONTINUOUS
 62
    3
 10
1483.4090000000001
 20
1229.6439
 11
1480.0416
 21
1229.4031
  0
LINE
  8
_0-0_LAYER001
  6
CONTINUOUS
 62
    3
 10
1480.0416
 20
1229.4031
 11
1474.5659000000001
 21
1228.7227
  0
LINE
  8
_0-0_LAYER001
  6
CONTINUOUS
 62
    3
 10
1474.5659000000001
 20
1228.7227
 11
1467.0934999999999
 21
1227.3744999999999
  0
LINE
  8
_0-0_LAYER001
  6
CONTINUOUS
 62
    3
 10
1467.0934999999999
 20
1227.3744999999999
 11
1457.7361000000001
 21
1225.1301000000001
  0
LINE
  8
_0-0_LAYER001
  6
CONTINUOUS
 62
    3
 10
1457.7361000000001
 20
1225.1301000000001
 11
1446.6053999999999
 21
1221.7612999999999
  0
LINE
  8
_0-0_LAYER001
  6
CONTINUOUS
 62
    3
 10
1446.6053999999999
 20
1221.7612999999999
 11
1433.8132000000001
 21
1217.0398
  0
LINE
  8
_0-0_LAYER001
  6
CONTINUOUS
 62
    3
 10
1433.8132000000001
 20
1217.0398
 11
1419.471
 21
1210.7373
  0
LINE
  8
_0-0_LAYER001
  6
CONTINUOUS
 62
    3
 10
1419.471
 20
1210.7373
 11
1403.6907000000001
 21
1202.6253999999999
  0
LINE
  8
_0-0_LAYER001
  6
CONTINUOUS
 62
    3
 10
1403.6907000000001
 20
1202.6253999999999
 11
1386.5840000000001
 21
1192.4758999999999
  0
LINE
  8
_0-0_LAYER001
  6
CONTINUOUS
 62
    3
 10
1386.5840000000001
 20
1192.4758999999999
 11
1386.5513000000001
 21
1193.2333000000001
  0
LINE
  8
_0-0_LAYER001
  6
CONTINUOUS
 62
    3
 10
1386.5513000000001
 20
1193.2333000000001
 11
1386.4627
 21
1195.2889
  0
LINE
  8
_0-0_LAYER001
  6
CONTINUOUS
 62
    3
 10
1386.4627
 20
1195.2889
 11
1386.3321000000001
 21
1198.3182999999999
  0
LINE
  8
_0-0_LAYER001
  6
CONTINUOUS
 62
    3
 10
1386.3321000000001
 20
1198.3182999999999
 11
1386.1736000000001
 21
1201.9967999999999
  0
LINE
  8
_0-0_LAYER001
  6
CONTINUOUS
 62
    3
 10
1386.1736000000001
 20
1201.9967999999999
 11
1386.001
 21
1205.9998000000001
  0
LINE
  8
_0-0_LAYER001
  6
CONTINUOUS
 62
    3
 10
1386.001
 20
1205.9998000000001
 11
1385.8285000000001
 21
1210.0029
  0
LINE
  8
_0-0_LAYER001
  6
CONTINUOUS
 62
    3
 10
1385.8285000000001
 20
1210.0029
 11
1385.6699000000001
 21
1213.6813999999999
  0
LINE
  8
_0-0_LAYER001
  6
CONTINUOUS
 62
    3
 10
1385.6699000000001
 20
1213.6813999999999
 11
1385.5392999999999
 21
1216.7108000000001
  0
LINE
  8
_0-0_LAYER001
  6
CONTINUOUS
 62
    3
 10
1385.5392999999999
 20
1216.7108000000001
 11
1385.4507000000001
 21
1218.7664
  0
LINE
  8
_0-0_LAYER001
  6
CONTINUOUS
 62
    3
 10
1385.4507000000001
 20
1218.7664
 11
1385.4180999999999
 21
1219.5237999999999
  0
LINE
  8
_0-0_LAYER001
  6
CONTINUOUS
 62
    3
 10
1385.4180999999999
 20
1219.5237999999999
 11
1387.0582999999999
 21
1220.1811
  0
LINE
  8
_0-0_LAYER001
  6
CONTINUOUS
 62
    3
 10
1387.0582999999999
 20
1220.1811
 11
1391.6876
 21
1221.9801
  0
LINE
  8
_0-0_LAYER001
  6
CONTINUOUS
 62
    3
 10
1391.6876
 20
1221.9801
 11
1398.8685
 21
1224.6608000000001
  0
LINE
  8
_0-0_LAYER001
  6
CONTINUOUS
 62
    3
 10
1398.8685
 20
1224.6608000000001
 11
1408.1637000000001
 21
1227.9635000000001
  0
LINE
  8
_0-0_LAYER001
  6
CONTINUOUS
 62
    3
 10
1408.1637000000001
 20
1227.9635000000001
 11
1419.1356000000001
 21
1231.6284000000001
  0
LINE
  8
_0-0_LAYER001
  6
CONTINUOUS
 62
    3
 10
1419.1356000000001
 20
1231.6284000000001
 11
1431.3471
 21
1235.3957
  0
LINE
  8
_0-0_LAYER001
  6
CONTINUOUS
 62
    3
 10
1431.3471
 20
1235.3957
 11
1444.3606
 21
1239.0056
  0
LINE
  8
_0-0_LAYER001
  6
CONTINUOUS
 62
    3
 10
1444.3606
 20
1239.0056
 11
1457.7388000000001
 21
1242.1983
  0
LINE
  8
_0-0_LAYER001
  6
CONTINUOUS
 62
    3
 10
1457.7388000000001
 20
1242.1983
 11
1471.0444000000002
 21
1244.7139999999999
  0
LINE
  8
_0-0_LAYER001
  6
CONTINUOUS
 62
    3
 10
1483.8398999999999
 20
1246.2929999999999
 11
1470.9328999999998
 21
1244.6929
  0
LINE
  8
_0-0_LAYER001
  6
CONTINUOUS
 62
    2
 10
2235.6644000000001
 20
770.62159999999994
 11
1508.3308000000002
 21
1097.9213
  0
LINE
  8
_0-0_LAYER001
  6
CONTINUOUS
 62
    1
 10
2234.8094999999998
 20
771.00639999999999
 11
2236.6786999999999
 21
772.8755000000001
  0
LINE
  8
_0-0_LAYER001
  6
CONTINUOUS
 62
    1
 10
2225.0563000000002
 20
775.39529999999991
 11
2248.2492000000002
 21
798.58819999999992
  0
LINE
  8
_0-0_LAYER001
  6
CONTINUOUS
 62
    1
 10
2215.3031000000001
 20
779.78420000000006
 11
2245.5536999999999
 21
810.03469999999993
  0
LINE
  8
_0-0_LAYER001
  6
CONTINUOUS
 62
    1
 10
2205.5499
 20
784.17319999999995
 11
2235.8004999999998
 21
814.42370000000005
  0
LINE
  8
_0-0_LAYER001
  6
CONTINUOUS
 62
    1
 10
2195.7966999999999
 20
788.5621000000001
 11
2226.0473000000002
 21
818.81259999999997
  0
LINE
  8
_0-0_LAYER001
  6
CONTINUOUS
 62
    1
 10
2186.0435000000002
 20
792.95100000000002
 11
2216.2941000000001
 21
823.2016000000001
  0
LINE
  8
_0-0_LAYER001
  6
CONTINUOUS
 62
    1
 10
2176.2903000000001
 20
797.33999999999992
 11
2206.5409
 21
827.59050000000002
  0
LINE
  8
_0-0_LAYER001
  6
CONTINUOUS
 62
    1
 10
2166.5371
 20
801.72890000000007
 11
2196.7876999999999
 21
831.97949999999992
  0
LINE
  8
_0-0_LAYER001
  6
CONTINUOUS
 62
    1
 10
2156.7838999999999
 20
806.11779999999999
 11
2187.0345000000002
 21
836.36840000000007
  0
LINE
  8
_0-0_LAYER001
  6
CONTINUOUS
 62
    1
 10
2147.0306999999998
 20
810.50680000000011
 11
2177.2813000000001
 21
840.75729999999999
  0
LINE
  8
_0-0_LAYER001
  6
CONTINUOUS
 62
    1
 10
2137.2775000000001
 20
814.89570000000003
 11
2167.5281
 21
845.14630000000011
  0
LINE
  8
_0-0_LAYER001
  6
CONTINUOUS
 62
    1
 10
2127.5243
 20
819.28459999999995
 11
2157.7748999999999
 21
849.53520000000003
  0
LINE
  8
_0-0_LAYER001
  6
CONTINUOUS
 62
    1
 10
2117.7710999999999
 20
823.67360000000008
 11
2148.0216999999998
 21
853.92419999999993
  0
LINE
  8
_0-0_LAYER001
  6
CONTINUOUS
 62
    1
 10
2108.0178999999998
 20
828.0625
 11
2138.2685000000001
 21
858.31310000000008
  0
LINE
  8
_0-0_LAYER001
  6
CONTINUOUS
 62
    1
 10
2098.2647000000002
 20
832.45139999999992
 11
2128.5153
 21
862.70209999999997
  0
LINE
  8
_0-0_LAYER001
  6
CONTINUOUS
 62
    1
 10
2088.5115000000001
 20
836.84040000000005
 11
2118.7620999999999
 21
867.09099999999989
  0
LINE
  8
_0-0_LAYER001
  6
CONTINUOUS
 62
    1
 10
2078.7583
 20
841.22929999999997
 11
2109.009
 21
871.47990000000004
  0
LINE
  8
_0-0_LAYER001
  6
CONTINUOUS
 62
    1
 10
2069.0050999999999
 20
845.61819999999989
 11
2099.2557999999999
 21
875.86889999999994
  0
LINE
  8
_0-0_LAYER001
  6
CONTINUOUS
 62
    1
 10
2059.2519000000002
 20
850.00720000000001
 11
2089.5025999999998
 21
880.25780000000009
  0
LINE
  8
_0-0_LAYER001
  6
CONTINUOUS
 62
    1
 10
2049.4987000000001
 20
854.39609999999993
 11
2079.7494000000002
 21
884.64679999999998
  0
LINE
  8
_0-0_LAYER001
  6
CONTINUOUS
 62
    1
 10
2039.7455
 20
858.78500000000008
 11
2069.9962
 21
889.03569999999991
  0
LINE
  8
_0-0_LAYER001
  6
CONTINUOUS
 62
    1
 10
2029.9922999999999
 20
863.17399999999998
 11
2060.2429999999999
 21
893.42470000000003
  0
LINE
  8
_0-0_LAYER001
  6
CONTINUOUS
 62
    1
 10
2020.2390999999998
 20
867.5628999999999
 11
2050.4897999999998
 21
897.81359999999995
  0
LINE
  8
_0-0_LAYER001
  6
CONTINUOUS
 62
    1
 10
2010.4859000000001
 20
871.95180000000005
 11
2040.7366000000002
 21
902.2025000000001
  0
LINE
  8
_0-0_LAYER001
  6
CONTINUOUS
 62
    1
 10
2000.7327
 20
876.34079999999994
 11
2030.9834000000001
 21
906.5915
  0
LINE
  8
_0-0_LAYER001
  6
CONTINUOUS
 62
    1
 10
1990.9794999999999
 20
880.72970000000009
 11
2021.2302
 21
910.98039999999992
  0
LINE
  8
_0-0_LAYER001
  6
CONTINUOUS
 62
    1
 10
1981.2262999999998
 20
885.11860000000001
 11
2011.4769999999999
 21
915.36940000000004
  0
LINE
  8
_0-0_LAYER001
  6
CONTINUOUS
 62
    1
 10
1971.4731000000002
 20
889.50759999999991
 11
2001.7238000000002
 21
919.75829999999996
  0
LINE
  8
_0-0_LAYER001
  6
CONTINUOUS
 62
    1
 10
1961.7199000000001
 20
893.89650000000006
 11
1991.9706000000001
 21
924.14720000000011
  0
LINE
  8
_0-0_LAYER001
  6
CONTINUOUS
 62
    1
 10
1951.9666999999999
 20
898.28539999999998
 11
1982.2174
 21
928.53620000000001
  0
LINE
  8
_0-0_LAYER001
  6
CONTINUOUS
 62
    1
 10
1942.2134999999998
 20
902.67440000000011
 11
1972.4641999999999
 21
932.92509999999993
  0
LINE
  8
_0-0_LAYER001
  6
CONTINUOUS
 62
    1
 10
1932.4603000000002
 20
907.06330000000003
 11
1962.7111
 21
937.31410000000005
  0
LINE
  8
_0-0_LAYER001
  6
CONTINUOUS
 62
    1
 10
1922.7071000000001
 20
911.45219999999995
 11
1952.9578999999999
 21
941.70299999999997
  0
LINE
  8
_0-0_LAYER001
  6
CONTINUOUS
 62
    1
 10
1912.9539
 20
915.84120000000007
 11
1943.2046999999998
 21
946.0920000000001
  0
LINE
  8
_0-0_LAYER001
  6
CONTINUOUS
 62
    1
 10
1903.2006999999999
 20
920.23009999999999
 11
1933.4515000000001
 21
950.48090000000002
  0
LINE
  8
_0-0_LAYER001
  6
CONTINUOUS
 62
    1
 10
1893.4475000000002
 20
924.61899999999991
 11
1923.6983
 21
954.86979999999994
  0
LINE
  8
_0-0_LAYER001
  6
CONTINUOUS
 62
    1
 10
1883.6943000000001
 20
929.00800000000004
 11
1913.9450999999999
 21
959.25880000000006
  0
LINE
  8
_0-0_LAYER001
  6
CONTINUOUS
 62
    1
 10
1873.9411
 20
933.39689999999996
 11
1904.1918999999998
 21
963.64769999999999
  0
LINE
  8
_0-0_LAYER001
  6
CONTINUOUS
 62
    1
 10
1864.1878999999999
 20
937.78580000000011
 11
1894.4387000000002
 21
968.03670000000011
  0
LINE
  8
_0-0_LAYER001
  6
CONTINUOUS
 62
    1
 10
1854.4346999999998
 20
942.1748
 11
1884.6855
 21
972.42560000000003
  0
LINE
  8
_0-0_LAYER001
  6
CONTINUOUS
 62
    1
 10
1844.6815000000001
 20
946.56369999999993
 11
1874.9322999999999
 21
976.81459999999993
  0
LINE
  8
_0-0_LAYER001
  6
CONTINUOUS
 62
    1
 10
1834.9283
 20
950.95270000000005
 11
1865.1790999999998
 21
981.20350000000008
  0
LINE
  8
_0-0_LAYER001
  6
CONTINUOUS
 62
    1
 10
1825.1750999999999
 20
955.34159999999997
 11
1855.4259000000002
 21
985.5924
  0
LINE
  8
_0-0_LAYER001
  6
CONTINUOUS
 62
    1
 10
1815.4218999999998
 20
959.73049999999989
 11
1845.6727000000001
 21
989.98139999999989
  0
LINE
  8
_0-0_LAYER001
  6
CONTINUOUS
 62
    1
 10
1805.6687000000002
 20
964.11950000000002
 11
1835.9195
 21
994.37030000000004
  0
LINE
  8
_0-0_LAYER001
  6
CONTINUOUS
 62
    1
 10
1795.9155000000001
 20
968.50839999999994
 11
1826.1662999999999
 21
998.75929999999994
  0
LINE
  8
_0-0_LAYER001
  6
CONTINUOUS
 62
    1
 10
1786.1623
 20
972.89730000000009
 11
1816.4132
 21
1003.1482000000001
  0
LINE
  8
_0-0_LAYER001
  6
CONTINUOUS
 62
    1
 10
1776.4090999999999
 20
977.28629999999998
 11
1806.6599999999999
 21
1007.5372
  0
LINE
  8
_0-0_LAYER001
  6
CONTINUOUS
 62
    1
 10
1766.6559000000002
 20
981.6751999999999
 11
1796.9068000000002
 21
1011.9260999999999
  0
LINE
  8
_0-0_LAYER001
  6
CONTINUOUS
 62
    1
 10
1756.9027000000001
 20
986.06410000000005
 11
1787.1536000000001
 21
1016.3150000000001
  0
LINE
  8
_0-0_LAYER001
  6
CONTINUOUS
 62
    1
 10
1747.1495
 20
990.45309999999995
 11
1777.4004
 21
1020.704
  0
LINE
  8
_0-0_LAYER001
  6
CONTINUOUS
 62
    1
 10
1737.3962999999999
 20
994.8420000000001
 11
1767.6471999999999
 21
1025.0929000000001
  0
LINE
  8
_0-0_LAYER001
  6
CONTINUOUS
 62
    1
 10
1727.6430999999998
 20
999.23090000000002
 11
1757.8939999999998
 21
1029.4819
  0
LINE
  8
_0-0_LAYER001
  6
CONTINUOUS
 62
    1
 10
1717.8899000000001
 20
1003.6198999999999
 11
1748.1408000000001
 21
1033.8707999999999
  0
LINE
  8
_0-0_LAYER001
  6
CONTINUOUS
 62
    1
 10
1708.1365999999998
 20
1008.0088000000001
 11
1738.3876
 21
1038.2597000000001
  0
LINE
  8
_0-0_LAYER001
  6
CONTINUOUS
 62
    1
 10
1698.3834000000002
 20
1012.3977
 11
1728.6343999999999
 21
1042.6487
  0
LINE
  8
_0-0_LAYER001
  6
CONTINUOUS
 62
    1
 10
1688.6302000000001
 20
1016.7867000000001
 11
1718.8811999999998
 21
1047.0376000000001
  0
LINE
  8
_0-0_LAYER001
  6
CONTINUOUS
 62
    1
 10
1678.877
 20
1021.1756
 11
1709.1280000000002
 21
1051.4266
  0
LINE
  8
_0-0_LAYER001
  6
CONTINUOUS
 62
    1
 10
1669.1237999999998
 20
1025.5645
 11
1699.3748000000001
 21
1055.8154999999999
  0
LINE
  8
_0-0_LAYER001
  6
CONTINUOUS
 62
    1
 10
1659.3706000000002
 20
1029.9535000000001
 11
1689.6215999999999
 21
1060.2045000000001
  0
LINE
  8
_0-0_LAYER001
  6
CONTINUOUS
 62
    1
 10
1649.6174000000001
 20
1034.3424
 11
1679.8683999999998
 21
1064.5934
  0
LINE
  8
_0-0_LAYER001
  6
CONTINUOUS
 62
    1
 10
1639.8642
 20
1038.7312999999999
 11
1670.1152999999999
 21
1068.9822999999999
  0
LINE
  8
_0-0_LAYER001
  6
CONTINUOUS
 62
    1
 10
1630.1109999999999
 20
1043.1203
 11
1660.3620999999998
 21
1073.3713
  0
LINE
  8
_0-0_LAYER001
  6
CONTINUOUS
 62
    1
 10
1620.3578000000002
 20
1047.5092
 11
1650.6089000000002
 21
1077.7601999999999
  0
LINE
  8
_0-0_LAYER001
  6
CONTINUOUS
 62
    1
 10
1610.6046000000001
 20
1051.8981000000001
 11
1640.8557000000001
 21
1082.1492000000001
  0
LINE
  8
_0-0_LAYER001
  6
CONTINUOUS
 62
    1
 10
1600.8514
 20
1056.2871
 11
1631.1025
 21
1086.5381
  0
LINE
  8
_0-0_LAYER001
  6
CONTINUOUS
 62
    1
 10
1591.0981999999999
 20
1060.6759999999999
 11
1621.3492999999999
 21
1090.9271000000001
  0
LINE
  8
_0-0_LAYER001
  6
CONTINUOUS
 62
    1
 10
1581.3449999999998
 20
1065.0649000000001
 11
1611.5961000000002
 21
1095.316
  0
LINE
  8
_0-0_LAYER001
  6
CONTINUOUS
 62
    1
 10
1571.5918000000001
 20
1069.4539
 11
1601.8429000000001
 21
1099.7049
  0
LINE
  8
_0-0_LAYER001
  6
CONTINUOUS
 62
    1
 10
1561.8386
 20
1073.8427999999999
 11
1592.0897
 21
1104.0939000000001
  0
LINE
  8
_0-0_LAYER001
  6
CONTINUOUS
 62
    1
 10
1552.0853999999999
 20
1078.2317
 11
1582.3364999999999
 21
1108.4828
  0
LINE
  8
_0-0_LAYER001
  6
CONTINUOUS
 62
    1
 10
1542.3321999999998
 20
1082.6206999999999
 11
1572.5832999999998
 21
1112.8717999999999
  0
LINE
  8
_0-0_LAYER001
  6
CONTINUOUS
 62
    1
 10
1532.5790000000002
 20
1087.0096000000001
 11
1562.8301000000001
 21
1117.2607
  0
LINE
  8
_0-0_LAYER001
  6
CONTINUOUS
 62
    1
 10
1522.8258000000001
 20
1091.3985
 11
1553.0769
 21
1121.6496999999999
  0
LINE
  8
_0-0_LAYER001
  6
CONTINUOUS
 62
    1
 10
1513.0726
 20
1095.7874999999999
 11
1543.3236999999999
 21
1126.0386000000001
  0
LINE
  8
_0-0_LAYER001
  6
CONTINUOUS
 62
    1
 10
1495.1190000000001
 20
1091.9760000000001
 11
1533.5704999999998
 21
1130.4275
  0
LINE
  8
_0-0_LAYER001
  6
CONTINUOUS
 62
    1
 10
1469.4061000000002
 20
1080.4051999999999
 11
1523.8173000000002
 21
1134.8164999999999
  0
LINE
  8
_0-0_LAYER001
  6
CONTINUOUS
 62
    1
 10
1443.6932000000002
 20
1068.8344
 11
1514.0641999999998
 21
1139.2054000000001
  0
LINE
  8
_0-0_LAYER001
  6
CONTINUOUS
 62
    1
 10
1417.9802999999997
 20
1057.2637
 11
1497.7330000000002
 21
1137.0164
  0
LINE
  8
_0-0_LAYER001
  6
CONTINUOUS
 62
    1
 10
1392.2673
 20
1045.6929
 11
1472.0201000000002
 21
1125.4456
  0
LINE
  8
_0-0_LAYER001
  6
CONTINUOUS
 62
    1
 10
1366.5544
 20
1034.1221
 11
1446.3071
 21
1113.8748000000001
  0
LINE
  8
_0-0_LAYER001
  6
CONTINUOUS
 62
    1
 10
1340.8415
 20
1022.5513000000001
 11
1420.5941000000003
 21
1102.3039000000001
  0
LINE
  8
_0-0_LAYER001
  6
CONTINUOUS
 62
    1
 10
1315.1286
 20
1010.9804999999999
 11
1394.8812
 21
1090.7330999999999
  0
LINE
  8
_0-0_LAYER001
  6
CONTINUOUS
 62
    1
 10
1289.4157
 20
999.4097999999999
 11
1369.1682000000001
 21
1079.1623
  0
LINE
  8
_0-0_LAYER001
  6
CONTINUOUS
 62
    1
 10
1263.7028
 20
987.83899999999994
 11
1343.4552000000003
 21
1067.5914
  0
LINE
  8
_0-0_LAYER001
  6
CONTINUOUS
 62
    1
 10
1237.9899
 20
976.26819999999998
 11
1317.7421999999999
 21
1056.0206000000001
  0
LINE
  8
_0-0_LAYER001
  6
CONTINUOUS
 62
    1
 10
1212.277
 20
964.69740000000002
 11
1292.0292999999997
 21
1044.4498000000001
  0
LINE
  8
_0-0_LAYER001
  6
CONTINUOUS
 62
    1
 10
1186.5640000000001
 20
953.12670000000003
 11
1266.3163
 21
1032.8788999999999
  0
LINE
  8
_0-0_LAYER001
  6
CONTINUOUS
 62
    1
 10
1160.8511000000001
 20
941.55590000000007
 11
1240.6033
 21
1021.3081
  0
LINE
  8
_0-0_LAYER001
  6
CONTINUOUS
 62
    1
 10
1135.1382000000001
 20
929.9851000000001
 11
1214.8904
 21
1009.7372
  0
LINE
  8
_0-0_LAYER001
  6
CONTINUOUS
 62
    1
 10
1109.4253000000001
 20
918.41429999999991
 11
1189.1774
 21
998.16640000000007
  0
LINE
  8
_0-0_LAYER001
  6
CONTINUOUS
 62
    1
 10
1083.7123999999999
 20
906.84359999999992
 11
1163.4644000000001
 21
986.5956000000001
  0
LINE
  8
_0-0_LAYER001
  6
CONTINUOUS
 62
    1
 10
1057.9994999999999
 20
895.27279999999996
 11
1137.7514000000001
 21
975.02469999999994
  0
LINE
  8
_0-0_LAYER001
  6
CONTINUOUS
 62
    1
 10
1032.2865999999999
 20
883.702
 11
1112.0385000000001
 21
963.45389999999998
  0
LINE
  8
_0-0_LAYER001
  6
CONTINUOUS
 62
    1
 10
1006.5736999999999
 20
872.13120000000004
 11
1086.3254999999999
 21
951.88310000000001
  0
LINE
  8
_0-0_LAYER001
  6
CONTINUOUS
 62
    1
 10
980.86069999999995
 20
860.56040000000007
 11
1060.6125
 21
940.31220000000008
  0
LINE
  8
_0-0_LAYER001
  6
CONTINUOUS
 62
    1
 10
955.14779999999996
 20
848.98970000000008
 11
1034.8996
 21
928.74140000000011
  0
LINE
  8
_0-0_LAYER001
  6
CONTINUOUS
 62
    1
 10
929.43489999999997
 20
837.41889999999989
 11
1009.1866
 21
917.17059999999992
  0
LINE
  8
_0-0_LAYER001
  6
CONTINUOUS
 62
    1
 10
903.72199999999998
 20
825.84809999999993
 11
983.47360000000003
 21
905.59969999999998
  0
LINE
  8
_0-0_LAYER001
  6
CONTINUOUS
 62
    1
 10
878.00909999999999
 20
814.27729999999997
 11
957.76070000000004
 21
894.02890000000002
  0
LINE
  8
_0-0_LAYER001
  6
CONTINUOUS
 62
    1
 10
852.2962
 20
802.70659999999998
 11
932.04770000000008
 21
882.45810000000006
  0
LINE
  8
_0-0_LAYER001
  6
CONTINUOUS
 62
    1
 10
826.58330000000001
 20
791.13580000000002
 11
906.33470000000011
 21
870.88719999999989
  0
LINE
  8
_0-0_LAYER001
  6
CONTINUOUS
 62
    1
 10
800.87040000000002
 20
779.56500000000005
 11
880.62169999999992
 21
859.31639999999993
  0
LINE
  8
_0-0_LAYER001
  6
CONTINUOUS
 62
    1
 10
775.61069999999995
 20
782.58960000000002
 11
829.19579999999996
 21
836.17470000000003
  0
LINE
  8
_0-0_LAYER001
  6
CONTINUOUS
 62
    1
 10
771.22180000000003
 20
792.3427999999999
 11
803.4828
 21
824.60390000000007
  0
LINE
  8
_0-0_LAYER001
  6
CONTINUOUS
 62
    1
 10
766.83290000000011
 20
802.096
 11
777.76990000000001
 21
813.0331000000001
  0
LINE
  8
_0-0_LAYER001
  6
CONTINUOUS
 62
    1
 10
780.9248
 20
770.7802999999999
 11
781.05629999999996
 21
770.64869999999996
  0
LINE
  8
_0-0_LAYER001
  6
CONTINUOUS
 62
    1
 10
769.35419999999999
 20
796.49299999999994
 11
790.80950000000007
 21
775.03770000000009
  0
LINE
  8
_0-0_LAYER001
  6
CONTINUOUS
 62
    1
 10
770.31220000000008
 20
809.67710000000011
 11
800.56269999999995
 21
779.42660000000001
  0
LINE
  8
_0-0_LAYER001
  6
CONTINUOUS
 62
    1
 10
780.06539999999995
 20
814.06610000000001
 11
810.31600000000003
 21
783.81549999999993
  0
LINE
  8
_0-0_LAYER001
  6
CONTINUOUS
 62
    1
 10
789.81860000000006
 20
818.45499999999993
 11
820.06919999999991
 21
788.20440000000008
  0
LINE
  8
_0-0_LAYER001
  6
CONTINUOUS
 62
    1
 10
799.57179999999994
 20
822.84390000000008
 11
829.82240000000002
 21
792.59339999999997
  0
LINE
  8
_0-0_LAYER001
  6
CONTINUOUS
 62
    1
 10
809.32500000000005
 20
827.23289999999997
 11
839.57559999999989
 21
796.9822999999999
  0
LINE
  8
_0-0_LAYER001
  6
CONTINUOUS
 62
    1
 10
819.07819999999992
 20
831.62179999999989
 11
849.3288
 21
801.37120000000004
  0
LINE
  8
_0-0_LAYER001
  6
CONTINUOUS
 62
    1
 10
828.83140000000003
 20
836.01070000000004
 11
859.08200000000011
 21
805.76019999999994
  0
LINE
  8
_0-0_LAYER001
  6
CONTINUOUS
 62
    1
 10
838.58459999999991
 20
840.39969999999994
 11
868.83519999999999
 21
810.14910000000009
  0
LINE
  8
_0-0_LAYER001
  6
CONTINUOUS
 62
    1
 10
848.33780000000002
 20
844.78860000000009
 11
878.58840000000009
 21
814.53800000000001
  0
LINE
  8
_0-0_LAYER001
  6
CONTINUOUS
 62
    1
 10
858.09099999999989
 20
849.17759999999998
 11
888.34159999999997
 21
818.92699999999991
  0
LINE
  8
_0-0_LAYER001
  6
CONTINUOUS
 62
    1
 10
867.8442
 20
853.56649999999991
 11
898.09480000000008
 21
823.31590000000006
  0
LINE
  8
_0-0_LAYER001
  6
CONTINUOUS
 62
    1
 10
877.59740000000011
 20
857.95540000000005
 11
907.84799999999996
 21
827.70479999999998
  0
LINE
  8
_0-0_LAYER001
  6
CONTINUOUS
 62
    1
 10
887.35059999999999
 20
862.34439999999995
 11
917.60120000000006
 21
832.0936999999999
  0
LINE
  8
_0-0_LAYER001
  6
CONTINUOUS
 62
    1
 10
897.10380000000009
 20
866.7333000000001
 11
927.35439999999994
 21
836.48270000000002
  0
LINE
  8
_0-0_LAYER001
  6
CONTINUOUS
 62
    1
 10
906.85699999999997
 20
871.12220000000002
 11
937.10760000000005
 21
840.87159999999994
  0
LINE
  8
_0-0_LAYER001
  6
CONTINUOUS
 62
    1
 10
916.61020000000008
 20
875.51119999999992
 11
946.86079999999993
 21
845.26050000000009
  0
LINE
  8
_0-0_LAYER001
  6
CONTINUOUS
 62
    1
 10
926.36339999999996
 20
879.90010000000007
 11
956.61400000000003
 21
849.64949999999999
  0
LINE
  8
_0-0_LAYER001
  6
CONTINUOUS
 62
    1
 10
936.11660000000006
 20
884.28909999999996
 11
966.36719999999991
 21
854.03839999999991
  0
LINE
  8
_0-0_LAYER001
  6
CONTINUOUS
 62
    1
 10
945.86979999999994
 20
888.67800000000011
 11
976.12049999999999
 21
858.42730000000006
  0
LINE
  8
_0-0_LAYER001
  6
CONTINUOUS
 62
    1
 10
955.62300000000005
 20
893.06690000000003
 11
985.8737000000001
 21
862.81629999999996
  0
LINE
  8
_0-0_LAYER001
  6
CONTINUOUS
 62
    1
 10
965.37619999999993
 20
897.45589999999993
 11
995.62689999999998
 21
867.2052000000001
  0
LINE
  8
_0-0_LAYER001
  6
CONTINUOUS
 62
    1
 10
975.12940000000003
 20
901.84480000000008
 11
1005.3801000000001
 21
871.59410000000003
  0
LINE
  8
_0-0_LAYER001
  6
CONTINUOUS
 62
    1
 10
984.88259999999991
 20
906.23379999999997
 11
1015.1333
 21
875.98299999999995
  0
LINE
  8
_0-0_LAYER001
  6
CONTINUOUS
 62
    1
 10
994.63580000000002
 20
910.6226999999999
 11
1024.8865000000001
 21
880.37200000000007
  0
LINE
  8
_0-0_LAYER001
  6
CONTINUOUS
 62
    1
 10
1004.3889999999999
 20
915.01160000000004
 11
1034.6396999999999
 21
884.76089999999999
  0
LINE
  8
_0-0_LAYER001
  6
CONTINUOUS
 62
    1
 10
1014.1422
 20
919.40059999999994
 11
1044.3929000000001
 21
889.14979999999991
  0
LINE
  8
_0-0_LAYER001
  6
CONTINUOUS
 62
    1
 10
1023.8952999999999
 20
923.78950000000009
 11
1054.1460999999999
 21
893.53880000000004
  0
LINE
  8
_0-0_LAYER001
  6
CONTINUOUS
 62
    1
 10
1033.6485
 20
928.17840000000001
 11
1063.8993
 21
897.92769999999996
  0
LINE
  8
_0-0_LAYER001
  6
CONTINUOUS
 62
    1
 10
1043.4016999999999
 20
932.56739999999991
 11
1073.6524999999999
 21
902.31660000000011
  0
LINE
  8
_0-0_LAYER001
  6
CONTINUOUS
 62
    1
 10
1053.1549
 20
936.95630000000006
 11
1083.4057
 21
906.70550000000003
  0
LINE
  8
_0-0_LAYER001
  6
CONTINUOUS
 62
    1
 10
1062.9081000000001
 20
941.34529999999995
 11
1093.1588999999999
 21
911.09449999999993
  0
LINE
  8
_0-0_LAYER001
  6
CONTINUOUS
 62
    1
 10
1072.6613
 20
945.7342000000001
 11
1102.9121
 21
915.48340000000007
  0
LINE
  8
_0-0_LAYER001
  6
CONTINUOUS
 62
    1
 10
1082.4145000000001
 20
950.12310000000002
 11
1112.6652999999999
 21
919.8723
  0
LINE
  8
_0-0_LAYER001
  6
CONTINUOUS
 62
    1
 10
1092.1677
 20
954.51209999999992
 11
1122.4185
 21
924.26129999999989
  0
LINE
  8
_0-0_LAYER001
  6
CONTINUOUS
 62
    1
 10
1101.9209000000001
 20
958.90100000000007
 11
1132.1717000000001
 21
928.65020000000004
  0
LINE
  8
_0-0_LAYER001
  6
CONTINUOUS
 62
    1
 10
1111.6741
 20
963.28999999999996
 11
1141.925
 21
933.03909999999996
  0
LINE
  8
_0-0_LAYER001
  6
CONTINUOUS
 62
    1
 10
1121.4273000000001
 20
967.67890000000011
 11
1151.6782000000001
 21
937.42810000000009
  0
LINE
  8
_0-0_LAYER001
  6
CONTINUOUS
 62
    1
 10
1131.1804999999999
 20
972.06780000000003
 11
1161.4313999999999
 21
941.81700000000001
  0
LINE
  8
_0-0_LAYER001
  6
CONTINUOUS
 62
    1
 10
1140.9337
 20
976.45679999999993
 11
1171.1846
 21
946.20589999999993
  0
LINE
  8
_0-0_LAYER001
  6
CONTINUOUS
 62
    1
 10
1150.6868999999999
 20
980.84570000000008
 11
1180.9377999999999
 21
950.59480000000008
  0
LINE
  8
_0-0_LAYER001
  6
CONTINUOUS
 62
    1
 10
1160.4401
 20
985.2346
 11
1190.691
 21
954.98379999999997
  0
LINE
  8
_0-0_LAYER001
  6
CONTINUOUS
 62
    1
 10
1170.1932999999999
 20
989.6235999999999
 11
1200.4441999999999
 21
959.3726999999999
  0
LINE
  8
_0-0_LAYER001
  6
CONTINUOUS
 62
    1
 10
1179.9465
 20
994.01250000000005
 11
1210.1974
 21
963.76160000000004
  0
LINE
  8
_0-0_LAYER001
  6
CONTINUOUS
 62
    1
 10
1189.6996999999999
 20
998.40149999999994
 11
1219.9505999999999
 21
968.15059999999994
  0
LINE
  8
_0-0_LAYER001
  6
CONTINUOUS
 62
    1
 10
1199.4529
 20
1002.7904000000001
 11
1229.7038
 21
972.53950000000009
  0
LINE
  8
_0-0_LAYER001
  6
CONTINUOUS
 62
    1
 10
1209.2061000000001
 20
1007.1793
 11
1239.4570000000001
 21
976.92840000000001
  0
LINE
  8
_0-0_LAYER001
  6
CONTINUOUS
 62
    1
 10
1218.9593
 20
1011.5682999999999
 11
1249.2102
 21
981.31739999999991
  0
LINE
  8
_0-0_LAYER001
  6
CONTINUOUS
 62
    1
 10
1228.7125000000001
 20
1015.9572000000001
 11
1258.9634000000001
 21
985.70630000000006
  0
LINE
  8
_0-0_LAYER001
  6
CONTINUOUS
 62
    1
 10
1238.4657
 20
1020.3461
 11
1268.7166
 21
990.09519999999998
  0
LINE
  8
_0-0_LAYER001
  6
CONTINUOUS
 62
    1
 10
1248.2189000000001
 20
1024.7351000000001
 11
1278.4698000000001
 21
994.4840999999999
  0
LINE
  8
_0-0_LAYER001
  6
CONTINUOUS
 62
    1
 10
1257.9721
 20
1029.124
 11
1288.223
 21
998.87310000000002
  0
LINE
  8
_0-0_LAYER001
  6
CONTINUOUS
 62
    1
 10
1267.7253000000001
 20
1033.5129999999999
 11
1297.9762000000001
 21
1003.2619999999999
  0
LINE
  8
_0-0_LAYER001
  6
CONTINUOUS
 62
    1
 10
1277.4784999999999
 20
1037.9019000000001
 11
1307.7294000000002
 21
1007.6509000000001
  0
LINE
  8
_0-0_LAYER001
  6
CONTINUOUS
 62
    1
 10
1287.2317
 20
1042.2908
 11
1317.4827
 21
1012.0399
  0
LINE
  8
_0-0_LAYER001
  6
CONTINUOUS
 62
    1
 10
1296.9848999999999
 20
1046.6797999999999
 11
1327.2359000000001
 21
1016.4287999999999
  0
LINE
  8
_0-0_LAYER001
  6
CONTINUOUS
 62
    1
 10
1306.7381
 20
1051.0687
 11
1336.9891000000002
 21
1020.8177000000001
  0
LINE
  8
_0-0_LAYER001
  6
CONTINUOUS
 62
    1
 10
1316.4912999999999
 20
1055.4576999999999
 11
1346.7422999999999
 21
1025.2067
  0
LINE
  8
_0-0_LAYER001
  6
CONTINUOUS
 62
    1
 10
1326.2445
 20
1059.8466000000001
 11
1356.4955
 21
1029.5956000000001
  0
LINE
  8
_0-0_LAYER001
  6
CONTINUOUS
 62
    1
 10
1335.9976999999999
 20
1064.2355
 11
1366.2487000000001
 21
1033.9845
  0
LINE
  8
_0-0_LAYER001
  6
CONTINUOUS
 62
    1
 10
1345.7509
 20
1068.6244999999999
 11
1376.0019
 21
1038.3733999999999
  0
LINE
  8
_0-0_LAYER001
  6
CONTINUOUS
 62
    1
 10
1355.5041000000001
 20
1073.0134
 11
1385.7551000000001
 21
1042.7624000000001
  0
LINE
  8
_0-0_LAYER001
  6
CONTINUOUS
 62
    1
 10
1365.2573000000002
 20
1077.4023
 11
1395.5083
 21
1047.1513
  0
LINE
  8
_0-0_LAYER001
  6
CONTINUOUS
 62
    1
 10
1375.0105000000003
 20
1081.7913000000001
 11
1405.2615000000001
 21
1051.5401999999999
  0
LINE
  8
_0-0_LAYER001
  6
CONTINUOUS
 62
    1
 10
1384.7637
 20
1086.1802
 11
1415.0146999999997
 21
1055.9292
  0
LINE
  8
_0-0_LAYER001
  6
CONTINUOUS
 62
    1
 10
1394.5169000000001
 20
1090.5691999999999
 11
1424.7678999999998
 21
1060.3181
  0
LINE
  8
_0-0_LAYER001
  6
CONTINUOUS
 62
    1
 10
1404.27
 20
1094.9581000000001
 11
1434.5210999999999
 21
1064.7070000000001
  0
LINE
  8
_0-0_LAYER001
  6
CONTINUOUS
 62
    1
 10
1414.0232000000001
 20
1099.347
 11
1444.2743
 21
1069.096
  0
LINE
  8
_0-0_LAYER001
  6
CONTINUOUS
 62
    1
 10
1423.7763999999997
 20
1103.7360000000001
 11
1454.0275000000001
 21
1073.4848999999999
  0
LINE
  8
_0-0_LAYER001
  6
CONTINUOUS
 62
    1
 10
1433.5295999999998
 20
1108.1249
 11
1463.7806999999998
 21
1077.8738000000001
  0
LINE
  8
_0-0_LAYER001
  6
CONTINUOUS
 62
    1
 10
1443.2828
 20
1112.5137999999999
 11
1473.5338999999999
 21
1082.2627
  0
LINE
  8
_0-0_LAYER001
  6
CONTINUOUS
 62
    1
 10
1453.0360000000001
 20
1116.9028000000001
 11
1483.2872000000002
 21
1086.6516999999999
  0
LINE
  8
_0-0_LAYER001
  6
CONTINUOUS
 62
    1
 10
1462.7892000000002
 20
1121.2917
 11
1493.0403999999999
 21
1091.0406
  0
LINE
  8
_0-0_LAYER001
  6
CONTINUOUS
 62
    1
 10
1472.5423999999998
 20
1125.6806999999999
 11
1502.7936
 21
1095.4295
  0
LINE
  8
_0-0_LAYER001
  6
CONTINUOUS
 62
    1
 10
1482.2955999999999
 20
1130.0696
 11
1519.4456
 21
1092.9195999999999
  0
LINE
  8
_0-0_LAYER001
  6
CONTINUOUS
 62
    1
 10
1492.0488
 20
1134.4585
 11
1545.1585
 21
1081.3488
  0
LINE
  8
_0-0_LAYER001
  6
CONTINUOUS
 62
    1
 10
1501.8020000000001
 20
1138.8475000000001
 11
1570.8715000000002
 21
1069.778
  0
LINE
  8
_0-0_LAYER001
  6
CONTINUOUS
 62
    1
 10
1516.8314999999998
 20
1137.9601
 11
1596.5844000000002
 21
1058.2072000000001
  0
LINE
  8
_0-0_LAYER001
  6
CONTINUOUS
 62
    1
 10
1542.5445
 20
1126.3892000000001
 11
1622.2973999999999
 21
1046.6364000000001
  0
LINE
  8
_0-0_LAYER001
  6
CONTINUOUS
 62
    1
 10
1568.2575000000002
 20
1114.8184000000001
 11
1648.0102999999999
 21
1035.0655999999999
  0
LINE
  8
_0-0_LAYER001
  6
CONTINUOUS
 62
    1
 10
1593.9704999999999
 20
1103.2474999999999
 11
1673.7231999999999
 21
1023.4947999999999
  0
LINE
  8
_0-0_LAYER001
  6
CONTINUOUS
 62
    1
 10
1619.6835000000001
 20
1091.6766
 11
1699.4362000000001
 21
1011.924
  0
LINE
  8
_0-0_LAYER001
  6
CONTINUOUS
 62
    1
 10
1645.3964999999998
 20
1080.1058
 11
1725.1491000000001
 21
1000.3532
  0
LINE
  8
_0-0_LAYER001
  6
CONTINUOUS
 62
    1
 10
1671.1095
 20
1068.5349000000001
 11
1750.8620999999998
 21
988.78240000000005
  0
LINE
  8
_0-0_LAYER001
  6
CONTINUOUS
 62
    1
 10
1696.8225000000002
 20
1056.9639999999999
 11
1776.5749999999998
 21
977.21160000000009
  0
LINE
  8
_0-0_LAYER001
  6
CONTINUOUS
 62
    1
 10
1722.5355
 20
1045.3932
 11
1802.288
 21
965.6407999999999
  0
LINE
  8
_0-0_LAYER001
  6
CONTINUOUS
 62
    1
 10
1748.2485000000001
 20
1033.8223
 11
1828.0009
 21
954.06999999999994
  0
LINE
  8
_0-0_LAYER001
  6
CONTINUOUS
 62
    1
 10
1773.9614999999999
 20
1022.2515000000001
 11
1853.7138
 21
942.49919999999997
  0
LINE
  8
_0-0_LAYER001
  6
CONTINUOUS
 62
    1
 10
1799.6745000000001
 20
1010.6805999999999
 11
1879.4268000000002
 21
930.92840000000001
  0
LINE
  8
_0-0_LAYER001
  6
CONTINUOUS
 62
    1
 10
1825.3874999999998
 20
999.10969999999998
 11
1905.1397000000002
 21
919.35750000000007
  0
LINE
  8
_0-0_LAYER001
  6
CONTINUOUS
 62
    1
 10
1851.1005
 20
987.53890000000001
 11
1930.8526999999999
 21
907.78670000000011
  0
LINE
  8
_0-0_LAYER001
  6
CONTINUOUS
 62
    1
 10
1876.8135000000002
 20
975.96800000000007
 11
1956.5655999999999
 21
896.21589999999992
  0
LINE
  8
_0-0_LAYER001
  6
CONTINUOUS
 62
    1
 10
1902.5264999999999
 20
964.39709999999991
 11
1982.2784999999999
 21
884.64509999999996
  0
LINE
  8
_0-0_LAYER001
  6
CONTINUOUS
 62
    1
 10
1928.2395000000001
 20
952.82629999999995
 11
2007.9915000000001
 21
873.07429999999999
  0
LINE
  8
_0-0_LAYER001
  6
CONTINUOUS
 62
    1
 10
1953.9524999999999
 20
941.25540000000001
 11
2033.7044000000001
 21
861.50350000000003
  0
LINE
  8
_0-0_LAYER001
  6
CONTINUOUS
 62
    1
 10
1979.6655000000001
 20
929.68460000000005
 11
2059.4173999999998
 21
849.93270000000007
  0
LINE
  8
_0-0_LAYER001
  6
CONTINUOUS
 62
    1
 10
2005.3784999999998
 20
918.11370000000011
 11
2085.1302999999998
 21
838.36190000000011
  0
LINE
  8
_0-0_LAYER001
  6
CONTINUOUS
 62
    1
 10
2031.0915
 20
906.54279999999994
 11
2110.8433
 21
826.79109999999991
  0
LINE
  8
_0-0_LAYER001
  6
CONTINUOUS
 62
    1
 10
2056.8045000000002
 20
894.97199999999998
 11
2136.5562
 21
815.22029999999995
  0
LINE
  8
_0-0_LAYER001
  6
CONTINUOUS
 62
    1
 10
2082.5174999999999
 20
883.40110000000004
 11
2162.2691
 21
803.64949999999999
  0
LINE
  8
_0-0_LAYER001
  6
CONTINUOUS
 62
    1
 10
2108.2305000000001
 20
871.8302000000001
 11
2187.9821000000002
 21
792.07870000000003
  0
LINE
  8
_0-0_LAYER001
  6
CONTINUOUS
 62
    1
 10
2133.9434999999999
 20
860.25939999999991
 11
2213.6950000000002
 21
780.50790000000006
  0
LINE
  8
_0-0_LAYER001
  6
CONTINUOUS
 62
    1
 10
2159.6565000000001
 20
848.68849999999998
 11
2236.3033999999998
 21
772.04160000000002
  0
LINE
  8
_0-0_LAYER001
  6
CONTINUOUS
 62
    1
 10
2185.3694999999998
 20
837.11760000000004
 11
2240.6923000000002
 21
781.7947999999999
  0
LINE
  8
_0-0_LAYER001
  6
CONTINUOUS
 62
    1
 10
2211.0825
 20
825.54680000000008
 11
2245.0812000000001
 21
791.54809999999998
  0
LINE
  8
_0-0_LAYER001
  6
CONTINUOUS
 62
    1
 10
2236.7955000000002
 20
813.97589999999991
 11
2249.4701
 21
801.30130000000008
  0
LINE
  8
_0-1_LAYER002
  6
CONTINUOUS
 62
    2
 10
1509.9259999999999
 20
1359.0689
 11
1512.1642000000002
 21
1360.4423999999999
  0
LINE
  8
_0-1_LAYER002
  6
CONTINUOUS
 62
    2
 10
1504.4974000000002
 20
1360.4431
 11
1512.1642000000002
 21
1360.4423999999999
  0
LINE
  8
_0-1_LAYER002
  6
CONTINUOUS
 62
    2
 10
1506.7350000000001
 20
1359.0699999999997
 11
1504.4974000000002
 21
1360.4431
  0
LINE
  8
_0-1_LAYER002
  6
CONTINUOUS
 62
    2
 10
1506.7334000000001
 20
1323.5047
 11
1508.5154000000002
 21
1315.5781999999999
  0
LINE
  8
_0-1_LAYER002
  6
CONTINUOUS
 62
    2
 10
1506.7357000000002
 20
1359.0337
 11
1506.7334000000001
 21
1319.3598999999999
  0
LINE
  8
_0-1_LAYER002
  6
CONTINUOUS
 62
    2
 10
1509.9259999999999
 20
1359.0689
 11
1509.9247999999998
 21
1318.4580000000001
  0
LINE
  8
_0-1_LAYER002
  6
CONTINUOUS
 62
    2
 10
1508.5154000000002
 20
1315.5781999999999
 11
1509.9247999999998
 21
1322.6028999999999
  0
LINE
  8
_0-1_LAYER002
  6
CONTINUOUS
 62
    2
 10
1494.0118000000002
 20
1312.7654000000002
 11
1494.0118000000002
 21
1341.4034999999999
  0
LINE
  8
_0-1_LAYER002
  6
CONTINUOUS
 62
    2
 10
1522.6498999999999
 20
1341.4034999999999
 11
1522.6498999999999
 21
1312.7654000000002
  0
LINE
  8
_0-1_LAYER002
  6
CONTINUOUS
 62
    2
 10
1522.6498999999999
 20
1312.7654000000002
 11
1494.0118000000002
 21
1312.7654000000002
  0
LINE
  8
_0-1_LAYER002
  6
CONTINUOUS
 62
    2
 10
1525.0362
 20
1308.8795
 11
1491.6253000000002
 21
1308.8795
  0
LINE
  8
_0-1_LAYER002
  6
CONTINUOUS
 62
    2
 10
1494.0118000000002
 20
1312.7654000000002
 11
1522.6498999999999
 21
1341.4034999999999
  0
LINE
  8
_0-1_LAYER002
  6
CONTINUOUS
 62
    2
 10
1494.0118000000002
 20
1341.4034999999999
 11
1522.6498999999999
 21
1341.4034999999999
  0
LINE
  8
_0-1_LAYER002
  6
CONTINUOUS
 62
    2
 10
1494.0118000000002
 20
1341.4034999999999
 11
1522.6498999999999
 21
1312.7654000000002
  0
LINE
  8
_0-1_LAYER002
  6
CONTINUOUS
 62
    2
 10
1523.6725000000001
 20
1310.2429999999999
 11
1492.989
 21
1310.2429999999999
  0
LINE
  8
_0-1_LAYER002
  6
CONTINUOUS
 62
    2
 10
1491.6253000000002
 20
1308.8795
 11
1491.6253000000002
 21
1327.2898
  0
LINE
  8
_0-1_LAYER002
  6
CONTINUOUS
 62
    2
 10
1492.989
 20
1310.2429999999999
 11
1492.989
 21
1327.2898
  0
LINE
  8
_0-1_LAYER002
  6
CONTINUOUS
 62
    2
 10
1491.6253000000002
 20
1327.2898
 11
1492.989
 21
1327.2898
  0
LINE
  8
_0-1_LAYER002
  6
CONTINUOUS
 62
    2
 10
1525.0362
 20
1308.8795
 11
1525.0362
 21
1327.2898
  0
LINE
  8
_0-1_LAYER002
  6
CONTINUOUS
 62
    2
 10
1523.6725000000001
 20
1310.2429999999999
 11
1523.6725000000001
 21
1327.2898
  0
LINE
  8
_0-1_LAYER002
  6
CONTINUOUS
 62
    2
 10
1523.6725000000001
 20
1327.2898
 11
1525.0362
 21
1327.2898
  0
LINE
  8
_0-1_LAYER002
  6
CONTINUOUS
 62
    2
 10
1503.0524
 20
1200.6854000000001
 11
1498.5913
 21
1142.2184999999999
  0
LINE
  8
_0-1_LAYER002
  6
CONTINUOUS
 62
    2
 10
1505.2626
 20
1169.2125000000001
 11
1511.3991000000001
 21
1169.2125000000001
  0
LINE
  8
_0-1_LAYER002
  6
CONTINUOUS
 62
    2
 10
1513.6091999999999
 20
1200.6854000000001
 11
1518.0596
 21
1142.3601000000001
  0
LINE
  8
_0-1_LAYER002
  6
CONTINUOUS
 62
    2
 10
1501.7889
 20
1202.0491
 11
1497.3609000000001
 21
1144.018
  0
LINE
  8
_0-1_LAYER002
  6
CONTINUOUS
 62
    2
 10
1514.8728000000001
 20
1202.0491
 11
1519.2793999999999
 21
1144.2986000000001
  0
LINE
  8
_0-1_LAYER002
  6
CONTINUOUS
 62
    2
 10
1505.2626
 20
1308.8795
 11
1505.2626
 21
1169.2125000000001
  0
LINE
  8
_0-1_LAYER002
  6
CONTINUOUS
 62
    2
 10
1511.3991000000001
 20
1308.8795
 11
1511.3991000000001
 21
1169.2125000000001
  0
LINE
  8
_0-1_LAYER002
  6
CONTINUOUS
 62
    2
 10
1506.0673999999999
 20
1323.3262999999999
 11
1510.5907999999999
 21
1324.5383999999999
  0
LINE
  8
_0-1_LAYER002
  6
CONTINUOUS
 62
    2
 10
1506.0673999999999
 20
1325.3243
 11
1510.5907999999999
 21
1326.5364
  0
LINE
  8
_0-1_LAYER002
  6
CONTINUOUS
 62
    2
 10
1506.0673999999999
 20
1327.3223000000003
 11
1510.5907999999999
 21
1328.5344
  0
LINE
  8
_0-1_LAYER002
  6
CONTINUOUS
 62
    2
 10
1506.0673999999999
 20
1329.3202999999999
 11
1510.5907999999999
 21
1330.5324000000001
  0
LINE
  8
_0-1_LAYER002
  6
CONTINUOUS
 62
    2
 10
1506.0673999999999
 20
1331.3182999999999
 11
1510.5907999999999
 21
1332.5304000000001
  0
LINE
  8
_0-1_LAYER002
  6
CONTINUOUS
 62
    2
 10
1506.0673999999999
 20
1333.3163
 11
1510.5907999999999
 21
1334.5283999999997
  0
LINE
  8
_0-1_LAYER002
  6
CONTINUOUS
 62
    2
 10
1506.0673999999999
 20
1335.3143
 11
1510.5907999999999
 21
1336.5264
  0
LINE
  8
_0-1_LAYER002
  6
CONTINUOUS
 62
    2
 10
1506.0673999999999
 20
1337.3123000000001
 11
1510.5907999999999
 21
1338.5243
  0
LINE
  8
_0-1_LAYER002
  6
CONTINUOUS
 62
    2
 10
1506.0673999999999
 20
1339.3103000000001
 11
1510.5907999999999
 21
1340.5223000000001
  0
LINE
  8
_0-1_LAYER002
  6
CONTINUOUS
 62
    2
 10
1506.0673999999999
 20
1341.3083000000001
 11
1510.5907999999999
 21
1342.5202999999999
  0
LINE
  8
_0-1_LAYER002
  6
CONTINUOUS
 62
    2
 10
1506.0673999999999
 20
1343.3062999999997
 11
1510.5907999999999
 21
1344.5183
  0
LINE
  8
_0-1_LAYER002
  6
CONTINUOUS
 62
    2
 10
1506.0673999999999
 20
1345.3043
 11
1510.5907999999999
 21
1346.5163000000002
  0
LINE
  8
_0-1_LAYER002
  6
CONTINUOUS
 62
    2
 10
1506.0673999999999
 20
1347.3023000000001
 11
1510.5907999999999
 21
1348.5142999999998
  0
LINE
  8
_0-1_LAYER002
  6
CONTINUOUS
 62
    2
 10
1506.0673999999999
 20
1349.3003000000001
 11
1510.5907999999999
 21
1350.5124000000001
  0
LINE
  8
_0-0_LAYER001
  6
CONTINUOUS
 62
    2
 10
1514.8728000000001
 20
1202.0491
 11
1501.7889
 21
1202.0491
  0
LINE
  8
_0-0_LAYER001
  6
CONTINUOUS
 62
    2
 10
1503.0524
 20
1200.6854000000001
 11
1513.6091999999999
 21
1200.6854000000001
  0
LINE
  8
_0-0_LAYER001
  6
CONTINUOUS
 62
    2
 10
1522.2253999999998
 20
1357.2293999999999
 11
1516.9220999999998
 21
1351.9261000000001
  0
LINE
  8
_0-0_LAYER001
  6
CONTINUOUS
 62
    2
 10
1516.9220999999998
 20
1351.9261000000001
 11
1518.8631999999998
 21
1359.1705999999999
  0
LINE
  8
_0-0_LAYER001
  6
CONTINUOUS
 62
    2
 10
1516.9220999999998
 20
1351.9261000000001
 11
1567.5695999999998
 21
1439.6503000000002
  0
LINE
  8
_0-0_LAYER001
  6
CONTINUOUS
 62
    2
 10
1567.5695999999998
 20
1439.6503000000002
 11
1608.0695999999998
 21
1439.6503000000002
  0
LINE
  8
_0-0_LAYER001
  6
CONTINUOUS
 62
    2
 10
1535.8551000000002
 20
1300.5351999999998
 11
1530.5518000000002
 21
1295.2319
  0
LINE
  8
_0-0_LAYER001
  6
CONTINUOUS
 62
    2
 10
1530.5518000000002
 20
1295.2319
 11
1532.4929000000002
 21
1302.4763000000003
  0
LINE
  8
_0-0_LAYER001
  6
CONTINUOUS
 62
    2
 10
1530.5518000000002
 20
1295.2319
 11
1570.0344
 21
1363.6177
  0
LINE
  8
_0-0_LAYER001
  6
CONTINUOUS
 62
    2
 10
1570.0344
 20
1363.6177
 11
1646.5344
 21
1363.6177
  0
LINE
  8
_0-0_LAYER001
  6
CONTINUOUS
 62
    2
 10
1603.3078
 20
1281.6224999999999
 11
1598.0045
 21
1276.3191999999999
  0
LINE
  8
_0-0_LAYER001
  6
CONTINUOUS
 62
    2
 10
1598.0045
 20
1276.3191999999999
 11
1599.9457000000002
 21
1283.5636999999999
  0
LINE
  8
_0-0_LAYER001
  6
CONTINUOUS
 62
    2
 10
1598.0045
 20
1276.3191999999999
 11
1622.2851999999998
 21
1318.3744999999999
  0
LINE
  8
_0-0_LAYER001
  6
CONTINUOUS
 62
    2
 10
1622.2851999999998
 20
1318.3744999999999
 11
1736.2851999999998
 21
1318.3744999999999
  0
LINE
  8
_0-7_LAYER009
  6
CONTINUOUS
 62
    2
 10
1482.7008000000001
 20
1306.5650000000001
 11
1482.7008000000001
 21
1289.8420000000001
  0
LINE
  8
_0-7_LAYER009
  6
CONTINUOUS
 62
    2
 10
1531.6185
 20
1306.8487
 11
1531.6185
 21
1290.2378000000001
  0
LINE
  8
_0-0_LAYER001
  6
CONTINUOUS
 62
    2
 10
1482.7008000000001
 20
1289.8420000000001
 11
1531.6185
 21
1290.2378000000001
  0
LINE
  8
_0-7_LAYER009
  6
CONTINUOUS
 62
    2
 10
1478.3307
 20
1275.9785999999999
 11
1478.3307
 21
1259.1356000000001
  0
LINE
  8
_0-7_LAYER009
  6
CONTINUOUS
 62
    2
 10
1535.8894
 20
1276.1921
 11
1535.8894
 21
1259.4894999999999
  0
LINE
  8
_0-0_LAYER001
  6
CONTINUOUS
 62
    2
 10
1478.3307
 20
1259.1356000000001
 11
1535.8894
 21
1259.4894999999999
  0
LINE
  8
_0-7_LAYER009
  6
CONTINUOUS
 62
    2
 10
1474.1601000000001
 20
1245.4467
 11
1474.1601000000001
 21
1228.6495
  0
LINE
  8
_0-7_LAYER009
  6
CONTINUOUS
 62
    2
 10
1540.9364999999998
 20
1245.5835999999999
 11
1540.9364999999998
 21
1228.8667
  0
LINE
  8
_0-0_LAYER001
  6
CONTINUOUS
 62
    2
 10
1474.1601000000001
 20
1228.6495
 11
1540.9364999999998
 21
1228.8667
  0
ARC
  8
_0-0_LAYER001
  6
CONTINUOUS
 62
    2
 10
1341.0612000000001
 20
1187.6224
 40
87.835139999999996
 50
335.28974000000005
 51
17.082109000000056
  0
LINE
  8
_0-0_LAYER001
  6
CONTINUOUS
 62
    2
 10
1436.3542000000002
 20
1275.2179000000001
 11
1436.0101
 21
1265.9707000000001
  0
LINE
  8
_0-0_LAYER001
  6
CONTINUOUS
 62
    2
 10
1431.1590999999999
 20
1244.3994
 11
1429.9599000000001
 21
1235.0717
  0
LINE
  8
_0-0_LAYER001
  6
CONTINUOUS
 62
    2
 10
1580.3074000000001
 20
1275.2179000000001
 11
1580.6516000000001
 21
1265.9707000000001
  0
LINE
  8
_0-0_LAYER001
  6
CONTINUOUS
 62
    2
 10
1585.5025000000001
 20
1244.3994
 11
1586.7017999999998
 21
1235.0717
  0
LINE
  8
_0-3_LAYER004
  6
DASHED3
 62
    2
 10
764.58179999999993
 20
811.48440000000005
 11
1508.3308000000002
 21
1146.1713999999999
  0
LINE
  8
_0-3_LAYER004
  6
DASHED3
 62
    2
 10
2252.0787999999998
 20
811.48440000000005
 11
1508.3308000000002
 21
1146.1713999999999
  0
LINE
  8
_0-4_LAYER005
  6
CONTINUOUS
 62
    4
 10
1433.3308000000002
 20
1297.4427000000001
 11
1449.0848000000001
 21
1300.4427000000001
  0
LINE
  8
_0-4_LAYER005
  6
CONTINUOUS
 62
    4
 10
1567.5758000000001
 20
1300.4427000000001
 11
1583.3308000000002
 21
1297.4427000000001
  0
LINE
  8
_0-2_LAYER003
  6
CONTINUOUS
 62
    2
 10
2252.0787999999998
 20
807.09840000000008
 11
1508.3308000000002
 21
1141.7854
  0
LINE
  8
_0-6_LAYER007
  6
CONTINUOUS
 62
    2
 10
1418.3308
 20
1108.9613999999999
 11
1418.3308
 21
1106.7683999999999
  0
LINE
  8
_0-6_LAYER007
  6
CONTINUOUS
 62
    2
 10
1598.3308000000002
 20
1108.9613999999999
 11
1598.3308000000002
 21
1106.7683999999999
  0
LINE
  8
_0-2_LAYER003
  6
CONTINUOUS
 62
    2
 10
764.58179999999993
 20
807.09840000000008
 11
1508.3308000000002
 21
1141.7854
  0
LINE
  8
_0-2_LAYER003
  6
CONTINUOUS
 62
    2
 10
2182.3168000000001
 20
652.07140000000004
 11
1508.3308000000002
 21
955.36539999999991
  0
LINE
  8
_0-2_LAYER003
  6
CONTINUOUS
 62
    2
 10
834.3438000000001
 20
652.07140000000004
 11
1508.3308000000002
 21
955.36539999999991
  0
LINE
  8
_0-2_LAYER003
  6
CONTINUOUS
 62
    2
 10
1000.8024
 20
869.53420000000006
 11
954.64480000000003
 21
706.20740000000001
  0
LINE
  8
_0-2_LAYER003
  6
CONTINUOUS
 62
    2
 10
981.75340000000006
 20
860.96209999999996
 11
935.59580000000005
 21
697.63439999999991
  0
LINE
  8
_0-2_LAYER003
  6
CONTINUOUS
 62
    2
 10
991.27849999999989
 20
865.24839999999995
 11
945.12079999999992
 21
701.92039999999997
  0
LINE
  8
_0-2_LAYER003
  6
CONTINUOUS
 62
    2
 10
1315.3674000000001
 20
1011.088
 11
1269.2098000000001
 21
847.76140000000009
  0
LINE
  8
_0-2_LAYER003
  6
CONTINUOUS
 62
    2
 10
1324.8926000000001
 20
1015.3742999999999
 11
1278.7338
 21
852.04739999999993
  0
LINE
  8
_0-2_LAYER003
  6
CONTINUOUS
 62
    2
 10
1334.4164000000001
 20
1019.6600000000001
 11
1288.2588000000001
 21
856.33339999999998
  0
ARC
  8
_0-4_LAYER005
  6
CONTINUOUS
 62
    4
 10
1508.3308000000002
 20
1284.2997
 40
76.143000000000001
 50
9.9394530000000003
 51
170.06053999999997
  0
ARC
  8
_0-4_LAYER005
  6
CONTINUOUS
 62
    4
 10
1508.3308000000002
 20
1283.9427000000001
 40
61.5
 50
15.562729000000001
 51
164.43727000000001
  0
CIRCLE
  8
_0-5_LAYER006
  6
CONTINUOUS
 62
    2
 10
1468.2818000000002
 20
1315.4817
 40
1.5179999999999998
  0
CIRCLE
  8
_0-5_LAYER006
  6
CONTINUOUS
 62
    2
 10
1477.3908000000001
 20
1322.3146999999999
 40
1.5179999999999998
  0
CIRCLE
  8
_0-5_LAYER006
  6
CONTINUOUS
 62
    2
 10
1476.8117999999999
 20
1321.1216999999999
 40
1.5179999999999998
  0
CIRCLE
  8
_0-5_LAYER006
  6
CONTINUOUS
 62
    2
 10
1535.0868
 20
1319.2777000000001
 40
1.5179999999999998
  0
CIRCLE
  8
_0-5_LAYER006
  6
CONTINUOUS
 62
    2
 10
1544.1968000000002
 20
1318.5187000000001
 40
1.5179999999999998
  0
CIRCLE
  8
_0-5_LAYER006
  6
CONTINUOUS
 62
    2
 10
1541.9198000000001
 20
1321.5556999999999
 40
1.5179999999999998
  0
CIRCLE
  8
_0-5_LAYER006
  6
CONTINUOUS
 62
    2
 10
1484.2238000000002
 20
1333.7017000000001
 40
1.5179999999999998
  0
CIRCLE
  8
_0-5_LAYER006
  6
CONTINUOUS
 62
    2
 10
1478.1507999999999
 20
1331.4247
 40
1.5179999999999998
  0
CIRCLE
  8
_0-5_LAYER006
  6
CONTINUOUS
 62
    2
 10
1472.0767999999998
 20
1321.5556999999999
 40
1.5179999999999998
  0
CIRCLE
  8
_0-5_LAYER006
  6
CONTINUOUS
 62
    2
 10
1535.0868
 20
1314.7227
 40
1.5179999999999998
  0
CIRCLE
  8
_0-5_LAYER006
  6
CONTINUOUS
 62
    2
 10
1546.4748
 20
1312.4457000000002
 40
1.5179999999999998
  0
CIRCLE
  8
_0-5_LAYER006
  6
CONTINUOUS
 62
    2
 10
1551.7887999999998
 20
1311.6857
 40
1.5179999999999998
  0
CIRCLE
  8
_0-5_LAYER006
  6
CONTINUOUS
 62
    2
 10
1537.3647999999998
 20
1326.8697
 40
1.5179999999999998
  0
CIRCLE
  8
_0-5_LAYER006
  6
CONTINUOUS
 62
    2
 10
1501.7968000000001
 20
1254.9486999999999
 40
1.5179999999999998
  0
CIRCLE
  8
_0-5_LAYER006
  6
CONTINUOUS
 62
    2
 10
1529.7728000000002
 20
1257.5567000000001
 40
1.5179999999999998
  0
CIRCLE
  8
_0-5_LAYER006
  6
CONTINUOUS
 62
    2
 10
1485.0958000000001
 20
1254.1896999999999
 40
1.5179999999999998
  0
CIRCLE
  8
_0-5_LAYER006
  6
CONTINUOUS
 62
    2
 10
1479.0218
 20
1251.9117000000001
 40
1.5179999999999998
  0
CIRCLE
  8
_0-5_LAYER006
  6
CONTINUOUS
 62
    2
 10
1466.8757999999998
 20
1250.3937000000001
 40
1.5179999999999998
  0
CIRCLE
  8
_0-5_LAYER006
  6
CONTINUOUS
 62
    2
 10
1456.2478000000001
 20
1249.6347000000001
 40
1.5179999999999998
  0
CIRCLE
  8
_0-5_LAYER006
  6
CONTINUOUS
 62
    2
 10
1447.1378
 20
1247.3567
 40
1.5179999999999998
  0
CIRCLE
  8
_0-5_LAYER006
  6
CONTINUOUS
 62
    2
 10
1441.8238000000001
 20
1245.0797
 40
1.5179999999999998
  0
CIRCLE
  8
_0-5_LAYER006
  6
CONTINUOUS
 62
    2
 10
1470.6718000000001
 20
1209.3996999999999
 40
1.5179999999999998
  0
CIRCLE
  8
_0-5_LAYER006
  6
CONTINUOUS
 62
    2
 10
1473.7078000000001
 20
1196.4937
 40
1.5179999999999998
  0
CIRCLE
  8
_0-5_LAYER006
  6
CONTINUOUS
 62
    2
 10
1478.2628
 20
1204.0847000000001
 40
1.5179999999999998
  0
CIRCLE
  8
_0-5_LAYER006
  6
CONTINUOUS
 62
    2
 10
1481.2997999999998
 20
1209.3996999999999
 40
1.5179999999999998
  0
CIRCLE
  8
_0-5_LAYER006
  6
CONTINUOUS
 62
    2
 10
1460.8027999999999
 20
1209.3996999999999
 40
1.5179999999999998
  0
CIRCLE
  8
_0-5_LAYER006
  6
CONTINUOUS
 62
    2
 10
1457.7658000000001
 20
1211.6767
 40
1.5179999999999998
  0
CIRCLE
  8
_0-5_LAYER006
  6
CONTINUOUS
 62
    2
 10
1443.9877999999999
 20
1196.0646999999999
 40
1.5179999999999998
  0
CIRCLE
  8
_0-5_LAYER006
  6
CONTINUOUS
 62
    2
 10
1437.9148
 20
1181.6406999999999
 40
1.5179999999999998
  0
CIRCLE
  8
_0-5_LAYER006
  6
CONTINUOUS
 62
    2
 10
1447.0248000000001
 20
1186.1957
 40
1.5179999999999998
  0
CIRCLE
  8
_0-5_LAYER006
  6
CONTINUOUS
 62
    2
 10
1460.0428000000002
 20
1204.8447000000001
 40
1.5179999999999998
  0
CIRCLE
  8
_0-5_LAYER006
  6
CONTINUOUS
 62
    2
 10
1536.6057999999998
 20
1172.5307
 40
1.5179999999999998
  0
CIRCLE
  8
_0-5_LAYER006
  6
CONTINUOUS
 62
    2
 10
1538.8827999999999
 20
1179.3637000000001
 40
1.5179999999999998
  0
CIRCLE
  8
_0-5_LAYER006
  6
CONTINUOUS
 62
    2
 10
1531.2908000000002
 20
1218.8397
 40
1.5179999999999998
  0
CIRCLE
  8
_0-5_LAYER006
  6
CONTINUOUS
 62
    2
 10
1539.6417999999999
 20
1217.3207
 40
1.5179999999999998
  0
CIRCLE
  8
_0-5_LAYER006
  6
CONTINUOUS
 62
    2
 10
1574.5628000000002
 20
1218.8397
 40
1.5179999999999998
  0
CIRCLE
  8
_0-5_LAYER006
  6
CONTINUOUS
 62
    2
 10
1578.3588
 20
1208.2117000000001
 40
1.5179999999999998
  0
CIRCLE
  8
_0-5_LAYER006
  6
CONTINUOUS
 62
    2
 10
1573.8038000000001
 20
1201.3787
 40
1.5179999999999998
  0
CIRCLE
  8
_0-5_LAYER006
  6
CONTINUOUS
 62
    2
 10
1582.9137999999998
 20
1203.6567
 40
1.5179999999999998
  0
CIRCLE
  8
_0-5_LAYER006
  6
CONTINUOUS
 62
    2
 10
1570.0077999999999
 20
1193.0277000000001
 40
1.5179999999999998
  0
CIRCLE
  8
_0-5_LAYER006
  6
CONTINUOUS
 62
    2
 10
1570.7678000000001
 20
1188.4727
 40
1.5179999999999998
  0
CIRCLE
  8
_0-5_LAYER006
  6
CONTINUOUS
 62
    2
 10
1574.5628000000002
 20
1186.9547
 40
1.5179999999999998
  0
CIRCLE
  8
_0-5_LAYER006
  6
CONTINUOUS
 62
    2
 10
1574.5628000000002
 20
1184.6777
 40
1.5179999999999998
  0
CIRCLE
  8
_0-5_LAYER006
  6
CONTINUOUS
 62
    2
 10
1551.0297999999998
 20
1204.4157
 40
1.5179999999999998
  0
CIRCLE
  8
_0-5_LAYER006
  6
CONTINUOUS
 62
    2
 10
1529.0138000000002
 20
1196.8236999999999
 40
1.5179999999999998
  0
CIRCLE
  8
_0-5_LAYER006
  6
CONTINUOUS
 62
    2
 10
1527.4958000000001
 20
1184.6777
 40
1.5179999999999998
  0
CIRCLE
  8
_0-5_LAYER006
  6
CONTINUOUS
 62
    2
 10
1522.1817999999998
 20
1180.1226999999999
 40
1.5179999999999998
  0
CIRCLE
  8
_0-5_LAYER006
  6
CONTINUOUS
 62
    2
 10
1479.6687999999999
 20
1172.5307
 40
1.5179999999999998
  0
CIRCLE
  8
_0-5_LAYER006
  6
CONTINUOUS
 62
    2
 10
1478.1507999999999
 20
1191.5097000000001
 40
1.5179999999999998
  0
CIRCLE
  8
_0-5_LAYER006
  6
CONTINUOUS
 62
    2
 10
1434.1188000000002
 20
1179.3637000000001
 40
1.5179999999999998
  0
CIRCLE
  8
_0-5_LAYER006
  6
CONTINUOUS
 62
    2
 10
1439.5457999999999
 20
1213.1947
 40
1.5179999999999998
  0
CIRCLE
  8
_0-5_LAYER006
  6
CONTINUOUS
 62
    2
 10
1476.7447999999999
 20
1218.5087000000001
 40
1.5179999999999998
  0
CIRCLE
  8
_0-5_LAYER006
  6
CONTINUOUS
 62
    2
 10
1491.1687999999999
 20
1222.3046999999999
 40
1.5179999999999998
  0
CIRCLE
  8
_0-5_LAYER006
  6
CONTINUOUS
 62
    2
 10
1491.1687999999999
 20
1239.0066999999999
 40
1.5179999999999998
  0
CIRCLE
  8
_0-5_LAYER006
  6
CONTINUOUS
 62
    2
 10
1538.8827999999999
 20
1195.3056999999999
 40
1.5179999999999998
  0
CIRCLE
  8
_0-5_LAYER006
  6
CONTINUOUS
 62
    2
 10
1523.6997999999999
 20
1177.0857000000001
 40
1.5179999999999998
  0
CIRCLE
  8
_0-5_LAYER006
  6
CONTINUOUS
 62
    2
 10
1460.8027999999999
 20
1194.9757
 40
1.5179999999999998
  0
CIRCLE
  8
_0-5_LAYER006
  6
CONTINUOUS
 62
    2
 10
1476.7447999999999
 20
1203.3257000000001
 40
1.5179999999999998
  0
CIRCLE
  8
_0-5_LAYER006
  6
CONTINUOUS
 62
    2
 10
1458.5248000000001
 20
1219.2687000000001
 40
1.5179999999999998
  0
CIRCLE
  8
_0-5_LAYER006
  6
CONTINUOUS
 62
    2
 10
1494.9648000000002
 20
1211.6767
 40
1.5179999999999998
  0
CIRCLE
  8
_0-5_LAYER006
  6
CONTINUOUS
 62
    2
 10
1535.8458000000001
 20
1190.7507000000001
 40
1.5179999999999998
  0
CIRCLE
  8
_0-5_LAYER006
  6
CONTINUOUS
 62
    2
 10
1542.6788000000001
 20
1193.0277000000001
 40
1.5179999999999998
  0
CIRCLE
  8
_0-5_LAYER006
  6
CONTINUOUS
 62
    2
 10
1482.0587999999998
 20
1213.9537
 40
1.5179999999999998
  0
CIRCLE
  8
_0-5_LAYER006
  6
CONTINUOUS
 62
    2
 10
1470.6718000000001
 20
1213.9537
 40
1.5179999999999998
  0
CIRCLE
  8
_0-5_LAYER006
  6
CONTINUOUS
 62
    2
 10
1490.2968000000001
 20
1175.5677000000001
 40
1.5179999999999998
  0
CIRCLE
  8
_0-5_LAYER006
  6
CONTINUOUS
 62
    2
 10
1488.0198
 20
1170.2537
 40
1.5179999999999998
  0
CIRCLE
  8
_0-5_LAYER006
  6
CONTINUOUS
 62
    2
 10
1447.8968
 20
1198.0117
 40
1.5179999999999998
  0
CIRCLE
  8
_0-5_LAYER006
  6
CONTINUOUS
 62
    2
 10
1449.4148
 20
1203.3257000000001
 40
1.5179999999999998
  0
CIRCLE
  8
_0-5_LAYER006
  6
CONTINUOUS
 62
    2
 10
1532.0508
 20
1225.6717000000001
 40
1.5179999999999998
  0
CIRCLE
  8
_0-5_LAYER006
  6
CONTINUOUS
 62
    2
 10
1461.4488000000001
 20
1308.6496999999999
 40
1.5179999999999998
  0
CIRCLE
  8
_0-5_LAYER006
  6
CONTINUOUS
 62
    2
 10
1476.6318000000001
 20
1313.2047
 40
1.5179999999999998
  0
CIRCLE
  8
_0-5_LAYER006
  6
CONTINUOUS
 62
    2
 10
1463.7267999999999
 20
1320.7956999999999
 40
1.5179999999999998
  0
CIRCLE
  8
_0-5_LAYER006
  6
CONTINUOUS
 62
    2
 10
1551.0297999999998
 20
1321.5556999999999
 40
1.5179999999999998
  0
CIRCLE
  8
_0-5_LAYER006
  6
CONTINUOUS
 62
    2
 10
1531.2908000000002
 20
1332.1837
 40
1.5179999999999998
  0
CIRCLE
  8
_0-5_LAYER006
  6
CONTINUOUS
 62
    2
 10
1490.4337999999998
 20
1285.0697
 40
1.5179999999999998
  0
CIRCLE
  8
_0-5_LAYER006
  6
CONTINUOUS
 62
    2
 10
1484.3598000000002
 20
1282.7927
 40
1.5179999999999998
  0
CIRCLE
  8
_0-5_LAYER006
  6
CONTINUOUS
 62
    2
 10
1472.2138
 20
1281.2736999999997
 40
1.5179999999999998
  0
CIRCLE
  8
_0-5_LAYER006
  6
CONTINUOUS
 62
    2
 10
1461.5857999999998
 20
1280.5146999999999
 40
1.5179999999999998
  0
CIRCLE
  8
_0-5_LAYER006
  6
CONTINUOUS
 62
    2
 10
1452.4758000000002
 20
1278.2376999999999
 40
1.5179999999999998
  0
CIRCLE
  8
_0-5_LAYER006
  6
CONTINUOUS
 62
    2
 10
1447.1617999999999
 20
1275.9597000000001
 40
1.5179999999999998
  0
CIRCLE
  8
_0-5_LAYER006
  6
CONTINUOUS
 62
    2
 10
1496.5068000000001
 20
1253.1857
 40
1.5179999999999998
  0
CIRCLE
  8
_0-5_LAYER006
  6
CONTINUOUS
 62
    2
 10
1496.5068000000001
 20
1269.8867
 40
1.5179999999999998
  0
CIRCLE
  8
_0-5_LAYER006
  6
CONTINUOUS
 62
    2
 10
1549.7847999999999
 20
1250.3937000000001
 40
1.5179999999999998
  0
CIRCLE
  8
_0-5_LAYER006
  6
CONTINUOUS
 62
    2
 10
1560.4128000000001
 20
1249.6347000000001
 40
1.5179999999999998
  0
CIRCLE
  8
_0-5_LAYER006
  6
CONTINUOUS
 62
    2
 10
1569.5228000000002
 20
1247.3567
 40
1.5179999999999998
  0
CIRCLE
  8
_0-5_LAYER006
  6
CONTINUOUS
 62
    2
 10
1574.8368
 20
1245.0797
 40
1.5179999999999998
  0
CIRCLE
  8
_0-5_LAYER006
  6
CONTINUOUS
 62
    2
 10
1545.9888000000001
 20
1209.3996999999999
 40
1.5179999999999998
  0
CIRCLE
  8
_0-5_LAYER006
  6
CONTINUOUS
 62
    2
 10
1542.9528
 20
1196.4937
 40
1.5179999999999998
  0
CIRCLE
  8
_0-5_LAYER006
  6
CONTINUOUS
 62
    2
 10
1555.8578000000002
 20
1209.3996999999999
 40
1.5179999999999998
  0
CIRCLE
  8
_0-5_LAYER006
  6
CONTINUOUS
 62
    2
 10
1558.8948
 20
1211.6767
 40
1.5179999999999998
  0
CIRCLE
  8
_0-5_LAYER006
  6
CONTINUOUS
 62
    2
 10
1572.6727999999998
 20
1196.0646999999999
 40
1.5179999999999998
  0
CIRCLE
  8
_0-5_LAYER006
  6
CONTINUOUS
 62
    2
 10
1556.6178
 20
1204.8447000000001
 40
1.5179999999999998
  0
CIRCLE
  8
_0-5_LAYER006
  6
CONTINUOUS
 62
    2
 10
1538.5108
 20
1191.5097000000001
 40
1.5179999999999998
  0
CIRCLE
  8
_0-5_LAYER006
  6
CONTINUOUS
 62
    2
 10
1577.1147999999998
 20
1213.1947
 40
1.5179999999999998
  0
CIRCLE
  8
_0-5_LAYER006
  6
CONTINUOUS
 62
    2
 10
1539.9158000000002
 20
1218.5087000000001
 40
1.5179999999999998
  0
CIRCLE
  8
_0-5_LAYER006
  6
CONTINUOUS
 62
    2
 10
1525.4917999999998
 20
1222.3046999999999
 40
1.5179999999999998
  0
CIRCLE
  8
_0-5_LAYER006
  6
CONTINUOUS
 62
    2
 10
1525.4917999999998
 20
1239.0066999999999
 40
1.5179999999999998
  0
CIRCLE
  8
_0-5_LAYER006
  6
CONTINUOUS
 62
    2
 10
1524.0868
 20
1191.5097000000001
 40
1.5179999999999998
  0
CIRCLE
  8
_0-5_LAYER006
  6
CONTINUOUS
 62
    2
 10
1555.8578000000002
 20
1194.9757
 40
1.5179999999999998
  0
CIRCLE
  8
_0-5_LAYER006
  6
CONTINUOUS
 62
    2
 10
1558.1358
 20
1219.2687000000001
 40
1.5179999999999998
  0
CIRCLE
  8
_0-5_LAYER006
  6
CONTINUOUS
 62
    2
 10
1521.6958
 20
1211.6767
 40
1.5179999999999998
  0
CIRCLE
  8
_0-5_LAYER006
  6
CONTINUOUS
 62
    2
 10
1545.9888000000001
 20
1213.9537
 40
1.5179999999999998
  0
CIRCLE
  8
_0-5_LAYER006
  6
CONTINUOUS
 62
    2
 10
1568.7638000000002
 20
1198.0117
 40
1.5179999999999998
  0
CIRCLE
  8
_0-5_LAYER006
  6
CONTINUOUS
 62
    2
 10
1567.2458000000001
 20
1203.3257000000001
 40
1.5179999999999998
  0
CIRCLE
  8
_0-5_LAYER006
  6
CONTINUOUS
 62
    2
 10
1526.2278000000001
 20
1285.0697
 40
1.5179999999999998
  0
CIRCLE
  8
_0-5_LAYER006
  6
CONTINUOUS
 62
    2
 10
1532.3008
 20
1282.7927
 40
1.5179999999999998
  0
CIRCLE
  8
_0-5_LAYER006
  6
CONTINUOUS
 62
    2
 10
1544.4468000000002
 20
1281.2736999999997
 40
1.5179999999999998
  0
CIRCLE
  8
_0-5_LAYER006
  6
CONTINUOUS
 62
    2
 10
1555.0758000000001
 20
1280.5146999999999
 40
1.5179999999999998
  0
CIRCLE
  8
_0-5_LAYER006
  6
CONTINUOUS
 62
    2
 10
1564.1848
 20
1278.2376999999999
 40
1.5179999999999998
  0
CIRCLE
  8
_0-5_LAYER006
  6
CONTINUOUS
 62
    2
 10
1569.4998000000001
 20
1275.9597000000001
 40
1.5179999999999998
  0
CIRCLE
  8
_0-5_LAYER006
  6
CONTINUOUS
 62
    2
 10
1520.3688000000002
 20
1214.9087
 40
1.5179999999999998
  0
CIRCLE
  8
_0-5_LAYER006
  6
CONTINUOUS
 62
    2
 10
1521.1278000000002
 20
1219.4637
 40
1.5179999999999998
  0
CIRCLE
  8
_0-5_LAYER006
  6
CONTINUOUS
 62
    2
 10
1537.8998000000001
 20
1206.8947000000001
 40
1.5179999999999998
  0
CIRCLE
  8
_0-5_LAYER006
  6
CONTINUOUS
 62
    2
 10
1538.6588000000002
 20
1211.4496999999999
 40
1.5179999999999998
  0
CIRCLE
  8
_0-5_LAYER006
  6
CONTINUOUS
 62
    2
 10
1517.8647999999998
 20
1197.8787
 40
1.5179999999999998
  0
CIRCLE
  8
_0-5_LAYER006
  6
CONTINUOUS
 62
    2
 10
1518.6237999999998
 20
1202.4337
 40
1.5179999999999998
  0
CIRCLE
  8
_0-5_LAYER006
  6
CONTINUOUS
 62
    2
 10
1516.3618000000001
 20
1231.4386999999999
 40
1.5179999999999998
  0
CIRCLE
  8
_0-5_LAYER006
  6
CONTINUOUS
 62
    2
 10
1517.1208000000001
 20
1235.9927
 40
1.5179999999999998
  0
CIRCLE
  8
_0-5_LAYER006
  6
CONTINUOUS
 62
    2
 10
1515.6188000000002
 20
1249.5166999999999
 40
1.5179999999999998
  0
CIRCLE
  8
_0-5_LAYER006
  6
CONTINUOUS
 62
    2
 10
1513.6147999999998
 20
1274.0607
 40
1.5179999999999998
  0
CIRCLE
  8
_0-5_LAYER006
  6
CONTINUOUS
 62
    2
 10
1516.8627999999999
 20
1276.0166999999999
 40
1.5179999999999998
  0
CIRCLE
  8
_0-5_LAYER006
  6
CONTINUOUS
 62
    2
 10
1517.6217999999999
 20
1280.5717
 40
1.5179999999999998
  0
CIRCLE
  8
_0-5_LAYER006
  6
CONTINUOUS
 62
    2
 10
1528.8838000000001
 20
1251.4737
 40
1.5179999999999998
  0
CIRCLE
  8
_0-5_LAYER006
  6
CONTINUOUS
 62
    2
 10
1529.6428000000001
 20
1256.0287000000001
 40
1.5179999999999998
  0
CIRCLE
  8
_0-5_LAYER006
  6
CONTINUOUS
 62
    2
 10
1570.9587999999999
 20
1180.3477
 40
1.5179999999999998
  0
CIRCLE
  8
_0-5_LAYER006
  6
CONTINUOUS
 62
    2
 10
1571.7177999999999
 20
1184.9027000000001
 40
1.5179999999999998
  0
CIRCLE
  8
_0-5_LAYER006
  6
CONTINUOUS
 62
    2
 10
1517.5007999999998
 20
1300.4976999999999
 40
1.5179999999999998
  0
CIRCLE
  8
_0-5_LAYER006
  6
CONTINUOUS
 62
    2
 10
1516.9407999999999
 20
1292.2856999999999
 40
1.5179999999999998
  0
CIRCLE
  8
_0-5_LAYER006
  6
CONTINUOUS
 62
    2
 10
1516.9407999999999
 20
1285.3807000000002
 40
1.5179999999999998
  0
CIRCLE
  8
_0-5_LAYER006
  6
CONTINUOUS
 62
    2
 10
1499.9567999999999
 20
1285.9407000000001
 40
1.5179999999999998
  0
CIRCLE
  8
_0-5_LAYER006
  6
CONTINUOUS
 62
    2
 10
1482.5998
 20
1317.1087
 40
1.5179999999999998
  0
CIRCLE
  8
_0-5_LAYER006
  6
CONTINUOUS
 62
    2
 10
1436.4967999999999
 20
1204.0277000000001
 40
1.5179999999999998
  0
CIRCLE
  8
_0-5_LAYER006
  6
CONTINUOUS
 62
    2
 10
1452.6958
 20
1185.3146999999999
 40
1.5179999999999998
  0
ARC
  8
_0-2_LAYER003
  6
CONTINUOUS
 62
    2
 10
1507.9297999999999
 20
1173.9087
 40
135.03399999999999
 50
79.896439000000001
 51
100.76809000000002
  0
ARC
  8
_0-2_LAYER003
  6
CONTINUOUS
 62
    2
 10
1507.9517999999998
 20
1049.1777
 40
228.72700000000003
 50
82.984161
 51
97.440948000000006
  0
ARC
  8
_0-2_LAYER003
  6
CONTINUOUS
 62
    2
 10
1507.8598000000002
 20
1093.5757000000001
 40
155.565
 50
77.723877000000002
 51
102.51103999999999
  0
LINE
  8
_0-0_LAYER001
  6
CONTINUOUS
 62
    2
 10
1497.3609000000001
 20
1144.018
 11
1418.3308
 21
1108.9613999999999
  0
LINE
  8
_0-0_LAYER001
  6
CONTINUOUS
 62
    2
 10
1519.2793999999999
 20
1144.2986000000001
 11
1598.3308000000002
 21
1108.9613999999999
  0
ARC
  8
_0-0_LAYER001
  6
DASHED1
 62
    2
 10
1675.6005
 20
1187.6224
 40
87.835139999999996
 50
162.91789
 51
204.71025
  0
LINE
  8
_0-0_LAYER001
  6
CONTINUOUS
 62
    2
 10
1578.3739
 20
1191.1790000000001
 11
1572.576
 21
1175.1982
  0
LINE
  8
_0-0_LAYER001
  6
CONTINUOUS
 62
    2
 10
1784.0861
 20
1098.4618
 11
1778.2883000000002
 21
1082.481
  0
LINE
  8
_0-0_LAYER001
  6
CONTINUOUS
 62
    2
 10
2195.5106000000001
 20
913.02729999999997
 11
2189.7127
 21
897.0465999999999
  0
LINE
  8
_0-0_LAYER001
  6
CONTINUOUS
 62
    2
 10
1989.7982999999999
 20
1005.7446
 11
1984.0005000000001
 21
989.76379999999995
  0
LINE
  8
_0-0_LAYER001
  6
CONTINUOUS
 62
    2
 10
2157.9088000000002
 20
926.6694
 11
1984.0005000000001
 21
989.76379999999995
  0
ARC
  8
_0-0_LAYER001
  6
CONTINUOUS
 62
    4
 10
2207.1206000000002
 20
908.73919999999998
 40
17.623681999999999
 50
340.29127000000005
 51
57.209820000000029
  0
LINE
  8
_0-0_LAYER001
  6
CONTINUOUS
 62
    2
 10
2172.1983
 20
850.75579999999991
 11
2144.8407000000002
 21
863.06670000000008
  0
LINE
  8
_0-0_LAYER001
  6
CONTINUOUS
 62
    2
 10
2150.9962
 20
876.74549999999999
 11
2178.3537999999999
 21
864.43460000000005
  0
LINE
  8
_0-0_LAYER001
  6
CONTINUOUS
 62
    2
 10
2144.8407000000002
 20
863.06670000000008
 11
2150.9962
 21
876.74549999999999
  0
LINE
  8
_0-0_LAYER001
  6
CONTINUOUS
 62
    2
 10
2178.3537999999999
 20
864.43460000000005
 11
2172.1983
 21
850.75579999999991
  0
LINE
  8
_0-0_LAYER001
  6
CONTINUOUS
 62
    2
 10
2150.9962
 20
876.74549999999999
 11
2172.1983
 21
850.75579999999991
  0
LINE
  8
_0-0_LAYER001
  6
CONTINUOUS
 62
    4
 10
2149.7154
 20
877.69689999999991
 11
2145.6228000000001
 21
866.41640000000007
  0
LINE
  8
_0-0_LAYER001
  6
CONTINUOUS
 62
    4
 10
2137.1624000000002
 20
869.48579999999993
 11
2145.6228000000001
 21
866.41640000000007
  0
ARC
  8
_0-0_LAYER001
  6
CONTINUOUS
 62
    4
 10
2222.4967000000001
 20
928.76739999999995
 40
10
 50
340.05907999999999
 51
70.059082999999987
  0
LINE
  8
_0-0_LAYER001
  6
CONTINUOUS
 62
    4
 10
2223.7118999999998
 20
902.7958000000001
 11
2231.8971000000001
 21
925.3569
  0
LINE
  8
_0-0_LAYER001
  6
CONTINUOUS
 62
    4
 10
2157.9088000000002
 20
926.6694
 11
2137.1624000000002
 21
869.48579999999993
  0
LINE
  8
_0-0_LAYER001
  6
CONTINUOUS
 62
    4
 10
2147.0529000000001
 20
896.74710000000005
 11
1944.0032000000001
 21
970.41409999999996
  0
LINE
  8
_0-0_LAYER001
  6
CONTINUOUS
 62
    4
 10
2217.0576999999998
 20
923.29420000000005
 11
1952.1965
 21
1019.3866
  0
LINE
  8
_0-0_LAYER001
  6
CONTINUOUS
 62
    4
 10
2225.9072000000001
 20
938.16779999999994
 11
2023.7975000000001
 21
1011.4938
  0
LINE
  8
_0-0_LAYER001
  6
CONTINUOUS
 62
    2
 10
1952.1965
 20
1019.3866
 11
1778.2883000000002
 21
1082.481
  0
LINE
  8
_0-0_LAYER001
  6
CONTINUOUS
 62
    2
 10
1533.7709
 20
1154.6715999999999
 11
1561.1181000000001
 21
1142.3376000000001
  0
LINE
  8
_0-0_LAYER001
  6
CONTINUOUS
 62
    2
 10
1527.6039000000001
 20
1140.9979000000001
 11
1533.7709
 21
1154.6715999999999
  0
LINE
  8
_0-0_LAYER001
  6
CONTINUOUS
 62
    2
 10
1533.7709
 20
1154.6715999999999
 11
1554.9511000000002
 21
1128.6639
  0
LINE
  8
_0-0_LAYER001
  6
CONTINUOUS
 62
    4
 10
1532.5787999999998
 20
1155.8486
 11
1528.4861999999998
 21
1144.568
  0
LINE
  8
_0-0_LAYER001
  6
CONTINUOUS
 62
    4
 10
1546.5700000000002
 20
1220.8018
 11
1520.0257999999999
 21
1147.6375
  0
ARC
  8
_0-0_LAYER001
  6
CONTINUOUS
 62
    4
 10
2001.4083999999998
 20
1001.4564
 40
17.623681999999999
 50
340.29127000000005
 51
57.209820000000029
  0
LINE
  8
_0-0_LAYER001
  6
CONTINUOUS
 62
    2
 10
1554.9511000000002
 20
1128.6639
 11
1527.6039000000001
 21
1140.9979000000001
  0
LINE
  8
_0-0_LAYER001
  6
CONTINUOUS
 62
    2
 10
1561.1181000000001
 20
1142.3376000000001
 11
1554.9511000000002
 21
1128.6639
  0
LINE
  8
_0-0_LAYER001
  6
CONTINUOUS
 62
    2
 10
1760.7186000000002
 20
1036.0685000000001
 11
1733.3609999999999
 21
1048.3794
  0
LINE
  8
_0-0_LAYER001
  6
CONTINUOUS
 62
    2
 10
1766.8741
 20
1049.7473
 11
1760.7186000000002
 21
1036.0685000000001
  0
LINE
  8
_0-0_LAYER001
  6
CONTINUOUS
 62
    2
 10
1966.4861000000001
 20
943.47299999999996
 11
1939.1284999999998
 21
955.7838999999999
  0
LINE
  8
_0-0_LAYER001
  6
CONTINUOUS
 62
    2
 10
1945.2840000000001
 20
969.46280000000002
 11
1972.6415999999999
 21
957.15180000000009
  0
LINE
  8
_0-0_LAYER001
  6
CONTINUOUS
 62
    2
 10
1939.1284999999998
 20
955.7838999999999
 11
1945.2840000000001
 21
969.46280000000002
  0
LINE
  8
_0-0_LAYER001
  6
CONTINUOUS
 62
    2
 10
1972.6415999999999
 20
957.15180000000009
 11
1966.4861000000001
 21
943.47299999999996
  0
LINE
  8
_0-0_LAYER001
  6
CONTINUOUS
 62
    2
 10
1945.2840000000001
 20
969.46280000000002
 11
1966.4861000000001
 21
943.47299999999996
  0
LINE
  8
_0-0_LAYER001
  6
CONTINUOUS
 62
    4
 10
1528.4861999999998
 20
1144.568
 11
1520.0257999999999
 21
1147.6375
  0
LINE
  8
_0-0_LAYER001
  6
CONTINUOUS
 62
    4
 10
1725.7379999999998
 20
1054.9203
 11
1734.1984000000002
 21
1051.8507999999999
  0
LINE
  8
_0-0_LAYER001
  6
CONTINUOUS
 62
    4
 10
1944.0032000000001
 20
970.41409999999996
 11
1939.9106000000002
 21
959.13359999999989
  0
LINE
  8
_0-0_LAYER001
  6
CONTINUOUS
 62
    4
 10
1931.4502000000002
 20
962.20299999999997
 11
1939.9106000000002
 21
959.13359999999989
  0
ARC
  8
_0-0_LAYER001
  6
CONTINUOUS
 62
    4
 10
2016.7845000000002
 20
1021.4846
 40
10
 50
340.05907999999999
 51
70.059082999999987
  0
LINE
  8
_0-0_LAYER001
  6
CONTINUOUS
 62
    4
 10
2017.9996999999998
 20
995.51299999999992
 11
2026.1849000000002
 21
1018.0741
  0
LINE
  8
_0-0_LAYER001
  6
CONTINUOUS
 62
    4
 10
1952.1965
 20
1019.3866
 11
1931.4502000000002
 21
962.20299999999997
  0
ARC
  8
_0-0_LAYER001
  6
CONTINUOUS
 62
    4
 10
1795.6961999999999
 20
1094.1736000000001
 40
17.623681999999999
 50
340.29127000000005
 51
57.209820000000029
  0
LINE
  8
_0-0_LAYER001
  6
CONTINUOUS
 62
    4
 10
1941.3407000000002
 20
989.46430000000009
 11
1738.2910000000002
 21
1063.1313
  0
LINE
  8
_0-0_LAYER001
  6
CONTINUOUS
 62
    2
 10
1739.5164
 20
1062.0581999999999
 11
1766.8741
 21
1049.7473
  0
LINE
  8
_0-0_LAYER001
  6
CONTINUOUS
 62
    2
 10
1733.3609999999999
 20
1048.3794
 11
1739.5164
 21
1062.0581999999999
  0
LINE
  8
_0-0_LAYER001
  6
CONTINUOUS
 62
    2
 10
1739.5164
 20
1062.0581999999999
 11
1760.7186000000002
 21
1036.0685000000001
  0
LINE
  8
_0-0_LAYER001
  6
CONTINUOUS
 62
    4
 10
2011.3454999999999
 20
1016.0114000000001
 11
1746.4843000000001
 21
1112.1038000000001
  0
LINE
  8
_0-0_LAYER001
  6
CONTINUOUS
 62
    4
 10
1738.2910000000002
 20
1063.1313
 11
1734.1984000000002
 21
1051.8507999999999
  0
LINE
  8
_0-0_LAYER001
  6
CONTINUOUS
 62
    4
 10
2020.1950000000002
 20
1030.8851
 11
1818.0853000000002
 21
1104.211
  0
ARC
  8
_0-0_LAYER001
  6
CONTINUOUS
 62
    4
 10
1811.0722000000001
 20
1114.2018
 40
10
 50
340.05907999999999
 51
70.059082999999987
  0
LINE
  8
_0-0_LAYER001
  6
CONTINUOUS
 62
    4
 10
1812.2874999999999
 20
1088.2302999999999
 11
1820.4726999999998
 21
1110.7913000000001
  0
LINE
  8
_0-0_LAYER001
  6
CONTINUOUS
 62
    4
 10
1746.4843000000001
 20
1112.1038000000001
 11
1725.7379999999998
 21
1054.9203
  0
LINE
  8
_0-0_LAYER001
  6
CONTINUOUS
 62
    4
 10
1735.6284000000001
 20
1082.1815999999999
 11
1532.5787999999998
 21
1155.8486
  0
LINE
  8
_0-0_LAYER001
  6
CONTINUOUS
 62
    4
 10
1805.6333
 20
1108.7286999999999
 11
1540.7721000000001
 21
1204.8209999999999
  0
LINE
  8
_0-0_LAYER001
  6
CONTINUOUS
 62
    4
 10
1814.4827
 20
1123.6023
 11
1546.5700000000002
 21
1220.8018
  0
LINE
  8
_0-0_LAYER001
  6
CONTINUOUS
 62
    2
 10
1746.4843000000001
 20
1112.1038000000001
 11
1572.576
 21
1175.1982
  0
LINE
  8
_0-0_LAYER001
  6
CONTINUOUS
 62
    2
 10
2240.2646
 20
878.70620000000008
 11
2189.7127
 21
897.0465999999999
  0
LINE
  8
_0-0_LAYER001
  6
CONTINUOUS
 62
    4
 10
2226.8420999999998
 20
849.71509999999989
 11
2149.7154
 21
877.69689999999991
  0
LINE
  8
_0-0_LAYER001
  6
CONTINUOUS
 62
    4
 10
2247.4331999999999
 20
894.18959999999993
 11
2157.9088000000002
 21
926.6694
  0
LINE
  8
_0-0_LAYER001
  6
CONTINUOUS
 62
    4
 10
2254.6017999999999
 20
909.67309999999998
 11
2229.5097999999998
 21
918.77659999999992
  0
LINE
  8
_0-0_LAYER001
  6
CONTINUOUS
 62
    2
 10
1462.8022000000001
 20
1128.8178
 11
1490.1592000000001
 21
1141.1302000000001
  0
LINE
  8
_0-0_LAYER001
  6
CONTINUOUS
 62
    2
 10
1490.1592000000001
 20
1141.1302000000001
 11
1484.0030000000002
 21
1154.8087
  0
LINE
  8
_0-0_LAYER001
  6
CONTINUOUS
 62
    2
 10
1484.0030000000002
 20
1154.8087
 11
1456.6460000000002
 21
1142.4963
  0
LINE
  8
_0-0_LAYER001
  6
CONTINUOUS
 62
    2
 10
1456.6460000000002
 20
1142.4963
 11
1462.8022000000001
 21
1128.8178
  0
LINE
  8
_0-0_LAYER001
  6
CONTINUOUS
 62
    2
 10
1484.0030000000002
 20
1154.8087
 11
1462.8022000000001
 21
1128.8178
  0
LINE
  8
_0-0_LAYER001
  6
CONTINUOUS
 62
    4
 10
1496.7829999999999
 20
1146.6759999999999
 11
1486.4376999999999
 21
1175.0063
  0
LINE
  8
_0-0_LAYER001
  6
CONTINUOUS
 62
    4
 10
1496.7829999999999
 20
1146.6759999999999
 11
1489.6886
 21
1144.1021000000001
  0
LINE
  8
_0-0_LAYER001
  6
CONTINUOUS
 62
    4
 10
1485.4322999999999
 20
1155.8339000000001
 11
1489.6886
 21
1144.1021000000001
  0
LINE
  8
_0-0_LAYER001
  6
CONTINUOUS
 62
    4
 10
1486.4376999999999
 20
1175.0063
 11
1466.7476999999999
 21
1221.8855000000001
  0
LINE
  8
_0-0_LAYER001
  6
CONTINUOUS
 62
    2
 10
817.17710000000011
 20
838.24569999999994
 11
844.53410000000008
 21
850.55809999999997
  0
LINE
  8
_0-0_LAYER001
  6
CONTINUOUS
 62
    2
 10
844.53410000000008
 20
850.55809999999997
 11
838.37789999999995
 21
864.23659999999995
  0
LINE
  8
_0-0_LAYER001
  6
CONTINUOUS
 62
    2
 10
838.37789999999995
 20
864.23659999999995
 11
811.02089999999998
 21
851.92419999999993
  0
LINE
  8
_0-0_LAYER001
  6
CONTINUOUS
 62
    2
 10
811.02089999999998
 20
851.92419999999993
 11
817.17710000000011
 21
838.24569999999994
  0
LINE
  8
_0-0_LAYER001
  6
CONTINUOUS
 62
    2
 10
838.37789999999995
 20
864.23659999999995
 11
817.17710000000011
 21
838.24569999999994
  0
LINE
  8
_0-0_LAYER001
  6
CONTINUOUS
 62
    4
 10
852.24340000000007
 20
856.41229999999996
 11
841.89810000000011
 21
884.74260000000004
  0
LINE
  8
_0-0_LAYER001
  6
CONTINUOUS
 62
    2
 10
1032.3853999999999
 20
935.10310000000004
 11
1059.7424000000001
 21
947.41550000000007
  0
LINE
  8
_0-0_LAYER001
  6
CONTINUOUS
 62
    2
 10
1059.7424000000001
 20
947.41550000000007
 11
1053.5862
 21
961.09400000000005
  0
LINE
  8
_0-0_LAYER001
  6
CONTINUOUS
 62
    2
 10
1053.5862
 20
961.09400000000005
 11
1026.2292
 21
948.78160000000003
  0
LINE
  8
_0-0_LAYER001
  6
CONTINUOUS
 62
    2
 10
1026.2292
 20
948.78160000000003
 11
1032.3853999999999
 21
935.10310000000004
  0
LINE
  8
_0-0_LAYER001
  6
CONTINUOUS
 62
    2
 10
1053.5862
 20
961.09400000000005
 11
1032.3853999999999
 21
935.10310000000004
  0
LINE
  8
_0-0_LAYER001
  6
CONTINUOUS
 62
    4
 10
1067.0898999999999
 20
953.16689999999994
 11
1056.7446
 21
981.49720000000002
  0
LINE
  8
_0-0_LAYER001
  6
CONTINUOUS
 62
    2
 10
1247.5938000000001
 20
1031.9604999999999
 11
1274.9508000000001
 21
1044.2728
  0
LINE
  8
_0-0_LAYER001
  6
CONTINUOUS
 62
    2
 10
1274.9508000000001
 20
1044.2728
 11
1268.7945999999999
 21
1057.9512999999999
  0
LINE
  8
_0-0_LAYER001
  6
CONTINUOUS
 62
    2
 10
1268.7945999999999
 20
1057.9512999999999
 11
1241.4376
 21
1045.6389999999999
  0
LINE
  8
_0-0_LAYER001
  6
CONTINUOUS
 62
    2
 10
1268.7945999999999
 20
1057.9512999999999
 11
1247.5938000000001
 21
1031.9604999999999
  0
LINE
  8
_0-0_LAYER001
  6
CONTINUOUS
 62
    4
 10
1281.9364999999998
 20
1049.9213999999999
 11
1271.5912000000001
 21
1078.2517
  0
LINE
  8
_0-0_LAYER001
  6
CONTINUOUS
 62
    4
 10
1281.9364999999998
 20
1049.9213999999999
 11
1274.4893
 21
1047.2195999999999
  0
LINE
  8
_0-0_LAYER001
  6
CONTINUOUS
 62
    4
 10
1270.2329999999999
 20
1058.9513999999999
 11
1274.4893
 21
1047.2195999999999
  0
LINE
  8
_0-0_LAYER001
  6
CONTINUOUS
 62
    4
 10
1067.0898999999999
 20
953.16689999999994
 11
1059.2900999999999
 21
950.33709999999996
  0
LINE
  8
_0-0_LAYER001
  6
CONTINUOUS
 62
    4
 10
1055.0337999999999
 20
962.06880000000001
 11
1059.2900999999999
 21
950.33709999999996
  0
LINE
  8
_0-0_LAYER001
  6
CONTINUOUS
 62
    4
 10
852.24340000000007
 20
856.41229999999996
 11
844.09079999999994
 21
853.45460000000003
  0
LINE
  8
_0-0_LAYER001
  6
CONTINUOUS
 62
    4
 10
839.83449999999993
 20
865.18630000000007
 11
844.09079999999994
 21
853.45460000000003
  0
LINE
  8
_0-0_LAYER001
  6
CONTINUOUS
 62
    4
 10
994.71340000000009
 20
977.79970000000003
 11
1485.4322999999999
 21
1155.8339000000001
  0
LINE
  8
_0-0_LAYER001
  6
CONTINUOUS
 62
    4
 10
977.3934999999999
 20
1025.5388
 11
1188.3684000000001
 21
1102.0811000000001
  0
LINE
  8
_0-0_LAYER001
  6
CONTINUOUS
 62
    4
 10
1185.9852000000001
 20
1108.9608000000001
 11
1205.7879
 21
1054.3780999999999
  0
ARC
  8
_0-0_LAYER001
  6
CONTINUOUS
 62
    4
 10
1195.7616
 20
1112.5077000000001
 40
10.4
 50
109.94091000000002
 51
199.94091
  0
ARC
  8
_0-0_LAYER001
  6
CONTINUOUS
 62
    4
 10
783.38840000000005
 20
871.25939999999991
 40
10.4
 50
109.94091000000002
 51
199.94091
  0
ARC
  8
_0-0_LAYER001
  6
CONTINUOUS
 62
    4
 10
998.2349999999999
 20
968.0139999999999
 40
10.4
 50
109.94091000000002
 51
199.94091
  0
ARC
  8
_0-0_LAYER001
  6
CONTINUOUS
 62
    4
 10
1213.0815
 20
1064.7686000000001
 40
10.4
 50
109.94091000000002
 51
199.94091
  0
LINE
  8
_0-0_LAYER001
  6
CONTINUOUS
 62
    4
 10
1208.6541
 20
1074.2256
 11
1486.4376999999999
 21
1175.0063
  0
LINE
  8
_0-0_LAYER001
  6
CONTINUOUS
 62
    4
 10
1185.9852000000001
 20
1108.9608000000001
 11
1199.7581
 21
1070.9981
  0
LINE
  8
_0-0_LAYER001
  6
CONTINUOUS
 62
    4
 10
841.89810000000011
 20
884.74260000000004
 11
1055.0337999999999
 21
962.06880000000001
  0
LINE
  8
_0-0_LAYER001
  6
CONTINUOUS
 62
    4
 10
748.46900000000005
 20
832.03870000000006
 11
839.83449999999993
 21
865.18630000000007
  0
LINE
  8
_0-0_LAYER001
  6
CONTINUOUS
 62
    4
 10
720.29510000000005
 20
894.64750000000004
 11
758.67530000000011
 21
908.57199999999989
  0
ARC
  8
_0-0_LAYER001
  6
CONTINUOUS
 62
    4
 10
766.06850000000009
 20
918.9985999999999
 40
10.4
 50
109.94091000000002
 51
199.94091
  0
LINE
  8
_0-0_LAYER001
  6
CONTINUOUS
 62
    4
 10
756.29209999999989
 20
915.45170000000007
 11
776.09480000000008
 21
860.86899999999991
  0
LINE
  8
_0-0_LAYER001
  6
CONTINUOUS
 62
    4
 10
756.29209999999989
 20
915.45170000000007
 11
776.09480000000008
 21
860.86899999999991
  0
LINE
  8
_0-0_LAYER001
  6
CONTINUOUS
 62
    4
 10
741.19340000000011
 20
848.20669999999996
 11
841.89810000000011
 21
884.74260000000004
  0
LINE
  8
_0-0_LAYER001
  6
CONTINUOUS
 62
    4
 10
763.45280000000002
 20
929.11290000000008
 11
973.52179999999998
 21
1005.3264999999999
  0
LINE
  8
_0-0_LAYER001
  6
CONTINUOUS
 62
    4
 10
977.16840000000002
 20
995.58619999999996
 11
990.94139999999993
 21
957.62349999999992
  0
LINE
  8
_0-0_LAYER001
  6
CONTINUOUS
 62
    4
 10
779.8415
 20
881.03590000000008
 11
1270.2329999999999
 21
1058.9513999999999
  0
LINE
  8
_0-0_LAYER001
  6
CONTINUOUS
 62
    4
 10
1191.3342
 20
1121.9647
 11
1466.7476999999999
 21
1221.8855000000001
  0
LINE
  8
_0-0_LAYER001
  6
CONTINUOUS
 62
    4
 10
971.1386
 20
1012.2062000000001
 11
990.94139999999993
 21
957.62349999999992
  0
ARC
  8
_0-0_LAYER001
  6
CONTINUOUS
 62
    4
 10
980.91509999999994
 20
1015.7530999999999
 40
10.4
 50
109.94091000000002
 51
199.94091
  0
LINE
  8
_0-0_LAYER001
  6
CONTINUOUS
 62
    2
 10
715.39810000000011
 20
1027.0856000000001
 11
733.4061999999999
 21
977.77070000000003
  0
CIRCLE
  8
_0-0_LAYER001
  6
CONTINUOUS
 62
    2
 10
716.25559999999996
 20
1024.7373
 40
1.6999999999999997
  0
LINE
  8
_0-0_LAYER001
  6
CONTINUOUS
 62
    2
 10
716.25559999999996
 20
1024.7373
 11
936.99839999999995
 21
1105.3452
  0
CIRCLE
  8
_0-0_LAYER001
  6
CONTINUOUS
 62
    2
 10
936.99839999999995
 20
1105.3452
 40
1.6999999999999997
  0
LINE
  8
_0-0_LAYER001
  6
CONTINUOUS
 62
    2
 10
936.1407999999999
 20
1107.6935000000001
 11
954.14899999999989
 21
1058.3786
  0
LINE
  8
_0-0_LAYER001
  6
CONTINUOUS
 62
    2
 10
922.4203
 20
1145.2666999999999
 11
940.42849999999999
 21
1095.9519
  0
CIRCLE
  8
_0-0_LAYER001
  6
CONTINUOUS
 62
    2
 10
923.27790000000005
 20
1142.9184
 40
1.6999999999999997
  0
LINE
  8
_0-0_LAYER001
  6
CONTINUOUS
 62
    2
 10
923.27790000000005
 20
1142.9184
 11
1144.0206000000001
 21
1223.5263
  0
CIRCLE
  8
_0-0_LAYER001
  6
CONTINUOUS
 62
    2
 10
1144.0206000000001
 20
1223.5263
 40
1.6999999999999997
  0
LINE
  8
_0-0_LAYER001
  6
CONTINUOUS
 62
    2
 10
1143.1631
 20
1225.8746000000001
 11
1161.1712
 21
1176.5597
  0
LINE
  8
_0-0_LAYER001
  6
CONTINUOUS
 62
    2
 10
1415.9385
 20
1368.0666000000001
 11
1433.9467
 21
1318.7517
  0
CIRCLE
  8
_0-0_LAYER001
  6
CONTINUOUS
 62
    2
 10
1416.7961
 20
1365.7183
 40
1.6999999999999997
  0
LINE
  8
_0-0_LAYER001
  6
CONTINUOUS
 62
    2
 10
1416.7961
 20
1365.7183
 11
1130.3000999999999
 21
1261.0995
  0
CIRCLE
  8
_0-0_LAYER001
  6
CONTINUOUS
 62
    2
 10
1130.3000999999999
 20
1261.0995
 40
1.6999999999999997
  0
LINE
  8
_0-0_LAYER001
  6
CONTINUOUS
 62
    2
 10
1129.4426000000001
 20
1263.4478999999999
 11
1147.4507000000001
 21
1214.133
  0
CIRCLE
  8
_0-3_LAYER004
  6
CONTINUOUS
 62
    3
 10
1527.4252999999999
 20
1105.4014999999999
 40
1.3049219999999999
  0
LINE
  8
_0-3_LAYER004
  6
CONTINUOUS
 62
    3
 10
2240.3425000000002
 20
783.37200000000007
 11
1522.1846
 21
1106.5434
  0
CIRCLE
  8
_0-3_LAYER004
  6
CONTINUOUS
 62
    3
 10
2211.3663000000001
 20
797.62779999999998
 40
1.3049219999999999
  0
CIRCLE
  8
_0-3_LAYER004
  6
CONTINUOUS
 62
    3
 10
2074.5781000000002
 20
859.18249999999989
 40
1.3049219999999999
  0
CIRCLE
  8
_0-3_LAYER004
  6
CONTINUOUS
 62
    3
 10
1937.7899000000002
 20
920.7373
 40
1.3049219999999999
  0
CIRCLE
  8
_0-3_LAYER004
  6
CONTINUOUS
 62
    3
 10
1801.0016999999998
 20
982.29199999999992
 40
1.3049219999999999
  0
CIRCLE
  8
_0-3_LAYER004
  6
CONTINUOUS
 62
    3
 10
1664.2134999999998
 20
1043.8468
 40
1.3049219999999999
  0
LINE
  8
_0-3_LAYER004
  6
DASHED1
 62
    2
 10
1793.7046999999998
 20
905.6083000000001
 11
1797.7276999999999
 21
914.76330000000007
  0
LINE
  8
_0-3_LAYER004
  6
DASHED1
 62
    2
 10
1842.8159999999998
 20
967.72759999999994
 11
1816.0113999999999
 21
906.72890000000007
  0
LINE
  8
_0-3_LAYER004
  6
DASHED1
 62
    2
 10
1851.9711000000002
 20
963.70460000000003
 11
1821.1433999999999
 21
893.55089999999996
  0
LINE
  8
_0-3_LAYER004
  6
DASHED1
 62
    2
 10
1816.0113999999999
 20
906.72890000000007
 11
1797.7276999999999
 21
914.76330000000007
  0
LINE
  8
_0-3_LAYER004
  6
DASHED1
 62
    2
 10
1821.1433999999999
 20
893.55089999999996
 11
1793.7046999999998
 21
905.6083000000001
  0
LINE
  8
_0-3_LAYER004
  6
DASHED1
 62
    2
 10
1842.8159999999998
 20
967.72759999999994
 11
1851.9711000000002
 21
963.70460000000003
  0
LINE
  8
_0-3_LAYER004
  6
CONTINUOUS
 62
    2
 10
1826.2586999999999
 20
904.97790000000009
 11
1824.3175999999999
 21
912.2222999999999
  0
LINE
  8
_0-3_LAYER004
  6
CONTINUOUS
 62
    2
 10
1824.3175999999999
 20
912.2222999999999
 11
1829.6208999999999
 21
906.9190000000001
  0
LINE
  8
_0-3_LAYER004
  6
CONTINUOUS
 62
    2
 10
1845.8557000000001
 20
874.91730000000007
 11
1905.8557000000001
 21
874.91730000000007
  0
LINE
  8
_0-3_LAYER004
  6
CONTINUOUS
 62
    2
 10
1753.9504999999999
 20
994.55889999999999
 11
1759.2538
 21
999.86220000000003
  0
LINE
  8
_0-3_LAYER004
  6
CONTINUOUS
 62
    2
 10
1759.2538
 20
999.86220000000003
 11
1757.3126000000002
 21
992.61770000000001
  0
LINE
  8
_0-3_LAYER004
  6
CONTINUOUS
 62
    2
 10
1759.2538
 20
999.86220000000003
 11
1732.3708999999999
 21
953.29970000000003
  0
LINE
  8
_0-3_LAYER004
  6
CONTINUOUS
 62
    2
 10
1732.3708999999999
 20
953.29970000000003
 11
1672.3708999999999
 21
953.29970000000003
  0
CIRCLE
  8
_0-3_LAYER004
  6
CONTINUOUS
 62
    3
 10
1489.2363
 20
1105.4014999999999
 40
1.3049219999999999
  0
LINE
  8
_0-3_LAYER004
  6
CONTINUOUS
 62
    3
 10
776.31909999999993
 20
783.37200000000007
 11
1494.4769999999999
 21
1106.5434
  0
CIRCLE
  8
_0-3_LAYER004
  6
CONTINUOUS
 62
    3
 10
805.2953
 20
797.62779999999998
 40
1.3049219999999999
  0
CIRCLE
  8
_0-3_LAYER004
  6
CONTINUOUS
 62
    3
 10
942.08349999999996
 20
859.18249999999989
 40
1.3049219999999999
  0
CIRCLE
  8
_0-3_LAYER004
  6
CONTINUOUS
 62
    3
 10
1078.8716999999999
 20
920.7373
 40
1.3049219999999999
  0
CIRCLE
  8
_0-3_LAYER004
  6
CONTINUOUS
 62
    3
 10
1215.6599000000001
 20
982.29199999999992
 40
1.3049219999999999
  0
CIRCLE
  8
_0-3_LAYER004
  6
CONTINUOUS
 62
    3
 10
1352.4481000000001
 20
1043.8468
 40
1.3049219999999999
  0
LINE
  8
_0-3_LAYER004
  6
DASHED1
 62
    2
 10
1222.9568999999999
 20
905.6083000000001
 11
1218.9339
 21
914.76330000000007
  0
LINE
  8
_0-3_LAYER004
  6
DASHED1
 62
    2
 10
1173.8456000000001
 20
967.72759999999994
 11
1200.6502
 21
906.72890000000007
  0
LINE
  8
_0-3_LAYER004
  6
DASHED1
 62
    2
 10
1164.6904999999999
 20
963.70460000000003
 11
1195.5182
 21
893.55089999999996
  0
LINE
  8
_0-3_LAYER004
  6
DASHED1
 62
    2
 10
1200.6502
 20
906.72890000000007
 11
1218.9339
 21
914.76330000000007
  0
LINE
  8
_0-3_LAYER004
  6
DASHED1
 62
    2
 10
1195.5182
 20
893.55089999999996
 11
1222.9568999999999
 21
905.6083000000001
  0
LINE
  8
_0-3_LAYER004
  6
DASHED1
 62
    2
 10
1173.8456000000001
 20
967.72759999999994
 11
1164.6904999999999
 21
963.70460000000003
  0
LINE
  8
_0-0_LAYER001
  6
CONTINUOUS
 62
    2
 10
1448.0281
 20
1205.6366
 11
1449.9693000000002
 21
1198.3921
  0
LINE
  8
_0-0_LAYER001
  6
CONTINUOUS
 62
    2
 10
1449.9693000000002
 20
1198.3921
 11
1444.6660000000002
 21
1203.6954000000001
  0
LINE
  8
_0-0_LAYER001
  6
CONTINUOUS
 62
    2
 10
1449.9693000000002
 20
1198.3921
 11
1342.5710999999999
 21
1384.4112999999998
  0
LINE
  8
_0-0_LAYER001
  6
CONTINUOUS
 62
    2
 10
1342.5710999999999
 20
1384.4112999999998
 11
1266.4546
 21
1384.4112999999998
  0
LINE
  8
_0-0_LAYER001
  6
CONTINUOUS
 62
    2
 10
1506.0673999999999
 20
1300.702
 11
1508.0086000000001
 21
1293.4575999999997
  0
LINE
  8
_0-0_LAYER001
  6
CONTINUOUS
 62
    2
 10
1508.0086000000001
 20
1293.4575999999997
 11
1502.7053000000001
 21
1298.7609
  0
LINE
  8
_0-0_LAYER001
  6
CONTINUOUS
 62
    2
 10
1508.0086000000001
 20
1293.4575999999997
 11
1427.2073
 21
1433.4094
  0
LINE
  8
_0-0_LAYER001
  6
CONTINUOUS
 62
    2
 10
1427.2073
 20
1433.4094
 11
1335.529
 21
1433.4094
  0
LINE
  8
_0-0_LAYER001
  6
CONTINUOUS
 62
    2
 10
1842.8308000000002
 20
1087.0817
 11
1837.5275000000001
 21
1081.7782999999999
  0
LINE
  8
_0-0_LAYER001
  6
CONTINUOUS
 62
    2
 10
1837.5275000000001
 20
1081.7782999999999
 11
1839.4686000000002
 21
1089.0228
  0
LINE
  8
_0-0_LAYER001
  6
CONTINUOUS
 62
    2
 10
1837.5275000000001
 20
1081.7782999999999
 11
1886.8582000000001
 21
1167.2216000000001
  0
LINE
  8
_0-0_LAYER001
  6
CONTINUOUS
 62
    2
 10
1886.8582000000001
 20
1167.2216000000001
 11
1927.3582000000001
 21
1167.2216000000001
  0
LINE
  8
_0-0_LAYER001
  6
CONTINUOUS
 62
    2
 10
1506.4020999999998
 20
1367.6872000000001
 11
1508.3431999999998
 21
1360.4427000000001
  0
LINE
  8
_0-0_LAYER001
  6
CONTINUOUS
 62
    2
 10
1508.3431999999998
 20
1360.4427000000001
 11
1503.0399000000002
 21
1365.7460000000001
  0
LINE
  8
_0-0_LAYER001
  6
CONTINUOUS
 62
    2
 10
1508.3431999999998
 20
1360.4427000000001
 11
1439.7154
 21
1479.3097
  0
LINE
  8
_0-0_LAYER001
  6
CONTINUOUS
 62
    2
 10
1439.7154
 20
1479.3097
 11
1235.0191
 21
1479.3097
  0
LINE
  8
_0-0_LAYER001
  6
CONTINUOUS
 62
    2
 10
1522.71
 20
1324.8071
 11
1517.4067
 21
1319.5038
  0
LINE
  8
_0-0_LAYER001
  6
CONTINUOUS
 62
    2
 10
1517.4067
 20
1319.5038
 11
1519.3478
 21
1326.7482
  0
LINE
  8
_0-0_LAYER001
  6
CONTINUOUS
 62
    2
 10
1517.4067
 20
1319.5038
 11
1564.9944999999998
 21
1401.9283
  0
LINE
  8
_0-0_LAYER001
  6
CONTINUOUS
 62
    2
 10
1564.9944999999998
 20
1401.9283
 11
1751.2777999999998
 21
1401.9283
  0
LINE
  8
_0-0_LAYER001
  6
CONTINUOUS
 62
    2
 10
1121.8722
 20
663.35950000000003
 11
1326.6949
 21
663.35950000000003
  0
LINE
  8
_0-0_LAYER001
  6
CONTINUOUS
 62
    2
 10
1138.3244
 20
603.39760000000001
 11
1396.1205999999997
 21
603.39760000000001
  0
LINE
  8
_0-0_LAYER001
  6
CONTINUOUS
 62
    2
 10
1046.2887000000001
 20
936.2835
 11
1046.2887000000001
 21
943.7835
  0
LINE
  8
_0-0_LAYER001
  6
CONTINUOUS
 62
    2
 10
1046.2887000000001
 20
943.7835
 11
1050.0387000000001
 21
937.28829999999994
  0
LINE
  8
_0-0_LAYER001
  6
CONTINUOUS
 62
    2
 10
1046.2887000000001
 20
943.7835
 11
1137.5504000000001
 21
603.1902
  0
LINE
  8
_0-1_LAYER002
  6
CONTINUOUS
 62
    7
 10
715.39810000000011
 20
1027.0856000000001
 11
733.4061999999999
 21
977.77070000000003
  0
LINE
  8
_0-1_LAYER002
  6
CONTINUOUS
 62
    7
 10
716.25561600404899
 20
1024.7373058441444
 11
936.99839999999995
 21
1105.3452
  0
LINE
  8
_0-1_LAYER002
  6
CONTINUOUS
 62
    7
 10
922.69471028592602
 20
1144.5152374235965
 11
954.14899999999989
 21
1058.3786
  0
LINE
  8
_0-1_LAYER002
  6
CONTINUOUS
 62
    7
 10
923.27790000000005
 20
1142.9184
 11
1144.0206000000001
 21
1223.5263
  0
LINE
  8
_0-1_LAYER002
  6
CONTINUOUS
 62
    7
 10
1161.1712
 20
1176.5597
 11
1129.7170289045814
 21
1262.6963807399702
  0
LINE
  8
_0-1_LAYER002
  6
CONTINUOUS
 62
    7
 10
1130.3001486692069
 20
1261.0995177723739
 11
1416.7961
 21
1365.7183
  0
LINE
  8
_0-1_LAYER002
  6
CONTINUOUS
 62
    7
 10
1416.2129097949587
 20
1367.3151372442876
 11
1433.9467
 21
1318.7517
  0
LINE
  8
_0-1_LAYER002
  6
CONTINUOUS
 62
    7
 10
1266.4546
 20
1384.4112999999998
 11
1342.5710999999999
 21
1384.4112999999998
  0
LINE
  8
_0-1_LAYER002
  6
CONTINUOUS
 62
    7
 10
1335.529
 20
1433.4094
 11
1427.2073
 21
1433.4094
  0
LINE
  8
_0-1_LAYER002
  6
CONTINUOUS
 62
    7
 10
1427.2073
 20
1433.4094
 11
1508.0086000000001
 21
1293.4575999999997
  0
LINE
  8
_0-1_LAYER002
  6
CONTINUOUS
 62
    7
 10
1508.0086000000001
 20
1293.4575999999997
 11
1506.0673999999999
 21
1300.702
  0
LINE
  8
_0-1_LAYER002
  6
CONTINUOUS
 62
    7
 10
1508.0086000000001
 20
1293.4575999999997
 11
1502.7053000000001
 21
1298.7609
  0
LINE
  8
_0-1_LAYER002
  6
CONTINUOUS
 62
    7
 10
1482.7008000000001
 20
1306.3678678933911
 11
1505.2626
 21
1308.8795
  0
LINE
  8
_0-1_LAYER002
  6
CONTINUOUS
 62
    7
 10
1505.2626
 20
1308.8795
 11
1511.3991000000001
 21
1308.8795
  0
LINE
  8
_0-1_LAYER002
  6
CONTINUOUS
 62
    7
 10
1511.3991000000001
 20
1308.8795
 11
1531.6185
 21
1306.8486362430642
  0
LINE
  8
_0-1_LAYER002
  6
CONTINUOUS
 62
    7
 10
1531.6185
 20
1306.6582281630124
 11
1531.6185
 21
1290.2378000000001
  0
LINE
  8
_0-1_LAYER002
  6
CONTINUOUS
 62
    7
 10
1531.6185
 20
1290.2378000000001
 11
1482.7008000000001
 21
1289.8420000000001
  0
LINE
  8
_0-1_LAYER002
  6
CONTINUOUS
 62
    7
 10
1482.7008000000001
 20
1306.3678678933911
 11
1482.7008000000001
 21
1289.8420093142768
  0
LINE
  8
_0-1_LAYER002
  6
CONTINUOUS
 62
    7
 10
1530.5518000000002
 20
1295.2319
 11
1535.8551000000002
 21
1300.5351999999998
  0
LINE
  8
_0-1_LAYER002
  6
CONTINUOUS
 62
    7
 10
1530.5518000000002
 20
1295.2319
 11
1532.4929000000002
 21
1302.4763000000003
  0
LINE
  8
_0-1_LAYER002
  6
CONTINUOUS
 62
    7
 10
1523.6725000000001
 20
1327.2898
 11
1525.0362
 21
1327.2898
  0
LINE
  8
_0-1_LAYER002
  6
CONTINUOUS
 62
    7
 10
1525.0362
 20
1327.2898
 11
1525.0362
 21
1308.8795
  0
LINE
  8
_0-1_LAYER002
  6
CONTINUOUS
 62
    7
 10
1525.0362
 20
1308.8795
 11
1491.6253000000002
 21
1308.8795
  0
LINE
  8
_0-1_LAYER002
  6
CONTINUOUS
 62
    7
 10
1491.6253000000002
 20
1327.2898
 11
1491.6253000000002
 21
1308.8795
  0
LINE
  8
_0-1_LAYER002
  6
CONTINUOUS
 62
    7
 10
1491.6253000000002
 20
1327.2898
 11
1492.989
 21
1327.2898
  0
LINE
  8
_0-1_LAYER002
  6
CONTINUOUS
 62
    7
 10
1492.989
 20
1327.2898
 11
1492.989
 21
1310.2429999999999
  0
LINE
  8
_0-1_LAYER002
  6
CONTINUOUS
 62
    7
 10
1492.989
 20
1310.2429999999999
 11
1523.6725000000001
 21
1310.2429999999999
  0
LINE
  8
_0-1_LAYER002
  6
CONTINUOUS
 62
    7
 10
1523.6725000000001
 20
1310.2429999999999
 11
1523.6725000000001
 21
1327.2898
  0
LINE
  8
_0-1_LAYER002
  6
CONTINUOUS
 62
    7
 10
1517.4067
 20
1319.5038
 11
1522.6498999999999
 21
1324.7469999999998
  0
LINE
  8
_0-1_LAYER002
  6
CONTINUOUS
 62
    7
 10
1517.4067
 20
1319.5038
 11
1519.3478
 21
1326.7482
  0
LINE
  8
_0-1_LAYER002
  6
CONTINUOUS
 62
    7
 10
1494.0118000000002
 20
1312.7654000000002
 11
1522.6498999999999
 21
1312.7654000000002
  0
LINE
  8
_0-1_LAYER002
  6
CONTINUOUS
 62
    7
 10
1522.6498999999999
 20
1312.7654000000002
 11
1522.6498999999999
 21
1341.4034999999999
  0
LINE
  8
_0-1_LAYER002
  6
CONTINUOUS
 62
    7
 10
1522.6498999999999
 20
1341.4034999999999
 11
1494.0118000000002
 21
1312.7654000000002
  0
LINE
  8
_0-1_LAYER002
  6
CONTINUOUS
 62
    7
 10
1494.0118000000002
 20
1312.7654000000002
 11
1494.0118000000002
 21
1341.4034999999999
  0
LINE
  8
_0-1_LAYER002
  6
CONTINUOUS
 62
    7
 10
1494.0118000000002
 20
1341.4034999999999
 11
1522.6498999999999
 21
1312.7654000000002
  0
LINE
  8
_0-1_LAYER002
  6
CONTINUOUS
 62
    7
 10
1494.0118000000002
 20
1341.4034999999999
 11
1522.6498999999999
 21
1341.4034999999999
  0
LINE
  8
_0-1_LAYER002
  6
CONTINUOUS
 62
    7
 10
1508.5154000000002
 20
1315.5781999999999
 11
1509.9247999999998
 21
1322.6028999999999
  0
LINE
  8
_0-1_LAYER002
  6
CONTINUOUS
 62
    7
 10
1506.7336402235824
 20
1323.5036314633971
 11
1508.5154000000002
 21
1315.5781999999999
  0
LINE
  8
_0-1_LAYER002
  6
CONTINUOUS
 62
    7
 10
1506.7336402235824
 20
1323.5036314633971
 11
1506.7357000000002
 21
1359.0337
  0
LINE
  8
_0-1_LAYER002
  6
CONTINUOUS
 62
    7
 10
1506.7357000000002
 20
1359.0337
 11
1504.4974000000002
 21
1360.4431
  0
LINE
  8
_0-1_LAYER002
  6
CONTINUOUS
 62
    7
 10
1504.4974000000002
 20
1360.4431
 11
1512.1642000000002
 21
1360.4423999999999
  0
LINE
  8
_0-1_LAYER002
  6
CONTINUOUS
 62
    7
 10
1512.1642000000002
 20
1360.4423999999999
 11
1509.9259999999999
 21
1359.0689
  0
LINE
  8
_0-1_LAYER002
  6
CONTINUOUS
 62
    7
 10
1509.9259999999999
 20
1359.0689
 11
1509.9247999999998
 21
1322.6028999999999
  0
LINE
  8
_0-1_LAYER002
  6
CONTINUOUS
 62
    7
 10
1517.4067
 20
1319.5038
 11
1564.9944999999998
 21
1401.9283
  0
LINE
  8
_0-1_LAYER002
  6
CONTINUOUS
 62
    7
 10
1564.9944999999998
 20
1401.9283
 11
1751.2777999999998
 21
1401.9283
  0
LINE
  8
_0-1_LAYER002
  6
CONTINUOUS
 62
    7
 10
1646.5344
 20
1363.6177
 11
1570.0344
 21
1363.6177
  0
LINE
  8
_0-1_LAYER002
  6
CONTINUOUS
 62
    7
 10
1570.0344
 20
1363.6177
 11
1530.5518000000002
 21
1295.2319
  0
LINE
  8
_0-1_LAYER002
  6
CONTINUOUS
 62
    7
 10
1622.2851999999998
 20
1318.3744999999999
 11
1736.2851999999998
 21
1318.3744999999999
  0
LINE
  8
_0-1_LAYER002
  6
CONTINUOUS
 62
    7
 10
1622.2851999999998
 20
1318.3744999999999
 11
1598.0045
 21
1276.3191999999999
  0
LINE
  8
_0-1_LAYER002
  6
CONTINUOUS
 62
    7
 10
1598.0045
 20
1276.3191999999999
 11
1599.9457000000002
 21
1283.5636999999999
  0
LINE
  8
_0-1_LAYER002
  6
CONTINUOUS
 62
    7
 10
1598.0045
 20
1276.3191999999999
 11
1603.3078
 21
1281.6224999999999
  0
LINE
  8
_0-1_LAYER002
  6
CONTINUOUS
 62
    7
 10
1506.4020999999998
 20
1367.6872000000001
 11
1508.3431999999998
 21
1360.4427000000001
  0
LINE
  8
_0-1_LAYER002
  6
CONTINUOUS
 62
    7
 10
1508.3431999999998
 20
1360.4427000000001
 11
1503.0399000000002
 21
1365.7460000000001
  0
LINE
  8
_0-1_LAYER002
  6
CONTINUOUS
 62
    7
 10
1518.8631999999998
 20
1359.1705999999999
 11
1516.9220999999998
 21
1351.9261000000001
  0
LINE
  8
_0-1_LAYER002
  6
CONTINUOUS
 62
    7
 10
1516.9220999999998
 20
1351.9261000000001
 11
1522.2253999999998
 21
1357.2293999999999
  0
LINE
  8
_0-1_LAYER002
  6
CONTINUOUS
 62
    7
 10
1516.9220999999998
 20
1351.9261000000001
 11
1567.5695999999998
 21
1439.6503000000002
  0
LINE
  8
_0-1_LAYER002
  6
CONTINUOUS
 62
    7
 10
1567.5695999999998
 20
1439.6503000000002
 11
1608.0695999999998
 21
1439.6503000000002
  0
LINE
  8
_0-1_LAYER002
  6
CONTINUOUS
 62
    7
 10
1508.3431717846875
 20
1360.4427488704218
 11
1439.7154
 21
1479.3097
  0
LINE
  8
_0-1_LAYER002
  6
CONTINUOUS
 62
    7
 10
1439.7154
 20
1479.3097
 11
1235.0191
 21
1479.3097
  0
LINE
  8
_0-1_LAYER002
  6
CONTINUOUS
 62
    7
 10
1342.5710999999999
 20
1384.4112999999998
 11
1449.9693000000002
 21
1198.3921
  0
LINE
  8
_0-1_LAYER002
  6
CONTINUOUS
 62
    7
 10
1449.9693000000002
 20
1198.3921
 11
1448.0281
 21
1205.6366
  0
LINE
  8
_0-1_LAYER002
  6
CONTINUOUS
 62
    7
 10
1449.9693000000002
 20
1198.3921
 11
1444.6660000000002
 21
1203.6954000000001
  0
ARC
  8
_0-1_LAYER002
  6
CONTINUOUS
 62
    7
 10
1341.2752798862152
 20
1187.6086241561566
 40
87.634583836548288
 50
335.50445895179558
 51
17.131832278587865
  0
LINE
  8
_0-1_LAYER002
  6
CONTINUOUS
 62
    7
 10
1598.3308000000002
 20
1106.7683999999999
 11
1598.3308000000002
 21
1108.9613999999999
  0
LINE
  8
_0-1_LAYER002
  6
CONTINUOUS
 62
    7
 10
1598.3308000000002
 20
1108.9613999999999
 11
1519.2793999999999
 21
1144.2986000000001
  0
LINE
  8
_0-1_LAYER002
  6
CONTINUOUS
 62
    7
 10
1519.2793999999999
 20
1144.2986000000001
 11
1514.8728000000001
 21
1202.0491
  0
LINE
  8
_0-1_LAYER002
  6
CONTINUOUS
 62
    7
 10
1514.8728000000001
 20
1202.0491
 11
1501.7889
 21
1202.0491
  0
LINE
  8
_0-1_LAYER002
  6
CONTINUOUS
 62
    7
 10
1501.7889
 20
1202.0491
 11
1497.3609000000001
 21
1144.018
  0
LINE
  8
_0-1_LAYER002
  6
CONTINUOUS
 62
    7
 10
1498.5913
 20
1142.2184999999999
 11
1503.0524
 21
1200.6854000000001
  0
LINE
  8
_0-1_LAYER002
  6
CONTINUOUS
 62
    7
 10
1503.0524
 20
1200.6854000000001
 11
1513.6091999999999
 21
1200.6854000000001
  0
LINE
  8
_0-1_LAYER002
  6
CONTINUOUS
 62
    7
 10
1513.6091999999999
 20
1200.6854000000001
 11
1518.0596
 21
1142.3601000000001
  0
LINE
  8
_0-1_LAYER002
  6
CONTINUOUS
 62
    7
 10
1484.0030000000002
 20
1154.8087
 11
1490.1592000000001
 21
1141.1302000000001
  0
LINE
  8
_0-1_LAYER002
  6
CONTINUOUS
 62
    7
 10
1490.1592000000001
 20
1141.1302000000001
 11
1462.8022000000001
 21
1128.8178
  0
LINE
  8
_0-1_LAYER002
  6
CONTINUOUS
 62
    7
 10
1462.8022000000001
 20
1128.8178
 11
1456.6460000000002
 21
1142.4963
  0
LINE
  8
_0-1_LAYER002
  6
CONTINUOUS
 62
    7
 10
1456.6460000000002
 20
1142.4963
 11
1484.0030000000002
 21
1154.8087
  0
LINE
  8
_0-1_LAYER002
  6
CONTINUOUS
 62
    7
 10
1484.0030000000002
 20
1154.8087
 11
1462.8022000000001
 21
1128.8178
  0
LINE
  8
_0-1_LAYER002
  6
CONTINUOUS
 62
    7
 10
1533.7709
 20
1154.6715999999999
 11
1527.6039000000001
 21
1140.9979000000001
  0
LINE
  8
_0-1_LAYER002
  6
CONTINUOUS
 62
    7
 10
1527.6039000000001
 20
1140.9979000000001
 11
1554.9511000000002
 21
1128.6639
  0
LINE
  8
_0-1_LAYER002
  6
CONTINUOUS
 62
    7
 10
1554.9511000000002
 20
1128.6639
 11
1561.1181000000001
 21
1142.3376000000001
  0
LINE
  8
_0-1_LAYER002
  6
CONTINUOUS
 62
    7
 10
1561.1181000000001
 20
1142.3376000000001
 11
1533.7709
 21
1154.6715999999999
  0
LINE
  8
_0-1_LAYER002
  6
CONTINUOUS
 62
    7
 10
1533.7709
 20
1154.6715999999999
 11
1554.9511000000002
 21
1128.6639
  0
LINE
  8
_0-1_LAYER002
  6
CONTINUOUS
 62
    7
 10
1505.2626
 20
1169.2125000000001
 11
1511.3991000000001
 21
1169.2125000000001
  0
LINE
  8
_0-1_LAYER002
  6
CONTINUOUS
 62
    7
 10
1511.3991000000001
 20
1169.2125000000001
 11
1511.3991000000001
 21
1308.8795
  0
LINE
  8
_0-1_LAYER002
  6
CONTINUOUS
 62
    7
 10
1511.3991000000001
 20
1308.8795
 11
1505.2626
 21
1308.8795
  0
LINE
  8
_0-1_LAYER002
  6
CONTINUOUS
 62
    7
 10
1505.2626
 20
1308.8795
 11
1505.2626
 21
1169.2125000000001
  0
LINE
  8
_0-1_LAYER002
  6
CONTINUOUS
 62
    7
 10
1474.1601076679117
 20
1245.4466977636368
 11
1505.2626
 21
1249.1190180087144
  0
LINE
  8
_0-1_LAYER002
  6
CONTINUOUS
 62
    7
 10
1505.2626
 20
1249.1190180087144
 11
1511.3991000000001
 21
1249.1004330186104
  0
LINE
  8
_0-1_LAYER002
  6
CONTINUOUS
 62
    7
 10
1511.3991000000001
 20
1249.1004330186104
 11
1540.9364999999998
 21
1245.583598288576
  0
LINE
  8
_0-1_LAYER002
  6
CONTINUOUS
 62
    7
 10
1540.9364999999998
 20
1245.583598288576
 11
1540.9364999999998
 21
1228.8667399729716
  0
LINE
  8
_0-1_LAYER002
  6
CONTINUOUS
 62
    7
 10
1540.9364999999998
 20
1228.8667399729716
 11
1474.1601000000001
 21
1228.6495
  0
LINE
  8
_0-1_LAYER002
  6
CONTINUOUS
 62
    7
 10
1474.1601000000001
 20
1228.6495
 11
1474.1601000000001
 21
1245.4467
  0
LINE
  8
_0-1_LAYER002
  6
CONTINUOUS
 62
    7
 10
1535.8891508078286
 20
1259.4894984678403
 11
1478.3307
 21
1259.1356000000001
  0
LINE
  8
_0-1_LAYER002
  6
CONTINUOUS
 62
    7
 10
1478.3307
 20
1259.1356000000001
 11
1478.3307
 21
1275.9785999999999
  0
LINE
  8
_0-1_LAYER002
  6
CONTINUOUS
 62
    7
 10
1478.3307
 20
1275.9785999999999
 11
1505.2626
 21
1277.8888906583497
  0
LINE
  8
_0-1_LAYER002
  6
CONTINUOUS
 62
    7
 10
1505.2626
 20
1277.8888906583497
 11
1511.3991000000001
 21
1277.8787202244625
  0
LINE
  8
_0-1_LAYER002
  6
CONTINUOUS
 62
    7
 10
1511.3991000000001
 20
1277.8787202244625
 11
1535.8894
 21
1275.9096210403577
  0
LINE
  8
_0-1_LAYER002
  6
CONTINUOUS
 62
    7
 10
1535.8894
 20
1275.9096210403577
 11
1535.8894
 21
1259.4894999999999
  0
LINE
  8
_0-1_LAYER002
  6
CONTINUOUS
 62
    7
 10
1839.4686000000002
 20
1089.0228
 11
1837.5275000000001
 21
1081.7782999999999
  0
LINE
  8
_0-1_LAYER002
  6
CONTINUOUS
 62
    7
 10
1837.5275000000001
 20
1081.7782999999999
 11
1842.8308000000002
 21
1087.0817
  0
LINE
  8
_0-1_LAYER002
  6
CONTINUOUS
 62
    7
 10
1837.5275000000001
 20
1081.7782999999999
 11
1886.8582000000001
 21
1167.2216000000001
  0
LINE
  8
_0-1_LAYER002
  6
CONTINUOUS
 62
    7
 10
1886.8582000000001
 20
1167.2216000000001
 11
1927.3582000000001
 21
1167.2216000000001
  0
LINE
  8
_0-1_LAYER002
  6
CONTINUOUS
 62
    7
 10
1508.3308000000002
 20
1146.1713999999999
 11
2252.0787999999998
 21
811.48440000000005
  0
LINE
  8
_0-1_LAYER002
  6
CONTINUOUS
 62
    7
 10
2252.0787999999998
 20
807.09840000000008
 11
1508.3308000000002
 21
1141.7854
  0
LINE
  8
_0-1_LAYER002
  6
CONTINUOUS
 62
    7
 10
1508.3308000000002
 20
1141.7854
 11
764.58179999999993
 21
807.09840000000008
  0
LINE
  8
_0-1_LAYER002
  6
CONTINUOUS
 62
    7
 10
764.58179999999993
 20
807.09840000000008
 11
770.31220000000008
 21
809.67710000000011
  0
LINE
  8
_0-1_LAYER002
  6
CONTINUOUS
 62
    7
 10
764.58179999999993
 20
811.48440000000005
 11
1508.3308000000002
 21
1146.1713999999999
  0
LINE
  8
_0-1_LAYER002
  6
CONTINUOUS
 62
    7
 10
1497.3609000000001
 20
1144.018
 11
1418.3308
 21
1108.9613999999999
  0
LINE
  8
_0-1_LAYER002
  6
CONTINUOUS
 62
    7
 10
1418.3308
 20
1108.9613999999999
 11
1418.3308
 21
1106.7683999999999
  0
LINE
  8
_0-1_LAYER002
  6
CONTINUOUS
 62
    7
 10
935.5959222173459
 20
697.63483246351586
 11
981.75340000000006
 21
860.96209999999996
  0
LINE
  8
_0-1_LAYER002
  6
CONTINUOUS
 62
    7
 10
945.12100247703574
 20
701.92111646051046
 11
991.27849999999989
 21
865.24839999999995
  0
LINE
  8
_0-1_LAYER002
  6
CONTINUOUS
 62
    7
 10
954.64480000000003
 20
706.20740000000001
 11
1000.8024
 21
869.53420000000006
  0
LINE
  8
_0-1_LAYER002
  6
CONTINUOUS
 62
    7
 10
1269.2098000000001
 20
847.76140000000009
 11
1315.1286
 21
1010.9804999999999
  0
LINE
  8
_0-1_LAYER002
  6
CONTINUOUS
 62
    7
 10
1278.7338
 20
852.04739999999993
 11
1324.8926000000001
 21
1015.3742999999999
  0
LINE
  8
_0-1_LAYER002
  6
CONTINUOUS
 62
    7
 10
1288.2588000000001
 20
856.33339999999998
 11
1334.4164000000001
 21
1019.6600000000001
  0
LINE
  8
_0-1_LAYER002
  6
CONTINUOUS
 62
    7
 10
2235.6644000000001
 20
770.62159999999994
 11
1508.3308000000002
 21
1097.9213
  0
LINE
  8
_0-1_LAYER002
  6
CONTINUOUS
 62
    7
 10
834.3438000000001
 20
652.07140000000004
 11
1508.3308000000002
 21
955.36539999999991
  0
LINE
  8
_0-1_LAYER002
  6
CONTINUOUS
 62
    7
 10
1508.3308000000002
 20
955.36539999999991
 11
2182.3168000000001
 21
652.07140000000004
  0
LINE
  8
_0-1_LAYER002
  6
CONTINUOUS
 62
    7
 10
1164.6904999999999
 20
963.70460000000003
 11
1173.8456000000001
 21
967.72759999999994
  0
LINE
  8
_0-1_LAYER002
  6
CONTINUOUS
 62
    7
 10
1173.8456000000001
 20
967.72759999999994
 11
1200.6502
 21
906.72890000000007
  0
LINE
  8
_0-1_LAYER002
  6
CONTINUOUS
 62
    7
 10
1200.6502
 20
906.72890000000007
 11
1218.9339
 21
914.76330000000007
  0
LINE
  8
_0-1_LAYER002
  6
CONTINUOUS
 62
    7
 10
1218.9339
 20
914.76330000000007
 11
1222.9568999999999
 21
905.6083000000001
  0
LINE
  8
_0-1_LAYER002
  6
CONTINUOUS
 62
    7
 10
1222.9568999999999
 20
905.6083000000001
 11
1195.5182
 21
893.55089999999996
  0
LINE
  8
_0-1_LAYER002
  6
CONTINUOUS
 62
    7
 10
1195.5182
 20
893.55089999999996
 11
1165.9626786679567
 21
960.80954001763894
  0
LINE
  8
_0-1_LAYER002
  6
CONTINUOUS
 62
    7
 10
1164.6904999999999
 20
963.70460000000003
 11
1171.7310408023677
 21
947.68264613100951
  0
LINE
  8
_0-1_LAYER002
  6
CONTINUOUS
 62
    7
 10
1032.3853999999999
 20
935.10310000000004
 11
1059.7424000000001
 21
947.41550000000007
  0
LINE
  8
_0-1_LAYER002
  6
CONTINUOUS
 62
    7
 10
1059.7424000000001
 20
947.41550000000007
 11
1053.5862
 21
961.09400000000005
  0
LINE
  8
_0-1_LAYER002
  6
CONTINUOUS
 62
    7
 10
1053.5862
 20
961.09400000000005
 11
1026.2292
 21
948.78160000000003
  0
LINE
  8
_0-1_LAYER002
  6
CONTINUOUS
 62
    7
 10
1026.2292
 20
948.78160000000003
 11
1032.3853999999999
 21
935.10310000000004
  0
LINE
  8
_0-1_LAYER002
  6
CONTINUOUS
 62
    7
 10
1053.5862
 20
961.09400000000005
 11
1032.3853999999999
 21
935.10310000000004
  0
LINE
  8
_0-1_LAYER002
  6
CONTINUOUS
 62
    7
 10
1046.2887000000001
 20
943.7835
 11
1046.2887000000001
 21
936.2835
  0
LINE
  8
_0-1_LAYER002
  6
CONTINUOUS
 62
    7
 10
1046.2887000000001
 20
943.7835
 11
1050.0387000000001
 21
937.28829999999994
  0
LINE
  8
_0-1_LAYER002
  6
CONTINUOUS
 62
    7
 10
1046.2887000000001
 20
943.7835
 11
1138.3244
 21
603.39760000000001
  0
LINE
  8
_0-1_LAYER002
  6
CONTINUOUS
 62
    7
 10
1138.3244
 20
603.39760000000001
 11
1396.1205999999997
 21
603.39760000000001
  0
LINE
  8
_0-1_LAYER002
  6
CONTINUOUS
 62
    7
 10
1122.111520912382
 20
663.35950000000003
 11
1326.6949
 21
663.35950000000003
  0
LINE
  8
_0-1_LAYER002
  6
CONTINUOUS
 62
    7
 10
780.9248
 20
770.7802999999999
 11
1508.3308000000002
 21
1097.9213
  0
LINE
  8
_0-1_LAYER002
  6
CONTINUOUS
 62
    7
 10
1759.2537753043937
 20
999.86215722599968
 11
1753.9504999999999
 21
994.55889999999999
  0
LINE
  8
_0-1_LAYER002
  6
CONTINUOUS
 62
    7
 10
1753.9504999999999
 20
994.55889999999999
 11
1759.2538
 21
999.86220000000003
  0
LINE
  8
_0-1_LAYER002
  6
CONTINUOUS
 62
    7
 10
1759.2537628365399
 20
999.86216283653994
 11
1757.3126000000002
 21
992.61770000000001
  0
LINE
  8
_0-1_LAYER002
  6
CONTINUOUS
 62
    7
 10
1759.2537628365399
 20
999.86216283653994
 11
1732.3708999999999
 21
953.29970000000003
  0
LINE
  8
_0-1_LAYER002
  6
CONTINUOUS
 62
    7
 10
1732.3708999999999
 20
953.29970000000003
 11
1668.8278899648353
 21
953.20236641737915
  0
LINE
  8
_0-1_LAYER002
  6
CONTINUOUS
 62
    7
 10
1842.7584711935003
 20
967.59668282873008
 11
1851.9711000000002
 21
963.70460000000003
  0
LINE
  8
_0-1_LAYER002
  6
CONTINUOUS
 62
    7
 10
1851.9711000000002
 20
963.70460000000003
 11
1821.1433999999999
 21
893.55089999999996
  0
LINE
  8
_0-1_LAYER002
  6
CONTINUOUS
 62
    7
 10
1821.1433999999999
 20
893.55089999999996
 11
1793.7046999999998
 21
905.6083000000001
  0
LINE
  8
_0-1_LAYER002
  6
CONTINUOUS
 62
    7
 10
1793.7046999999998
 20
905.6083000000001
 11
1797.7276999999999
 21
914.76330000000007
  0
LINE
  8
_0-1_LAYER002
  6
CONTINUOUS
 62
    7
 10
1797.7276999999999
 20
914.76330000000007
 11
1816.0113999999999
 21
906.72890000000007
  0
LINE
  8
_0-1_LAYER002
  6
CONTINUOUS
 62
    7
 10
1816.0113999999999
 20
906.72890000000007
 11
1842.8159999999998
 21
967.72759999999994
  0
LINE
  8
_0-1_LAYER002
  6
CONTINUOUS
 62
    7
 10
1824.3175999999999
 20
912.2222999999999
 11
1826.223122909691
 21
905.11067763795495
  0
LINE
  8
_0-1_LAYER002
  6
CONTINUOUS
 62
    7
 10
1824.3175999999999
 20
912.2222999999999
 11
1829.6208999999999
 21
906.9190000000001
  0
LINE
  8
_0-1_LAYER002
  6
CONTINUOUS
 62
    7
 10
1824.3175999999999
 20
912.2222999999999
 11
1845.8557000000001
 21
874.91730000000007
  0
LINE
  8
_0-1_LAYER002
  6
CONTINUOUS
 62
    7
 10
1824.3175999999999
 20
912.2222999999999
 11
1845.8557000000001
 21
874.91730000000007
  0
LINE
  8
_0-1_LAYER002
  6
CONTINUOUS
 62
    7
 10
1845.8557000000001
 20
874.91730000000007
 11
1905.8557000000001
 21
874.91730000000007
  0
LINE
  8
_0-1_LAYER002
  6
CONTINUOUS
 62
    7
 10
1241.4376
 20
1045.6389999999999
 11
1268.7945999999999
 21
1057.9512999999999
  0
LINE
  8
_0-1_LAYER002
  6
CONTINUOUS
 62
    7
 10
1268.7945999999999
 20
1057.9512999999999
 11
1274.9508000000001
 21
1044.2728
  0
LINE
  8
_0-1_LAYER002
  6
CONTINUOUS
 62
    7
 10
1274.9508000000001
 20
1044.2728
 11
1247.5938000000001
 21
1031.9604999999999
  0
LINE
  8
_0-1_LAYER002
  6
CONTINUOUS
 62
    7
 10
1247.5938000000001
 20
1031.9604999999999
 11
1241.4376
 21
1045.6389999999999
  0
LINE
  8
_0-1_LAYER002
  6
CONTINUOUS
 62
    7
 10
1247.5938000000001
 20
1031.9604999999999
 11
1268.7945999999999
 21
1057.9512999999999
  0
LINE
  8
_0-1_LAYER002
  6
CONTINUOUS
 62
    7
 10
1739.5164
 20
1062.0581999999999
 11
1733.3609999999999
 21
1048.3794
  0
LINE
  8
_0-1_LAYER002
  6
CONTINUOUS
 62
    7
 10
1733.3609999999999
 20
1048.3794
 11
1760.7186000000002
 21
1036.0685000000001
  0
LINE
  8
_0-1_LAYER002
  6
CONTINUOUS
 62
    7
 10
1760.7186000000002
 20
1036.0685000000001
 11
1766.8741
 21
1049.7473
  0
LINE
  8
_0-1_LAYER002
  6
CONTINUOUS
 62
    7
 10
1766.8741
 20
1049.7473
 11
1739.5164
 21
1062.0581999999999
  0
LINE
  8
_0-1_LAYER002
  6
CONTINUOUS
 62
    7
 10
1739.5164
 20
1062.0581999999999
 11
1760.7186000000002
 21
1036.0685000000001
  0
LINE
  8
_0-1_LAYER002
  6
CONTINUOUS
 62
    7
 10
1945.2840000000001
 20
969.46280000000002
 11
1939.1284999999998
 21
955.7838999999999
  0
LINE
  8
_0-1_LAYER002
  6
CONTINUOUS
 62
    7
 10
1939.1284999999998
 20
955.7838999999999
 11
1966.4861000000001
 21
943.47299999999996
  0
LINE
  8
_0-1_LAYER002
  6
CONTINUOUS
 62
    7
 10
1966.4861000000001
 20
943.47299999999996
 11
1972.6415999999999
 21
957.15180000000009
  0
LINE
  8
_0-1_LAYER002
  6
CONTINUOUS
 62
    7
 10
1972.6415999999999
 20
957.15180000000009
 11
1945.2840000000001
 21
969.46280000000002
  0
LINE
  8
_0-1_LAYER002
  6
CONTINUOUS
 62
    7
 10
1966.4861000000001
 20
943.47299999999996
 11
1945.2840000000001
 21
969.46280000000002
  0
LINE
  8
_0-1_LAYER002
  6
CONTINUOUS
 62
    7
 10
2150.9962
 20
876.74549999999999
 11
2144.8407000000002
 21
863.06670000000008
  0
LINE
  8
_0-1_LAYER002
  6
CONTINUOUS
 62
    7
 10
2144.8407000000002
 20
863.06670000000008
 11
2172.1983
 21
850.75579999999991
  0
LINE
  8
_0-1_LAYER002
  6
CONTINUOUS
 62
    7
 10
2172.1983
 20
850.75579999999991
 11
2178.3537999999999
 21
864.43460000000005
  0
LINE
  8
_0-1_LAYER002
  6
CONTINUOUS
 62
    7
 10
2178.3537999999999
 20
864.43460000000005
 11
2150.9962
 21
876.74549999999999
  0
LINE
  8
_0-1_LAYER002
  6
CONTINUOUS
 62
    7
 10
2150.9962
 20
876.74549999999999
 11
2172.1983
 21
850.75579999999991
  0
LINE
  8
_0-1_LAYER002
  6
CONTINUOUS
 62
    7
 10
1508.3308000000002
 20
955.36539999999991
 11
1508.3308000000002
 21
1146.1713999999999
  0
LINE
  8
_0-2_LAYER003
  6
CONTINUOUS
 62
    2
 10
2015.8592000000003
 20
869.53420000000006
 11
2062.0168000000003
 21
706.20740000000001
  0
LINE
  8
_0-2_LAYER003
  6
CONTINUOUS
 62
    2
 10
2034.9082000000003
 20
860.96209999999996
 11
2081.0658000000003
 21
697.63439999999991
  0
LINE
  8
_0-2_LAYER003
  6
CONTINUOUS
 62
    2
 10
2025.3831000000005
 20
865.24839999999995
 11
2071.5408000000007
 21
701.92039999999997
  0
LINE
  8
_0-1_LAYER002
  6
CONTINUOUS
 62
    7
 10
1747.4518
 20
847.76140000000009
 11
1701.5330000000004
 21
1010.9804999999999
  0
LINE
  8
_0-2_LAYER003
  6
CONTINUOUS
 62
    2
 10
1691.7690000000005
 20
1015.3742999999999
 11
1737.9278000000004
 21
852.04739999999993
  0
LINE
  8
_0-2_LAYER003
  6
CONTINUOUS
 62
    2
 10
1682.2452000000003
 20
1019.6600000000001
 11
1728.4028000000001
 21
856.33339999999998
  0
LINE
  8
_0-1_LAYER002
  6
CONTINUOUS
 62
    7
 10
1682.2452000000003
 20
1019.6600000000001
 11
1728.4028000000001
 21
856.33339999999998
  0
LINE
  8
_0-1_LAYER002
  6
CONTINUOUS
 62
    7
 10
1737.9278000000004
 20
852.04739999999993
 11
1691.7690272225477
 21
1015.3742036765639
  0
LINE
  8
_0-1_LAYER002
  6
CONTINUOUS
 62
    7
 10
2033.7044000000001
 20
861.50350000000003
 11
2081.0658000000003
 21
697.63439999999991
  0
LINE
  8
_0-1_LAYER002
  6
CONTINUOUS
 62
    7
 10
2071.5408000000007
 20
701.92039999999997
 11
2025.3832089297837
 21
865.24801455437319
  0
LINE
  8
_0-1_LAYER002
  6
CONTINUOUS
 62
    7
 10
2015.8593252814885
 20
869.53375669652337
 11
2062.0168000000003
 21
706.20740000000001
  0
LINE
  8
_0-1_LAYER002
  6
CONTINUOUS
 62
    7
 10
811.02089999999998
 20
851.92419999999993
 11
817.17710000000011
 21
838.24569999999994
  0
LINE
  8
_0-1_LAYER002
  6
CONTINUOUS
 62
    7
 10
817.17710000000011
 20
838.24569999999994
 11
844.53410000000008
 21
850.55809999999997
  0
LINE
  8
_0-1_LAYER002
  6
CONTINUOUS
 62
    7
 10
844.53410000000008
 20
850.55809999999997
 11
838.37789999999995
 21
864.23659999999995
  0
LINE
  8
_0-1_LAYER002
  6
CONTINUOUS
 62
    7
 10
811.02089999999998
 20
851.92419999999993
 11
838.37789999999995
 21
864.23659999999995
  0
LINE
  8
_0-1_LAYER002
  6
CONTINUOUS
 62
    7
 10
838.37789999999995
 20
864.23659999999995
 11
817.17710000000011
 21
838.24569999999994
  0
ARC
  8
_0-1_LAYER002
  6
CONTINUOUS
 62
    7
 10
1422.3488635873221
 20
1241.2419080938776
 40
9.3589502197589471
 50
315.46208084935472
 51
19.717075650384349
  0
ARC
  8
_0-1_LAYER002
  6
CONTINUOUS
 62
    7
 10
1448.1648782110833
 20
1277.2777078461427
 40
10.546180177036369
 50
328.24422361449979
 51
34.89448599499827
  0
ARC
  8
_0-1_LAYER002
  6
CONTINUOUS
 62
    7
 10
1572.2611713661811
 20
1275.7091266937416
 40
10.887810696112005
 50
141.29471897344763
 51
209.79407535989984
  0
ARC
  8
_0-1_LAYER002
  6
CONTINUOUS
 62
    7
 10
1590.8913228631241
 20
1240.351309026365
 40
6.7399089973024138
 50
143.08612655116298
 51
231.56698026932801
  0
ARC
  8
_0-1_LAYER002
  6
CONTINUOUS
 62
    7
 10
1457.1565763412229
 20
1317.2329990612536
 40
20.594674003096088
 50
317.47811037012207
 51
44.40027152134914
  0
ARC
  8
_0-1_LAYER002
  6
CONTINUOUS
 62
    7
 10
1642.689744020628
 20
1182.7849720916859
 40
59.483356862933988
 50
149.24193249122598
 51
211.66854614493118
  0
ARC
  8
_0-1_LAYER002
  6
CONTINUOUS
 62
    7
 10
1574.9077448692899
 20
1322.8916744872265
 40
35.193754692006166
 50
159.80595421495394
 51
212.00632801258712
  0
TEXT
  8
_0-0_LAYER001
 62
    7
 10
801.59717089675485
 20
1074.8433438027969
 40
20
 41
1
 50
20.060506999999959
  1
235
  0
TEXT
  8
_0-0_LAYER001
 62
    7
 10
1017.7028262752151
 20
1189.0250554417519
 40
20
 41
1
 50
20.060507000000005
  1
235
  0
TEXT
  8
_0-0_LAYER001
 62
    7
 10
1257.9711245302544
 20
1322.324590775027
 40
20
 41
1
 50
20.060506999999973
  1
305
  0
TEXT
  8
_0-0_LAYER001
 62
    7
 10
1271.13651073601
 20
1386.5058485280856
 40
20
 41
1
 50
0
  1
葺　土
  0
TEXT
  8
_0-0_LAYER001
 62
    7
 10
1317.2153624561545
 20
1435.876046799669
 40
20
 41
1
 50
0
  1
棟補強金物
  0
TEXT
  8
_0-0_LAYER001
 62
    7
 10
1172.3961141928432
 20
1481.9548985198135
 40
20
 41
1
 50
0
  1
パッキンステンレスネジ　
  0
TEXT
  8
_0-0_LAYER001
 62
    7
 10
1573.9403934683883
 20
1447.3957597297049
 40
20
 41
1
 50
0
  1
冠　瓦
  0
TEXT
  8
_0-0_LAYER001
 62
    7
 10
1573.9403934683883
 20
1409.5452743881578
 40
20
 41
1
 50
0
  1
　芯木：40x30以上
  0
TEXT
  8
_0-0_LAYER001
 62
    7
 10
1573.9403934683883
 20
1370.0491157708911
 40
20
 41
1
 50
0
  1
銅線0.9ｍｍ
  0
TEXT
  8
_0-0_LAYER001
 62
    7
 10
1629.8932848428494
 20
1323.9702640507467
 40
20
 41
1
 50
0
  1
熨斗瓦３段積み
  0
TEXT
  8
_0-0_LAYER001
 62
    7
 10
1886.618315855083
 20
1172.5683226845574
 40
20
 41
1
 50
0
  1
桟　瓦
  0
TEXT
  8
_0-0_LAYER001
 62
    7
 10
1124.6715891969791
 20
668.99230031440652
 40
20
 41
1
 50
0
  1
瓦桟：15x30以上
  0
TEXT
  8
_0-3_LAYER004
 62
    7
 10
1629.8932848428494
 20
956.98512356530978
 40
20
 41
1
 50
0
  1
溶接金網
  0
TEXT
  8
_0-2_LAYER003
 62
    7
 10
1845.4764839620971
 20
876.34713305505693
 40
20
 41
1
 50
0
  1
アンカー
  0
LINE
  8
_0-2_LAYER003
  6
CONTINUOUS
 62
    7
 10
1235.0191
 20
1479.3097
 11
1178.978807295721
 21
1479.3097
  0
LINE
  8
_0-2_LAYER003
  6
CONTINUOUS
 62
    7
 10
1335.529
 20
1433.4094
 11
1318.8610357318739
 21
1433.4094
  0
LINE
  8
_0-2_LAYER003
  6
CONTINUOUS
 62
    7
 10
1608.0695999999998
 20
1439.6503000000002
 11
1647.9956908757636
 21
1439.6503000000002
  0
LINE
  8
_0-2_LAYER003
  6
CONTINUOUS
 62
    7
 10
1646.5344
 20
1363.6177
 11
1695.7202158716273
 21
1363.6177
  0
LINE
  8
_0-2_LAYER003
  6
CONTINUOUS
 62
    7
 10
1736.2851999999998
 20
1318.3744999999999
 11
1781.2952262090384
 21
1318.3744999999999
  0
LINE
  8
_0-2_LAYER003
  6
CONTINUOUS
 62
    7
 10
1927.3582000000001
 20
1167.2216000000001
 11
1955.7365934352997
 21
1167.2216000000001
  0
LINE
  8
_0-2_LAYER003
  6
CONTINUOUS
 62
    7
 10
1905.8557000000001
 20
874.91730000000007
 11
1934.3428408509471
 21
874.91730000000007
  0
LINE
  8
_0-2_LAYER003
  6
CONTINUOUS
 62
    7
 10
1672.3708999999999
 20
953.29970000000003
 11
1634.830304670008
 21
953.29970000000003
  0
LINE
  8
_0-2_LAYER003
  6
CONTINUOUS
 62
    7
 10
1396.1205999999997
 20
603.39760000000001
 11
1430.7668184807962
 21
603.39760000000001
  0
TEXT
  8
_0-0_LAYER001
 62
    7
 10
1145.7178309984827
 20
605.29053040933775
 40
20
 41
1
 50
0
  1
パーライト系モルタルｔ＝40
  0
TEXT
  8
_0-0_LAYER001
 62
    7
 10
1129.6086090241374
 20
637.72450807573716
 40
20
 41
1
 50
0
  1
下葺材：ルーフィング
  0
LINE
  8
_0-0_LAYER001
  6
CONTINUOUS
 62
    2
 10
1128.7813000000001
 20
633.49289999999996
 11
1331.2110344195262
 21
633.49289999999996
  0
LINE
  8
_0-1_LAYER002
  6
CONTINUOUS
 62
    7
 10
1128.7813000000001
 20
633.49289999999996
 11
1367.1593296561625
 21
633.49289999999996
  0
ENDSEC
  0
EOF
