  0
SECTION
  2
HEADER
  9
$ACADVER
  1
AC1009
  9
$INSBASE
 10
0
 20
0
 30
0
  9
$EXTMIN
 10
0
 20
0
  9
$EXTMAX
 10
2970
 20
2100
  9
$LIMMIN
 10
0
 20
0
  9
$LIMMAX
 10
2970
 20
2100
  9
$LTSCALE
 40
10
  0
ENDSEC
  0
SECTION
  2
TABLES
  0
TABLE
  2
LTYPE
 70
     9
  0
LTYPE
  2
CONTINUOUS
 70
    64
  3
実線
 72
    65
 73
     0
 40
0.0
  0
LTYPE
  2
DASHED1
 70
    64
  3
--  --  --  --  --  --  --  --  
 72
    65
 73
     2
 40
2.5
 49
1.25
 49
-1.25
  0
LTYPE
  2
DASHED2
 70
    64
  3
----    ----    ----    ----    
 72
    65
 73
     2
 40
5.0
 49
2.5
 49
-2.5
  0
LTYPE
  2
DASHED3
 70
    64
  3
------  ------  ------  ------  
 72
    65
 73
     2
 40
5.0
 49
3.75
 49
-1.25
  0
LTYPE
  2
CENTER1
 70
    64
  3
----- - ----- - ----- - ----- - 
 72
    65
 73
     4
 40
10.0
 49
6.25
 49
-1.25
 49
1.25
 49
-1.25
  0
LTYPE
  2
CENTER2
 70
    64
  3
----------  --  ----------  --  
 72
    65
 73
     4
 40
20.0
 49
12.5
 49
-2.5
 49
2.5
 49
-2.5
  0
LTYPE
  2
PHANTOM1
 70
    64
  3
--- - - --- - - --- - - --- - - 
 72
    65
 73
     6
 40
10.0
 49
3.25
 49
-1.25
 49
1.25
 49
-1.25
 49
1.25
 49
-1.25
  0
LTYPE
  2
PHANTOM2
 70
    64
  3
--------  -  -  --------  -  -  
 72
    65
 73
     6
 40
20.0
 49
10.0
 49
-2.5
 49
1.25
 49
-2.5
 49
1.25
 49
-2.5
  0
LTYPE
  2
DOT
 70
    64
  3
-   -   -   -   -   -   -   -   
 72
    65
 73
     2
 40
2.5
 49
0.625
 49
-1.875
  0
LTYPE
  2
DUMMY
 70
    64
  3
ダミー
 72
    65
 73
     0
 40
0.0
  0
LTYPE
  2
RAND1
 70
    64
  3
ランダム線1
 72
    65
 73
     4
 40
10.0
 49
1.0
 49
-2.0
 49
3.0
 49
-4.0
  0
LTYPE
  2
RAND2
 70
    64
  3
ランダム線2
 72
    65
 73
     4
 40
14.0
 49
2.0
 49
-3.0
 49
4.0
 49
-5.0
  0
LTYPE
  2
RAND3
 70
    64
  3
ランダム線3
 72
    65
 73
     4
 40
18.0
 49
3.0
 49
-4.0
 49
5.0
 49
-6.0
  0
LTYPE
  2
RAND4
 70
    64
  3
ランダム線4
 72
    65
 73
     4
 40
22.0
 49
4.0
 49
-5.0
 49
6.0
 49
-7.0
  0
LTYPE
  2
RAND5
 70
    64
  3
ランダム線5
 72
    65
 73
     4
 40
26.0
 49
5.0
 49
-6.0
 49
7.0
 49
-8.0
  0
LTYPE
  2
LONG1
 70
    64
  3
----------  --  ----------  --  
 72
    65
 73
     4
 40
40.0
 49
32.5
 49
-2.5
 49
2.5
 49
-2.5
  0
LTYPE
  2
LONG2
 70
    64
  3
--------  -  -  --------  -  -  
 72
    65
 73
     6
 40
40.0
 49
30.0
 49
-2.5
 49
1.25
 49
-2.5
 49
1.25
 49
-2.5
  0
LTYPE
  2
LONG3
 70
    64
  3
+++++++++++++++..+++++++++++++++
 72
    65
 73
     2
 40
40.0
 49
37.5
 49
-2.5
  0
LTYPE
  2
LONG4
 70
    64
  3
+++++++++++++++..+++++++++++++++
 72
    65
 73
     2
 40
80.0
 49
75.0
 49
-5.0
  0
LTYPE
  2
LONG5
 70
    64
  3
----------  --  ----------  --  
 72
    65
 73
     4
 40
60.0
 49
37.5
 49
-7.5
 49
7.5
 49
-7.5
  0
LTYPE
  2
dashed
 70
   64
  3
-------   -------------   ------
 72
   65
 73
    2
 40
7.5
 49
6
 49
-1.5
  0
LTYPE
  2
dashed_spaced
 70
   64
  3
----        --------        ----
 72
   65
 73
    2
 40
12
 49
6
 49
-6
  0
LTYPE
  2
long_dashed_dotted
 70
   64
  3
------------- --- --------------
 72
   65
 73
    4
 40
15.25
 49
12
 49
-1.5
 49
0.25
 49
-1.5
  0
LTYPE
  2
long_dashed_double-dotted
 70
   64
  3
----------- --- --- ------------
 72
   65
 73
    6
 40
17
 49
12
 49
-1.5
 49
0.25
 49
-1.5
 49
0.25
 49
-1.5
  0
LTYPE
  2
long_dashed_triplicate-dotted
 70
   64
  3
--------- --- --- --- ----------
 72
   65
 73
    8
 40
18.75
 49
12
 49
-1.5
 49
0.25
 49
-1.5
 49
0.25
 49
-1.5
 49
0.25
 49
-1.5
  0
LTYPE
  2
dotted
 70
   64
  3
   -       -       -       -    
 72
   65
 73
    2
 40
1.75
 49
0.25
 49
-1.5
  0
LTYPE
  2
chain
 70
   64
  3
-------------- -- --------------
 72
   65
 73
    4
 40
18.5
 49
12
 49
-1.5
 49
3.5
 49
-1.5
  0
LTYPE
  2
chain_double_dash
 70
   64
  3
------------ -- -- -------------
 72
   65
 73
    6
 40
23.5
 49
12
 49
-1.5
 49
3.5
 49
-1.5
 49
3.5
 49
-1.5
  0
LTYPE
  2
dashed_dotted
 70
   64
  3
-----------     -     ----------
 72
   65
 73
    4
 40
9.25
 49
6
 49
-1.5
 49
0.25
 49
-1.5
  0
LTYPE
  2
double-dashed_dotted
 70
   64
  3
------   -----------   -   -----
 72
   65
 73
    6
 40
16.75
 49
6
 49
-1.5
 49
6
 49
-1.5
 49
0.25
 49
-1.5
  0
LTYPE
  2
dashed_double-dotted
 70
   64
  3
---------    -    -    ---------
 72
   65
 73
    6
 40
11
 49
6
 49
-1.5
 49
0.25
 49
-1.5
 49
0.25
 49
-1.5
  0
LTYPE
  2
double-dashed_double-dotted
 70
   64
  3
-----   ---------   -   -   ----
 72
   65
 73
    8
 40
18.5
 49
6
 49
-1.5
 49
6
 49
-1.5
 49
0.25
 49
-1.5
 49
0.25
 49
-1.5
  0
LTYPE
  2
dashed_triplicate-dotted
 70
   64
  3
-------    -    -    -    ------
 72
   65
 73
    8
 40
12.75
 49
6
 49
-1.5
 49
0.25
 49
-1.5
 49
0.25
 49
-1.5
 49
0.25
 49
-1.5
  0
LTYPE
  2
double-dashed_triplicate-dotted
 70
   64
  3
-----  ---------  -  -  -  -----
 72
   65
 73
   10
 40
20.25
 49
6
 49
-1.5
 49
6
 49
-1.5
 49
0.25
 49
-1.5
 49
0.25
 49
-1.5
 49
0.25
 49
-1.5
  0
LTYPE
  2
undefined
 70
   64
  3
--------------------------------
 72
   65
 73
    0
 40
0
  0
ENDTAB
  0
TABLE
  2
STYLE
  5
3
100
AcDbSymbolTable
 70
     1
  0
STYLE
  5
10
100
AcDbSymbolTableRecord
100
AcDbTextStyleTableRecord
  2
STANDARD
 70
     0
 40
0.0
 41
1.0
 50
0.0
 71
     0
 42
0.2
  3
txt
  4
bigfont.shx
  0
STYLE
  5
26
100
AcDbSymbolTableRecord
100
AcDbTextStyleTableRecord
  2
TATEGAKI
 70
    68
 40
0.0
 41
1.0
 50
0.0
 71
     0
 42
1.0
  3
txt
  4
bigfont.shx
  0
ENDTAB
  0
TABLE
  2
LAYER
 70
    7
  0
LAYER
  2
_0-0_LAYER001
 70
   64
 62
    7
  6
CONTINUOUS
  0
LAYER
  2
_0-1_LAYER003
 70
   64
 62
    7
  6
CONTINUOUS
  0
LAYER
  2
_0-2_LAYER004
 70
   64
 62
    7
  6
CONTINUOUS
  0
LAYER
  2
_0-3_LAYER005
 70
   64
 62
    7
  6
CONTINUOUS
  0
LAYER
  2
_0-4_LAYER006
 70
   64
 62
    7
  6
CONTINUOUS
  0
LAYER
  2
_0-5_LAYER008
 70
   64
 62
    7
  6
CONTINUOUS
  0
LAYER
  2
ADD_LINE
 70
   64
 62
    7
  6
CONTINUOUS
  0
ENDTAB
  0
ENDSEC
  0
SECTION
  2
BLOCKS
  0
ENDSEC
  0
SECTION
  2
ENTITIES
  0
TEXT
  8
_0-0_LAYER001
 62
    7
 10
1272.7575227873115
 20
1396.2953538598745
 40
20
 41
1
 50
0
  1
雨押水切カラー鋼板0.35ｍｍ以上
  0
LINE
  8
_0-0_LAYER001
  6
CONTINUOUS
 62
    2
 10
1734.6860000000001
 20
1386.4756
 11
1734.6860000000001
 21
1368.9756
  0
LINE
  8
_0-5_LAYER008
  6
CONTINUOUS
 62
    2
 10
1082.7012999999999
 20
725.72109999999998
 11
1759.6860000000001
 21
1030.3648000000001
  0
LINE
  8
_0-0_LAYER001
  6
CONTINUOUS
 62
    2
 10
1759.6860000000001
 20
887.80809999999997
 11
1759.6860000000001
 21
719.40200000000004
  0
LINE
  8
_0-0_LAYER001
  6
CONTINUOUS
 62
    1
 10
1742.0828999999999
 20
1022.4434000000001
 11
1759.6860000000001
 21
1040.0463999999999
  0
LINE
  8
_0-0_LAYER001
  6
CONTINUOUS
 62
    1
 10
1716.3699000000001
 20
1010.8724999999999
 11
1759.6860000000001
 21
1054.1886
  0
LINE
  8
_0-0_LAYER001
  6
CONTINUOUS
 62
    1
 10
1690.6569
 20
999.30160000000001
 11
1759.6860000000001
 21
1068.3307
  0
LINE
  8
_0-0_LAYER001
  6
CONTINUOUS
 62
    1
 10
1664.9439000000002
 20
987.73070000000007
 11
1744.6952000000001
 21
1067.482
  0
LINE
  8
_0-0_LAYER001
  6
CONTINUOUS
 62
    1
 10
1639.2309
 20
976.15990000000011
 11
1718.9821999999999
 21
1055.9112
  0
LINE
  8
_0-0_LAYER001
  6
CONTINUOUS
 62
    1
 10
1613.5178999999998
 20
964.58899999999994
 11
1693.2692000000002
 21
1044.3403000000001
  0
LINE
  8
_0-0_LAYER001
  6
CONTINUOUS
 62
    1
 10
1587.8049000000001
 20
953.0181
 11
1667.5562
 21
1032.7693999999999
  0
LINE
  8
_0-0_LAYER001
  6
CONTINUOUS
 62
    1
 10
1562.0918000000001
 20
941.44720000000007
 11
1641.8431999999998
 21
1021.1985999999999
  0
LINE
  8
_0-0_LAYER001
  6
CONTINUOUS
 62
    1
 10
1536.3788
 20
929.8764000000001
 11
1616.1302000000001
 21
1009.6277
  0
LINE
  8
_0-0_LAYER001
  6
CONTINUOUS
 62
    1
 10
1510.6658000000002
 20
918.30549999999994
 11
1590.4171999999999
 21
998.05680000000007
  0
LINE
  8
_0-0_LAYER001
  6
CONTINUOUS
 62
    1
 10
1484.9528
 20
906.7346
 11
1564.7042000000001
 21
986.4860000000001
  0
LINE
  8
_0-0_LAYER001
  6
CONTINUOUS
 62
    1
 10
1459.2397999999998
 20
895.16370000000006
 11
1538.9911999999999
 21
974.91509999999994
  0
LINE
  8
_0-0_LAYER001
  6
CONTINUOUS
 62
    1
 10
1433.5268000000001
 20
883.5927999999999
 11
1513.2782000000002
 21
963.3442
  0
LINE
  8
_0-0_LAYER001
  6
CONTINUOUS
 62
    1
 10
1407.8137999999999
 20
872.02199999999993
 11
1487.5652
 21
951.77340000000004
  0
LINE
  8
_0-0_LAYER001
  6
CONTINUOUS
 62
    1
 10
1382.1008000000002
 20
860.4511
 11
1461.8521999999998
 21
940.2025000000001
  0
LINE
  8
_0-0_LAYER001
  6
CONTINUOUS
 62
    1
 10
1356.3877
 20
848.88020000000006
 11
1436.1392000000001
 21
928.63159999999993
  0
LINE
  8
_0-0_LAYER001
  6
CONTINUOUS
 62
    1
 10
1330.6747
 20
837.30929999999989
 11
1410.4261999999999
 21
917.06079999999997
  0
LINE
  8
_0-0_LAYER001
  6
CONTINUOUS
 62
    1
 10
1304.9617000000001
 20
825.73849999999993
 11
1384.7131999999999
 21
905.48990000000003
  0
LINE
  8
_0-0_LAYER001
  6
CONTINUOUS
 62
    1
 10
1279.2487000000001
 20
814.16759999999999
 11
1359.0001999999999
 21
893.9190000000001
  0
LINE
  8
_0-0_LAYER001
  6
CONTINUOUS
 62
    1
 10
1253.5356999999999
 20
802.59670000000006
 11
1333.2872
 21
882.34819999999991
  0
LINE
  8
_0-0_LAYER001
  6
CONTINUOUS
 62
    1
 10
1227.8226999999999
 20
791.02579999999989
 11
1307.5742
 21
870.77729999999997
  0
LINE
  8
_0-0_LAYER001
  6
CONTINUOUS
 62
    1
 10
1202.1097
 20
779.45499999999993
 11
1281.8612000000003
 21
859.20640000000003
  0
LINE
  8
_0-0_LAYER001
  6
CONTINUOUS
 62
    1
 10
1176.3967
 20
767.88409999999999
 11
1256.1482000000001
 21
847.63560000000007
  0
LINE
  8
_0-0_LAYER001
  6
CONTINUOUS
 62
    1
 10
1150.6837
 20
756.31320000000005
 11
1230.4351999999999
 21
836.0646999999999
  0
LINE
  8
_0-0_LAYER001
  6
CONTINUOUS
 62
    1
 10
1124.9706000000001
 20
744.74229999999989
 11
1204.7221999999999
 21
824.49389999999994
  0
LINE
  8
_0-0_LAYER001
  6
CONTINUOUS
 62
    1
 10
1099.2575999999999
 20
733.17149999999992
 11
1179.0092
 21
812.923
  0
LINE
  8
_0-0_LAYER001
  6
CONTINUOUS
 62
    1
 10
1081.7227
 20
729.77870000000007
 11
1153.2962
 21
801.35210000000006
  0
LINE
  8
_0-0_LAYER001
  6
CONTINUOUS
 62
    1
 10
1078.9747
 20
741.17280000000005
 11
1127.5832
 21
789.7813000000001
  0
LINE
  8
_0-0_LAYER001
  6
CONTINUOUS
 62
    1
 10
1076.2266
 20
752.56680000000006
 11
1101.8702000000001
 21
778.21039999999994
  0
LINE
  8
_0-0_LAYER001
  6
CONTINUOUS
 62
    1
 10
1073.4784999999999
 20
763.96090000000004
 11
1076.1572000000001
 21
766.6395
  0
LINE
  8
_0-0_LAYER001
  6
CONTINUOUS
 62
    1
 10
1082.0572
 20
728.39210000000003
 11
1084.0990999999999
 21
726.35010000000011
  0
LINE
  8
_0-0_LAYER001
  6
CONTINUOUS
 62
    1
 10
1077.5622000000001
 20
747.02919999999995
 11
1093.8523
 21
730.73910000000001
  0
LINE
  8
_0-0_LAYER001
  6
CONTINUOUS
 62
    1
 10
1073.355
 20
765.37850000000003
 11
1103.6054999999999
 21
735.12799999999993
  0
LINE
  8
_0-0_LAYER001
  6
CONTINUOUS
 62
    1
 10
1083.1081999999999
 20
769.76749999999993
 11
1113.3587
 21
739.51690000000008
  0
LINE
  8
_0-0_LAYER001
  6
CONTINUOUS
 62
    1
 10
1092.8613
 20
774.15640000000008
 11
1123.1119000000001
 21
743.90589999999997
  0
LINE
  8
_0-0_LAYER001
  6
CONTINUOUS
 62
    1
 10
1102.6144999999999
 20
778.54539999999997
 11
1132.8651
 21
748.2947999999999
  0
LINE
  8
_0-0_LAYER001
  6
CONTINUOUS
 62
    1
 10
1112.3677
 20
782.93429999999989
 11
1142.6183000000001
 21
752.68380000000002
  0
LINE
  8
_0-0_LAYER001
  6
CONTINUOUS
 62
    1
 10
1122.1208999999999
 20
787.32320000000004
 11
1152.3715
 21
757.07269999999994
  0
LINE
  8
_0-0_LAYER001
  6
CONTINUOUS
 62
    1
 10
1131.8741
 20
791.71219999999994
 11
1162.1246000000001
 21
761.46170000000006
  0
LINE
  8
_0-0_LAYER001
  6
CONTINUOUS
 62
    1
 10
1141.6273000000001
 20
796.10110000000009
 11
1171.8778
 21
765.85059999999999
  0
LINE
  8
_0-0_LAYER001
  6
CONTINUOUS
 62
    1
 10
1151.3805
 20
800.49009999999998
 11
1181.6310000000001
 21
770.23960000000011
  0
LINE
  8
_0-0_LAYER001
  6
CONTINUOUS
 62
    1
 10
1161.1337000000001
 20
804.87899999999991
 11
1191.3842
 21
774.62850000000003
  0
LINE
  8
_0-0_LAYER001
  6
CONTINUOUS
 62
    1
 10
1170.8869
 20
809.26800000000003
 11
1201.1374000000001
 21
779.01739999999995
  0
LINE
  8
_0-0_LAYER001
  6
CONTINUOUS
 62
    1
 10
1180.6401000000001
 20
813.65689999999995
 11
1210.8905999999999
 21
783.40640000000008
  0
LINE
  8
_0-0_LAYER001
  6
CONTINUOUS
 62
    1
 10
1190.3933
 20
818.0458000000001
 11
1220.6438000000001
 21
787.7953
  0
LINE
  8
_0-0_LAYER001
  6
CONTINUOUS
 62
    1
 10
1200.1465000000001
 20
822.4348
 11
1230.3969999999999
 21
792.18429999999989
  0
LINE
  8
_0-0_LAYER001
  6
CONTINUOUS
 62
    1
 10
1209.8996999999999
 20
826.82369999999992
 11
1240.1502
 21
796.57320000000004
  0
LINE
  8
_0-0_LAYER001
  6
CONTINUOUS
 62
    1
 10
1219.6529
 20
831.21270000000004
 11
1249.9033999999999
 21
800.96219999999994
  0
LINE
  8
_0-0_LAYER001
  6
CONTINUOUS
 62
    1
 10
1229.4060999999999
 20
835.60159999999996
 11
1259.6566
 21
805.35110000000009
  0
LINE
  8
_0-0_LAYER001
  6
CONTINUOUS
 62
    1
 10
1239.1592000000001
 20
839.99060000000009
 11
1269.4097999999999
 21
809.74009999999998
  0
LINE
  8
_0-0_LAYER001
  6
CONTINUOUS
 62
    1
 10
1248.9123999999999
 20
844.37950000000001
 11
1279.1629
 21
814.12899999999991
  0
LINE
  8
_0-0_LAYER001
  6
CONTINUOUS
 62
    1
 10
1258.6656
 20
848.76839999999993
 11
1288.9160999999999
 21
818.51790000000005
  0
LINE
  8
_0-0_LAYER001
  6
CONTINUOUS
 62
    1
 10
1268.4187999999999
 20
853.15740000000005
 11
1298.6693
 21
822.90689999999995
  0
LINE
  8
_0-0_LAYER001
  6
CONTINUOUS
 62
    1
 10
1278.172
 20
857.54629999999997
 11
1308.4224999999997
 21
827.2958000000001
  0
LINE
  8
_0-0_LAYER001
  6
CONTINUOUS
 62
    1
 10
1287.9251999999999
 20
861.9353000000001
 11
1318.1756999999998
 21
831.6848
  0
LINE
  8
_0-0_LAYER001
  6
CONTINUOUS
 62
    1
 10
1297.6784
 20
866.32420000000002
 11
1327.9288999999999
 21
836.07369999999992
  0
LINE
  8
_0-0_LAYER001
  6
CONTINUOUS
 62
    1
 10
1307.4315999999999
 20
870.71319999999992
 11
1337.6821
 21
840.46270000000004
  0
LINE
  8
_0-0_LAYER001
  6
CONTINUOUS
 62
    1
 10
1317.1848
 20
875.10210000000006
 11
1347.4353000000001
 21
844.85159999999996
  0
LINE
  8
_0-0_LAYER001
  6
CONTINUOUS
 62
    1
 10
1326.9380000000001
 20
879.49099999999999
 11
1357.1885
 21
849.24050000000011
  0
LINE
  8
_0-0_LAYER001
  6
CONTINUOUS
 62
    1
 10
1336.6912
 20
883.88000000000011
 11
1366.9417000000001
 21
853.62950000000001
  0
LINE
  8
_0-0_LAYER001
  6
CONTINUOUS
 62
    1
 10
1346.4444000000001
 20
888.26890000000003
 11
1376.6949
 21
858.01839999999993
  0
LINE
  8
_0-0_LAYER001
  6
CONTINUOUS
 62
    1
 10
1356.1976
 20
892.65789999999993
 11
1386.4481000000001
 21
862.40740000000005
  0
LINE
  8
_0-0_LAYER001
  6
CONTINUOUS
 62
    1
 10
1365.9508000000001
 20
897.04680000000008
 11
1396.2012
 21
866.79629999999997
  0
LINE
  8
_0-0_LAYER001
  6
CONTINUOUS
 62
    1
 10
1375.7039
 20
901.43579999999997
 11
1405.9544000000001
 21
871.1853000000001
  0
LINE
  8
_0-0_LAYER001
  6
CONTINUOUS
 62
    1
 10
1385.4571000000001
 20
905.82469999999989
 11
1415.7076000000002
 21
875.57420000000002
  0
LINE
  8
_0-0_LAYER001
  6
CONTINUOUS
 62
    1
 10
1395.2103
 20
910.21360000000004
 11
1425.4608000000003
 21
879.96319999999992
  0
LINE
  8
_0-0_LAYER001
  6
CONTINUOUS
 62
    1
 10
1404.9635000000001
 20
914.60259999999994
 11
1435.2139999999999
 21
884.35210000000006
  0
LINE
  8
_0-0_LAYER001
  6
CONTINUOUS
 62
    1
 10
1414.7166999999999
 20
918.99150000000009
 11
1444.9672
 21
888.74099999999999
  0
LINE
  8
_0-0_LAYER001
  6
CONTINUOUS
 62
    1
 10
1424.4699000000001
 20
923.38049999999998
 11
1454.7204000000002
 21
893.13000000000011
  0
LINE
  8
_0-0_LAYER001
  6
CONTINUOUS
 62
    1
 10
1434.2231000000002
 20
927.76939999999991
 11
1464.4735999999998
 21
897.51890000000003
  0
LINE
  8
_0-0_LAYER001
  6
CONTINUOUS
 62
    1
 10
1443.9762999999998
 20
932.15840000000003
 11
1474.2267999999999
 21
901.90789999999993
  0
LINE
  8
_0-0_LAYER001
  6
CONTINUOUS
 62
    1
 10
1453.7294999999999
 20
936.54729999999995
 11
1483.98
 21
906.29680000000008
  0
LINE
  8
_0-0_LAYER001
  6
CONTINUOUS
 62
    1
 10
1463.4827
 20
940.9362000000001
 11
1493.7332000000001
 21
910.68579999999997
  0
LINE
  8
_0-0_LAYER001
  6
CONTINUOUS
 62
    1
 10
1473.2359000000001
 20
945.3252
 11
1503.4863
 21
915.07469999999989
  0
LINE
  8
_0-0_LAYER001
  6
CONTINUOUS
 62
    1
 10
1482.9890999999998
 20
949.71409999999992
 11
1513.2395000000001
 21
919.46370000000002
  0
LINE
  8
_0-0_LAYER001
  6
CONTINUOUS
 62
    1
 10
1492.7422999999999
 20
954.10310000000004
 11
1522.9926999999998
 21
923.85259999999994
  0
LINE
  8
_0-0_LAYER001
  6
CONTINUOUS
 62
    1
 10
1502.4955
 20
958.49199999999996
 11
1532.7458999999999
 21
928.24150000000009
  0
LINE
  8
_0-0_LAYER001
  6
CONTINUOUS
 62
    1
 10
1512.2485999999999
 20
962.88100000000009
 11
1542.4991
 21
932.63049999999998
  0
LINE
  8
_0-0_LAYER001
  6
CONTINUOUS
 62
    1
 10
1522.0018
 20
967.26990000000001
 11
1552.2523000000001
 21
937.01939999999991
  0
LINE
  8
_0-0_LAYER001
  6
CONTINUOUS
 62
    1
 10
1531.7550000000001
 20
971.65879999999993
 11
1562.0055000000002
 21
941.40840000000003
  0
LINE
  8
_0-0_LAYER001
  6
CONTINUOUS
 62
    1
 10
1541.5082000000002
 20
976.04780000000005
 11
1571.7586999999999
 21
945.79729999999995
  0
LINE
  8
_0-0_LAYER001
  6
CONTINUOUS
 62
    1
 10
1551.2613999999999
 20
980.43669999999997
 11
1581.5119
 21
950.18630000000007
  0
LINE
  8
_0-0_LAYER001
  6
CONTINUOUS
 62
    1
 10
1561.0146
 20
984.8257000000001
 11
1591.2651000000001
 21
954.5752
  0
LINE
  8
_0-0_LAYER001
  6
CONTINUOUS
 62
    1
 10
1570.7678000000001
 20
989.21460000000002
 11
1601.0183000000002
 21
958.96419999999989
  0
LINE
  8
_0-0_LAYER001
  6
CONTINUOUS
 62
    1
 10
1580.5210000000002
 20
993.60349999999994
 11
1610.7714999999998
 21
963.35310000000004
  0
LINE
  8
_0-0_LAYER001
  6
CONTINUOUS
 62
    1
 10
1590.2741999999998
 20
997.99250000000006
 11
1620.5246000000002
 21
967.74199999999996
  0
LINE
  8
_0-0_LAYER001
  6
CONTINUOUS
 62
    1
 10
1600.0273999999999
 20
1002.3814
 11
1630.2777999999998
 21
972.13100000000009
  0
LINE
  8
_0-0_LAYER001
  6
CONTINUOUS
 62
    1
 10
1609.7806
 20
1006.7704000000001
 11
1640.0309999999999
 21
976.51990000000001
  0
LINE
  8
_0-0_LAYER001
  6
CONTINUOUS
 62
    1
 10
1619.5338000000002
 20
1011.1593
 11
1649.7842000000001
 21
980.9088999999999
  0
LINE
  8
_0-0_LAYER001
  6
CONTINUOUS
 62
    1
 10
1629.2869999999998
 20
1015.5482999999999
 11
1659.5374000000002
 21
985.29780000000005
  0
LINE
  8
_0-0_LAYER001
  6
CONTINUOUS
 62
    1
 10
1639.0401999999999
 20
1019.9372000000001
 11
1669.2905999999998
 21
989.68679999999995
  0
LINE
  8
_0-0_LAYER001
  6
CONTINUOUS
 62
    1
 10
1648.7934
 20
1024.3261
 11
1679.0437999999999
 21
994.0757000000001
  0
LINE
  8
_0-0_LAYER001
  6
CONTINUOUS
 62
    1
 10
1658.5464999999999
 20
1028.7150999999999
 11
1688.797
 21
998.46460000000002
  0
LINE
  8
_0-0_LAYER001
  6
CONTINUOUS
 62
    1
 10
1668.2997
 20
1033.104
 11
1698.5502000000001
 21
1002.8535999999999
  0
LINE
  8
_0-0_LAYER001
  6
CONTINUOUS
 62
    1
 10
1678.0529000000001
 20
1037.4929999999999
 11
1708.3033999999998
 21
1007.2425000000001
  0
LINE
  8
_0-0_LAYER001
  6
CONTINUOUS
 62
    1
 10
1687.8060999999998
 20
1041.8819000000001
 11
1718.0565999999999
 21
1011.6315
  0
LINE
  8
_0-0_LAYER001
  6
CONTINUOUS
 62
    1
 10
1697.5592999999999
 20
1046.2709
 11
1727.8098
 21
1016.0204000000001
  0
LINE
  8
_0-0_LAYER001
  6
CONTINUOUS
 62
    1
 10
1707.3125
 20
1050.6597999999999
 11
1737.5628999999999
 21
1020.4094
  0
LINE
  8
_0-0_LAYER001
  6
CONTINUOUS
 62
    1
 10
1717.0657000000001
 20
1055.0487000000001
 11
1747.3161
 21
1024.7982999999999
  0
LINE
  8
_0-0_LAYER001
  6
CONTINUOUS
 62
    1
 10
1726.8189000000002
 20
1059.4376999999999
 11
1757.0693000000001
 21
1029.1873000000001
  0
LINE
  8
_0-0_LAYER001
  6
CONTINUOUS
 62
    1
 10
1736.5720999999999
 20
1063.8266000000001
 11
1759.6860000000001
 21
1040.7127
  0
LINE
  8
_0-0_LAYER001
  6
CONTINUOUS
 62
    1
 10
1746.3253
 20
1068.2156
 11
1759.6860000000001
 21
1054.8549
  0
LINE
  8
_0-0_LAYER001
  6
CONTINUOUS
 62
    1
 10
1756.0785000000001
 20
1072.6044999999999
 11
1759.6860000000001
 21
1068.9970000000001
  0
LINE
  8
_0-0_LAYER001
  6
CONTINUOUS
 62
    2
 10
1976.4218000000001
 20
1074.2279000000001
 11
1923.9218000000001
 21
1074.2279000000001
  0
CIRCLE
  8
_0-0_LAYER001
  6
CONTINUOUS
 62
    2
 10
1973.9218000000001
 20
1074.2279000000001
 40
1.6999999999999997
  0
LINE
  8
_0-0_LAYER001
  6
CONTINUOUS
 62
    2
 10
1973.9218000000001
 20
1074.2279000000001
 11
1973.9218000000001
 21
1324.2279000000003
  0
CIRCLE
  8
_0-0_LAYER001
  6
CONTINUOUS
 62
    2
 10
1973.9218000000001
 20
1324.2279000000003
 40
1.6999999999999997
  0
LINE
  8
_0-0_LAYER001
  6
CONTINUOUS
 62
    2
 10
1976.4218000000001
 20
1324.2279000000003
 11
1923.9218000000001
 21
1324.2279000000003
  0
LINE
  8
_0-0_LAYER001
  6
CONTINUOUS
 62
    3
 10
1718.3471
 20
1179.2373
 11
1718.3798000000002
 21
1178.7727
  0
LINE
  8
_0-0_LAYER001
  6
CONTINUOUS
 62
    3
 10
1718.3798000000002
 20
1178.7727
 11
1718.4688000000001
 21
1177.5116
  0
LINE
  8
_0-0_LAYER001
  6
CONTINUOUS
 62
    3
 10
1718.4688000000001
 20
1177.5116
 11
1718.5998
 21
1175.6531
  0
LINE
  8
_0-0_LAYER001
  6
CONTINUOUS
 62
    3
 10
1718.5998
 20
1175.6531
 11
1718.759
 21
1173.3963000000001
  0
LINE
  8
_0-0_LAYER001
  6
CONTINUOUS
 62
    3
 10
1718.759
 20
1173.3963000000001
 11
1718.9322000000002
 21
1170.9404
  0
LINE
  8
_0-0_LAYER001
  6
CONTINUOUS
 62
    3
 10
1718.9322000000002
 20
1170.9404
 11
1719.1053999999999
 21
1168.4845
  0
LINE
  8
_0-0_LAYER001
  6
CONTINUOUS
 62
    3
 10
1719.1053999999999
 20
1168.4845
 11
1719.2645000000002
 21
1166.2277999999999
  0
LINE
  8
_0-0_LAYER001
  6
CONTINUOUS
 62
    3
 10
1719.2645000000002
 20
1166.2277999999999
 11
1719.3955999999998
 21
1164.3693000000001
  0
LINE
  8
_0-0_LAYER001
  6
CONTINUOUS
 62
    3
 10
1719.3955999999998
 20
1164.3693000000001
 11
1719.4845
 21
1163.1081999999999
  0
LINE
  8
_0-0_LAYER001
  6
CONTINUOUS
 62
    3
 10
1719.4845
 20
1163.1081999999999
 11
1719.5173
 21
1162.6434999999999
  0
LINE
  8
_0-0_LAYER001
  6
CONTINUOUS
 62
    3
 10
1719.5173
 20
1162.6434999999999
 11
1718.3712
 21
1162.5826999999999
  0
LINE
  8
_0-0_LAYER001
  6
CONTINUOUS
 62
    3
 10
1718.3712
 20
1162.5826999999999
 11
1715.0117
 21
1162.2499
  0
LINE
  8
_0-0_LAYER001
  6
CONTINUOUS
 62
    3
 10
1715.0117
 20
1162.2499
 11
1709.5565999999999
 21
1161.4202
  0
LINE
  8
_0-0_LAYER001
  6
CONTINUOUS
 62
    3
 10
1709.5565999999999
 20
1161.4202
 11
1702.1237999999998
 21
1159.8684000000001
  0
LINE
  8
_0-0_LAYER001
  6
CONTINUOUS
 62
    3
 10
1702.1237999999998
 20
1159.8684000000001
 11
1692.8312000000001
 21
1157.3692000000001
  0
LINE
  8
_0-0_LAYER001
  6
CONTINUOUS
 62
    3
 10
1692.8312000000001
 20
1157.3692000000001
 11
1681.7968000000001
 21
1153.6975
  0
LINE
  8
_0-0_LAYER001
  6
CONTINUOUS
 62
    3
 10
1681.7968000000001
 20
1153.6975
 11
1669.1383000000001
 21
1148.6283000000001
  0
LINE
  8
_0-0_LAYER001
  6
CONTINUOUS
 62
    3
 10
1669.1383000000001
 20
1148.6283000000001
 11
1654.9737
 21
1141.9362000000001
  0
LINE
  8
_0-0_LAYER001
  6
CONTINUOUS
 62
    3
 10
1654.9737
 20
1141.9362000000001
 11
1639.4209000000001
 21
1133.3961999999999
  0
LINE
  8
_0-0_LAYER001
  6
CONTINUOUS
 62
    3
 10
1639.4209000000001
 20
1133.3961999999999
 11
1622.5979000000002
 21
1122.7832000000001
  0
LINE
  8
_0-0_LAYER001
  6
CONTINUOUS
 62
    3
 10
1622.5979000000002
 20
1122.7832000000001
 11
1622.5445
 21
1123.5392999999999
  0
LINE
  8
_0-0_LAYER001
  6
CONTINUOUS
 62
    3
 10
1622.5445
 20
1123.5392999999999
 11
1622.3998000000001
 21
1125.5917999999999
  0
LINE
  8
_0-0_LAYER001
  6
CONTINUOUS
 62
    3
 10
1622.3998000000001
 20
1125.5917999999999
 11
1622.1864999999998
 21
1128.6164000000001
  0
LINE
  8
_0-0_LAYER001
  6
CONTINUOUS
 62
    3
 10
1622.1864999999998
 20
1128.6164000000001
 11
1621.9274999999998
 21
1132.2891999999999
  0
LINE
  8
_0-0_LAYER001
  6
CONTINUOUS
 62
    3
 10
1621.9274999999998
 20
1132.2891999999999
 11
1621.6455999999998
 21
1136.2861
  0
LINE
  8
_0-0_LAYER001
  6
CONTINUOUS
 62
    3
 10
1621.6455999999998
 20
1136.2861
 11
1621.3638000000001
 21
1140.2829999999999
  0
LINE
  8
_0-0_LAYER001
  6
CONTINUOUS
 62
    3
 10
1621.3638000000001
 20
1140.2829999999999
 11
1621.1048000000001
 21
1143.9558
  0
LINE
  8
_0-0_LAYER001
  6
CONTINUOUS
 62
    3
 10
1621.1048000000001
 20
1143.9558
 11
1620.8915000000002
 21
1146.9803999999999
  0
LINE
  8
_0-0_LAYER001
  6
CONTINUOUS
 62
    3
 10
1620.8915000000002
 20
1146.9803999999999
 11
1620.7467000000001
 21
1149.0328999999999
  0
LINE
  8
_0-0_LAYER001
  6
CONTINUOUS
 62
    3
 10
1620.7467000000001
 20
1149.0328999999999
 11
1620.6934000000001
 21
1149.789
  0
LINE
  8
_0-0_LAYER001
  6
CONTINUOUS
 62
    3
 10
1620.6934000000001
 20
1149.789
 11
1622.3150999999998
 21
1150.491
  0
LINE
  8
_0-0_LAYER001
  6
CONTINUOUS
 62
    3
 10
1622.3150999999998
 20
1150.491
 11
1626.8935000000001
 21
1152.4158
  0
LINE
  8
_0-0_LAYER001
  6
CONTINUOUS
 62
    3
 10
1626.8935000000001
 20
1152.4158
 11
1633.9985000000001
 21
1155.2917
  0
LINE
  8
_0-0_LAYER001
  6
CONTINUOUS
 62
    3
 10
1633.9985000000001
 20
1155.2917
 11
1643.1999000000001
 21
1158.8471
  0
LINE
  8
_0-0_LAYER001
  6
CONTINUOUS
 62
    3
 10
1643.1999000000001
 20
1158.8471
 11
1654.0677000000001
 21
1162.8104000000001
  0
LINE
  8
_0-0_LAYER001
  6
CONTINUOUS
 62
    3
 10
1654.0677000000001
 20
1162.8104000000001
 11
1666.1716000000001
 21
1166.9100000000001
  0
LINE
  8
_0-0_LAYER001
  6
CONTINUOUS
 62
    3
 10
1666.1716000000001
 20
1166.9100000000001
 11
1679.0817000000002
 21
1170.8741
  0
LINE
  8
_0-0_LAYER001
  6
CONTINUOUS
 62
    3
 10
1679.0817000000002
 20
1170.8741
 11
1692.3676999999998
 21
1174.4311
  0
LINE
  8
_0-0_LAYER001
  6
CONTINUOUS
 62
    3
 10
1692.3676999999998
 20
1174.4311
 11
1705.5994999999998
 21
1177.3094000000001
  0
LINE
  8
_0-0_LAYER001
  6
CONTINUOUS
 62
    3
 10
1718.3471
 20
1179.2373
 11
1705.4886000000001
 21
1177.2853
  0
LINE
  8
_0-0_LAYER001
  6
CONTINUOUS
 62
    3
 10
1728.7307999999998
 20
1205.7583
 11
1728.904
 21
1203.3024
  0
LINE
  8
_0-0_LAYER001
  6
CONTINUOUS
 62
    3
 10
1728.904
 20
1203.3024
 11
1729.0632000000001
 21
1201.0456999999999
  0
LINE
  8
_0-0_LAYER001
  6
CONTINUOUS
 62
    3
 10
1729.0632000000001
 20
1201.0456999999999
 11
1729.1941999999999
 21
1199.1872000000001
  0
LINE
  8
_0-0_LAYER001
  6
CONTINUOUS
 62
    3
 10
1728.1457
 20
1214.0552
 11
1728.1785
 21
1213.5906
  0
LINE
  8
_0-0_LAYER001
  6
CONTINUOUS
 62
    3
 10
1728.1785
 20
1213.5906
 11
1728.2674000000002
 21
1212.3294000000001
  0
LINE
  8
_0-0_LAYER001
  6
CONTINUOUS
 62
    3
 10
1728.2674000000002
 20
1212.3294000000001
 11
1728.3984999999998
 21
1210.4709
  0
LINE
  8
_0-0_LAYER001
  6
CONTINUOUS
 62
    3
 10
1728.3984999999998
 20
1210.4709
 11
1728.5576000000001
 21
1208.2141999999999
  0
LINE
  8
_0-0_LAYER001
  6
CONTINUOUS
 62
    3
 10
1728.5576000000001
 20
1208.2141999999999
 11
1728.7307999999998
 21
1205.7583
  0
LINE
  8
_0-0_LAYER001
  6
CONTINUOUS
 62
    3
 10
1688.8802999999998
 20
1205.692
 11
1702.1662999999999
 21
1209.249
  0
LINE
  8
_0-0_LAYER001
  6
CONTINUOUS
 62
    3
 10
1702.1662999999999
 20
1209.249
 11
1715.3982000000001
 21
1212.1273000000001
  0
LINE
  8
_0-0_LAYER001
  6
CONTINUOUS
 62
    3
 10
1728.1457
 20
1214.0552
 11
1715.2872000000002
 21
1212.1031
  0
LINE
  8
_0-0_LAYER001
  6
CONTINUOUS
 62
    2
 10
1748.3591000000001
 20
1222.3866
 11
1759.6860000000001
 21
1222.3866
  0
LINE
  8
_0-0_LAYER001
  6
CONTINUOUS
 62
    2
 10
1807.6860000000001
 20
1202.3866
 11
1802.6858999999999
 21
1205.3865000000001
  0
LINE
  8
_0-0_LAYER001
  6
CONTINUOUS
 62
    2
 10
1802.6858999999999
 20
1199.3866
 11
1807.6860000000001
 21
1202.3866
  0
LINE
  8
_0-0_LAYER001
  6
CONTINUOUS
 62
    2
 10
1801.6109999999999
 20
1199.3866
 11
1804.46
 21
1204.3226999999999
  0
LINE
  8
_0-0_LAYER001
  6
CONTINUOUS
 62
    2
 10
1735.6858999999999
 20
1199.3866
 11
1735.6858999999999
 21
1205.3865000000001
  0
LINE
  8
_0-0_LAYER001
  6
CONTINUOUS
 62
    2
 10
1729.6860000000001
 20
1196.3865000000001
 11
1729.6860000000001
 21
1208.3866
  0
LINE
  8
_0-0_LAYER001
  6
CONTINUOUS
 62
    2
 10
1738.5729000000001
 20
1199.3866
 11
1742.0360000000001
 21
1205.3865000000001
  0
LINE
  8
_0-0_LAYER001
  6
CONTINUOUS
 62
    2
 10
1729.6860000000001
 20
1196.3865000000001
 11
1735.6858999999999
 21
1199.3866
  0
LINE
  8
_0-0_LAYER001
  6
CONTINUOUS
 62
    2
 10
1735.6858999999999
 20
1205.3865000000001
 11
1729.6860000000001
 21
1208.3866
  0
LINE
  8
_0-0_LAYER001
  6
CONTINUOUS
 62
    2
 10
1802.6858999999999
 20
1205.3865000000001
 11
1792.6709000000001
 21
1205.3865000000001
  0
LINE
  8
_0-0_LAYER001
  6
CONTINUOUS
 62
    2
 10
1784.0189999999998
 20
1200.9137000000001
 11
1785.913
 21
1204.1946
  0
LINE
  8
_0-0_LAYER001
  6
CONTINUOUS
 62
    2
 10
1792.4029999999998
 20
1199.4356
 11
1795.8379
 21
1205.3865000000001
  0
LINE
  8
_0-0_LAYER001
  6
CONTINUOUS
 62
    2
 10
1802.6858999999999
 20
1199.3866
 11
1792.6790000000001
 21
1199.3866
  0
LINE
  8
_0-0_LAYER001
  6
CONTINUOUS
 62
    2
 10
1800.5349000000001
 20
1209.1096
 11
1800.9349999999999
 21
1206.8435999999999
  0
LINE
  8
_0-0_LAYER001
  6
CONTINUOUS
 62
    2
 10
1800.3620000000001
 20
1195.6967
 11
1800.7599
 21
1197.9616000000001
  0
LINE
  8
_0-0_LAYER001
  6
CONTINUOUS
 62
    2
 10
1795.9418000000001
 20
1208.0956000000001
 11
1797.616
 21
1208.3905999999999
  0
LINE
  8
_0-0_LAYER001
  6
CONTINUOUS
 62
    2
 10
1791.6089000000002
 20
1207.3316
 11
1793.2819
 21
1207.6266000000001
  0
LINE
  8
_0-0_LAYER001
  6
CONTINUOUS
 62
    2
 10
1787.2759000000001
 20
1206.5676000000001
 11
1788.9488999999999
 21
1206.8625999999999
  0
LINE
  8
_0-0_LAYER001
  6
CONTINUOUS
 62
    2
 10
1786.9798000000001
 20
1208.2407000000001
 11
1777.8859000000002
 21
1206.6377
  0
LINE
  8
_0-0_LAYER001
  6
CONTINUOUS
 62
    2
 10
1791.3128999999999
 20
1209.0046
 11
1788.6538999999998
 21
1208.5355999999999
  0
LINE
  8
_0-0_LAYER001
  6
CONTINUOUS
 62
    2
 10
1795.6459
 20
1209.7687000000001
 11
1792.9870000000001
 21
1209.2997
  0
LINE
  8
_0-0_LAYER001
  6
CONTINUOUS
 62
    2
 10
1798.7977999999998
 20
1210.3245999999999
 11
1797.3200000000002
 21
1210.0635
  0
LINE
  8
_0-0_LAYER001
  6
CONTINUOUS
 62
    2
 10
1797.616
 20
1208.3905999999999
 11
1797.3200000000002
 21
1210.0645999999999
  0
LINE
  8
_0-0_LAYER001
  6
CONTINUOUS
 62
    2
 10
1795.9418000000001
 20
1208.0956000000001
 11
1795.6459
 21
1209.7697000000001
  0
LINE
  8
_0-0_LAYER001
  6
CONTINUOUS
 62
    2
 10
1793.2829999999999
 20
1207.6266000000001
 11
1792.9870000000001
 21
1209.3007
  0
LINE
  8
_0-0_LAYER001
  6
CONTINUOUS
 62
    2
 10
1791.6089000000002
 20
1207.3316
 11
1791.3128999999999
 21
1209.0056
  0
LINE
  8
_0-0_LAYER001
  6
CONTINUOUS
 62
    2
 10
1788.9499999999998
 20
1206.8625999999999
 11
1788.6538999999998
 21
1208.5365999999999
  0
LINE
  8
_0-0_LAYER001
  6
CONTINUOUS
 62
    2
 10
1787.2759000000001
 20
1206.5676000000001
 11
1786.9798000000001
 21
1208.2416000000001
  0
LINE
  8
_0-0_LAYER001
  6
CONTINUOUS
 62
    2
 10
1795.7669999999998
 20
1196.7095999999999
 11
1797.4409999999998
 21
1196.4146000000001
  0
LINE
  8
_0-0_LAYER001
  6
CONTINUOUS
 62
    2
 10
1791.4340000000002
 20
1197.4736
 11
1793.1080000000002
 21
1197.1786
  0
LINE
  8
_0-0_LAYER001
  6
CONTINUOUS
 62
    2
 10
1787.1010000000001
 20
1198.2375999999999
 11
1788.7748999999999
 21
1197.9426000000001
  0
LINE
  8
_0-0_LAYER001
  6
CONTINUOUS
 62
    2
 10
1787.1019999999999
 20
1198.2375999999999
 11
1786.8058999999998
 21
1196.5646999999999
  0
LINE
  8
_0-0_LAYER001
  6
CONTINUOUS
 62
    2
 10
1788.7759000000001
 20
1197.9426000000001
 11
1788.4798000000001
 21
1196.2696000000001
  0
LINE
  8
_0-0_LAYER001
  6
CONTINUOUS
 62
    2
 10
1791.4349999999999
 20
1197.4736
 11
1791.1390000000001
 21
1195.8006
  0
LINE
  8
_0-0_LAYER001
  6
CONTINUOUS
 62
    2
 10
1793.1089999999999
 20
1197.1786
 11
1792.8128999999999
 21
1195.5056
  0
LINE
  8
_0-0_LAYER001
  6
CONTINUOUS
 62
    2
 10
1795.7678999999998
 20
1196.7095999999999
 11
1795.4720000000002
 21
1195.0365999999999
  0
LINE
  8
_0-0_LAYER001
  6
CONTINUOUS
 62
    2
 10
1797.442
 20
1196.4146000000001
 11
1797.1459
 21
1194.7417
  0
LINE
  8
_0-0_LAYER001
  6
CONTINUOUS
 62
    2
 10
1786.8058999999998
 20
1196.5646999999999
 11
1777.8859000000002
 21
1198.1366
  0
LINE
  8
_0-0_LAYER001
  6
CONTINUOUS
 62
    2
 10
1791.1390000000001
 20
1195.8006
 11
1788.4798000000001
 21
1196.2696000000001
  0
LINE
  8
_0-0_LAYER001
  6
CONTINUOUS
 62
    2
 10
1795.4720000000002
 20
1195.0365999999999
 11
1792.8128999999999
 21
1195.5056
  0
LINE
  8
_0-0_LAYER001
  6
CONTINUOUS
 62
    2
 10
1798.623
 20
1194.4806000000001
 11
1797.1459
 21
1194.7406000000001
  0
LINE
  8
_0-0_LAYER001
  6
CONTINUOUS
 62
    2
 10
1775.6619999999998
 20
1202.3877
 11
1800.9349999999999
 21
1206.8435999999999
  0
LINE
  8
_0-0_LAYER001
  6
CONTINUOUS
 62
    2
 10
1775.6619999999998
 20
1202.3877
 11
1800.7599
 21
1197.9616000000001
  0
LINE
  8
_0-0_LAYER001
  6
CONTINUOUS
 62
    2
 10
1759.6860000000001
 20
1206.6366
 11
1777.8859000000002
 21
1206.6366
  0
LINE
  8
_0-0_LAYER001
  6
CONTINUOUS
 62
    2
 10
1759.6860000000001
 20
1198.1366
 11
1777.8859000000002
 21
1198.1366
  0
LINE
  8
_0-0_LAYER001
  6
CONTINUOUS
 62
    2
 10
1759.6860000000001
 20
1198.1366
 11
1759.6860000000001
 21
1206.6366
  0
LINE
  8
_0-0_LAYER001
  6
CONTINUOUS
 62
    2
 10
1729.6860000000001
 20
1182.3866
 11
1759.6860000000001
 21
1182.3866
  0
LINE
  8
_0-0_LAYER001
  6
CONTINUOUS
 62
    2
 10
1759.6860000000001
 20
1205.3865000000001
 11
1735.6858999999999
 21
1205.3865000000001
  0
LINE
  8
_0-0_LAYER001
  6
CONTINUOUS
 62
    2
 10
1759.6860000000001
 20
1199.3866
 11
1735.6858999999999
 21
1199.3866
  0
LINE
  8
_0-0_LAYER001
  6
CONTINUOUS
 62
    2
 10
1744.2961
 20
1199.3866
 11
1747.7591000000002
 21
1205.3865000000001
  0
LINE
  8
_0-0_LAYER001
  6
CONTINUOUS
 62
    2
 10
1750.0192000000002
 20
1199.3866
 11
1753.4823000000001
 21
1205.3865000000001
  0
LINE
  8
_0-0_LAYER001
  6
CONTINUOUS
 62
    2
 10
1755.7422999999999
 20
1199.3866
 11
1759.2053999999998
 21
1205.3865000000001
  0
LINE
  8
_0-0_LAYER001
  6
CONTINUOUS
 62
    2
 10
1729.6860000000001
 20
1182.3866
 11
1729.6860000000001
 21
1218.9662000000001
  0
LINE
  8
_0-0_LAYER001
  6
CONTINUOUS
 62
    2
 10
1759.6860000000001
 20
1182.3866
 11
1731.9414999999999
 21
1219.3793000000001
  0
ARC
  8
_0-0_LAYER001
  6
CONTINUOUS
 62
    2
 10
1799.0500000000002
 20
1208.8425999999999
 40
1.5049999999999999
 50
10.451269999999999
 51
99.637527999999989
  0
ARC
  8
_0-0_LAYER001
  6
CONTINUOUS
 62
    2
 10
1798.8820000000001
 20
1195.9595999999999
 40
1.4969999999999999
 50
259.83899000000008
 51
350.14733000000001
  0
LINE
  8
_0-0_LAYER001
  6
CONTINUOUS
 62
    2
 10
1727.1959000000002
 20
1232.1813
 11
1735.2667000000001
 21
1235.9439
  0
LINE
  8
_0-0_LAYER001
  6
CONTINUOUS
 62
    2
 10
1741.6356999999998
 20
1207.3603000000001
 11
1747.0920000000001
 21
1200.2924
  0
LINE
  8
_0-0_LAYER001
  6
CONTINUOUS
 62
    2
 10
1733.5841999999998
 20
1233.3994
 11
1744.9949000000001
 21
1208.9265
  0
LINE
  8
_0-0_LAYER001
  6
CONTINUOUS
 62
    2
 10
1747.0920000000001
 20
1200.2924
 11
1744.9949000000001
 21
1208.9265
  0
LINE
  8
_0-0_LAYER001
  6
CONTINUOUS
 62
    2
 10
1730.2248
 20
1231.8344999999999
 11
1727.1959000000002
 21
1232.1813
  0
LINE
  8
_0-0_LAYER001
  6
CONTINUOUS
 62
    2
 10
1733.5841999999998
 20
1233.3994
 11
1735.2667000000001
 21
1235.9439
  0
LINE
  8
_0-0_LAYER001
  6
CONTINUOUS
 62
    2
 10
1730.2248
 20
1231.8344999999999
 11
1741.6356999999998
 21
1207.3603000000001
  0
LINE
  8
_0-0_LAYER001
  6
CONTINUOUS
 62
    2
 10
1643.1952000000001
 20
1222.2361000000001
 11
1639.0011
 21
1196.5988
  0
LINE
  8
_0-0_LAYER001
  6
CONTINUOUS
 62
    2
 10
1639.0011
 20
1196.5988
 11
1643.8948
 21
1202.1914999999999
  0
LINE
  8
_0-0_LAYER001
  6
CONTINUOUS
 62
    2
 10
1758.6100999999999
 20
1224.2643
 11
1755.9074000000001
 21
1239.0188000000001
  0
LINE
  8
_0-0_LAYER001
  6
CONTINUOUS
 62
    2
 10
1755.9074000000001
 20
1239.0188000000001
 11
1652.6257999999998
 21
1220.1004
  0
LINE
  8
_0-0_LAYER001
  6
CONTINUOUS
 62
    2
 10
1758.6100999999999
 20
1224.2643
 11
1655.3285000000001
 21
1205.3458000000001
  0
LINE
  8
_0-0_LAYER001
  6
CONTINUOUS
 62
    2
 10
1655.3285000000001
 20
1205.3458000000001
 11
1652.6257999999998
 21
1220.1004
  0
LINE
  8
_0-0_LAYER001
  6
CONTINUOUS
 62
    2
 10
1655.3285000000001
 20
1205.3458000000001
 11
1755.9074000000001
 21
1239.0188000000001
  0
LINE
  8
_0-0_LAYER001
  6
CONTINUOUS
 62
    2
 10
1734.6860000000001
 20
1238.9947999999999
 11
1643.1952000000001
 21
1222.2361000000001
  0
LINE
  8
_0-0_LAYER001
  6
CONTINUOUS
 62
    2
 10
1655.0931999999998
 20
1171.6547
 11
1654.0677000000001
 21
1162.8104000000001
  0
CIRCLE
  8
_0-3_LAYER005
  6
CONTINUOUS
 62
    2
 10
1676.0497
 20
1175.934
 40
1.018
  0
LINE
  8
_0-0_LAYER001
  6
CONTINUOUS
 62
    3
 10
1729.1941999999999
 20
1199.1872000000001
 11
1729.2831999999999
 21
1197.9259999999999
  0
LINE
  8
_0-0_LAYER001
  6
CONTINUOUS
 62
    3
 10
1729.2831999999999
 20
1197.9259999999999
 11
1729.3159000000001
 21
1197.4613999999999
  0
LINE
  8
_0-0_LAYER001
  6
CONTINUOUS
 62
    3
 10
1729.3159000000001
 20
1197.4613999999999
 11
1728.1698999999999
 21
1197.4005
  0
LINE
  8
_0-0_LAYER001
  6
CONTINUOUS
 62
    3
 10
1728.1698999999999
 20
1197.4005
 11
1724.8103999999998
 21
1197.0678
  0
LINE
  8
_0-0_LAYER001
  6
CONTINUOUS
 62
    3
 10
1724.8103999999998
 20
1197.0678
 11
1719.3553000000002
 21
1196.2381
  0
LINE
  8
_0-0_LAYER001
  6
CONTINUOUS
 62
    3
 10
1719.3553000000002
 20
1196.2381
 11
1711.9225000000001
 21
1194.6862000000001
  0
LINE
  8
_0-0_LAYER001
  6
CONTINUOUS
 62
    3
 10
1711.9225000000001
 20
1194.6862000000001
 11
1702.6298999999999
 21
1192.1871000000001
  0
LINE
  8
_0-0_LAYER001
  6
CONTINUOUS
 62
    3
 10
1702.6298999999999
 20
1192.1871000000001
 11
1691.5954000000002
 21
1188.5154
  0
LINE
  8
_0-0_LAYER001
  6
CONTINUOUS
 62
    3
 10
1691.5954000000002
 20
1188.5154
 11
1678.9369000000002
 21
1183.4462000000001
  0
LINE
  8
_0-0_LAYER001
  6
CONTINUOUS
 62
    3
 10
1678.9369000000002
 20
1183.4462000000001
 11
1664.7723999999998
 21
1176.7541000000001
  0
LINE
  8
_0-0_LAYER001
  6
CONTINUOUS
 62
    3
 10
1664.7723999999998
 20
1176.7541000000001
 11
1649.2195999999999
 21
1168.2140999999999
  0
LINE
  8
_0-0_LAYER001
  6
CONTINUOUS
 62
    3
 10
1649.2195999999999
 20
1168.2140999999999
 11
1632.3964999999998
 21
1157.6011000000001
  0
LINE
  8
_0-0_LAYER001
  6
CONTINUOUS
 62
    3
 10
1632.3964999999998
 20
1157.6011000000001
 11
1632.3431999999998
 21
1158.3571999999999
  0
LINE
  8
_0-0_LAYER001
  6
CONTINUOUS
 62
    3
 10
1632.3431999999998
 20
1158.3571999999999
 11
1632.1984000000002
 21
1160.4096999999999
  0
LINE
  8
_0-0_LAYER001
  6
CONTINUOUS
 62
    3
 10
1632.1984000000002
 20
1160.4096999999999
 11
1631.9850999999999
 21
1163.4342999999999
  0
LINE
  8
_0-0_LAYER001
  6
CONTINUOUS
 62
    3
 10
1631.9850999999999
 20
1163.4342999999999
 11
1631.7260999999999
 21
1167.1070999999999
  0
LINE
  8
_0-0_LAYER001
  6
CONTINUOUS
 62
    3
 10
1631.7260999999999
 20
1167.1070999999999
 11
1631.4443000000001
 21
1171.104
  0
LINE
  8
_0-0_LAYER001
  6
CONTINUOUS
 62
    3
 10
1631.4443000000001
 20
1171.104
 11
1631.1624000000002
 21
1175.1008999999999
  0
LINE
  8
_0-0_LAYER001
  6
CONTINUOUS
 62
    3
 10
1631.1624000000002
 20
1175.1008999999999
 11
1630.9034000000001
 21
1178.7737
  0
LINE
  8
_0-0_LAYER001
  6
CONTINUOUS
 62
    3
 10
1630.9034000000001
 20
1178.7737
 11
1630.6900999999998
 21
1181.7982999999999
  0
LINE
  8
_0-0_LAYER001
  6
CONTINUOUS
 62
    3
 10
1630.6900999999998
 20
1181.7982999999999
 11
1630.5454
 21
1183.8507999999999
  0
LINE
  8
_0-0_LAYER001
  6
CONTINUOUS
 62
    3
 10
1630.5454
 20
1183.8507999999999
 11
1630.4920000000002
 21
1184.6069
  0
LINE
  8
_0-0_LAYER001
  6
CONTINUOUS
 62
    3
 10
1630.4920000000002
 20
1184.6069
 11
1632.1136999999999
 21
1185.3089
  0
LINE
  8
_0-0_LAYER001
  6
CONTINUOUS
 62
    3
 10
1632.1136999999999
 20
1185.3089
 11
1636.6922
 21
1187.2337
  0
LINE
  8
_0-0_LAYER001
  6
CONTINUOUS
 62
    3
 10
1636.6922
 20
1187.2337
 11
1643.7970999999998
 21
1190.1096
  0
LINE
  8
_0-0_LAYER001
  6
CONTINUOUS
 62
    3
 10
1643.7970999999998
 20
1190.1096
 11
1652.9985999999999
 21
1193.665
  0
LINE
  8
_0-0_LAYER001
  6
CONTINUOUS
 62
    3
 10
1652.9985999999999
 20
1193.665
 11
1663.8663000000001
 21
1197.6283000000001
  0
LINE
  8
_0-0_LAYER001
  6
CONTINUOUS
 62
    3
 10
1663.8663000000001
 20
1197.6283000000001
 11
1675.9703
 21
1201.7279000000001
  0
LINE
  8
_0-0_LAYER001
  6
CONTINUOUS
 62
    3
 10
1675.9703
 20
1201.7279000000001
 11
1688.8802999999998
 21
1205.692
  0
LINE
  8
_0-0_LAYER001
  6
CONTINUOUS
 62
    2
 10
1750.1689999999999
 20
1358.0308
 11
1750.1689999999999
 21
1338.9947999999999
  0
LINE
  8
_0-0_LAYER001
  6
CONTINUOUS
 62
    2
 10
1755.6309999999999
 20
1358.0308
 11
1750.1689999999999
 21
1338.9947999999999
  0
LINE
  8
_0-0_LAYER001
  6
CONTINUOUS
 62
    2
 10
1755.6309999999999
 20
1338.9947999999999
 11
1750.1689999999999
 21
1358.0308
  0
ARC
  8
_0-0_LAYER001
  6
CONTINUOUS
 62
    2
 10
1717.8669
 20
1347.6274000000001
 40
20.694040000000001
 50
335.49168000000003
 51
29.733201000000058
  0
LINE
  8
_0-0_LAYER001
  6
CONTINUOUS
 62
    2
 10
1842.4443000000001
 20
1238.9947999999999
 11
1824.9443000000001
 21
1238.9947999999999
  0
CIRCLE
  8
_0-0_LAYER001
  6
CONTINUOUS
 62
    2
 10
1839.9443000000001
 20
1238.9947999999999
 40
1.6999999999999997
  0
LINE
  8
_0-0_LAYER001
  6
CONTINUOUS
 62
    2
 10
1839.9443000000001
 20
1238.9947999999999
 11
1839.9443000000001
 21
1338.9947999999999
  0
CIRCLE
  8
_0-0_LAYER001
  6
CONTINUOUS
 62
    2
 10
1839.9443000000001
 20
1338.9947999999999
 40
1.6999999999999997
  0
LINE
  8
_0-0_LAYER001
  6
CONTINUOUS
 62
    2
 10
1842.4443000000001
 20
1338.9947999999999
 11
1824.9443000000001
 21
1338.9947999999999
  0
CIRCLE
  8
_0-0_LAYER001
  6
CONTINUOUS
 62
    2
 10
1839.9443000000001
 20
1338.9947999999999
 40
1.6999999999999997
  0
LINE
  8
_0-0_LAYER001
  6
CONTINUOUS
 62
    2
 10
1839.9443000000001
 20
1338.9947999999999
 11
1839.9443000000001
 21
1358.9947999999999
  0
CIRCLE
  8
_0-0_LAYER001
  6
CONTINUOUS
 62
    2
 10
1839.9443000000001
 20
1358.9947999999999
 40
1.6999999999999997
  0
LINE
  8
_0-0_LAYER001
  6
CONTINUOUS
 62
    2
 10
1842.4443000000001
 20
1358.9947999999999
 11
1824.9443000000001
 21
1358.9947999999999
  0
LINE
  8
_0-0_LAYER001
  6
CONTINUOUS
 62
    2
 10
1641.5529999999999
 20
1418.7458999999999
 11
1641.5529999999999
 21
1375.0518
  0
CIRCLE
  8
_0-0_LAYER001
  6
CONTINUOUS
 62
    2
 10
1641.5529999999999
 20
1416.2458999999999
 40
1.6999999999999997
  0
LINE
  8
_0-0_LAYER001
  6
CONTINUOUS
 62
    2
 10
1641.5529999999999
 20
1416.2458999999999
 11
1734.6860000000001
 21
1416.2458999999999
  0
CIRCLE
  8
_0-0_LAYER001
  6
CONTINUOUS
 62
    2
 10
1734.6860000000001
 20
1416.2458999999999
 40
1.6999999999999997
  0
LINE
  8
_0-0_LAYER001
  6
CONTINUOUS
 62
    2
 10
1693.1605
 20
1240.5764999999999
 11
1695.1016
 21
1233.3320000000001
  0
LINE
  8
_0-0_LAYER001
  6
CONTINUOUS
 62
    2
 10
1695.1016
 20
1233.3320000000001
 11
1689.7982999999999
 21
1238.6352999999999
  0
LINE
  8
_0-0_LAYER001
  6
CONTINUOUS
 62
    2
 10
1695.1016
 20
1233.3320000000001
 11
1604.7973000000002
 21
1389.7435999999998
  0
LINE
  8
_0-0_LAYER001
  6
CONTINUOUS
 62
    2
 10
1604.7973000000002
 20
1389.7435999999998
 11
1370.7972999999997
 21
1389.7435999999998
  0
LINE
  8
_0-0_LAYER001
  6
CONTINUOUS
 62
    2
 10
1634.7712999999999
 20
1184.105
 11
1636.7123999999999
 21
1176.8606
  0
LINE
  8
_0-0_LAYER001
  6
CONTINUOUS
 62
    2
 10
1636.7123999999999
 20
1176.8606
 11
1631.4090999999999
 21
1182.1639
  0
LINE
  8
_0-0_LAYER001
  6
CONTINUOUS
 62
    2
 10
1636.7123999999999
 20
1176.8606
 11
1558.9879000000001
 21
1311.4834000000001
  0
LINE
  8
_0-0_LAYER001
  6
CONTINUOUS
 62
    2
 10
1558.9879000000001
 20
1311.4834000000001
 11
1444.9879000000001
 21
1311.4834000000001
  0
LINE
  8
_0-0_LAYER001
  6
CONTINUOUS
 62
    2
 10
972.97990000000004
 20
973.88979999999992
 11
1187.9078999999999
 21
1052.3742999999999
  0
CIRCLE
  8
_0-0_LAYER001
  6
CONTINUOUS
 62
    2
 10
1187.9078999999999
 20
1052.3742999999999
 40
1.6999999999999997
  0
LINE
  8
_0-0_LAYER001
  6
CONTINUOUS
 62
    2
 10
1187.0503000000001
 20
1054.7226000000001
 11
1205.0585000000001
 21
1005.4078
  0
LINE
  8
_0-0_LAYER001
  6
CONTINUOUS
 62
    2
 10
1173.3299
 20
1092.2959000000001
 11
1191.338
 21
1042.981
  0
CIRCLE
  8
_0-0_LAYER001
  6
CONTINUOUS
 62
    2
 10
1174.1874
 20
1089.9475
 40
1.6999999999999997
  0
LINE
  8
_0-0_LAYER001
  6
CONTINUOUS
 62
    2
 10
1174.1874
 20
1089.9475
 11
1394.9301
 21
1170.5554
  0
CIRCLE
  8
_0-0_LAYER001
  6
CONTINUOUS
 62
    2
 10
1394.9301
 20
1170.5554
 40
1.6999999999999997
  0
LINE
  8
_0-0_LAYER001
  6
CONTINUOUS
 62
    2
 10
1394.0726
 20
1172.9038
 11
1412.0808
 21
1123.5889
  0
LINE
  8
_0-0_LAYER001
  6
CONTINUOUS
 62
    2
 10
1666.8481000000002
 20
1315.0958000000001
 11
1684.8562000000002
 21
1265.7809
  0
CIRCLE
  8
_0-0_LAYER001
  6
CONTINUOUS
 62
    2
 10
1667.7055999999998
 20
1312.7474000000002
 40
1.6999999999999997
  0
LINE
  8
_0-0_LAYER001
  6
CONTINUOUS
 62
    2
 10
1667.7055999999998
 20
1312.7474000000002
 11
1381.2096999999999
 21
1208.1287
  0
CIRCLE
  8
_0-0_LAYER001
  6
CONTINUOUS
 62
    2
 10
1381.2096999999999
 20
1208.1287
 40
1.6999999999999997
  0
LINE
  8
_0-0_LAYER001
  6
CONTINUOUS
 62
    2
 10
1380.3521000000001
 20
1210.4770000000001
 11
1398.3602999999998
 21
1161.1621
  0
LINE
  8
_0-0_LAYER001
  6
CONTINUOUS
 62
    2
 10
1718.5511999999999
 20
1062.5941
 11
1745.9081999999999
 21
1074.9065000000001
  0
LINE
  8
_0-0_LAYER001
  6
CONTINUOUS
 62
    2
 10
1745.9081999999999
 20
1074.9065000000001
 11
1739.7521000000002
 21
1088.585
  0
LINE
  8
_0-0_LAYER001
  6
CONTINUOUS
 62
    2
 10
1739.7521000000002
 20
1088.585
 11
1712.3951000000002
 21
1076.2726
  0
LINE
  8
_0-0_LAYER001
  6
CONTINUOUS
 62
    2
 10
1712.3951000000002
 20
1076.2726
 11
1718.5511999999999
 21
1062.5941
  0
LINE
  8
_0-0_LAYER001
  6
CONTINUOUS
 62
    2
 10
1739.7521000000002
 20
1088.585
 11
1718.5511999999999
 21
1062.5941
  0
LINE
  8
_0-0_LAYER001
  6
CONTINUOUS
 62
    4
 10
1752.5320000000002
 20
1080.4521999999999
 11
1742.1867999999999
 21
1108.7825
  0
LINE
  8
_0-0_LAYER001
  6
CONTINUOUS
 62
    4
 10
1752.5320000000002
 20
1080.4521999999999
 11
1745.4376000000002
 21
1077.8784000000001
  0
LINE
  8
_0-0_LAYER001
  6
CONTINUOUS
 62
    4
 10
1741.1813000000002
 20
1089.6101000000001
 11
1745.4376000000002
 21
1077.8784000000001
  0
LINE
  8
_0-0_LAYER001
  6
CONTINUOUS
 62
    4
 10
1742.1867999999999
 20
1108.7825
 11
1722.4967999999999
 21
1155.6618000000001
  0
LINE
  8
_0-0_LAYER001
  6
CONTINUOUS
 62
    2
 10
1072.9260999999999
 20
772.02199999999993
 11
1100.2831000000001
 21
784.33429999999998
  0
LINE
  8
_0-0_LAYER001
  6
CONTINUOUS
 62
    2
 10
1100.2831000000001
 20
784.33429999999998
 11
1094.1269
 21
798.01279999999997
  0
LINE
  8
_0-0_LAYER001
  6
CONTINUOUS
 62
    2
 10
1094.1269
 20
798.01279999999997
 11
1066.7699
 21
785.70049999999992
  0
LINE
  8
_0-0_LAYER001
  6
CONTINUOUS
 62
    2
 10
1066.7699
 20
785.70049999999992
 11
1072.9260999999999
 21
772.02199999999993
  0
LINE
  8
_0-0_LAYER001
  6
CONTINUOUS
 62
    2
 10
1094.1269
 20
798.01279999999997
 11
1072.9260999999999
 21
772.02199999999993
  0
LINE
  8
_0-0_LAYER001
  6
CONTINUOUS
 62
    4
 10
1107.9924000000001
 20
790.18859999999995
 11
1097.6470999999999
 21
818.51890000000003
  0
LINE
  8
_0-0_LAYER001
  6
CONTINUOUS
 62
    2
 10
1288.1344999999999
 20
868.87930000000006
 11
1315.4915000000001
 21
881.19170000000008
  0
LINE
  8
_0-0_LAYER001
  6
CONTINUOUS
 62
    2
 10
1315.4915000000001
 20
881.19170000000008
 11
1309.3353
 21
894.87020000000007
  0
LINE
  8
_0-0_LAYER001
  6
CONTINUOUS
 62
    2
 10
1309.3353
 20
894.87020000000007
 11
1281.9783000000002
 21
882.55780000000004
  0
LINE
  8
_0-0_LAYER001
  6
CONTINUOUS
 62
    2
 10
1281.9783000000002
 20
882.55780000000004
 11
1288.1344999999999
 21
868.87930000000006
  0
LINE
  8
_0-0_LAYER001
  6
CONTINUOUS
 62
    2
 10
1309.3353
 20
894.87020000000007
 11
1288.1344999999999
 21
868.87930000000006
  0
LINE
  8
_0-0_LAYER001
  6
CONTINUOUS
 62
    4
 10
1322.8389999999999
 20
886.94309999999996
 11
1312.4937
 21
915.27340000000004
  0
LINE
  8
_0-0_LAYER001
  6
CONTINUOUS
 62
    2
 10
1503.3429000000001
 20
965.73669999999993
 11
1530.6999000000001
 21
978.04909999999995
  0
LINE
  8
_0-0_LAYER001
  6
CONTINUOUS
 62
    2
 10
1530.6999000000001
 20
978.04909999999995
 11
1524.5437000000002
 21
991.72759999999994
  0
LINE
  8
_0-0_LAYER001
  6
CONTINUOUS
 62
    2
 10
1524.5437000000002
 20
991.72759999999994
 11
1497.1867000000002
 21
979.41519999999991
  0
LINE
  8
_0-0_LAYER001
  6
CONTINUOUS
 62
    2
 10
1497.1867000000002
 20
979.41519999999991
 11
1503.3429000000001
 21
965.73669999999993
  0
LINE
  8
_0-0_LAYER001
  6
CONTINUOUS
 62
    2
 10
1524.5437000000002
 20
991.72759999999994
 11
1503.3429000000001
 21
965.73669999999993
  0
LINE
  8
_0-0_LAYER001
  6
CONTINUOUS
 62
    4
 10
1537.6855
 20
983.69769999999994
 11
1527.3402000000001
 21
1012.028
  0
LINE
  8
_0-0_LAYER001
  6
CONTINUOUS
 62
    4
 10
1537.6855
 20
983.69769999999994
 11
1530.2384000000002
 21
980.99579999999992
  0
LINE
  8
_0-0_LAYER001
  6
CONTINUOUS
 62
    4
 10
1525.9821000000002
 20
992.72759999999994
 11
1530.2384000000002
 21
980.99579999999992
  0
LINE
  8
_0-0_LAYER001
  6
CONTINUOUS
 62
    4
 10
1322.8389999999999
 20
886.94309999999996
 11
1315.0391
 21
884.11329999999998
  0
LINE
  8
_0-0_LAYER001
  6
CONTINUOUS
 62
    4
 10
1310.7828
 20
895.8451
 11
1315.0391
 21
884.11329999999998
  0
LINE
  8
_0-0_LAYER001
  6
CONTINUOUS
 62
    4
 10
1107.9924000000001
 20
790.18859999999995
 11
1099.8398999999999
 21
787.23080000000004
  0
LINE
  8
_0-0_LAYER001
  6
CONTINUOUS
 62
    4
 10
1095.5835
 20
798.96260000000007
 11
1099.8398999999999
 21
787.23080000000004
  0
LINE
  8
_0-0_LAYER001
  6
CONTINUOUS
 62
    4
 10
1250.4623999999999
 20
911.57590000000005
 11
1741.1813000000002
 21
1089.6101000000001
  0
LINE
  8
_0-0_LAYER001
  6
CONTINUOUS
 62
    4
 10
1233.1424999999999
 20
959.31500000000005
 11
1444.1174000000001
 21
1035.8572999999999
  0
LINE
  8
_0-0_LAYER001
  6
CONTINUOUS
 62
    4
 10
1441.7341999999999
 20
1042.7370000000001
 11
1461.5369000000001
 21
988.15429999999992
  0
ARC
  8
_0-0_LAYER001
  6
CONTINUOUS
 62
    4
 10
1451.5106999999998
 20
1046.2838999999999
 40
10.4
 50
109.94091000000002
 51
199.94091
  0
ARC
  8
_0-0_LAYER001
  6
CONTINUOUS
 62
    4
 10
1253.9839999999999
 20
901.79019999999991
 40
10.4
 50
109.94091000000002
 51
199.94091
  0
ARC
  8
_0-0_LAYER001
  6
CONTINUOUS
 62
    4
 10
1468.8305999999998
 20
998.5447999999999
 40
10.4
 50
109.94091000000002
 51
199.94091
  0
LINE
  8
_0-0_LAYER001
  6
CONTINUOUS
 62
    4
 10
1464.4031
 20
1008.0018
 11
1742.1867999999999
 21
1108.7825
  0
LINE
  8
_0-0_LAYER001
  6
CONTINUOUS
 62
    4
 10
1441.7341999999999
 20
1042.7370000000001
 11
1455.5072
 21
1004.7743
  0
LINE
  8
_0-0_LAYER001
  6
CONTINUOUS
 62
    4
 10
1097.6470999999999
 20
818.51890000000003
 11
1310.7828
 21
895.8451
  0
LINE
  8
_0-0_LAYER001
  6
CONTINUOUS
 62
    4
 10
1061.356
 20
786.54469999999992
 11
1095.5835
 21
798.96260000000007
  0
LINE
  8
_0-0_LAYER001
  6
CONTINUOUS
 62
    4
 10
1054.0804000000001
 20
802.71270000000004
 11
1097.6470999999999
 21
818.51890000000003
  0
LINE
  8
_0-0_LAYER001
  6
CONTINUOUS
 62
    4
 10
1025.9064000000001
 20
865.32159999999999
 11
1229.2709
 21
939.10279999999989
  0
LINE
  8
_0-0_LAYER001
  6
CONTINUOUS
 62
    4
 10
1232.9174
 20
929.36249999999995
 11
1246.6904
 21
891.39979999999991
  0
LINE
  8
_0-0_LAYER001
  6
CONTINUOUS
 62
    4
 10
1046.8047999999999
 20
818.88069999999993
 11
1525.9821000000002
 21
992.72759999999994
  0
LINE
  8
_0-0_LAYER001
  6
CONTINUOUS
 62
    4
 10
1447.0832
 20
1055.741
 11
1722.4967999999999
 21
1155.6618000000001
  0
LINE
  8
_0-0_LAYER001
  6
CONTINUOUS
 62
    4
 10
1226.8877
 20
945.98250000000007
 11
1246.6904
 21
891.39979999999991
  0
ARC
  8
_0-0_LAYER001
  6
CONTINUOUS
 62
    4
 10
1236.6641
 20
949.5293999999999
 40
10.4
 50
109.94091000000002
 51
199.94091
  0
LINE
  8
_0-0_LAYER001
  6
CONTINUOUS
 62
    2
 10
1365.4760000000001
 20
950.93260000000009
 11
1367.4172000000001
 21
943.68820000000005
  0
LINE
  8
_0-0_LAYER001
  6
CONTINUOUS
 62
    2
 10
1367.4172000000001
 20
943.68820000000005
 11
1362.1138999999998
 21
948.99150000000009
  0
LINE
  8
_0-0_LAYER001
  6
CONTINUOUS
 62
    2
 10
1367.4172000000001
 20
943.68820000000005
 11
1302.6760999999999
 21
1055.8230000000001
  0
LINE
  8
_0-0_LAYER001
  6
CONTINUOUS
 62
    2
 10
1302.6760999999999
 20
1055.8230000000001
 11
1262.1760999999999
 21
1055.8230000000001
  0
LINE
  8
_0-0_LAYER001
  6
CONTINUOUS
 62
    2
 10
1203.1595
 20
555.75232000000005
 11
1181.6128000000001
 21
603.62699999999995
  0
CIRCLE
  8
_0-0_LAYER001
  6
CONTINUOUS
 62
    2
 10
1202.1333999999999
 20
558.03206999999998
 40
1.6999999999999997
  0
LINE
  8
_0-0_LAYER001
  6
CONTINUOUS
 62
    2
 10
1202.1333999999999
 20
558.03206999999998
 11
1417.3417999999997
 21
654.88940000000002
  0
CIRCLE
  8
_0-0_LAYER001
  6
CONTINUOUS
 62
    2
 10
1417.3417999999997
 20
654.88940000000002
 40
1.6999999999999997
  0
LINE
  8
_0-0_LAYER001
  6
CONTINUOUS
 62
    2
 10
1418.3679000000002
 20
652.60969999999998
 11
1396.8211999999999
 21
700.48440000000005
  0
CIRCLE
  8
_0-0_LAYER001
  6
CONTINUOUS
 62
    2
 10
1417.3417999999997
 20
654.88940000000002
 40
1.6999999999999997
  0
LINE
  8
_0-0_LAYER001
  6
CONTINUOUS
 62
    2
 10
1417.3417999999997
 20
654.88940000000002
 11
1632.5502000000001
 21
751.74679999999989
  0
CIRCLE
  8
_0-0_LAYER001
  6
CONTINUOUS
 62
    2
 10
1632.5502000000001
 20
751.74679999999989
 40
1.6999999999999997
  0
LINE
  8
_0-0_LAYER001
  6
CONTINUOUS
 62
    2
 10
1633.5762
 20
749.4670000000001
 11
1612.0295999999998
 21
797.34179999999992
  0
CIRCLE
  8
_0-0_LAYER001
  6
CONTINUOUS
 62
    2
 10
1632.5502000000001
 20
751.74679999999989
 40
1.6999999999999997
  0
LINE
  8
_0-0_LAYER001
  6
CONTINUOUS
 62
    2
 10
1632.5502000000001
 20
751.74679999999989
 11
1847.7586000000001
 21
848.60419999999999
  0
CIRCLE
  8
_0-0_LAYER001
  6
CONTINUOUS
 62
    2
 10
1847.7586000000001
 20
848.60419999999999
 40
1.6999999999999997
  0
LINE
  8
_0-0_LAYER001
  6
CONTINUOUS
 62
    2
 10
1848.7846
 20
846.32439999999997
 11
1827.2379999999998
 21
894.19920000000002
  0
CIRCLE
  8
_0-2_LAYER004
  6
CONTINUOUS
 62
    3
 10
1740.6363000000001
 20
1039.0746999999999
 40
1.3049219999999999
  0
LINE
  8
_0-2_LAYER004
  6
CONTINUOUS
 62
    3
 10
1082.3887
 20
741.64640000000009
 11
1745.877
 21
1040.2165
  0
CIRCLE
  8
_0-2_LAYER004
  6
CONTINUOUS
 62
    3
 10
1193.4835
 20
792.85560000000009
 40
1.3049219999999999
  0
CIRCLE
  8
_0-2_LAYER004
  6
CONTINUOUS
 62
    3
 10
1330.2717000000002
 20
854.41039999999998
 40
1.3049219999999999
  0
CIRCLE
  8
_0-2_LAYER004
  6
CONTINUOUS
 62
    3
 10
1467.0599000000002
 20
915.96509999999989
 40
1.3049219999999999
  0
CIRCLE
  8
_0-2_LAYER004
  6
CONTINUOUS
 62
    3
 10
1603.8481000000002
 20
977.51990000000001
 40
1.3049219999999999
  0
LINE
  8
_0-2_LAYER004
  6
DASHED1
 62
    2
 10
1474.3569000000002
 20
839.28140000000008
 11
1470.3339000000001
 21
848.43650000000002
  0
LINE
  8
_0-2_LAYER004
  6
DASHED1
 62
    2
 10
1425.2456000000002
 20
901.40069999999992
 11
1452.0502000000001
 21
840.40210000000002
  0
LINE
  8
_0-2_LAYER004
  6
DASHED1
 62
    2
 10
1416.0905
 20
897.3777
 11
1446.9182000000001
 21
827.22399999999993
  0
LINE
  8
_0-2_LAYER004
  6
DASHED1
 62
    2
 10
1452.0502000000001
 20
840.40210000000002
 11
1470.3339000000001
 21
848.43650000000002
  0
LINE
  8
_0-2_LAYER004
  6
DASHED1
 62
    2
 10
1446.9182000000001
 20
827.22399999999993
 11
1474.3569000000002
 21
839.28140000000008
  0
LINE
  8
_0-2_LAYER004
  6
DASHED1
 62
    2
 10
1425.2456000000002
 20
901.40069999999992
 11
1416.0905
 21
897.3777
  0
LINE
  8
_0-2_LAYER004
  6
CONTINUOUS
 62
    2
 10
1438.4407000000001
 20
840.59210000000007
 11
1443.7440000000001
 21
845.89540000000011
  0
LINE
  8
_0-2_LAYER004
  6
CONTINUOUS
 62
    2
 10
1443.7440000000001
 20
845.89540000000011
 11
1441.8029000000001
 21
838.65100000000007
  0
LINE
  8
_0-2_LAYER004
  6
CONTINUOUS
 62
    2
 10
1443.7440000000001
 20
845.89540000000011
 11
1422.2058999999999
 21
808.59040000000005
  0
LINE
  8
_0-2_LAYER004
  6
CONTINUOUS
 62
    2
 10
1422.2058999999999
 20
808.59040000000005
 11
1362.2058999999999
 21
808.59040000000005
  0
LINE
  8
_0-2_LAYER004
  6
CONTINUOUS
 62
    2
 10
1510.7489999999998
 20
926.29089999999997
 11
1508.8078999999998
 21
933.53530000000001
  0
LINE
  8
_0-2_LAYER004
  6
CONTINUOUS
 62
    2
 10
1508.8078999999998
 20
933.53530000000001
 11
1514.1111999999998
 21
928.23199999999997
  0
LINE
  8
_0-2_LAYER004
  6
CONTINUOUS
 62
    2
 10
1508.8078999999998
 20
933.53530000000001
 11
1535.6907000000001
 21
886.97280000000001
  0
LINE
  8
_0-2_LAYER004
  6
CONTINUOUS
 62
    2
 10
1535.6907000000001
 20
886.97280000000001
 11
1595.6907000000001
 21
886.97280000000001
  0
LINE
  8
_0-0_LAYER001
  6
CONTINUOUS
 62
    2
 10
1742.8380000000002
 20
1357.2415000000001
 11
1744.7791000000002
 21
1349.9971
  0
LINE
  8
_0-0_LAYER001
  6
CONTINUOUS
 62
    2
 10
1744.7791000000002
 20
1349.9971
 11
1739.4758000000002
 21
1355.3004000000001
  0
LINE
  8
_0-0_LAYER001
  6
CONTINUOUS
 62
    2
 10
1744.7791000000002
 20
1349.9971
 11
1681.9567000000002
 21
1458.8086000000001
  0
LINE
  8
_0-0_LAYER001
  6
CONTINUOUS
 62
    2
 10
1681.9567000000002
 20
1458.8086000000001
 11
1600.9567000000002
 21
1458.8086000000001
  0
LINE
  8
_0-0_LAYER001
  6
CONTINUOUS
 62
    2
 10
1661.7073
 20
1220.9716000000001
 11
1663.6484
 21
1213.7271000000001
  0
LINE
  8
_0-0_LAYER001
  6
CONTINUOUS
 62
    2
 10
1663.6484
 20
1213.7271000000001
 11
1658.3451
 21
1219.0304000000001
  0
LINE
  8
_0-0_LAYER001
  6
CONTINUOUS
 62
    2
 10
1663.6484
 20
1213.7271000000001
 11
1583.2177000000001
 21
1353.0373
  0
LINE
  8
_0-0_LAYER001
  6
CONTINUOUS
 62
    2
 10
1583.2177000000001
 20
1353.0373
 11
1436.2177000000001
 21
1353.0373
  0
LINE
  8
_0-0_LAYER001
  6
CONTINUOUS
 62
    2
 10
1749.1176999999998
 20
1121.9916000000001
 11
1747.1765999999998
 21
1129.2361000000001
  0
LINE
  8
_0-0_LAYER001
  6
CONTINUOUS
 62
    2
 10
1747.1765999999998
 20
1129.2361000000001
 11
1752.4798999999998
 21
1123.9328
  0
LINE
  8
_0-0_LAYER001
  6
CONTINUOUS
 62
    2
 10
1747.1765999999998
 20
1129.2361000000001
 11
1840.3941
 21
967.7786000000001
  0
LINE
  8
_0-0_LAYER001
  6
CONTINUOUS
 62
    2
 10
1840.3941
 20
967.7786000000001
 11
1918.2615999999998
 21
967.7786000000001
  0
LINE
  8
_0-0_LAYER001
  6
CONTINUOUS
 62
    2
 10
1719.7053000000001
 20
1214.3157000000001
 11
1733.7855
 21
1214.3157000000001
  0
LINE
  8
_0-0_LAYER001
  6
CONTINUOUS
 62
    2
 10
1733.7855
 20
1214.3157000000001
 11
1733.7855
 21
1195.6802
  0
LINE
  8
_0-0_LAYER001
  6
CONTINUOUS
 62
    2
 10
1733.7855
 20
1195.6802
 11
1719.7053000000001
 21
1195.6802
  0
LINE
  8
_0-0_LAYER001
  6
CONTINUOUS
 62
    2
 10
1719.7053000000001
 20
1195.6802
 11
1719.7053000000001
 21
1214.3157000000001
  0
LINE
  8
_0-0_LAYER001
  6
CONTINUOUS
 62
    2
 10
1710.8706999999999
 20
1179.9436000000001
 11
1710.8706999999999
 21
1160.3417999999999
  0
LINE
  8
_0-0_LAYER001
  6
CONTINUOUS
 62
    2
 10
1710.8706999999999
 20
1160.3417999999999
 11
1719.5173
 21
1162.6434999999999
  0
LINE
  8
_0-0_LAYER001
  6
CONTINUOUS
 62
    2
 10
1719.5173
 20
1162.6434999999999
 11
1735.8561
 21
1186.0174
  0
LINE
  8
_0-0_LAYER001
  6
CONTINUOUS
 62
    2
 10
1710.8706999999999
 20
1179.9436000000001
 11
1732.5430999999999
 21
1190.2965999999999
  0
LINE
  8
_0-0_LAYER001
  6
CONTINUOUS
 62
    2
 10
1732.5430999999999
 20
1190.2965999999999
 11
1735.8561
 21
1186.0174
  0
LINE
  8
_0-0_LAYER001
  6
CONTINUOUS
 62
    2
 10
1755.2557999999999
 20
1185.5156999999999
 11
1753.3146999999999
 21
1192.7601
  0
LINE
  8
_0-0_LAYER001
  6
CONTINUOUS
 62
    2
 10
1753.3146999999999
 20
1192.7601
 11
1758.6179999999999
 21
1187.4567999999999
  0
LINE
  8
_0-0_LAYER001
  6
CONTINUOUS
 62
    2
 10
1753.3146999999999
 20
1192.7601
 11
1797.0401999999999
 21
1117.0253
  0
LINE
  8
_0-0_LAYER001
  6
CONTINUOUS
 62
    2
 10
1797.0401999999999
 20
1117.0253
 11
1944.0401999999999
 21
1117.0253
  0
LINE
  8
_0-2_LAYER004
  6
DASHED3
 62
    2
 10
1071.5160000000001
 20
768.9378999999999
 11
1756.625
 21
1077.2369000000001
  0
LINE
  8
_0-4_LAYER006
  6
DASHED3
 62
    2
 10
1756.625
 20
1077.2369000000001
 11
1756.625
 21
1324.2279000000003
  0
LINE
  8
_0-3_LAYER005
  6
CONTINUOUS
 62
    2
 10
1734.6860000000001
 20
1563.5743
 11
1734.6860000000001
 21
1358.0308
  0
LINE
  8
_0-3_LAYER005
  6
CONTINUOUS
 62
    2
 10
1734.6860000000001
 20
1358.0308
 11
1759.6860000000001
 21
1358.0308
  0
LINE
  8
_0-3_LAYER005
  6
CONTINUOUS
 62
    2
 10
1734.6860000000001
 20
1338.9947999999999
 11
1755.6309999999999
 21
1338.9947999999999
  0
LINE
  8
_0-3_LAYER005
  6
CONTINUOUS
 62
    2
 10
1734.6860000000001
 20
1338.9947999999999
 11
1734.6860000000001
 21
1238.9947999999999
  0
LINE
  8
_0-3_LAYER005
  6
CONTINUOUS
 62
    2
 10
1755.6309999999999
 20
1338.9947999999999
 11
1755.6309999999999
 21
1358.0308
  0
LINE
  8
_0-3_LAYER005
  6
CONTINUOUS
 62
    2
 10
1743.8609999999999
 20
1338.9947999999999
 11
1750.1689999999999
 21
1345.3027999999999
  0
LINE
  8
_0-3_LAYER005
  6
CONTINUOUS
 62
    2
 10
1739.6179999999999
 20
1338.9947999999999
 11
1750.1689999999999
 21
1349.5458000000003
  0
LINE
  8
_0-3_LAYER005
  6
CONTINUOUS
 62
    2
 10
1737.5167000000001
 20
1341.1367
 11
1750.1689999999999
 21
1353.7880999999998
  0
LINE
  8
_0-3_LAYER005
  6
CONTINUOUS
 62
    2
 10
1738.5237000000002
 20
1346.3855000000001
 11
1750.1689999999999
 21
1358.0308
  0
LINE
  8
_0-3_LAYER005
  6
CONTINUOUS
 62
    2
 10
1738.3649999999998
 20
1350.4685999999997
 11
1745.9259999999999
 21
1358.0308
  0
LINE
  8
_0-3_LAYER005
  6
CONTINUOUS
 62
    2
 10
1737.5796
 20
1353.9246000000001
 11
1741.683
 21
1358.0308
  0
LINE
  8
_0-1_LAYER003
  6
CONTINUOUS
 62
    2
 10
1073.1579999999999
 20
765.28989999999999
 11
1759.6860000000001
 21
1074.2279000000001
  0
LINE
  8
_0-1_LAYER003
  6
CONTINUOUS
 62
    2
 10
1759.6860000000001
 20
1358.0308
 11
1759.6860000000001
 21
1074.2279000000001
  0
LINE
  8
_0-3_LAYER005
  6
CONTINUOUS
 62
    2
 10
1734.6860000000001
 20
1407.0508999999997
 11
1820.6219999999998
 21
1492.9869000000003
  0
LINE
  8
_0-3_LAYER005
  6
CONTINUOUS
 62
    2
 10
1734.6860000000001
 20
1395.7368999999999
 11
1831.9349999999999
 21
1492.9869000000003
  0
LINE
  8
_0-3_LAYER005
  6
CONTINUOUS
 62
    2
 10
1142.9200000000001
 20
610.26389999999992
 11
1759.6860000000001
 21
887.80809999999997
  0
LINE
  8
_0-3_LAYER005
  6
CONTINUOUS
 62
    2
 10
1759.6860000000001
 20
1074.2279000000001
 11
1759.6860000000001
 21
1030.3648000000001
  0
LINE
  8
_0-3_LAYER005
  6
CONTINUOUS
 62
    2
 10
1241.2697000000001
 20
797.077
 11
1204.5599999999999
 21
638.00189999999998
  0
LINE
  8
_0-3_LAYER005
  6
CONTINUOUS
 62
    2
 10
1232.1088999999999
 20
792.95460000000003
 11
1195.3989999999999
 21
633.87889999999993
  0
LINE
  8
_0-3_LAYER005
  6
CONTINUOUS
 62
    2
 10
1222.9468999999999
 20
788.83169999999996
 11
1186.2370000000001
 21
629.75590000000011
  0
LINE
  8
_0-3_LAYER005
  6
CONTINUOUS
 62
    2
 10
1589.7258000000002
 20
953.88259999999991
 11
1553.0160000000001
 21
794.80690000000004
  0
LINE
  8
_0-3_LAYER005
  6
CONTINUOUS
 62
    2
 10
1598.8865999999998
 20
958.00489999999991
 11
1562.1779999999999
 21
798.92990000000009
  0
LINE
  8
_0-3_LAYER005
  6
CONTINUOUS
 62
    2
 10
1608.0488999999998
 20
962.12799999999993
 11
1571.3389999999999
 21
803.05189999999993
  0
ARC
  8
_0-3_LAYER005
  6
CONTINUOUS
 62
    2
 10
1465.4140000000002
 20
1093.3529000000001
 40
196.005
 50
356.37113000000005
 51
14.393177000000051
  0
CIRCLE
  8
_0-3_LAYER005
  6
CONTINUOUS
 62
    2
 10
1700.5030000000002
 20
1155.0152
 40
1.018
  0
CIRCLE
  8
_0-3_LAYER005
  6
CONTINUOUS
 62
    2
 10
1692.8240000000001
 20
1153.9182000000001
 40
1.018
  0
CIRCLE
  8
_0-3_LAYER005
  6
CONTINUOUS
 62
    2
 10
1688.8020000000001
 20
1145.8732
 40
1.018
  0
CIRCLE
  8
_0-3_LAYER005
  6
CONTINUOUS
 62
    2
 10
1686.2429999999999
 20
1130.1505999999999
 40
1.018
  0
CIRCLE
  8
_0-3_LAYER005
  6
CONTINUOUS
 62
    2
 10
1687.3389999999999
 20
1124.6656
 40
1.018
  0
CIRCLE
  8
_0-3_LAYER005
  6
CONTINUOUS
 62
    2
 10
1692.0929999999998
 20
1119.5465999999999
 40
1.018
  0
CIRCLE
  8
_0-3_LAYER005
  6
CONTINUOUS
 62
    2
 10
1692.8240000000001
 20
1113.6956
 40
1.018
  0
CIRCLE
  8
_0-3_LAYER005
  6
CONTINUOUS
 62
    2
 10
1689.1680000000001
 20
1100.1829
 40
1.018
  0
CIRCLE
  8
_0-3_LAYER005
  6
CONTINUOUS
 62
    2
 10
1678.9299999999998
 20
1094.6978999999999
 40
1.018
  0
CIRCLE
  8
_0-3_LAYER005
  6
CONTINUOUS
 62
    2
 10
1670.8850000000002
 20
1091.4069
 40
1.018
  0
CIRCLE
  8
_0-3_LAYER005
  6
CONTINUOUS
 62
    2
 10
1669.788
 20
1099.8169
 40
1.018
  0
CIRCLE
  8
_0-3_LAYER005
  6
CONTINUOUS
 62
    2
 10
1664.6689999999999
 20
1085.5569
 40
1.018
  0
CIRCLE
  8
_0-3_LAYER005
  6
CONTINUOUS
 62
    2
 10
1667.5940000000001
 20
1089.9449
 40
1.018
  0
CIRCLE
  8
_0-3_LAYER005
  6
CONTINUOUS
 62
    2
 10
1666.8629999999998
 20
1092.5038999999999
 40
1.018
  0
CIRCLE
  8
_0-3_LAYER005
  6
CONTINUOUS
 62
    2
 10
1666.4969999999998
 20
1098.3549
 40
1.018
  0
CIRCLE
  8
_0-3_LAYER005
  6
CONTINUOUS
 62
    2
 10
1666.4969999999998
 20
1104.2049
 40
1.018
  0
CIRCLE
  8
_0-3_LAYER005
  6
CONTINUOUS
 62
    2
 10
1665.7660000000001
 20
1127.2252000000001
 40
1.018
  0
CIRCLE
  8
_0-3_LAYER005
  6
CONTINUOUS
 62
    2
 10
1666.4969999999998
 20
1133.4412
 40
1.018
  0
CIRCLE
  8
_0-3_LAYER005
  6
CONTINUOUS
 62
    2
 10
1666.8629999999998
 20
1143.3142
 40
1.018
  0
CIRCLE
  8
_0-3_LAYER005
  6
CONTINUOUS
 62
    2
 10
1667.96
 20
1148.0672
 40
1.018
  0
CIRCLE
  8
_0-3_LAYER005
  6
CONTINUOUS
 62
    2
 10
1678.1979999999999
 20
1124.2996000000001
 40
1.018
  0
CIRCLE
  8
_0-3_LAYER005
  6
CONTINUOUS
 62
    2
 10
1677.1010000000001
 20
1126.1282000000001
 40
1.018
  0
CIRCLE
  8
_0-3_LAYER005
  6
CONTINUOUS
 62
    2
 10
1685.877
 20
1111.5026
 40
1.018
  0
CIRCLE
  8
_0-3_LAYER005
  6
CONTINUOUS
 62
    2
 10
1700.5030000000002
 20
1097.6229000000001
 40
1.018
  0
CIRCLE
  8
_0-3_LAYER005
  6
CONTINUOUS
 62
    2
 10
1698.6750000000002
 20
1112.9646
 40
1.018
  0
CIRCLE
  8
_0-3_LAYER005
  6
CONTINUOUS
 62
    2
 10
1701.5999999999999
 20
1118.8155999999999
 40
1.018
  0
CIRCLE
  8
_0-3_LAYER005
  6
CONTINUOUS
 62
    2
 10
1714.0320000000002
 20
1130.1505999999999
 40
1.018
  0
CIRCLE
  8
_0-3_LAYER005
  6
CONTINUOUS
 62
    2
 10
1709.279
 20
1156.1122
 40
1.018
  0
CIRCLE
  8
_0-3_LAYER005
  6
CONTINUOUS
 62
    2
 10
1674.9070000000002
 20
1149.8961999999999
 40
1.018
  0
CIRCLE
  8
_0-3_LAYER005
  6
CONTINUOUS
 62
    2
 10
1682.9520000000002
 20
1147.3362
 40
1.018
  0
CIRCLE
  8
_0-3_LAYER005
  6
CONTINUOUS
 62
    2
 10
1701.5999999999999
 20
1149.5301999999999
 40
1.018
  0
CIRCLE
  8
_0-3_LAYER005
  6
CONTINUOUS
 62
    2
 10
1676.3699999999999
 20
1139.2922000000001
 40
1.018
  0
CIRCLE
  8
_0-3_LAYER005
  6
CONTINUOUS
 62
    2
 10
1708.547
 20
1130.8815999999999
 40
1.018
  0
CIRCLE
  8
_0-3_LAYER005
  6
CONTINUOUS
 62
    2
 10
1715.1289999999999
 20
1115.8896
 40
1.018
  0
CIRCLE
  8
_0-3_LAYER005
  6
CONTINUOUS
 62
    2
 10
1717.3229999999999
 20
1111.5026
 40
1.018
  0
CIRCLE
  8
_0-3_LAYER005
  6
CONTINUOUS
 62
    2
 10
1727.9270000000001
 20
1118.4495999999999
 40
1.018
  0
CIRCLE
  8
_0-3_LAYER005
  6
CONTINUOUS
 62
    2
 10
1732.6799999999998
 20
1129.4186
 40
1.018
  0
CIRCLE
  8
_0-3_LAYER005
  6
CONTINUOUS
 62
    2
 10
1730.8519999999999
 20
1149.5301999999999
 40
1.018
  0
CIRCLE
  8
_0-3_LAYER005
  6
CONTINUOUS
 62
    2
 10
1742.9180000000001
 20
1171.4692
 40
1.018
  0
CIRCLE
  8
_0-3_LAYER005
  6
CONTINUOUS
 62
    2
 10
1738.8960000000002
 20
1173.6632
 40
1.018
  0
CIRCLE
  8
_0-3_LAYER005
  6
CONTINUOUS
 62
    2
 10
1734.143
 20
1171.1032
 40
1.018
  0
CIRCLE
  8
_0-3_LAYER005
  6
CONTINUOUS
 62
    2
 10
1729.7550000000001
 20
1177.6851999999999
 40
1.018
  0
CIRCLE
  8
_0-3_LAYER005
  6
CONTINUOUS
 62
    2
 10
1672.3926999999999
 20
1173.74
 40
1.018
  0
CIRCLE
  8
_0-3_LAYER005
  6
CONTINUOUS
 62
    2
 10
1685.6990999999998
 20
1179.8249000000001
 40
1.018
  0
CIRCLE
  8
_0-3_LAYER005
  6
CONTINUOUS
 62
    2
 10
1699.8806
 20
1184.6622
 40
1.018
  0
CIRCLE
  8
_0-3_LAYER005
  6
CONTINUOUS
 62
    2
 10
1718.3499000000002
 20
1184.4521
 40
1.018
  0
CIRCLE
  8
_0-3_LAYER005
  6
CONTINUOUS
 62
    2
 10
1661.5115000000001
 20
1170.5871
 40
1.018
  0
CIRCLE
  8
_0-3_LAYER005
  6
CONTINUOUS
 62
    2
 10
1668.8235
 20
1170.9530999999999
 40
1.018
  0
CIRCLE
  8
_0-3_LAYER005
  6
CONTINUOUS
 62
    2
 10
1707.9245999999998
 20
1181.0062
 40
1.018
  0
CIRCLE
  8
_0-3_LAYER005
  6
CONTINUOUS
 62
    2
 10
1712.1338999999998
 20
1185.1831
 40
1.018
  0
CIRCLE
  8
_0-3_LAYER005
  6
CONTINUOUS
 62
    2
 10
1693.3780999999999
 20
1177.9958999999999
 40
1.018
  0
CIRCLE
  8
_0-3_LAYER005
  6
CONTINUOUS
 62
    2
 10
1720.9789999999998
 20
1180.9762000000001
 40
1.018
  0
CIRCLE
  8
_0-3_LAYER005
  6
CONTINUOUS
 62
    2
 10
1727.1950000000002
 20
1164.5222000000001
 40
1.018
  0
CIRCLE
  8
_0-3_LAYER005
  6
CONTINUOUS
 62
    2
 10
1721.3449999999998
 20
1153.1862000000001
 40
1.018
  0
CIRCLE
  8
_0-3_LAYER005
  6
CONTINUOUS
 62
    2
 10
1723.5390000000002
 20
1130.5155999999999
 40
1.018
  0
CIRCLE
  8
_0-3_LAYER005
  6
CONTINUOUS
 62
    2
 10
1707.8159999999998
 20
1124.2996000000001
 40
1.018
  0
CIRCLE
  8
_0-3_LAYER005
  6
CONTINUOUS
 62
    2
 10
1709.279
 20
1118.8155999999999
 40
1.018
  0
CIRCLE
  8
_0-3_LAYER005
  6
CONTINUOUS
 62
    2
 10
1714.7629999999999
 20
1101.6449
 40
1.018
  0
CIRCLE
  8
_0-3_LAYER005
  6
CONTINUOUS
 62
    2
 10
1732.6799999999998
 20
1129.0536
 40
1.018
  0
CIRCLE
  8
_0-3_LAYER005
  6
CONTINUOUS
 62
    2
 10
1746.2089999999998
 20
1133.0755999999999
 40
1.018
  0
CIRCLE
  8
_0-3_LAYER005
  6
CONTINUOUS
 62
    2
 10
1742.9180000000001
 20
1111.5026
 40
1.018
  0
CIRCLE
  8
_0-3_LAYER005
  6
CONTINUOUS
 62
    2
 10
1739.9929999999999
 20
1112.9646
 40
1.018
  0
CIRCLE
  8
_0-3_LAYER005
  6
CONTINUOUS
 62
    2
 10
1748.7689999999998
 20
1121.0085999999999
 40
1.018
  0
CIRCLE
  8
_0-3_LAYER005
  6
CONTINUOUS
 62
    2
 10
1735.971
 20
1132.3445999999999
 40
1.018
  0
CIRCLE
  8
_0-3_LAYER005
  6
CONTINUOUS
 62
    2
 10
1747.672
 20
1152.4552000000001
 40
1.018
  0
CIRCLE
  8
_0-3_LAYER005
  6
CONTINUOUS
 62
    2
 10
1753.5219999999999
 20
1162.6931999999999
 40
1.018
  0
CIRCLE
  8
_0-3_LAYER005
  6
CONTINUOUS
 62
    2
 10
1750.5970000000002
 20
1177.3191999999999
 40
1.018
  0
CIRCLE
  8
_0-3_LAYER005
  6
CONTINUOUS
 62
    2
 10
1720.8670000000002
 20
1130.1376
 40
1.018
  0
CIRCLE
  8
_0-3_LAYER005
  6
CONTINUOUS
 62
    2
 10
1716.3670000000002
 20
1147.5762
 40
1.018
  0
CIRCLE
  8
_0-3_LAYER005
  6
CONTINUOUS
 62
    2
 10
1724.4670000000001
 20
1119.3366000000001
 40
1.018
  0
CIRCLE
  8
_0-3_LAYER005
  6
CONTINUOUS
 62
    2
 10
1714.567
 20
1122.9366
 40
1.018
  0
CIRCLE
  8
_0-3_LAYER005
  6
CONTINUOUS
 62
    2
 10
1734.3670000000002
 20
1123.8366000000001
 40
1.018
  0
CIRCLE
  8
_0-3_LAYER005
  6
CONTINUOUS
 62
    2
 10
1744.268
 20
1122.0365999999999
 40
1.018
  0
CIRCLE
  8
_0-3_LAYER005
  6
CONTINUOUS
 62
    2
 10
1737.067
 20
1158.3761999999999
 40
1.018
  0
LINE
  8
_0-0_LAYER001
  6
CONTINUOUS
 62
    2
 10
1375.3145
 20
596.38750000000005
 11
1580.1372000000001
 21
596.38750000000005
  0
LINE
  8
_0-0_LAYER001
  6
CONTINUOUS
 62
    2
 10
1300.5050000000001
 20
869.51890000000003
 11
1300.5050000000001
 21
877.01890000000003
  0
LINE
  8
_0-0_LAYER001
  6
CONTINUOUS
 62
    2
 10
1300.5050000000001
 20
877.01890000000003
 11
1304.2550000000001
 21
870.52369999999996
  0
LINE
  8
_0-0_LAYER001
  6
CONTINUOUS
 62
    7
 10
1188.4910113178339
 20
1050.7774339470657
 11
1205.0585000000001
 21
1005.4078
  0
LINE
  8
_0-0_LAYER001
  6
CONTINUOUS
 62
    7
 10
1205.0585000000001
 20
1005.4078
 11
1173.6043289045815
 21
1091.5443807399699
  0
LINE
  8
_0-0_LAYER001
  6
CONTINUOUS
 62
    7
 10
1187.9078999999999
 20
1052.3742999999999
 11
972.97990000000004
 21
973.88979999999992
  0
LINE
  8
_0-1_LAYER003
  6
CONTINUOUS
 62
    7
 10
1174.1874
 20
1089.9475
 11
1394.9301
 21
1170.5554
  0
LINE
  8
_0-1_LAYER003
  6
CONTINUOUS
 62
    7
 10
1412.0808
 20
1123.5889
 11
1380.626509794959
 21
1209.7255372442876
  0
LINE
  8
_0-1_LAYER003
  6
CONTINUOUS
 62
    7
 10
1381.2096999999999
 20
1208.1287
 11
1667.7055999999998
 21
1312.7474000000002
  0
LINE
  8
_0-1_LAYER003
  6
CONTINUOUS
 62
    7
 10
1666.8481000000002
 20
1315.0958000000001
 11
1684.8562000000002
 21
1265.7809
  0
LINE
  8
_0-1_LAYER003
  6
CONTINUOUS
 62
    7
 10
1444.9879000000001
 20
1311.4834000000001
 11
1558.9879000000001
 21
1311.4834000000001
  0
LINE
  8
_0-1_LAYER003
  6
CONTINUOUS
 62
    7
 10
1558.9879000000001
 20
1311.4834000000001
 11
1636.7123999999999
 21
1176.8606
  0
LINE
  8
_0-1_LAYER003
  6
CONTINUOUS
 62
    7
 10
1636.7123999999999
 20
1176.8606
 11
1634.7712999999999
 21
1184.105
  0
LINE
  8
_0-1_LAYER003
  6
CONTINUOUS
 62
    7
 10
1636.7123999999999
 20
1176.8606
 11
1631.4090999999999
 21
1182.1639
  0
LINE
  8
_0-1_LAYER003
  6
CONTINUOUS
 62
    7
 10
1643.8948
 20
1202.1914999999999
 11
1639.0011
 21
1196.5988
  0
LINE
  8
_0-1_LAYER003
  6
CONTINUOUS
 62
    7
 10
1639.0011
 20
1196.5988
 11
1643.1952000000001
 21
1222.2361000000001
  0
LINE
  8
_0-1_LAYER003
  6
CONTINUOUS
 62
    7
 10
1643.1952000000001
 20
1222.2361000000001
 11
1734.6860000000001
 21
1238.9947999999999
  0
LINE
  8
_0-1_LAYER003
  6
CONTINUOUS
 62
    7
 10
1734.6860000000001
 20
1238.9947999999999
 11
1734.6860000000001
 21
1338.9947999999999
  0
LINE
  8
_0-1_LAYER003
  6
CONTINUOUS
 62
    7
 10
1734.6860000000001
 20
1338.9947999999999
 11
1750.1689999999999
 21
1338.9947999999999
  0
LINE
  8
_0-1_LAYER003
  6
CONTINUOUS
 62
    7
 10
1750.1689999999999
 20
1338.9947999999999
 11
1755.6309999999999
 21
1338.9947999999999
  0
LINE
  8
_0-1_LAYER003
  6
CONTINUOUS
 62
    7
 10
1755.6309999999999
 20
1338.9947999999999
 11
1755.6309999999999
 21
1358.0308
  0
LINE
  8
_0-1_LAYER003
  6
CONTINUOUS
 62
    7
 10
1755.6309999999999
 20
1358.0308
 11
1750.1689999999999
 21
1338.9947999999999
  0
LINE
  8
_0-1_LAYER003
  6
CONTINUOUS
 62
    7
 10
1750.1689999999999
 20
1338.9947999999999
 11
1750.1689999999999
 21
1358.0308
  0
LINE
  8
_0-1_LAYER003
  6
CONTINUOUS
 62
    7
 10
1750.1689999999999
 20
1358.0308
 11
1755.6309999999999
 21
1338.9947999999999
  0
LINE
  8
_0-1_LAYER003
  6
CONTINUOUS
 62
    7
 10
1734.6860000000001
 20
1358.0308
 11
1759.6860000000001
 21
1358.0308
  0
LINE
  8
_0-1_LAYER003
  6
CONTINUOUS
 62
    7
 10
1759.6860000000001
 20
1358.0308
 11
1759.6860000000001
 21
1030.3648000000001
  0
LINE
  8
_0-1_LAYER003
  6
CONTINUOUS
 62
    7
 10
1756.625
 20
1324.2279000000003
 11
1756.625
 21
1077.2369000000001
  0
LINE
  8
_0-1_LAYER003
  6
CONTINUOUS
 62
    7
 10
1756.625
 20
1077.2369000000001
 11
1071.5160000000001
 21
768.9378999999999
  0
LINE
  8
_0-1_LAYER003
  6
CONTINUOUS
 62
    7
 10
1073.1579999999999
 20
765.28989999999999
 11
1756.0785000000001
 21
1072.6044999999999
  0
LINE
  8
_0-1_LAYER003
  6
CONTINUOUS
 62
    7
 10
1918.2615999999998
 20
967.7786000000001
 11
1840.3941
 21
967.7786000000001
  0
LINE
  8
_0-1_LAYER003
  6
CONTINUOUS
 62
    7
 10
1840.3941
 20
967.7786000000001
 11
1747.1765999999998
 21
1129.2361000000001
  0
LINE
  8
_0-1_LAYER003
  6
CONTINUOUS
 62
    7
 10
1747.1765999999998
 20
1129.2361000000001
 11
1749.1176999999998
 21
1121.9916000000001
  0
LINE
  8
_0-1_LAYER003
  6
CONTINUOUS
 62
    7
 10
1747.1765999999998
 20
1129.2361000000001
 11
1752.4798999999998
 21
1123.9328
  0
LINE
  8
_0-1_LAYER003
  6
CONTINUOUS
 62
    7
 10
1739.7521000000002
 20
1088.585
 11
1745.9081999999999
 21
1074.9065000000001
  0
LINE
  8
_0-1_LAYER003
  6
CONTINUOUS
 62
    7
 10
1745.9081999999999
 20
1074.9065000000001
 11
1718.5511999999999
 21
1062.5941
  0
LINE
  8
_0-1_LAYER003
  6
CONTINUOUS
 62
    7
 10
1718.5511999999999
 20
1062.5941
 11
1712.3951000000002
 21
1076.2726
  0
LINE
  8
_0-1_LAYER003
  6
CONTINUOUS
 62
    7
 10
1712.3951000000002
 20
1076.2726
 11
1739.7521000000002
 21
1088.585
  0
LINE
  8
_0-1_LAYER003
  6
CONTINUOUS
 62
    7
 10
1739.7521000000002
 20
1088.585
 11
1718.5511999999999
 21
1062.5941
  0
LINE
  8
_0-1_LAYER003
  6
CONTINUOUS
 62
    7
 10
1944.0401999999999
 20
1117.0253
 11
1797.0401999999999
 21
1117.0253
  0
LINE
  8
_0-1_LAYER003
  6
CONTINUOUS
 62
    7
 10
1797.0401999999999
 20
1117.0253
 11
1753.3146999999999
 21
1192.7601
  0
LINE
  8
_0-1_LAYER003
  6
CONTINUOUS
 62
    7
 10
1753.3146999999999
 20
1192.7601
 11
1755.2557999999999
 21
1185.5156999999999
  0
LINE
  8
_0-1_LAYER003
  6
CONTINUOUS
 62
    7
 10
1753.3146999999999
 20
1192.7601
 11
1758.6179999999999
 21
1187.4567999999999
  0
LINE
  8
_0-1_LAYER003
  6
CONTINUOUS
 62
    7
 10
1729.6860000000001
 20
1208.3866
 11
1735.6858999999999
 21
1205.3865000000001
  0
LINE
  8
_0-1_LAYER003
  6
CONTINUOUS
 62
    7
 10
1735.6858999999999
 20
1205.3865000000001
 11
1735.6858999999999
 21
1199.3866
  0
LINE
  8
_0-1_LAYER003
  6
CONTINUOUS
 62
    7
 10
1735.6858999999999
 20
1199.3866
 11
1729.6860000000001
 21
1196.3865000000001
  0
LINE
  8
_0-1_LAYER003
  6
CONTINUOUS
 62
    7
 10
1729.6860000000001
 20
1196.3865000000001
 11
1729.6860000000001
 21
1208.3866
  0
LINE
  8
_0-1_LAYER003
  6
CONTINUOUS
 62
    7
 10
1735.6858999999999
 20
1205.3865000000001
 11
1759.6860000000001
 21
1205.3865000000001
  0
LINE
  8
_0-1_LAYER003
  6
CONTINUOUS
 62
    7
 10
1735.6858999999999
 20
1199.3866
 11
1759.6860000000001
 21
1199.3866
  0
LINE
  8
_0-1_LAYER003
  6
CONTINUOUS
 62
    7
 10
1759.6860000000001
 20
1206.6366
 11
1777.8859000000002
 21
1206.6366
  0
LINE
  8
_0-1_LAYER003
  6
CONTINUOUS
 62
    7
 10
1777.8859000000002
 20
1206.6366
 11
1786.9798000000001
 21
1208.2407000000001
  0
LINE
  8
_0-1_LAYER003
  6
CONTINUOUS
 62
    7
 10
1786.9798000000001
 20
1208.2407000000001
 11
1787.2759000000001
 21
1206.5676000000001
  0
LINE
  8
_0-1_LAYER003
  6
CONTINUOUS
 62
    7
 10
1787.2759000000001
 20
1206.5676000000001
 11
1788.9499999999998
 21
1206.8625999999999
  0
LINE
  8
_0-1_LAYER003
  6
CONTINUOUS
 62
    7
 10
1788.6538999999998
 20
1208.5355999999999
 11
1788.9499999999998
 21
1206.8625999999999
  0
LINE
  8
_0-1_LAYER003
  6
CONTINUOUS
 62
    7
 10
1788.6538999999998
 20
1208.5355999999999
 11
1791.3128999999999
 21
1209.0046
  0
LINE
  8
_0-1_LAYER003
  6
CONTINUOUS
 62
    7
 10
1791.3128999999999
 20
1209.0046
 11
1791.6089000000002
 21
1207.3316
  0
LINE
  8
_0-1_LAYER003
  6
CONTINUOUS
 62
    7
 10
1791.6089000000002
 20
1207.3316
 11
1793.2819
 21
1207.6266000000001
  0
LINE
  8
_0-1_LAYER003
  6
CONTINUOUS
 62
    7
 10
1793.2819
 20
1207.6266000000001
 11
1792.9871714638841
 21
1209.2997302442971
  0
LINE
  8
_0-1_LAYER003
  6
CONTINUOUS
 62
    7
 10
1792.9871714638841
 20
1209.2997302442971
 11
1795.6459
 21
1209.7687000000001
  0
LINE
  8
_0-1_LAYER003
  6
CONTINUOUS
 62
    7
 10
1795.6459
 20
1209.7687000000001
 11
1795.9418000000001
 21
1208.0956000000001
  0
LINE
  8
_0-1_LAYER003
  6
CONTINUOUS
 62
    7
 10
1795.9418000000001
 20
1208.0956000000001
 11
1797.616
 21
1208.3905999999999
  0
LINE
  8
_0-1_LAYER003
  6
CONTINUOUS
 62
    7
 10
1797.616
 20
1208.3905999999999
 11
1797.3200000000002
 21
1210.0645999999999
  0
LINE
  8
_0-1_LAYER003
  6
CONTINUOUS
 62
    7
 10
1797.3200000000002
 20
1210.0635
 11
1798.7980411389074
 21
1210.3263593242559
  0
LINE
  8
_0-1_LAYER003
  6
CONTINUOUS
 62
    7
 10
1798.7977999999998
 20
1210.3245999999999
 11
1800.5349000000001
 21
1209.1096
  0
LINE
  8
_0-1_LAYER003
  6
CONTINUOUS
 62
    7
 10
1800.5349000000001
 20
1209.1096
 11
1800.9349999999999
 21
1206.8435999999999
  0
LINE
  8
_0-1_LAYER003
  6
CONTINUOUS
 62
    7
 10
1800.9349999999999
 20
1206.8435999999999
 11
1775.6619999999998
 21
1202.3877
  0
LINE
  8
_0-1_LAYER003
  6
CONTINUOUS
 62
    7
 10
1775.6619999999998
 20
1202.3877
 11
1800.7599
 21
1197.9616000000001
  0
LINE
  8
_0-1_LAYER003
  6
CONTINUOUS
 62
    7
 10
1800.7599
 20
1197.9616000000001
 11
1800.3620000000001
 21
1195.6967
  0
LINE
  8
_0-1_LAYER003
  6
CONTINUOUS
 62
    7
 10
1800.3620000000001
 20
1195.6967
 11
1798.623
 21
1194.4806000000001
  0
LINE
  8
_0-1_LAYER003
  6
CONTINUOUS
 62
    7
 10
1798.623
 20
1194.4806000000001
 11
1797.1459
 21
1194.7417
  0
LINE
  8
_0-1_LAYER003
  6
CONTINUOUS
 62
    7
 10
1797.1459
 20
1194.7417
 11
1797.442
 21
1196.4146000000001
  0
LINE
  8
_0-1_LAYER003
  6
CONTINUOUS
 62
    7
 10
1797.4409999999998
 20
1196.4146000000001
 11
1795.7669999999998
 21
1196.7095999999999
  0
LINE
  8
_0-1_LAYER003
  6
CONTINUOUS
 62
    7
 10
1795.7669999999998
 20
1196.7095999999999
 11
1795.4720000000002
 21
1195.0365999999999
  0
LINE
  8
_0-1_LAYER003
  6
CONTINUOUS
 62
    7
 10
1795.4720000000002
 20
1195.0365999999999
 11
1792.8128999999999
 21
1195.5056
  0
LINE
  8
_0-1_LAYER003
  6
CONTINUOUS
 62
    7
 10
1792.8128999999999
 20
1195.5056
 11
1793.1080000000002
 21
1197.1786
  0
LINE
  8
_0-1_LAYER003
  6
CONTINUOUS
 62
    7
 10
1793.1080000000002
 20
1197.1786
 11
1791.4349697637263
 21
1197.4734291037639
  0
LINE
  8
_0-1_LAYER003
  6
CONTINUOUS
 62
    7
 10
1791.1390000000001
 20
1195.8006
 11
1791.4349999999999
 21
1197.4736
  0
LINE
  8
_0-1_LAYER003
  6
CONTINUOUS
 62
    7
 10
1791.1390000000001
 20
1195.8006
 11
1788.4798000000001
 21
1196.2696000000001
  0
LINE
  8
_0-1_LAYER003
  6
CONTINUOUS
 62
    7
 10
1788.4798000000001
 20
1196.2696000000001
 11
1788.7759000000001
 21
1197.9426000000001
  0
LINE
  8
_0-1_LAYER003
  6
CONTINUOUS
 62
    7
 10
1788.7748999999999
 20
1197.9426000000001
 11
1787.1019999999999
 21
1198.2375999999999
  0
LINE
  8
_0-1_LAYER003
  6
CONTINUOUS
 62
    7
 10
1787.1019999999999
 20
1198.2375999999999
 11
1786.8058999999998
 21
1196.5646999999999
  0
LINE
  8
_0-1_LAYER003
  6
CONTINUOUS
 62
    7
 10
1786.8058999999998
 20
1196.5646999999999
 11
1777.8859000000002
 21
1198.1366
  0
LINE
  8
_0-1_LAYER003
  6
CONTINUOUS
 62
    7
 10
1777.8859000000002
 20
1198.1366
 11
1759.6860000000001
 21
1198.1366
  0
LINE
  8
_0-1_LAYER003
  6
CONTINUOUS
 62
    7
 10
1729.6860000000001
 20
1182.3866
 11
1759.6860000000001
 21
1182.3866
  0
LINE
  8
_0-1_LAYER003
  6
CONTINUOUS
 62
    7
 10
1759.6860000000001
 20
1182.3866
 11
1731.9414999999999
 21
1219.3793000000001
  0
LINE
  8
_0-1_LAYER003
  6
CONTINUOUS
 62
    7
 10
1731.9414999999999
 20
1219.3793000000001
 11
1729.6860000000001
 21
1218.9661579703452
  0
LINE
  8
_0-1_LAYER003
  6
CONTINUOUS
 62
    7
 10
1729.6860000000001
 20
1218.9661579703452
 11
1729.6860000000001
 21
1182.3866
  0
LINE
  8
_0-1_LAYER003
  6
CONTINUOUS
 62
    7
 10
1710.8706999999999
 20
1179.9436000000001
 11
1732.5430999999999
 21
1190.2965999999999
  0
LINE
  8
_0-1_LAYER003
  6
CONTINUOUS
 62
    7
 10
1732.5430999999999
 20
1190.2965999999999
 11
1735.8561
 21
1186.0174
  0
LINE
  8
_0-1_LAYER003
  6
CONTINUOUS
 62
    7
 10
1735.8561
 20
1186.0174
 11
1719.5173
 21
1162.6434999999999
  0
LINE
  8
_0-1_LAYER003
  6
CONTINUOUS
 62
    7
 10
1719.5173
 20
1162.6434999999999
 11
1710.8706999999999
 21
1160.3417999999999
  0
LINE
  8
_0-1_LAYER003
  6
CONTINUOUS
 62
    7
 10
1710.8706999999999
 20
1160.3417999999999
 11
1710.8706999999999
 21
1179.9436000000001
  0
LINE
  8
_0-1_LAYER003
  6
CONTINUOUS
 62
    7
 10
1733.7855
 20
1195.6802
 11
1719.7053000000001
 21
1195.6802
  0
LINE
  8
_0-1_LAYER003
  6
CONTINUOUS
 62
    7
 10
1719.7053000000001
 20
1214.3157000000001
 11
1719.7053000000001
 21
1195.6802
  0
LINE
  8
_0-1_LAYER003
  6
CONTINUOUS
 62
    7
 10
1719.7053000000001
 20
1214.3157000000001
 11
1733.7855
 21
1214.3157000000001
  0
LINE
  8
_0-1_LAYER003
  6
CONTINUOUS
 62
    7
 10
1733.7855
 20
1214.3157000000001
 11
1733.7855
 21
1195.6802
  0
LINE
  8
_0-1_LAYER003
  6
CONTINUOUS
 62
    7
 10
1747.0920000000001
 20
1200.2924
 11
1744.9949000000001
 21
1208.9265
  0
LINE
  8
_0-1_LAYER003
  6
CONTINUOUS
 62
    7
 10
1747.0920000000001
 20
1200.2924
 11
1741.6356999999998
 21
1207.3603000000001
  0
LINE
  8
_0-1_LAYER003
  6
CONTINUOUS
 62
    7
 10
1741.6356999999998
 20
1207.3603000000001
 11
1730.2248
 21
1231.8344999999999
  0
LINE
  8
_0-1_LAYER003
  6
CONTINUOUS
 62
    7
 10
1730.2248
 20
1231.8344999999999
 11
1727.1959000000002
 21
1232.1813
  0
LINE
  8
_0-1_LAYER003
  6
CONTINUOUS
 62
    7
 10
1727.1959000000002
 20
1232.1813
 11
1735.2667000000001
 21
1235.9439
  0
LINE
  8
_0-1_LAYER003
  6
CONTINUOUS
 62
    7
 10
1735.2667000000001
 20
1235.9439
 11
1733.5841999999998
 21
1233.3994
  0
LINE
  8
_0-1_LAYER003
  6
CONTINUOUS
 62
    7
 10
1733.5841999999998
 20
1233.3994
 11
1744.9949000000001
 21
1208.9265
  0
LINE
  8
_0-1_LAYER003
  6
CONTINUOUS
 62
    7
 10
1759.6860000000001
 20
1222.3866
 11
1748.3591889700556
 21
1222.3866
  0
LINE
  8
_0-1_LAYER003
  6
CONTINUOUS
 62
    7
 10
1758.6100999999999
 20
1224.2643
 11
1755.9074000000001
 21
1239.0188000000001
  0
LINE
  8
_0-1_LAYER003
  6
CONTINUOUS
 62
    7
 10
1755.9074000000001
 20
1239.0188000000001
 11
1652.6257999999998
 21
1220.1004
  0
LINE
  8
_0-1_LAYER003
  6
CONTINUOUS
 62
    7
 10
1652.6257999999998
 20
1220.1004
 11
1655.3285000000001
 21
1205.3458000000001
  0
LINE
  8
_0-1_LAYER003
  6
CONTINUOUS
 62
    7
 10
1655.3285000000001
 20
1205.3458000000001
 11
1755.9074000000001
 21
1239.0188000000001
  0
LINE
  8
_0-1_LAYER003
  6
CONTINUOUS
 62
    7
 10
1758.6100999999999
 20
1224.2643
 11
1655.3285000000001
 21
1205.3458000000001
  0
LINE
  8
_0-1_LAYER003
  6
CONTINUOUS
 62
    7
 10
1661.7073
 20
1220.9716000000001
 11
1663.6484
 21
1213.7271000000001
  0
LINE
  8
_0-1_LAYER003
  6
CONTINUOUS
 62
    7
 10
1663.6484
 20
1213.7271000000001
 11
1658.3451
 21
1219.0304000000001
  0
LINE
  8
_0-1_LAYER003
  6
CONTINUOUS
 62
    7
 10
1663.6484
 20
1213.7271000000001
 11
1583.2177000000001
 21
1353.0373
  0
LINE
  8
_0-1_LAYER003
  6
CONTINUOUS
 62
    7
 10
1583.2177000000001
 20
1353.0373
 11
1436.2177000000001
 21
1353.0373
  0
LINE
  8
_0-1_LAYER003
  6
CONTINUOUS
 62
    7
 10
1370.7972999999997
 20
1389.7435999999998
 11
1604.7973000000002
 21
1389.7435999999998
  0
LINE
  8
_0-1_LAYER003
  6
CONTINUOUS
 62
    7
 10
1604.7973000000002
 20
1389.7435999999998
 11
1695.1016
 21
1233.3320000000001
  0
LINE
  8
_0-1_LAYER003
  6
CONTINUOUS
 62
    7
 10
1695.1016
 20
1233.3320000000001
 11
1693.1605
 21
1240.5764999999999
  0
LINE
  8
_0-1_LAYER003
  6
CONTINUOUS
 62
    7
 10
1695.1016
 20
1233.3320000000001
 11
1689.7982999999999
 21
1238.6352999999999
  0
LINE
  8
_0-1_LAYER003
  6
CONTINUOUS
 62
    7
 10
1734.6860000000001
 20
1358.0308
 11
1734.6860000000001
 21
1563.5743
  0
LINE
  8
_0-1_LAYER003
  6
CONTINUOUS
 62
    7
 10
1734.6860000000001
 20
1407.0508999999997
 11
1820.6219999999998
 21
1492.9869000000003
  0
LINE
  8
_0-1_LAYER003
  6
CONTINUOUS
 62
    7
 10
1734.6860000000001
 20
1395.7368999999999
 11
1831.9349999999999
 21
1492.9869000000003
  0
LINE
  8
_0-3_LAYER005
  6
CONTINUOUS
 62
    2
 10
1734.6860000000001
 20
1384.422948479425
 11
1843.2489999999998
 21
1492.9869000000003
  0
LINE
  8
_0-1_LAYER003
  6
CONTINUOUS
 62
    7
 10
1843.2489999999998
 20
1492.9869000000003
 11
1734.6860000000001
 21
1384.422948479425
  0
LINE
  8
_0-1_LAYER003
  6
CONTINUOUS
 62
    7
 10
1742.8380000000002
 20
1357.2415000000001
 11
1744.7791000000002
 21
1349.9971
  0
LINE
  8
_0-1_LAYER003
  6
CONTINUOUS
 62
    7
 10
1744.7791000000002
 20
1349.9971
 11
1739.4758000000002
 21
1355.3004000000001
  0
LINE
  8
_0-1_LAYER003
  6
CONTINUOUS
 62
    7
 10
1744.7791000000002
 20
1349.9971
 11
1681.9567000000002
 21
1458.8086000000001
  0
LINE
  8
_0-1_LAYER003
  6
CONTINUOUS
 62
    7
 10
1681.9567000000002
 20
1458.8086000000001
 11
1600.9567000000002
 21
1458.8086000000001
  0
LINE
  8
_0-1_LAYER003
  6
CONTINUOUS
 62
    7
 10
1641.5529999999999
 20
1416.2458999999999
 11
1734.6860000000001
 21
1416.2458999999999
  0
LINE
  8
_0-1_LAYER003
  6
CONTINUOUS
 62
    7
 10
1641.5529999999999
 20
1375.0518
 11
1641.5529999999999
 21
1417.9458999999999
  0
LINE
  8
_0-1_LAYER003
  6
CONTINUOUS
 62
    7
 10
1824.9443000000001
 20
1358.9947999999999
 11
1841.6443000000002
 21
1358.9947999999999
  0
LINE
  8
_0-1_LAYER003
  6
CONTINUOUS
 62
    7
 10
1839.9443000000001
 20
1358.9947999999999
 11
1839.9443000000001
 21
1238.9947999999999
  0
LINE
  8
_0-1_LAYER003
  6
CONTINUOUS
 62
    7
 10
1839.9443000000001
 20
1238.9947999999999
 11
1824.9443000000001
 21
1238.9947999999999
  0
LINE
  8
_0-1_LAYER003
  6
CONTINUOUS
 62
    7
 10
1839.9443000000001
 20
1238.9947999999999
 11
1841.6443000000002
 21
1238.9947999999999
  0
LINE
  8
_0-1_LAYER003
  6
CONTINUOUS
 62
    7
 10
1824.9443000000001
 20
1338.9947999999999
 11
1841.6443000000002
 21
1338.9947999999999
  0
ARC
  8
_0-1_LAYER003
  6
CONTINUOUS
 62
    7
 10
1717.8674573553506
 20
1347.6274254306263
 40
20.693543412617505
 50
335.49097577714866
 51
29.733905222851465
  0
LINE
  8
_0-1_LAYER003
  6
CONTINUOUS
 62
    7
 10
1497.1867000000002
 20
979.41519999999991
 11
1503.3429000000001
 21
965.73669999999993
  0
LINE
  8
_0-1_LAYER003
  6
CONTINUOUS
 62
    7
 10
1503.3429000000001
 20
965.73669999999993
 11
1530.6999000000001
 21
978.04909999999995
  0
LINE
  8
_0-1_LAYER003
  6
CONTINUOUS
 62
    7
 10
1530.6999000000001
 20
978.04909999999995
 11
1524.5437000000002
 21
991.72759999999994
  0
LINE
  8
_0-1_LAYER003
  6
CONTINUOUS
 62
    7
 10
1524.5437000000002
 20
991.72759999999994
 11
1497.1867000000002
 21
979.41519999999991
  0
LINE
  8
_0-1_LAYER003
  6
CONTINUOUS
 62
    7
 10
1524.5437000000002
 20
991.72759999999994
 11
1503.3429000000001
 21
965.73669999999993
  0
LINE
  8
_0-1_LAYER003
  6
CONTINUOUS
 62
    7
 10
1508.8078999999998
 20
933.53530000000001
 11
1510.7489999999998
 21
926.29089999999997
  0
LINE
  8
_0-1_LAYER003
  6
CONTINUOUS
 62
    7
 10
1508.8079060775767
 20
933.5352773178106
 11
1514.1111999999998
 21
928.23199999999997
  0
LINE
  8
_0-1_LAYER003
  6
CONTINUOUS
 62
    7
 10
1508.8079175290293
 20
933.53528247097063
 11
1535.6907000000001
 21
886.97280000000001
  0
LINE
  8
_0-1_LAYER003
  6
CONTINUOUS
 62
    7
 10
1535.6907000000001
 20
886.97280000000001
 11
1604.5130249307499
 21
886.92026788618364
  0
LINE
  8
_0-1_LAYER003
  6
CONTINUOUS
 62
    7
 10
1365.4760000000001
 20
950.93260000000009
 11
1367.4172000000001
 21
943.68820000000005
  0
LINE
  8
_0-1_LAYER003
  6
CONTINUOUS
 62
    7
 10
1367.4172000000001
 20
943.68820000000005
 11
1362.1138999999998
 21
948.99150000000009
  0
LINE
  8
_0-1_LAYER003
  6
CONTINUOUS
 62
    7
 10
1367.4172000000001
 20
943.68820000000005
 11
1302.6760999999999
 21
1055.8230000000001
  0
LINE
  8
_0-1_LAYER003
  6
CONTINUOUS
 62
    7
 10
1302.6760999999999
 20
1055.8230000000001
 11
1262.1760999999999
 21
1055.8230000000001
  0
LINE
  8
_0-1_LAYER003
  6
CONTINUOUS
 62
    7
 10
1281.9783000000002
 20
882.55780000000004
 11
1288.1344999999999
 21
868.87930000000006
  0
LINE
  8
_0-1_LAYER003
  6
CONTINUOUS
 62
    7
 10
1288.1344999999999
 20
868.87930000000006
 11
1315.4915000000001
 21
881.19170000000008
  0
LINE
  8
_0-1_LAYER003
  6
CONTINUOUS
 62
    7
 10
1315.4915000000001
 20
881.19170000000008
 11
1309.3353
 21
894.87020000000007
  0
LINE
  8
_0-1_LAYER003
  6
CONTINUOUS
 62
    7
 10
1309.3353
 20
894.87020000000007
 11
1281.9783000000002
 21
882.55780000000004
  0
LINE
  8
_0-1_LAYER003
  6
CONTINUOUS
 62
    7
 10
1288.1344999999999
 20
868.87930000000006
 11
1309.3353
 21
894.87020000000007
  0
LINE
  8
_0-1_LAYER003
  6
CONTINUOUS
 62
    7
 10
1300.5050000000001
 20
877.01890000000003
 11
1300.5050000000001
 21
869.51890000000003
  0
LINE
  8
_0-1_LAYER003
  6
CONTINUOUS
 62
    7
 10
1300.5050000000001
 20
877.01890000000003
 11
1304.2550000000001
 21
870.52369999999996
  0
LINE
  8
_0-1_LAYER003
  6
CONTINUOUS
 62
    7
 10
1300.5050000000001
 20
877.01890000000003
 11
1391.7667000000001
 21
536.42565000000002
  0
LINE
  8
_0-1_LAYER003
  6
CONTINUOUS
 62
    7
 10
1580.1372000000001
 20
596.38750000000005
 11
1375.6999683012803
 21
596.38750000000005
  0
LINE
  8
_0-0_LAYER001
  6
CONTINUOUS
 62
    2
 10
1391.7632773589164
 20
536.63302999999996
 11
1391.9154207955696
 21
536.63302999999996
  0
LINE
  8
_0-0_LAYER001
  6
CONTINUOUS
 62
    2
 10
1391.7111326881229
 20
536.63302999999996
 11
1393.53828411987
 21
536.63302999999996
  0
LINE
  8
_0-0_LAYER001
  6
CONTINUOUS
 62
    2
 10
1391.7111326881229
 20
536.63302999999996
 11
1648.4792000000002
 21
536.63302999999996
  0
LINE
  8
_0-0_LAYER001
  6
CONTINUOUS
 62
    2
 10
1300.5050000000001
 20
877.01890000000003
 11
1391.7146257197096
 21
536.61999383060504
  0
LINE
  8
_0-1_LAYER003
  6
CONTINUOUS
 62
    7
 10
1391.7111326881229
 20
536.63302999999996
 11
1648.4792000000002
 21
536.63302999999996
  0
LINE
  8
_0-1_LAYER003
  6
CONTINUOUS
 62
    7
 10
1362.2058999999999
 20
808.59040000000005
 11
1422.2058999999999
 21
808.59040000000005
  0
LINE
  8
_0-1_LAYER003
  6
CONTINUOUS
 62
    7
 10
1422.2058999999999
 20
808.59040000000005
 11
1443.7440000000001
 21
845.89540000000011
  0
LINE
  8
_0-1_LAYER003
  6
CONTINUOUS
 62
    7
 10
1443.7440000000001
 20
845.89540000000011
 11
1438.4407000000001
 21
840.59210000000007
  0
LINE
  8
_0-1_LAYER003
  6
CONTINUOUS
 62
    7
 10
1443.7440000000001
 20
845.89540000000011
 11
1441.8384770903092
 21
838.78377763795493
  0
LINE
  8
_0-1_LAYER003
  6
CONTINUOUS
 62
    7
 10
1446.9182000000001
 20
827.22399999999993
 11
1474.3569000000002
 21
839.28140000000008
  0
LINE
  8
_0-1_LAYER003
  6
CONTINUOUS
 62
    7
 10
1474.3569000000002
 20
839.28140000000008
 11
1470.3339000000001
 21
848.43650000000002
  0
LINE
  8
_0-1_LAYER003
  6
CONTINUOUS
 62
    7
 10
1470.3339000000001
 20
848.43650000000002
 11
1452.0502000000001
 21
840.40210000000002
  0
LINE
  8
_0-1_LAYER003
  6
CONTINUOUS
 62
    7
 10
1452.0502000000001
 20
840.40210000000002
 11
1425.2456000000002
 21
901.40069999999992
  0
LINE
  8
_0-1_LAYER003
  6
CONTINUOUS
 62
    7
 10
1425.2456000000002
 20
901.40069999999992
 11
1416.0905
 21
897.3777
  0
LINE
  8
_0-1_LAYER003
  6
CONTINUOUS
 62
    7
 10
1416.0905
 20
897.3777
 11
1446.9182000000001
 21
827.22399999999993
  0
LINE
  8
_0-1_LAYER003
  6
CONTINUOUS
 62
    7
 10
1066.7699
 20
785.70049999999992
 11
1072.9260999999999
 21
772.02199999999993
  0
LINE
  8
_0-1_LAYER003
  6
CONTINUOUS
 62
    7
 10
1072.9260999999999
 20
772.02199999999993
 11
1094.1269
 21
798.01279999999997
  0
LINE
  8
_0-1_LAYER003
  6
CONTINUOUS
 62
    7
 10
1094.1269
 20
798.01279999999997
 11
1100.2831000000001
 21
784.33429999999998
  0
LINE
  8
_0-1_LAYER003
  6
CONTINUOUS
 62
    7
 10
1100.2831000000001
 20
784.33429999999998
 11
1072.9260999999999
 21
772.02199999999993
  0
LINE
  8
_0-1_LAYER003
  6
CONTINUOUS
 62
    7
 10
1066.7699
 20
785.70049999999992
 11
1094.1269
 21
798.01279999999997
  0
LINE
  8
_0-1_LAYER003
  6
CONTINUOUS
 62
    7
 10
1084.0990922706967
 20
726.35010772968201
 11
1759.6860000000001
 21
1030.3648000000001
  0
LINE
  8
_0-1_LAYER003
  6
CONTINUOUS
 62
    7
 10
1923.9218000000001
 20
1074.2279000000001
 11
1976.4218000000001
 21
1074.2279000000001
  0
LINE
  8
_0-1_LAYER003
  6
CONTINUOUS
 62
    7
 10
1973.9218000000001
 20
1074.2279000000001
 11
1973.9218000000001
 21
1324.2279000000003
  0
LINE
  8
_0-1_LAYER003
  6
CONTINUOUS
 62
    7
 10
1976.4218000000001
 20
1324.2279000000003
 11
1923.9218000000001
 21
1324.2279000000003
  0
ARC
  8
_0-1_LAYER003
  6
CONTINUOUS
 62
    7
 10
1488.4142095280392
 20
1094.6126766281304
 40
173.15189785447657
 50
355.47336045193646
 51
15.861112576397753
  0
LINE
  8
_0-1_LAYER003
  6
CONTINUOUS
 62
    7
 10
1608.0488932960752
 20
962.12797094968562
 11
1571.3389999999999
 21
803.05189999999993
  0
LINE
  8
_0-1_LAYER003
  6
CONTINUOUS
 62
    7
 10
1598.8865999999998
 20
958.00489999999991
 11
1562.1779999999999
 21
798.92990000000009
  0
LINE
  8
_0-1_LAYER003
  6
CONTINUOUS
 62
    7
 10
1589.7257905063411
 20
953.882558860838
 11
1553.0160000000001
 21
794.80690000000004
  0
LINE
  8
_0-1_LAYER003
  6
CONTINUOUS
 62
    7
 10
1612.0295999999998
 20
797.34179999999992
 11
1633.2478575381003
 21
750.19655035573862
  0
LINE
  8
_0-1_LAYER003
  6
CONTINUOUS
 62
    7
 10
1759.6860000000001
 20
887.80809999999997
 11
1759.6860000000001
 21
719.40200000000004
  0
LINE
  8
_0-1_LAYER003
  6
CONTINUOUS
 62
    7
 10
1759.6860000000001
 20
887.80809999999997
 11
1142.9200000000001
 21
610.26389999999992
  0
LINE
  8
_0-1_LAYER003
  6
CONTINUOUS
 62
    7
 10
1241.2697000000001
 20
797.077
 11
1204.5599999999999
 21
638.00189999999998
  0
LINE
  8
_0-1_LAYER003
  6
CONTINUOUS
 62
    7
 10
1195.3991306759067
 20
633.87946626036432
 11
1232.1088999999999
 21
792.95460000000003
  0
LINE
  8
_0-1_LAYER003
  6
CONTINUOUS
 62
    7
 10
1222.9468999999999
 20
788.83169999999996
 11
1186.2371583396152
 21
629.75658613646306
  0
LINE
  8
_0-1_LAYER003
  6
CONTINUOUS
 62
    7
 10
1181.6128000000001
 20
603.62699999999995
 11
1203.1595
 21
555.75232000000005
  0
LINE
  8
_0-1_LAYER003
  6
CONTINUOUS
 62
    7
 10
1202.1334541898875
 20
558.03209438886131
 11
1847.7586000000001
 21
848.60419999999999
  0
LINE
  8
_0-1_LAYER003
  6
CONTINUOUS
 62
    7
 10
1848.4562575381003
 20
847.05395035573872
 11
1827.2379999999998
 21
894.19920000000002
  0
LINE
  8
_0-1_LAYER003
  6
CONTINUOUS
 62
    7
 10
1418.0395762817752
 20
653.33920379932351
 11
1396.8211999999999
 21
700.48440000000005
  0
LINE
  8
_0-1_LAYER003
  6
CONTINUOUS
 62
    7
 10
1391.7111326881229
 20
536.63302999999996
 11
1300.5050000000001
 21
877.01890000000003
  0
TEXT
  8
_0-2_LAYER004
 62
    7
 10
1061.8962835981847
 20
1020.1644947657567
 40
20
 41
1
 50
20.060507000000001
  1
235
  0
TEXT
  8
_0-2_LAYER004
 62
    7
 10
1270.4779418231046
 20
1134.1435429760954
 40
20
 41
1
 50
20.060507000000005
  1
235
  0
TEXT
  8
_0-2_LAYER004
 62
    7
 10
1297.8329133935858
 20
616.67866410115766
 40
20
 41
1
 50
20.060507000000037
  1
236
  0
TEXT
  8
_0-2_LAYER004
 62
    7
 10
1512.1135240290228
 20
707.86190266942867
 40
20
 41
1
 50
20.06050700000003
  1
236
  0
TEXT
  8
_0-2_LAYER004
 62
    7
 10
1714.9962298434257
 20
802.46451268400972
 40
20
 41
1
 50
20.060506999999973
  1
236
  0
TEXT
  8
_0-2_LAYER004
 62
    7
 10
1491.5972953511618
 20
1261.800076971675
 40
20
 41
1
 50
20.060506999999969
  1
306
  0
TEXT
  8
_0-0_LAYER001
 62
    7
 10
1245.40255121683
 20
1062.336742603582
 40
20
 41
1
 50
0
  1
桟　瓦　
  0
TEXT
  8
_0-2_LAYER004
 62
    7
 10
1378.7580376229264
 20
599.58180686960679
 40
20
 41
1
 50
0
  1
瓦桟：15x30以上
  0
TEXT
  8
_0-2_LAYER004
 62
    7
 10
1335.4459993029977
 20
811.58283654083687
 40
20
 41
1
 50
0
  1
アンカー
  0
TEXT
  8
_0-2_LAYER004
 62
    7
 10
1537.1889146352974
 20
891.368170288074
 40
20
 41
1
 50
0
  1
溶接金網
  0
TEXT
  8
_0-2_LAYER004
 62
    7
 10
1848.3517162495218
 20
975.71266596372448
 40
20
 41
1
 50
0
  1
葺　土
  0
TEXT
  8
_0-2_LAYER004
 62
    7
 10
1871.1475258915898
 20
1221.9074100980563
 40
20
 41
1
 50
90
  1
水切り立上がり寸法
  0
TEXT
  8
_0-2_LAYER004
 62
    7
 10
2005.6428027797892
 20
1094.2508761024769
 40
20
 41
1
 50
90
  1
下葺き材立上がり寸法
  0
TEXT
  8
_0-2_LAYER004
 62
    7
 10
1961.1909739777573
 20
1170.6168384034038
 40
20
 41
1
 50
90
  1
250
  0
TEXT
  8
_0-2_LAYER004
 62
    7
 10
1799.3407255190764
 20
1122.7456381550614
 40
20
 41
1
 50
0
  1
下地：40x30
  0
TEXT
  8
_0-0_LAYER001
 62
    7
 10
1827.8354875716609
 20
1278.8969342032258
 40
20
 41
1
 50
90
  1
100
  0
TEXT
  8
_0-0_LAYER001
 62
    7
 10
1825.5559066074543
 20
1339.3058297547052
 40
20
 41
1
 50
90
  1
20
  0
TEXT
  8
_0-2_LAYER004
 62
    7
 10
1573.6622100626055
 20
1460.1236208576643
 40
20
 41
1
 50
0
  1
シーリング
  0
TEXT
  8
_0-2_LAYER004
 62
    7
 10
1670.5444010413935
 20
1420.2309539840458
 40
20
 41
1
 50
0
  1
90
  0
TEXT
  8
_0-0_LAYER001
 62
    7
 10
1451.7046284775433
 20
1356.402686986256
 40
20
 41
1
 50
0
  1
笠木：15x105
  0
TEXT
  8
_0-0_LAYER001
 62
    7
 10
1403.833428229201
 20
1313.0906486663273
 40
20
 41
1
 50
0
  1
熨斗瓦２段積み
  0
LINE
  8
_0-2_LAYER004
  6
CONTINUOUS
 62
    7
 10
1370.7972999999997
 20
1389.7435999999998
 11
1275.0371037515181
 21
1389.7435999999998
  0
LINE
  8
_0-2_LAYER004
  6
CONTINUOUS
 62
    7
 10
1444.9879000000001
 20
1311.4834000000001
 11
1409.5323806397178
 21
1311.4834000000001
  0
LINE
  8
_0-2_LAYER004
  6
CONTINUOUS
 62
    7
 10
1600.9567000000002
 20
1458.8086000000001
 11
1578.2213719910192
 21
1458.8086000000001
  0
LINE
  8
_0-2_LAYER004
  6
CONTINUOUS
 62
    7
 10
1262.1760999999999
 20
1055.8230000000001
 11
1246.5423416989333
 21
1055.8230000000001
  0
LINE
  8
_0-2_LAYER004
  6
CONTINUOUS
 62
    7
 10
1362.2058999999999
 20
808.59040000000005
 11
1335.4459993029977
 21
808.59040000000005
  0
LINE
  8
_0-2_LAYER004
  6
CONTINUOUS
 62
    7
 10
1595.6907000000001
 20
886.97280000000001
 11
1624.9527817572582
 21
886.97280000000001
  0
LINE
  8
_0-2_LAYER004
  6
CONTINUOUS
 62
    7
 10
1648.4792000000002
 20
536.63302999999996
 11
1679.6627248982209
 21
536.63302999999996
  0
TEXT
  8
_0-0_LAYER001
 62
    7
 10
1394.8353659150193
 20
539.01283282663212
 40
20
 41
1
 50
0
  1
パーライト系モルタルｔ＝40
  0
TEXT
  8
_0-2_LAYER004
 62
    7
 10
1385.8092720163427
 20
567.59546350577568
 40
20
 41
1
 50
0
  1
下葺材：ルーフィング
  0
LINE
  8
_0-0_LAYER001
  6
CONTINUOUS
 62
    2
 10
1382.9974999999999
 20
566.72829999999999
 11
1609.2092720163428
 21
566.72829999999999
  0
LINE
  8
_0-1_LAYER003
  6
CONTINUOUS
 62
    7
 10
1383.6471281837498
 20
566.72829999999999
 11
1609.2092720163428
 21
566.72829999999999
  0
ENDSEC
  0
EOF
