  0
SECTION
  2
HEADER
  9
$ACADVER
  1
AC1009
  9
$INSBASE
 10
0
 20
0
 30
0
  9
$EXTMIN
 10
0
 20
0
  9
$EXTMAX
 10
2970
 20
2100
  9
$LIMMIN
 10
0
 20
0
  9
$LIMMAX
 10
2970
 20
2100
  9
$LTSCALE
 40
10
  0
ENDSEC
  0
SECTION
  2
TABLES
  0
TABLE
  2
LTYPE
 70
     9
  0
LTYPE
  2
CONTINUOUS
 70
    64
  3
実線
 72
    65
 73
     0
 40
0.0
  0
LTYPE
  2
DASHED1
 70
    64
  3
--  --  --  --  --  --  --  --  
 72
    65
 73
     2
 40
2.5
 49
1.25
 49
-1.25
  0
LTYPE
  2
DASHED2
 70
    64
  3
----    ----    ----    ----    
 72
    65
 73
     2
 40
5.0
 49
2.5
 49
-2.5
  0
LTYPE
  2
DASHED3
 70
    64
  3
------  ------  ------  ------  
 72
    65
 73
     2
 40
5.0
 49
3.75
 49
-1.25
  0
LTYPE
  2
CENTER1
 70
    64
  3
----- - ----- - ----- - ----- - 
 72
    65
 73
     4
 40
10.0
 49
6.25
 49
-1.25
 49
1.25
 49
-1.25
  0
LTYPE
  2
CENTER2
 70
    64
  3
----------  --  ----------  --  
 72
    65
 73
     4
 40
20.0
 49
12.5
 49
-2.5
 49
2.5
 49
-2.5
  0
LTYPE
  2
PHANTOM1
 70
    64
  3
--- - - --- - - --- - - --- - - 
 72
    65
 73
     6
 40
10.0
 49
3.25
 49
-1.25
 49
1.25
 49
-1.25
 49
1.25
 49
-1.25
  0
LTYPE
  2
PHANTOM2
 70
    64
  3
--------  -  -  --------  -  -  
 72
    65
 73
     6
 40
20.0
 49
10.0
 49
-2.5
 49
1.25
 49
-2.5
 49
1.25
 49
-2.5
  0
LTYPE
  2
DOT
 70
    64
  3
-   -   -   -   -   -   -   -   
 72
    65
 73
     2
 40
2.5
 49
0.625
 49
-1.875
  0
LTYPE
  2
DUMMY
 70
    64
  3
ダミー
 72
    65
 73
     0
 40
0.0
  0
LTYPE
  2
RAND1
 70
    64
  3
ランダム線1
 72
    65
 73
     4
 40
10.0
 49
1.0
 49
-2.0
 49
3.0
 49
-4.0
  0
LTYPE
  2
RAND2
 70
    64
  3
ランダム線2
 72
    65
 73
     4
 40
14.0
 49
2.0
 49
-3.0
 49
4.0
 49
-5.0
  0
LTYPE
  2
RAND3
 70
    64
  3
ランダム線3
 72
    65
 73
     4
 40
18.0
 49
3.0
 49
-4.0
 49
5.0
 49
-6.0
  0
LTYPE
  2
RAND4
 70
    64
  3
ランダム線4
 72
    65
 73
     4
 40
22.0
 49
4.0
 49
-5.0
 49
6.0
 49
-7.0
  0
LTYPE
  2
RAND5
 70
    64
  3
ランダム線5
 72
    65
 73
     4
 40
26.0
 49
5.0
 49
-6.0
 49
7.0
 49
-8.0
  0
LTYPE
  2
LONG1
 70
    64
  3
----------  --  ----------  --  
 72
    65
 73
     4
 40
40.0
 49
32.5
 49
-2.5
 49
2.5
 49
-2.5
  0
LTYPE
  2
LONG2
 70
    64
  3
--------  -  -  --------  -  -  
 72
    65
 73
     6
 40
40.0
 49
30.0
 49
-2.5
 49
1.25
 49
-2.5
 49
1.25
 49
-2.5
  0
LTYPE
  2
LONG3
 70
    64
  3
+++++++++++++++..+++++++++++++++
 72
    65
 73
     2
 40
40.0
 49
37.5
 49
-2.5
  0
LTYPE
  2
LONG4
 70
    64
  3
+++++++++++++++..+++++++++++++++
 72
    65
 73
     2
 40
80.0
 49
75.0
 49
-5.0
  0
LTYPE
  2
LONG5
 70
    64
  3
----------  --  ----------  --  
 72
    65
 73
     4
 40
60.0
 49
37.5
 49
-7.5
 49
7.5
 49
-7.5
  0
LTYPE
  2
dashed
 70
   64
  3
-------   -------------   ------
 72
   65
 73
    2
 40
7.5
 49
6
 49
-1.5
  0
LTYPE
  2
dashed_spaced
 70
   64
  3
----        --------        ----
 72
   65
 73
    2
 40
12
 49
6
 49
-6
  0
LTYPE
  2
long_dashed_dotted
 70
   64
  3
------------- --- --------------
 72
   65
 73
    4
 40
15.25
 49
12
 49
-1.5
 49
0.25
 49
-1.5
  0
LTYPE
  2
long_dashed_double-dotted
 70
   64
  3
----------- --- --- ------------
 72
   65
 73
    6
 40
17
 49
12
 49
-1.5
 49
0.25
 49
-1.5
 49
0.25
 49
-1.5
  0
LTYPE
  2
long_dashed_triplicate-dotted
 70
   64
  3
--------- --- --- --- ----------
 72
   65
 73
    8
 40
18.75
 49
12
 49
-1.5
 49
0.25
 49
-1.5
 49
0.25
 49
-1.5
 49
0.25
 49
-1.5
  0
LTYPE
  2
dotted
 70
   64
  3
   -       -       -       -    
 72
   65
 73
    2
 40
1.75
 49
0.25
 49
-1.5
  0
LTYPE
  2
chain
 70
   64
  3
-------------- -- --------------
 72
   65
 73
    4
 40
18.5
 49
12
 49
-1.5
 49
3.5
 49
-1.5
  0
LTYPE
  2
chain_double_dash
 70
   64
  3
------------ -- -- -------------
 72
   65
 73
    6
 40
23.5
 49
12
 49
-1.5
 49
3.5
 49
-1.5
 49
3.5
 49
-1.5
  0
LTYPE
  2
dashed_dotted
 70
   64
  3
-----------     -     ----------
 72
   65
 73
    4
 40
9.25
 49
6
 49
-1.5
 49
0.25
 49
-1.5
  0
LTYPE
  2
double-dashed_dotted
 70
   64
  3
------   -----------   -   -----
 72
   65
 73
    6
 40
16.75
 49
6
 49
-1.5
 49
6
 49
-1.5
 49
0.25
 49
-1.5
  0
LTYPE
  2
dashed_double-dotted
 70
   64
  3
---------    -    -    ---------
 72
   65
 73
    6
 40
11
 49
6
 49
-1.5
 49
0.25
 49
-1.5
 49
0.25
 49
-1.5
  0
LTYPE
  2
double-dashed_double-dotted
 70
   64
  3
-----   ---------   -   -   ----
 72
   65
 73
    8
 40
18.5
 49
6
 49
-1.5
 49
6
 49
-1.5
 49
0.25
 49
-1.5
 49
0.25
 49
-1.5
  0
LTYPE
  2
dashed_triplicate-dotted
 70
   64
  3
-------    -    -    -    ------
 72
   65
 73
    8
 40
12.75
 49
6
 49
-1.5
 49
0.25
 49
-1.5
 49
0.25
 49
-1.5
 49
0.25
 49
-1.5
  0
LTYPE
  2
double-dashed_triplicate-dotted
 70
   64
  3
-----  ---------  -  -  -  -----
 72
   65
 73
   10
 40
20.25
 49
6
 49
-1.5
 49
6
 49
-1.5
 49
0.25
 49
-1.5
 49
0.25
 49
-1.5
 49
0.25
 49
-1.5
  0
LTYPE
  2
undefined
 70
   64
  3
--------------------------------
 72
   65
 73
    0
 40
0
  0
ENDTAB
  0
TABLE
  2
STYLE
  5
3
100
AcDbSymbolTable
 70
     1
  0
STYLE
  5
10
100
AcDbSymbolTableRecord
100
AcDbTextStyleTableRecord
  2
STANDARD
 70
     0
 40
0.0
 41
1.0
 50
0.0
 71
     0
 42
0.2
  3
txt
  4
bigfont.shx
  0
STYLE
  5
26
100
AcDbSymbolTableRecord
100
AcDbTextStyleTableRecord
  2
TATEGAKI
 70
    68
 40
0.0
 41
1.0
 50
0.0
 71
     0
 42
1.0
  3
txt
  4
bigfont.shx
  0
ENDTAB
  0
TABLE
  2
LAYER
 70
    6
  0
LAYER
  2
_0-0_LAYER001
 70
   64
 62
    7
  6
CONTINUOUS
  0
LAYER
  2
_0-1_LAYER003
 70
   64
 62
    7
  6
CONTINUOUS
  0
LAYER
  2
_0-2_LAYER004
 70
   64
 62
    7
  6
CONTINUOUS
  0
LAYER
  2
_0-3_LAYER005
 70
   64
 62
    7
  6
CONTINUOUS
  0
LAYER
  2
_0-4_LAYER007
 70
   64
 62
    7
  6
CONTINUOUS
  0
LAYER
  2
ADD_LINE
 70
   64
 62
    7
  6
CONTINUOUS
  0
ENDTAB
  0
ENDSEC
  0
SECTION
  2
BLOCKS
  0
ENDSEC
  0
SECTION
  2
ENTITIES
  0
LINE
  8
_0-1_LAYER003
  6
CONTINUOUS
 62
    2
 10
778.36300000000006
 20
929.8886
 11
830.86300000000006
 21
929.8886
  0
CIRCLE
  8
_0-1_LAYER003
  6
CONTINUOUS
 62
    2
 10
780.86300000000006
 20
929.8886
 40
1.6999999999999997
  0
LINE
  8
_0-1_LAYER003
  6
CONTINUOUS
 62
    2
 10
780.86300000000006
 20
929.8886
 11
780.86300000000006
 21
1179.8886
  0
CIRCLE
  8
_0-1_LAYER003
  6
CONTINUOUS
 62
    2
 10
780.86300000000006
 20
1179.8886
 40
1.6999999999999997
  0
LINE
  8
_0-1_LAYER003
  6
CONTINUOUS
 62
    2
 10
778.36300000000006
 20
1179.8886
 11
830.86300000000006
 21
1179.8886
  0
LINE
  8
_0-1_LAYER003
  6
CONTINUOUS
 62
    2
 10
1242.3575000000001
 20
1049.3610000000001
 11
1237.0542
 21
1044.0577000000001
  0
LINE
  8
_0-1_LAYER003
  6
CONTINUOUS
 62
    2
 10
1237.0542
 20
1044.0577000000001
 11
1238.9954
 21
1051.3021000000001
  0
LINE
  8
_0-1_LAYER003
  6
CONTINUOUS
 62
    2
 10
1237.0542
 20
1044.0577000000001
 11
1297.9908
 21
1149.6030000000001
  0
LINE
  8
_0-1_LAYER003
  6
CONTINUOUS
 62
    2
 10
1297.9908
 20
1149.6030000000001
 11
1411.9908
 21
1149.6030000000001
  0
LINE
  8
_0-0_LAYER001
  6
CONTINUOUS
 62
    2
 10
1115.9695999999999
 20
829.74299999999994
 11
1115.9695999999999
 21
882.24299999999994
  0
CIRCLE
  8
_0-0_LAYER001
  6
CONTINUOUS
 62
    2
 10
1115.9695999999999
 20
832.24299999999994
 40
1.6999999999999997
  0
LINE
  8
_0-0_LAYER001
  6
CONTINUOUS
 62
    2
 10
1115.9695999999999
 20
832.24299999999994
 11
1265.9695999999999
 21
832.24299999999994
  0
CIRCLE
  8
_0-0_LAYER001
  6
CONTINUOUS
 62
    2
 10
1265.9695999999999
 20
832.24299999999994
 40
1.6999999999999997
  0
LINE
  8
_0-0_LAYER001
  6
CONTINUOUS
 62
    2
 10
1265.9695999999999
 20
829.74299999999994
 11
1265.9695999999999
 21
882.24299999999994
  0
LINE
  8
_0-0_LAYER001
  6
CONTINUOUS
 62
    2
 10
1133.4322
 20
931.85339999999997
 11
1138.7355
 21
937.1567
  0
LINE
  8
_0-0_LAYER001
  6
CONTINUOUS
 62
    2
 10
1138.7355
 20
937.1567
 11
1136.7943
 21
929.91229999999996
  0
LINE
  8
_0-0_LAYER001
  6
CONTINUOUS
 62
    2
 10
1138.7355
 20
937.1567
 11
1086.6469
 21
846.93669999999997
  0
LINE
  8
_0-0_LAYER001
  6
CONTINUOUS
 62
    2
 10
1086.6469
 20
846.93669999999997
 11
852.64689999999996
 21
846.93669999999997
  0
LINE
  8
_0-1_LAYER003
  6
DASHED3
 62
    2
 10
1118.2926
 20
932.38560000000007
 11
2204.6369
 21
932.38560000000007
  0
LINE
  8
_0-1_LAYER003
  6
CONTINUOUS
 62
    2
 10
1712.0992000000001
 20
983.13010000000008
 11
1706.7959000000001
 21
977.82680000000005
  0
LINE
  8
_0-1_LAYER003
  6
CONTINUOUS
 62
    2
 10
1706.7959000000001
 20
977.82680000000005
 11
1708.7370999999998
 21
985.07130000000006
  0
LINE
  8
_0-1_LAYER003
  6
CONTINUOUS
 62
    2
 10
1706.7959000000001
 20
977.82680000000005
 11
1775.3638000000001
 21
1096.5898
  0
LINE
  8
_0-1_LAYER003
  6
CONTINUOUS
 62
    2
 10
1775.3638000000001
 20
1096.5898
 11
1815.8638000000001
 21
1096.5898
  0
LINE
  8
_0-0_LAYER001
  6
CONTINUOUS
 62
    2
 10
1150.0703000000001
 20
1013.6111000000001
 11
1155.3735999999999
 21
1018.9143999999999
  0
LINE
  8
_0-0_LAYER001
  6
CONTINUOUS
 62
    2
 10
1155.3735999999999
 20
1018.9143999999999
 11
1153.4324999999999
 21
1011.6699000000001
  0
LINE
  8
_0-0_LAYER001
  6
CONTINUOUS
 62
    2
 10
1155.3735999999999
 20
1018.9143999999999
 11
1078.4929999999999
 21
885.75320000000011
  0
LINE
  8
_0-0_LAYER001
  6
CONTINUOUS
 62
    2
 10
1078.4929999999999
 20
885.75320000000011
 11
1000.5316
 21
885.75320000000011
  0
LINE
  8
_0-0_LAYER001
  6
CONTINUOUS
 62
    2
 10
1792.5603999999998
 20
658.65650000000005
 11
1997.3831
 21
658.65650000000005
  0
LINE
  8
_0-0_LAYER001
  6
CONTINUOUS
 62
    2
 10
1717.7507999999998
 20
931.78790000000004
 11
1717.7507999999998
 21
939.28790000000004
  0
LINE
  8
_0-0_LAYER001
  6
CONTINUOUS
 62
    2
 10
1717.7507999999998
 20
939.28790000000004
 11
1721.5007999999998
 21
932.79269999999997
  0
LINE
  8
_0-0_LAYER001
  6
CONTINUOUS
 62
    2
 10
1717.7507999999998
 20
939.28790000000004
 11
1800.8928999999998
 21
628.9973
  0
LINE
  8
_0-0_LAYER001
  6
CONTINUOUS
 62
    3
 10
1160.7655999999999
 20
1045.9366
 11
1160.7882
 21
1045.4712999999999
  0
LINE
  8
_0-0_LAYER001
  6
CONTINUOUS
 62
    3
 10
1160.7882
 20
1045.4712999999999
 11
1160.8497
 21
1044.2085999999999
  0
LINE
  8
_0-0_LAYER001
  6
CONTINUOUS
 62
    3
 10
1160.8497
 20
1044.2085999999999
 11
1160.9403
 21
1042.3477
  0
LINE
  8
_0-0_LAYER001
  6
CONTINUOUS
 62
    3
 10
1160.9403
 20
1042.3477
 11
1161.0503000000001
 21
1040.088
  0
LINE
  8
_0-0_LAYER001
  6
CONTINUOUS
 62
    3
 10
1161.0503000000001
 20
1040.088
 11
1161.1700000000001
 21
1037.6288999999999
  0
LINE
  8
_0-0_LAYER001
  6
CONTINUOUS
 62
    3
 10
1161.1700000000001
 20
1037.6288999999999
 11
1161.2897
 21
1035.1699000000001
  0
LINE
  8
_0-0_LAYER001
  6
CONTINUOUS
 62
    3
 10
1161.2897
 20
1035.1699000000001
 11
1161.3996999999999
 21
1032.9102
  0
LINE
  8
_0-0_LAYER001
  6
CONTINUOUS
 62
    3
 10
1161.3996999999999
 20
1032.9102
 11
1161.4902999999999
 21
1031.0492999999999
  0
LINE
  8
_0-0_LAYER001
  6
CONTINUOUS
 62
    3
 10
1161.4902999999999
 20
1031.0492999999999
 11
1161.5518
 21
1029.7864999999999
  0
LINE
  8
_0-0_LAYER001
  6
CONTINUOUS
 62
    3
 10
1161.5518
 20
1029.7864999999999
 11
1161.5744
 21
1029.3213000000001
  0
LINE
  8
_0-0_LAYER001
  6
CONTINUOUS
 62
    3
 10
1161.5744
 20
1029.3213000000001
 11
1162.7195999999999
 21
1029.3969
  0
LINE
  8
_0-0_LAYER001
  6
CONTINUOUS
 62
    3
 10
1162.7195999999999
 20
1029.3969
 11
1166.0949000000001
 21
1029.4656
  0
LINE
  8
_0-0_LAYER001
  6
CONTINUOUS
 62
    3
 10
1166.0949000000001
 20
1029.4656
 11
1171.6098999999999
 21
1029.2896000000001
  0
LINE
  8
_0-0_LAYER001
  6
CONTINUOUS
 62
    3
 10
1171.6098999999999
 20
1029.2896000000001
 11
1179.1744000000001
 21
1028.6315
  0
LINE
  8
_0-0_LAYER001
  6
CONTINUOUS
 62
    3
 10
1179.1744000000001
 20
1028.6315
 11
1188.6980000000001
 21
1027.2537
  0
LINE
  8
_0-0_LAYER001
  6
CONTINUOUS
 62
    3
 10
1188.6980000000001
 20
1027.2537
 11
1200.0905
 21
1024.9185
  0
LINE
  8
_0-0_LAYER001
  6
CONTINUOUS
 62
    3
 10
1200.0905
 20
1024.9185
 11
1213.2614000000001
 21
1021.3886
  0
LINE
  8
_0-0_LAYER001
  6
CONTINUOUS
 62
    3
 10
1213.2614000000001
 20
1021.3886
 11
1228.1205
 21
1016.4262000000001
  0
LINE
  8
_0-0_LAYER001
  6
CONTINUOUS
 62
    3
 10
1228.1205
 20
1016.4262000000001
 11
1244.5775000000001
 21
1009.7937999999999
  0
LINE
  8
_0-0_LAYER001
  6
CONTINUOUS
 62
    3
 10
1244.5775000000001
 20
1009.7937999999999
 11
1262.5419999999999
 21
1001.2538999999999
  0
LINE
  8
_0-0_LAYER001
  6
CONTINUOUS
 62
    3
 10
1262.5419999999999
 20
1001.2538999999999
 11
1262.5051000000001
 21
1002.011
  0
LINE
  8
_0-0_LAYER001
  6
CONTINUOUS
 62
    3
 10
1262.5051000000001
 20
1002.011
 11
1262.4050999999999
 21
1004.0662
  0
LINE
  8
_0-0_LAYER001
  6
CONTINUOUS
 62
    3
 10
1262.4050999999999
 20
1004.0662
 11
1262.2575999999999
 21
1007.0947000000001
  0
LINE
  8
_0-0_LAYER001
  6
CONTINUOUS
 62
    3
 10
1262.2575999999999
 20
1007.0947000000001
 11
1262.0786000000001
 21
1010.7723000000001
  0
LINE
  8
_0-0_LAYER001
  6
CONTINUOUS
 62
    3
 10
1262.0786000000001
 20
1010.7723000000001
 11
1261.8838000000001
 21
1014.7744
  0
LINE
  8
_0-0_LAYER001
  6
CONTINUOUS
 62
    3
 10
1261.8838000000001
 20
1014.7744
 11
1261.6889000000001
 21
1018.7764
  0
LINE
  8
_0-0_LAYER001
  6
CONTINUOUS
 62
    3
 10
1261.6889000000001
 20
1018.7764
 11
1261.5099
 21
1022.454
  0
LINE
  8
_0-0_LAYER001
  6
CONTINUOUS
 62
    3
 10
1261.5099
 20
1022.454
 11
1261.3625
 21
1025.4826
  0
LINE
  8
_0-0_LAYER001
  6
CONTINUOUS
 62
    3
 10
1261.3625
 20
1025.4826
 11
1261.2624000000001
 21
1027.5377000000001
  0
LINE
  8
_0-0_LAYER001
  6
CONTINUOUS
 62
    3
 10
1261.2624000000001
 20
1027.5377000000001
 11
1261.2256
 21
1028.2947999999999
  0
LINE
  8
_0-0_LAYER001
  6
CONTINUOUS
 62
    3
 10
1261.2256
 20
1028.2947999999999
 11
1259.5319999999999
 21
1028.7991999999999
  0
LINE
  8
_0-0_LAYER001
  6
CONTINUOUS
 62
    3
 10
1259.5319999999999
 20
1028.7991999999999
 11
1254.7573
 21
1030.1666
  0
LINE
  8
_0-0_LAYER001
  6
CONTINUOUS
 62
    3
 10
1254.7573
 20
1030.1666
 11
1247.3611000000001
 21
1032.1783
  0
LINE
  8
_0-0_LAYER001
  6
CONTINUOUS
 62
    3
 10
1247.3611000000001
 20
1032.1783
 11
1237.8025
 21
1034.6157000000001
  0
LINE
  8
_0-0_LAYER001
  6
CONTINUOUS
 62
    3
 10
1237.8025
 20
1034.6157000000001
 11
1226.5409999999999
 21
1037.2602999999999
  0
LINE
  8
_0-0_LAYER001
  6
CONTINUOUS
 62
    3
 10
1226.5409999999999
 20
1037.2602999999999
 11
1214.0358000000001
 21
1039.8932
  0
LINE
  8
_0-0_LAYER001
  6
CONTINUOUS
 62
    3
 10
1214.0358000000001
 20
1039.8932
 11
1200.7463
 21
1042.296
  0
LINE
  8
_0-0_LAYER001
  6
CONTINUOUS
 62
    3
 10
1200.7463
 20
1042.296
 11
1187.1319000000001
 21
1044.2499
  0
LINE
  8
_0-0_LAYER001
  6
CONTINUOUS
 62
    3
 10
1187.1319000000001
 20
1044.2499
 11
1173.6519000000001
 21
1045.5363
  0
LINE
  8
_0-0_LAYER001
  6
CONTINUOUS
 62
    3
 10
1160.7655999999999
 20
1045.9366
 11
1173.7648999999999
 21
1045.5255
  0
LINE
  8
_0-0_LAYER001
  6
CONTINUOUS
 62
    3
 10
1149.6646000000001
 20
1077.3414
 11
1149.6872000000001
 21
1076.8761
  0
LINE
  8
_0-0_LAYER001
  6
CONTINUOUS
 62
    3
 10
1149.6872000000001
 20
1076.8761
 11
1149.7487000000001
 21
1075.6134
  0
LINE
  8
_0-0_LAYER001
  6
CONTINUOUS
 62
    3
 10
1149.7487000000001
 20
1075.6134
 11
1149.8393000000001
 21
1073.7525000000001
  0
LINE
  8
_0-0_LAYER001
  6
CONTINUOUS
 62
    3
 10
1149.8393000000001
 20
1073.7525000000001
 11
1149.9493
 21
1071.4928
  0
LINE
  8
_0-0_LAYER001
  6
CONTINUOUS
 62
    3
 10
1149.9493
 20
1071.4928
 11
1150.069
 21
1069.0337
  0
LINE
  8
_0-0_LAYER001
  6
CONTINUOUS
 62
    3
 10
1150.069
 20
1069.0337
 11
1150.1886999999999
 21
1066.5745999999999
  0
LINE
  8
_0-0_LAYER001
  6
CONTINUOUS
 62
    3
 10
1150.1886999999999
 20
1066.5745999999999
 11
1150.2987000000001
 21
1064.3150000000001
  0
LINE
  8
_0-0_LAYER001
  6
CONTINUOUS
 62
    3
 10
1150.2987000000001
 20
1064.3150000000001
 11
1150.3893
 21
1062.454
  0
LINE
  8
_0-0_LAYER001
  6
CONTINUOUS
 62
    3
 10
1150.3893
 20
1062.454
 11
1150.4508000000001
 21
1061.1913
  0
LINE
  8
_0-0_LAYER001
  6
CONTINUOUS
 62
    3
 10
1150.4508000000001
 20
1061.1913
 11
1150.4734000000001
 21
1060.7261000000001
  0
LINE
  8
_0-0_LAYER001
  6
CONTINUOUS
 62
    3
 10
1150.4734000000001
 20
1060.7261000000001
 11
1151.6186
 21
1060.8017
  0
LINE
  8
_0-0_LAYER001
  6
CONTINUOUS
 62
    3
 10
1151.6186
 20
1060.8017
 11
1154.9938999999999
 21
1060.8704
  0
LINE
  8
_0-0_LAYER001
  6
CONTINUOUS
 62
    3
 10
1154.9938999999999
 20
1060.8704
 11
1160.5089
 21
1060.6944000000001
  0
LINE
  8
_0-0_LAYER001
  6
CONTINUOUS
 62
    3
 10
1160.5089
 20
1060.6944000000001
 11
1168.0734
 21
1060.0363
  0
LINE
  8
_0-0_LAYER001
  6
CONTINUOUS
 62
    3
 10
1168.0734
 20
1060.0363
 11
1177.597
 21
1058.6585
  0
LINE
  8
_0-0_LAYER001
  6
CONTINUOUS
 62
    3
 10
1177.597
 20
1058.6585
 11
1188.9894999999999
 21
1056.3233
  0
LINE
  8
_0-0_LAYER001
  6
CONTINUOUS
 62
    3
 10
1188.9894999999999
 20
1056.3233
 11
1202.1604
 21
1052.7934
  0
LINE
  8
_0-0_LAYER001
  6
CONTINUOUS
 62
    3
 10
1202.1604
 20
1052.7934
 11
1217.0195000000001
 21
1047.8309999999999
  0
LINE
  8
_0-0_LAYER001
  6
CONTINUOUS
 62
    3
 10
1217.0195000000001
 20
1047.8309999999999
 11
1233.4765
 21
1041.1985999999999
  0
LINE
  8
_0-0_LAYER001
  6
CONTINUOUS
 62
    3
 10
1233.4765
 20
1041.1985999999999
 11
1251.441
 21
1032.6587
  0
LINE
  8
_0-0_LAYER001
  6
CONTINUOUS
 62
    3
 10
1251.441
 20
1032.6587
 11
1251.4041
 21
1033.4158
  0
LINE
  8
_0-0_LAYER001
  6
CONTINUOUS
 62
    3
 10
1251.4041
 20
1033.4158
 11
1251.3041000000001
 21
1035.4709
  0
LINE
  8
_0-0_LAYER001
  6
CONTINUOUS
 62
    3
 10
1251.3041000000001
 20
1035.4709
 11
1251.1566
 21
1038.4994999999999
  0
LINE
  8
_0-0_LAYER001
  6
CONTINUOUS
 62
    3
 10
1251.1566
 20
1038.4994999999999
 11
1250.9775999999999
 21
1042.1771000000001
  0
LINE
  8
_0-0_LAYER001
  6
CONTINUOUS
 62
    3
 10
1250.9775999999999
 20
1042.1771000000001
 11
1250.7828
 21
1046.1791000000001
  0
LINE
  8
_0-0_LAYER001
  6
CONTINUOUS
 62
    3
 10
1250.7828
 20
1046.1791000000001
 11
1250.5879
 21
1050.1812
  0
LINE
  8
_0-0_LAYER001
  6
CONTINUOUS
 62
    3
 10
1250.5879
 20
1050.1812
 11
1250.4088999999999
 21
1053.8588
  0
LINE
  8
_0-0_LAYER001
  6
CONTINUOUS
 62
    3
 10
1250.4088999999999
 20
1053.8588
 11
1250.2615000000001
 21
1056.8874000000001
  0
LINE
  8
_0-0_LAYER001
  6
CONTINUOUS
 62
    3
 10
1250.2615000000001
 20
1056.8874000000001
 11
1250.1614
 21
1058.9425000000001
  0
LINE
  8
_0-0_LAYER001
  6
CONTINUOUS
 62
    3
 10
1250.1614
 20
1058.9425000000001
 11
1250.1246000000001
 21
1059.6995999999999
  0
LINE
  8
_0-0_LAYER001
  6
CONTINUOUS
 62
    3
 10
1250.1246000000001
 20
1059.6995999999999
 11
1248.431
 21
1060.204
  0
LINE
  8
_0-0_LAYER001
  6
CONTINUOUS
 62
    3
 10
1248.431
 20
1060.204
 11
1243.6563000000001
 21
1061.5714
  0
LINE
  8
_0-0_LAYER001
  6
CONTINUOUS
 62
    3
 10
1243.6563000000001
 20
1061.5714
 11
1236.2601
 21
1063.5831000000001
  0
LINE
  8
_0-0_LAYER001
  6
CONTINUOUS
 62
    3
 10
1236.2601
 20
1063.5831000000001
 11
1226.7014999999999
 21
1066.0205000000001
  0
LINE
  8
_0-0_LAYER001
  6
CONTINUOUS
 62
    3
 10
1226.7014999999999
 20
1066.0205000000001
 11
1215.4400000000001
 21
1068.6650999999999
  0
LINE
  8
_0-0_LAYER001
  6
CONTINUOUS
 62
    3
 10
1215.4400000000001
 20
1068.6650999999999
 11
1202.9348
 21
1071.298
  0
LINE
  8
_0-0_LAYER001
  6
CONTINUOUS
 62
    3
 10
1202.9348
 20
1071.298
 11
1189.6452999999999
 21
1073.7008000000001
  0
LINE
  8
_0-0_LAYER001
  6
CONTINUOUS
 62
    3
 10
1189.6452999999999
 20
1073.7008000000001
 11
1176.0309
 21
1075.6547
  0
LINE
  8
_0-0_LAYER001
  6
CONTINUOUS
 62
    3
 10
1176.0309
 20
1075.6547
 11
1162.5509
 21
1076.9411
  0
LINE
  8
_0-0_LAYER001
  6
CONTINUOUS
 62
    3
 10
1149.6646000000001
 20
1077.3414
 11
1162.6639
 21
1076.9303
  0
LINE
  8
_0-2_LAYER004
  6
CONTINUOUS
 62
    2
 10
1231.5175999999999
 20
1074.3246999999999
 11
1227.5237999999999
 21
1080.3088
  0
LINE
  8
_0-0_LAYER001
  6
CONTINUOUS
 62
    2
 10
1127.8554999999999
 20
1093.7711999999999
 11
1116.1557
 21
1093.7711999999999
  0
LINE
  8
_0-0_LAYER001
  6
CONTINUOUS
 62
    2
 10
1068.1557
 20
1073.7711999999999
 11
1073.1558
 21
1076.7711999999999
  0
LINE
  8
_0-0_LAYER001
  6
CONTINUOUS
 62
    2
 10
1073.1558
 20
1070.7713000000001
 11
1068.1557
 21
1073.7711999999999
  0
LINE
  8
_0-0_LAYER001
  6
CONTINUOUS
 62
    2
 10
1074.2307000000001
 20
1070.7713000000001
 11
1071.3816999999999
 21
1075.7073
  0
LINE
  8
_0-0_LAYER001
  6
CONTINUOUS
 62
    2
 10
1140.1558
 20
1070.7713000000001
 11
1140.1558
 21
1076.7711999999999
  0
LINE
  8
_0-0_LAYER001
  6
CONTINUOUS
 62
    2
 10
1146.1557
 20
1067.7710999999999
 11
1146.1557
 21
1079.7713000000001
  0
LINE
  8
_0-0_LAYER001
  6
CONTINUOUS
 62
    2
 10
1137.2688000000001
 20
1070.7713000000001
 11
1133.8056999999999
 21
1076.7711999999999
  0
LINE
  8
_0-0_LAYER001
  6
CONTINUOUS
 62
    2
 10
1146.1557
 20
1067.7710999999999
 11
1140.1558
 21
1070.7713000000001
  0
LINE
  8
_0-0_LAYER001
  6
CONTINUOUS
 62
    2
 10
1140.1558
 20
1076.7711999999999
 11
1146.1557
 21
1079.7713000000001
  0
LINE
  8
_0-0_LAYER001
  6
CONTINUOUS
 62
    2
 10
1073.1558
 20
1076.7711999999999
 11
1083.1708000000001
 21
1076.7711999999999
  0
LINE
  8
_0-0_LAYER001
  6
CONTINUOUS
 62
    2
 10
1091.8226999999999
 20
1072.2982999999999
 11
1089.9286999999999
 21
1075.5793000000001
  0
LINE
  8
_0-0_LAYER001
  6
CONTINUOUS
 62
    2
 10
1083.4386999999999
 20
1070.8202000000001
 11
1080.0038
 21
1076.7711999999999
  0
LINE
  8
_0-0_LAYER001
  6
CONTINUOUS
 62
    2
 10
1073.1558
 20
1070.7713000000001
 11
1083.1627000000001
 21
1070.7713000000001
  0
LINE
  8
_0-0_LAYER001
  6
CONTINUOUS
 62
    2
 10
1075.3067000000001
 20
1080.4943000000001
 11
1074.9067
 21
1078.2282
  0
LINE
  8
_0-0_LAYER001
  6
CONTINUOUS
 62
    2
 10
1075.4797000000001
 20
1067.0813000000001
 11
1075.0817999999999
 21
1069.3462
  0
LINE
  8
_0-0_LAYER001
  6
CONTINUOUS
 62
    2
 10
1079.8997999999999
 20
1079.4802999999999
 11
1078.2257
 21
1079.7752
  0
LINE
  8
_0-0_LAYER001
  6
CONTINUOUS
 62
    2
 10
1084.2327
 20
1078.7163
 11
1082.5598
 21
1079.0111999999999
  0
LINE
  8
_0-0_LAYER001
  6
CONTINUOUS
 62
    2
 10
1088.5658000000001
 20
1077.9521999999999
 11
1086.8928000000001
 21
1078.2473
  0
LINE
  8
_0-0_LAYER001
  6
CONTINUOUS
 62
    2
 10
1088.8619000000001
 20
1079.6252999999999
 11
1097.9558
 21
1078.0224000000001
  0
LINE
  8
_0-0_LAYER001
  6
CONTINUOUS
 62
    2
 10
1084.5288
 20
1080.3892000000001
 11
1087.1877999999999
 21
1079.9202
  0
LINE
  8
_0-0_LAYER001
  6
CONTINUOUS
 62
    2
 10
1080.1958
 20
1081.1532999999999
 11
1082.8547000000001
 21
1080.6842999999999
  0
LINE
  8
_0-0_LAYER001
  6
CONTINUOUS
 62
    2
 10
1077.0438999999999
 20
1081.7092
 11
1078.5217
 21
1081.4481000000001
  0
LINE
  8
_0-0_LAYER001
  6
CONTINUOUS
 62
    2
 10
1078.2257
 20
1079.7752
 11
1078.5217
 21
1081.4492
  0
LINE
  8
_0-0_LAYER001
  6
CONTINUOUS
 62
    2
 10
1079.8997999999999
 20
1079.4802999999999
 11
1080.1958
 21
1081.1542999999999
  0
LINE
  8
_0-0_LAYER001
  6
CONTINUOUS
 62
    2
 10
1082.5587
 20
1079.0111999999999
 11
1082.8547000000001
 21
1080.6853000000001
  0
LINE
  8
_0-0_LAYER001
  6
CONTINUOUS
 62
    2
 10
1084.2327
 20
1078.7163
 11
1084.5288
 21
1080.3902
  0
LINE
  8
_0-0_LAYER001
  6
CONTINUOUS
 62
    2
 10
1086.8916999999999
 20
1078.2473
 11
1087.1877999999999
 21
1079.9212
  0
LINE
  8
_0-0_LAYER001
  6
CONTINUOUS
 62
    2
 10
1088.5658000000001
 20
1077.9521999999999
 11
1088.8619000000001
 21
1079.6261999999999
  0
LINE
  8
_0-0_LAYER001
  6
CONTINUOUS
 62
    2
 10
1080.0746999999999
 20
1068.0942
 11
1078.4006999999999
 21
1067.7991999999999
  0
LINE
  8
_0-0_LAYER001
  6
CONTINUOUS
 62
    2
 10
1084.4077
 20
1068.8583000000001
 11
1082.7337
 21
1068.5633
  0
LINE
  8
_0-0_LAYER001
  6
CONTINUOUS
 62
    2
 10
1088.7407000000001
 20
1069.6222
 11
1087.0668000000001
 21
1069.3271999999999
  0
LINE
  8
_0-0_LAYER001
  6
CONTINUOUS
 62
    2
 10
1088.7397000000001
 20
1069.6222
 11
1089.0358000000001
 21
1067.9493
  0
LINE
  8
_0-0_LAYER001
  6
CONTINUOUS
 62
    2
 10
1087.0658000000001
 20
1069.3271999999999
 11
1087.3619000000001
 21
1067.6541999999999
  0
LINE
  8
_0-0_LAYER001
  6
CONTINUOUS
 62
    2
 10
1084.4067
 20
1068.8583000000001
 11
1084.7027
 21
1067.1851999999999
  0
LINE
  8
_0-0_LAYER001
  6
CONTINUOUS
 62
    2
 10
1082.7327
 20
1068.5633
 11
1083.0288
 21
1066.8903
  0
LINE
  8
_0-0_LAYER001
  6
CONTINUOUS
 62
    2
 10
1080.0737999999999
 20
1068.0942
 11
1080.3697
 21
1066.4212
  0
LINE
  8
_0-0_LAYER001
  6
CONTINUOUS
 62
    2
 10
1078.3996999999999
 20
1067.7991999999999
 11
1078.6958
 21
1066.1262999999999
  0
LINE
  8
_0-0_LAYER001
  6
CONTINUOUS
 62
    2
 10
1089.0358000000001
 20
1067.9493
 11
1097.9558
 21
1069.5211999999999
  0
LINE
  8
_0-0_LAYER001
  6
CONTINUOUS
 62
    2
 10
1084.7027
 20
1067.1851999999999
 11
1087.3619000000001
 21
1067.6541999999999
  0
LINE
  8
_0-0_LAYER001
  6
CONTINUOUS
 62
    2
 10
1080.3697
 20
1066.4212
 11
1083.0288
 21
1066.8903
  0
LINE
  8
_0-0_LAYER001
  6
CONTINUOUS
 62
    2
 10
1077.2186999999999
 20
1065.8652
 11
1078.6958
 21
1066.1251999999999
  0
LINE
  8
_0-0_LAYER001
  6
CONTINUOUS
 62
    2
 10
1100.1796999999999
 20
1073.7723000000001
 11
1074.9067
 21
1078.2282
  0
LINE
  8
_0-0_LAYER001
  6
CONTINUOUS
 62
    2
 10
1100.1796999999999
 20
1073.7723000000001
 11
1075.0817999999999
 21
1069.3462
  0
LINE
  8
_0-0_LAYER001
  6
CONTINUOUS
 62
    2
 10
1116.1557
 20
1078.0211999999999
 11
1097.9558
 21
1078.0211999999999
  0
LINE
  8
_0-0_LAYER001
  6
CONTINUOUS
 62
    2
 10
1116.1557
 20
1069.5211999999999
 11
1097.9558
 21
1069.5211999999999
  0
LINE
  8
_0-0_LAYER001
  6
CONTINUOUS
 62
    2
 10
1116.1557
 20
1069.5211999999999
 11
1116.1557
 21
1078.0211999999999
  0
LINE
  8
_0-0_LAYER001
  6
CONTINUOUS
 62
    2
 10
1146.1557
 20
1053.7711999999999
 11
1116.1557
 21
1053.7711999999999
  0
LINE
  8
_0-0_LAYER001
  6
CONTINUOUS
 62
    2
 10
1116.1557
 20
1076.7711999999999
 11
1140.1558
 21
1076.7711999999999
  0
LINE
  8
_0-0_LAYER001
  6
CONTINUOUS
 62
    2
 10
1116.1557
 20
1070.7713000000001
 11
1140.1558
 21
1070.7713000000001
  0
LINE
  8
_0-0_LAYER001
  6
CONTINUOUS
 62
    2
 10
1131.5455999999999
 20
1070.7713000000001
 11
1128.0826
 21
1076.7711999999999
  0
LINE
  8
_0-0_LAYER001
  6
CONTINUOUS
 62
    2
 10
1125.8225
 20
1070.7713000000001
 11
1122.3594000000001
 21
1076.7711999999999
  0
LINE
  8
_0-0_LAYER001
  6
CONTINUOUS
 62
    2
 10
1120.0994000000001
 20
1070.7713000000001
 11
1116.6362999999999
 21
1076.7711999999999
  0
LINE
  8
_0-0_LAYER001
  6
CONTINUOUS
 62
    2
 10
1146.1557
 20
1053.7711999999999
 11
1146.1557
 21
1091.3082999999999
  0
LINE
  8
_0-0_LAYER001
  6
CONTINUOUS
 62
    2
 10
1116.1557
 20
1053.7711999999999
 11
1144.4168
 21
1091.4527
  0
ARC
  8
_0-0_LAYER001
  6
CONTINUOUS
 62
    2
 10
1076.7917
 20
1080.2273
 40
1.5049999999999999
 50
80.362472000000011
 51
169.54873000000001
  0
ARC
  8
_0-0_LAYER001
  6
CONTINUOUS
 62
    2
 10
1076.9597000000001
 20
1067.3442
 40
1.4969999999999999
 50
189.85266999999999
 51
280.16100999999998
  0
LINE
  8
_0-0_LAYER001
  6
CONTINUOUS
 62
    2
 10
1148.6457
 20
1103.5659000000001
 11
1140.575
 21
1107.3286000000001
  0
LINE
  8
_0-0_LAYER001
  6
CONTINUOUS
 62
    2
 10
1134.2059999999999
 20
1078.7448999999999
 11
1128.7497000000001
 21
1071.6769999999999
  0
LINE
  8
_0-0_LAYER001
  6
CONTINUOUS
 62
    2
 10
1142.2574999999999
 20
1104.7840000000001
 11
1130.8468
 21
1080.3112000000001
  0
LINE
  8
_0-0_LAYER001
  6
CONTINUOUS
 62
    2
 10
1128.7497000000001
 20
1071.6769999999999
 11
1130.8468
 21
1080.3112000000001
  0
LINE
  8
_0-0_LAYER001
  6
CONTINUOUS
 62
    2
 10
1145.6169
 20
1103.2192
 11
1148.6457
 21
1103.5659000000001
  0
LINE
  8
_0-0_LAYER001
  6
CONTINUOUS
 62
    2
 10
1142.2574999999999
 20
1104.7840000000001
 11
1140.575
 21
1107.3286000000001
  0
LINE
  8
_0-0_LAYER001
  6
CONTINUOUS
 62
    2
 10
1145.6169
 20
1103.2192
 11
1134.2059999999999
 21
1078.7448999999999
  0
LINE
  8
_0-0_LAYER001
  6
CONTINUOUS
 62
    2
 10
1121.6405999999999
 20
1051.8886
 11
1127.1481000000001
 21
1044.4193
  0
LINE
  8
_0-1_LAYER003
  6
CONTINUOUS
 62
    2
 10
1230.9695999999999
 20
1150.231
 11
1230.9695999999999
 21
1122.731
  0
CIRCLE
  8
_0-1_LAYER003
  6
CONTINUOUS
 62
    2
 10
1230.9695999999999
 20
1147.731
 40
1.6999999999999997
  0
LINE
  8
_0-1_LAYER003
  6
CONTINUOUS
 62
    2
 10
1230.9695999999999
 20
1147.731
 11
1140.9695999999999
 21
1147.731
  0
CIRCLE
  8
_0-1_LAYER003
  6
CONTINUOUS
 62
    2
 10
1140.9695999999999
 20
1147.731
 40
1.6999999999999997
  0
LINE
  8
_0-1_LAYER003
  6
CONTINUOUS
 62
    2
 10
1140.9695999999999
 20
1136.3886
 11
1140.9695999999999
 21
1108.8886
  0
LINE
  8
_0-0_LAYER001
  6
CONTINUOUS
 62
    2
 10
1156.7601
 20
1078.1903
 11
1141.9191000000001
 21
1078.1903
  0
LINE
  8
_0-0_LAYER001
  6
CONTINUOUS
 62
    2
 10
1141.9191000000001
 20
1078.1903
 11
1141.9191000000001
 21
1059.9534000000001
  0
LINE
  8
_0-0_LAYER001
  6
CONTINUOUS
 62
    2
 10
1141.9191000000001
 20
1059.9534000000001
 11
1156.7601
 21
1059.9534000000001
  0
LINE
  8
_0-0_LAYER001
  6
CONTINUOUS
 62
    2
 10
1156.7601
 20
1059.9534000000001
 11
1156.7601
 21
1078.1903
  0
LINE
  8
_0-0_LAYER001
  6
CONTINUOUS
 62
    2
 10
1167.9538
 20
1046.7474
 11
1167.9538
 21
1028.7620999999999
  0
LINE
  8
_0-0_LAYER001
  6
CONTINUOUS
 62
    2
 10
1167.9538
 20
1028.7620999999999
 11
1161.5744
 21
1029.3213000000001
  0
LINE
  8
_0-0_LAYER001
  6
CONTINUOUS
 62
    2
 10
1161.5744
 20
1029.3213000000001
 11
1140.7872
 21
1056.1803
  0
LINE
  8
_0-0_LAYER001
  6
CONTINUOUS
 62
    2
 10
1167.9538
 20
1046.7474
 11
1141.9191000000001
 21
1059.9534000000001
  0
LINE
  8
_0-0_LAYER001
  6
CONTINUOUS
 62
    2
 10
1141.9191000000001
 20
1059.9534000000001
 11
1140.7872
 21
1056.1803
  0
LINE
  8
_0-0_LAYER001
  6
CONTINUOUS
 62
    2
 10
1117.7807
 20
1094.3842
 11
1119.7219
 21
1087.1396999999999
  0
LINE
  8
_0-0_LAYER001
  6
CONTINUOUS
 62
    2
 10
1119.7219
 20
1087.1396999999999
 11
1114.4186
 21
1092.443
  0
LINE
  8
_0-0_LAYER001
  6
CONTINUOUS
 62
    2
 10
1091.6187
 20
1128.8158000000001
 11
960.85470000000009
 21
1128.8158000000001
  0
LINE
  8
_0-0_LAYER001
  6
CONTINUOUS
 62
    4
 10
2139.3476000000001
 20
991.65859999999998
 11
2139.3476000000001
 21
1008.856
  0
LINE
  8
_0-0_LAYER001
  6
CONTINUOUS
 62
    4
 10
1999.6210000000001
 20
947.81919999999991
 11
1991.0855000000001
 21
962.35259999999994
  0
LINE
  8
_0-0_LAYER001
  6
CONTINUOUS
 62
    4
 10
2007.7887999999998
 20
947.16889999999989
 11
2016.0949999999998
 21
957.23440000000005
  0
ARC
  8
_0-0_LAYER001
  6
CONTINUOUS
 62
    4
 10
2003.9324000000001
 20
950.35140000000001
 40
5
 50
210.42578
 51
320.47001
  0
LINE
  8
_0-0_LAYER001
  6
CONTINUOUS
 62
    4
 10
2083.7343999999998
 20
946.69910000000004
 11
2076.4090999999999
 21
958.00510000000008
  0
LINE
  8
_0-0_LAYER001
  6
CONTINUOUS
 62
    4
 10
2092.2440000000001
 20
946.8889999999999
 11
2101.1824000000001
 21
962.13470000000007
  0
ARC
  8
_0-0_LAYER001
  6
CONTINUOUS
 62
    4
 10
2087.9306999999999
 20
949.41789999999992
 40
5
 50
212.93986000000001
 51
329.61716000000001
  0
LINE
  8
_0-0_LAYER001
  6
CONTINUOUS
 62
    4
 10
2131.5259999999998
 20
986.44669999999996
 11
2133.9540999999999
 21
986.85050000000001
  0
LINE
  8
_0-0_LAYER001
  6
CONTINUOUS
 62
    4
 10
2127.337
 20
985.7503999999999
 11
2131.5259999999998
 21
986.44669999999996
  0
LINE
  8
_0-0_LAYER001
  6
CONTINUOUS
 62
    4
 10
2123.1432
 20
985.05479999999989
 11
2127.337
 21
985.7503999999999
  0
LINE
  8
_0-0_LAYER001
  6
CONTINUOUS
 62
    4
 10
2118.9443999999999
 20
984.3608999999999
 11
2123.1432
 21
985.05479999999989
  0
LINE
  8
_0-0_LAYER001
  6
CONTINUOUS
 62
    4
 10
2114.7404000000001
 20
983.6694
 11
2118.9443999999999
 21
984.3608999999999
  0
LINE
  8
_0-0_LAYER001
  6
CONTINUOUS
 62
    4
 10
2110.5335
 20
982.98170000000005
 11
2114.7404000000001
 21
983.6694
  0
LINE
  8
_0-0_LAYER001
  6
CONTINUOUS
 62
    4
 10
2108.0812000000001
 20
982.58320000000003
 11
2110.5335
 21
982.98170000000005
  0
LINE
  8
_0-0_LAYER001
  6
CONTINUOUS
 62
    4
 10
2103.3485000000001
 20
981.82079999999996
 11
2108.0812000000001
 21
982.58320000000003
  0
LINE
  8
_0-0_LAYER001
  6
CONTINUOUS
 62
    4
 10
2095.1439999999998
 20
980.53690000000006
 11
2103.3485000000001
 21
981.82079999999996
  0
LINE
  8
_0-0_LAYER001
  6
CONTINUOUS
 62
    4
 10
2086.8366000000001
 20
979.31709999999998
 11
2095.1439999999998
 21
980.53690000000006
  0
LINE
  8
_0-0_LAYER001
  6
CONTINUOUS
 62
    4
 10
2078.4283
 20
978.2007000000001
 11
2086.8366000000001
 21
979.31709999999998
  0
LINE
  8
_0-0_LAYER001
  6
CONTINUOUS
 62
    4
 10
2069.9157
 20
977.22730000000001
 11
2078.4283
 21
978.2007000000001
  0
LINE
  8
_0-0_LAYER001
  6
CONTINUOUS
 62
    4
 10
2061.3566000000001
 20
976.44329999999991
 11
2069.9157
 21
977.22730000000001
  0
LINE
  8
_0-0_LAYER001
  6
CONTINUOUS
 62
    4
 10
2056.2950000000001
 20
976.08529999999996
 11
2061.3566000000001
 21
976.44329999999991
  0
LINE
  8
_0-0_LAYER001
  6
CONTINUOUS
 62
    4
 10
2053.4924999999998
 20
975.92370000000005
 11
2056.2950000000001
 21
976.08529999999996
  0
LINE
  8
_0-0_LAYER001
  6
CONTINUOUS
 62
    4
 10
2048.7714000000001
 20
975.7197000000001
 11
2053.4924999999998
 21
975.92370000000005
  0
LINE
  8
_0-0_LAYER001
  6
CONTINUOUS
 62
    4
 10
2043.9422
 20
975.61429999999996
 11
2048.7714000000001
 21
975.7197000000001
  0
LINE
  8
_0-0_LAYER001
  6
CONTINUOUS
 62
    4
 10
2039.0405999999998
 20
975.62969999999996
 11
2043.9422
 21
975.61429999999996
  0
LINE
  8
_0-0_LAYER001
  6
CONTINUOUS
 62
    4
 10
2034.0695000000001
 20
975.78749999999991
 11
2039.0405999999998
 21
975.62969999999996
  0
LINE
  8
_0-0_LAYER001
  6
CONTINUOUS
 62
    4
 10
2029.1120999999998
 20
976.10529999999994
 11
2034.0695000000001
 21
975.78749999999991
  0
LINE
  8
_0-0_LAYER001
  6
CONTINUOUS
 62
    4
 10
2026.0605
 20
976.38670000000002
 11
2029.1120999999998
 21
976.10529999999994
  0
LINE
  8
_0-0_LAYER001
  6
CONTINUOUS
 62
    4
 10
2022.1316000000002
 20
976.84899999999993
 11
2026.0605
 21
976.38670000000002
  0
LINE
  8
_0-0_LAYER001
  6
CONTINUOUS
 62
    4
 10
2015.6176999999998
 20
977.87149999999997
 11
2022.1316000000002
 21
976.84899999999993
  0
LINE
  8
_0-0_LAYER001
  6
CONTINUOUS
 62
    4
 10
2009.0711000000001
 20
979.22370000000001
 11
2015.6176999999998
 21
977.87149999999997
  0
LINE
  8
_0-0_LAYER001
  6
CONTINUOUS
 62
    4
 10
2002.6080999999999
 20
980.87950000000001
 11
2009.0711000000001
 21
979.22370000000001
  0
LINE
  8
_0-0_LAYER001
  6
CONTINUOUS
 62
    4
 10
1996.2422000000001
 20
982.8302000000001
 11
2002.6080999999999
 21
980.87950000000001
  0
LINE
  8
_0-0_LAYER001
  6
CONTINUOUS
 62
    4
 10
1990.0774000000001
 20
985.03520000000003
 11
1996.2422000000001
 21
982.8302000000001
  0
LINE
  8
_0-0_LAYER001
  6
CONTINUOUS
 62
    4
 10
1986.3908000000001
 20
986.50700000000006
 11
1990.0774000000001
 21
985.03520000000003
  0
LINE
  8
_0-0_LAYER001
  6
CONTINUOUS
 62
    4
 10
1982.0264999999999
 20
988.39949999999999
 11
1986.3908000000001
 21
986.50700000000006
  0
LINE
  8
_0-0_LAYER001
  6
CONTINUOUS
 62
    4
 10
1974.9575
 20
991.81439999999998
 11
1982.0264999999999
 21
988.39949999999999
  0
LINE
  8
_0-0_LAYER001
  6
CONTINUOUS
 62
    4
 10
1968.0646000000002
 20
995.54410000000007
 11
1974.9575
 21
991.81439999999998
  0
LINE
  8
_0-0_LAYER001
  6
CONTINUOUS
 62
    4
 10
1961.4276
 20
999.47769999999991
 11
1968.0646000000002
 21
995.54410000000007
  0
LINE
  8
_0-0_LAYER001
  6
CONTINUOUS
 62
    4
 10
1955.0182
 20
1003.5601999999999
 11
1961.4276
 21
999.47769999999991
  0
LINE
  8
_0-0_LAYER001
  6
CONTINUOUS
 62
    4
 10
1948.8339999999998
 20
1007.7222999999999
 11
1955.0182
 21
1003.5601999999999
  0
LINE
  8
_0-0_LAYER001
  6
CONTINUOUS
 62
    4
 10
1945.2917000000002
 20
1010.1859999999999
 11
1948.8339999999998
 21
1007.7222999999999
  0
LINE
  8
_0-0_LAYER001
  6
CONTINUOUS
 62
    4
 10
1943.0596999999998
 20
1011.7594999999999
 11
1945.2917000000002
 21
1010.1859999999999
  0
LINE
  8
_0-0_LAYER001
  6
CONTINUOUS
 62
    4
 10
1939.4360999999999
 20
1014.2987000000001
 11
1943.0596999999998
 21
1011.7594999999999
  0
LINE
  8
_0-0_LAYER001
  6
CONTINUOUS
 62
    4
 10
1936.0664999999999
 20
1016.5642
 11
1939.4360999999999
 21
1014.2987000000001
  0
LINE
  8
_0-0_LAYER001
  6
CONTINUOUS
 62
    4
 10
1932.9515000000001
 20
1018.4912999999999
 11
1936.0664999999999
 21
1016.5642
  0
LINE
  8
_0-0_LAYER001
  6
CONTINUOUS
 62
    4
 10
1930.0843
 20
1020.047
 11
1932.9515000000001
 21
1018.4912999999999
  0
LINE
  8
_0-0_LAYER001
  6
CONTINUOUS
 62
    4
 10
1927.2530999999999
 20
1021.3154999999999
 11
1930.0843
 21
1020.047
  0
LINE
  8
_0-0_LAYER001
  6
CONTINUOUS
 62
    4
 10
1925.7899000000002
 20
1021.8476000000001
 11
1927.2530999999999
 21
1021.3154999999999
  0
LINE
  8
_0-0_LAYER001
  6
CONTINUOUS
 62
    4
 10
1925.6088
 20
1021.9055000000001
 11
1925.7899000000002
 21
1021.8476000000001
  0
LINE
  8
_0-0_LAYER001
  6
CONTINUOUS
 62
    4
 10
1924.8206
 20
1022.1334999999999
 11
1925.6088
 21
1021.9055000000001
  0
LINE
  8
_0-0_LAYER001
  6
CONTINUOUS
 62
    4
 10
1924.1633999999999
 20
1022.2962
 11
1924.8206
 21
1022.1334999999999
  0
LINE
  8
_0-0_LAYER001
  6
CONTINUOUS
 62
    4
 10
1923.5816
 20
1022.4141999999999
 11
1924.1633999999999
 21
1022.2962
  0
LINE
  8
_0-0_LAYER001
  6
CONTINUOUS
 62
    4
 10
1923.5416
 20
1022.4204
 11
1923.5816
 21
1022.4141999999999
  0
LINE
  8
_0-0_LAYER001
  6
CONTINUOUS
 62
    4
 10
2127.5154000000002
 20
967.25919999999996
 11
2129.1295
 21
967.52759999999989
  0
LINE
  8
_0-0_LAYER001
  6
CONTINUOUS
 62
    4
 10
2123.3267999999998
 20
966.5630000000001
 11
2127.5154000000002
 21
967.25919999999996
  0
LINE
  8
_0-0_LAYER001
  6
CONTINUOUS
 62
    4
 10
2119.1338999999998
 20
965.86760000000004
 11
2123.3267999999998
 21
966.5630000000001
  0
LINE
  8
_0-0_LAYER001
  6
CONTINUOUS
 62
    4
 10
2114.9364999999998
 20
965.17380000000003
 11
2119.1338999999998
 21
965.86760000000004
  0
LINE
  8
_0-0_LAYER001
  6
CONTINUOUS
 62
    4
 10
2110.7341999999999
 20
964.48260000000005
 11
2114.9364999999998
 21
965.17380000000003
  0
LINE
  8
_0-0_LAYER001
  6
CONTINUOUS
 62
    4
 10
2106.5291999999999
 20
963.7953
 11
2110.7341999999999
 21
964.48260000000005
  0
LINE
  8
_0-0_LAYER001
  6
CONTINUOUS
 62
    4
 10
2104.0792000000001
 20
963.39720000000011
 11
2106.5291999999999
 21
963.7953
  0
LINE
  8
_0-0_LAYER001
  6
CONTINUOUS
 62
    4
 10
2099.3521999999998
 20
962.63560000000007
 11
2104.0792000000001
 21
963.39720000000011
  0
LINE
  8
_0-0_LAYER001
  6
CONTINUOUS
 62
    4
 10
2091.1615999999999
 20
961.35390000000007
 11
2099.3521999999998
 21
962.63560000000007
  0
LINE
  8
_0-0_LAYER001
  6
CONTINUOUS
 62
    4
 10
2082.8771000000002
 20
960.13750000000005
 11
2091.1615999999999
 21
961.35390000000007
  0
LINE
  8
_0-0_LAYER001
  6
CONTINUOUS
 62
    4
 10
2074.5005000000001
 20
959.02530000000002
 11
2082.8771000000002
 21
960.13750000000005
  0
LINE
  8
_0-0_LAYER001
  6
CONTINUOUS
 62
    4
 10
2066.0282999999999
 20
958.05649999999991
 11
2074.5005000000001
 21
959.02530000000002
  0
LINE
  8
_0-0_LAYER001
  6
CONTINUOUS
 62
    4
 10
2057.5122000000001
 20
957.27649999999994
 11
2066.0282999999999
 21
958.05649999999991
  0
LINE
  8
_0-0_LAYER001
  6
CONTINUOUS
 62
    4
 10
2052.4843000000001
 20
956.9208000000001
 11
2057.5122000000001
 21
957.27649999999994
  0
LINE
  8
_0-0_LAYER001
  6
CONTINUOUS
 62
    4
 10
2049.7091
 20
956.76080000000002
 11
2052.4843000000001
 21
956.9208000000001
  0
LINE
  8
_0-0_LAYER001
  6
CONTINUOUS
 62
    4
 10
2045.0237999999999
 20
956.55839999999989
 11
2049.7091
 21
956.76080000000002
  0
LINE
  8
_0-0_LAYER001
  6
CONTINUOUS
 62
    4
 10
2040.2408999999998
 20
956.45399999999995
 11
2045.0237999999999
 21
956.55839999999989
  0
LINE
  8
_0-0_LAYER001
  6
CONTINUOUS
 62
    4
 10
2035.3928999999998
 20
956.4692
 11
2040.2408999999998
 21
956.45399999999995
  0
LINE
  8
_0-0_LAYER001
  6
CONTINUOUS
 62
    4
 10
2030.4827
 20
956.62509999999997
 11
2035.3928999999998
 21
956.4692
  0
LINE
  8
_0-0_LAYER001
  6
CONTINUOUS
 62
    4
 10
2025.5853999999999
 20
956.93900000000008
 11
2030.4827
 21
956.62509999999997
  0
LINE
  8
_0-0_LAYER001
  6
CONTINUOUS
 62
    4
 10
2022.5866000000001
 20
957.21559999999999
 11
2025.5853999999999
 21
956.93900000000008
  0
LINE
  8
_0-0_LAYER001
  6
CONTINUOUS
 62
    4
 10
2018.7211000000002
 20
957.67039999999997
 11
2022.5866000000001
 21
957.21559999999999
  0
LINE
  8
_0-0_LAYER001
  6
CONTINUOUS
 62
    4
 10
2012.2927
 20
958.67949999999996
 11
2018.7211000000002
 21
957.67039999999997
  0
LINE
  8
_0-0_LAYER001
  6
CONTINUOUS
 62
    4
 10
2005.8391999999999
 20
960.01240000000007
 11
2012.2927
 21
958.67949999999996
  0
LINE
  8
_0-0_LAYER001
  6
CONTINUOUS
 62
    4
 10
1999.4670000000001
 20
961.64499999999998
 11
2005.8391999999999
 21
960.01240000000007
  0
LINE
  8
_0-0_LAYER001
  6
CONTINUOUS
 62
    4
 10
1993.1896999999999
 20
963.56850000000009
 11
1999.4670000000001
 21
961.64499999999998
  0
LINE
  8
_0-0_LAYER001
  6
CONTINUOUS
 62
    4
 10
1987.1026000000002
 20
965.74569999999994
 11
1993.1896999999999
 21
963.56850000000009
  0
LINE
  8
_0-0_LAYER001
  6
CONTINUOUS
 62
    4
 10
1983.4769999999999
 20
967.19309999999996
 11
1987.1026000000002
 21
965.74569999999994
  0
LINE
  8
_0-0_LAYER001
  6
CONTINUOUS
 62
    4
 10
1979.1770999999999
 20
969.05770000000007
 11
1983.4769999999999
 21
967.19309999999996
  0
LINE
  8
_0-0_LAYER001
  6
CONTINUOUS
 62
    4
 10
1972.1862000000001
 20
972.43489999999997
 11
1979.1770999999999
 21
969.05770000000007
  0
LINE
  8
_0-0_LAYER001
  6
CONTINUOUS
 62
    4
 10
1965.3681000000001
 20
976.1241
 11
1972.1862000000001
 21
972.43489999999997
  0
LINE
  8
_0-0_LAYER001
  6
CONTINUOUS
 62
    4
 10
1958.7923000000001
 20
980.02150000000006
 11
1965.3681000000001
 21
976.1241
  0
LINE
  8
_0-0_LAYER001
  6
CONTINUOUS
 62
    4
 10
1952.4313999999999
 20
984.07310000000007
 11
1958.7923000000001
 21
980.02150000000006
  0
LINE
  8
_0-0_LAYER001
  6
CONTINUOUS
 62
    4
 10
1946.2808
 20
988.21260000000007
 11
1952.4313999999999
 21
984.07310000000007
  0
LINE
  8
_0-0_LAYER001
  6
CONTINUOUS
 62
    4
 10
1942.7563
 20
990.66390000000001
 11
1946.2808
 21
988.21260000000007
  0
LINE
  8
_0-0_LAYER001
  6
CONTINUOUS
 62
    4
 10
1940.5272
 20
992.23540000000003
 11
1942.7563
 21
990.66390000000001
  0
LINE
  8
_0-0_LAYER001
  6
CONTINUOUS
 62
    4
 10
1936.8854999999999
 20
994.78729999999996
 11
1940.5272
 21
992.23540000000003
  0
LINE
  8
_0-0_LAYER001
  6
CONTINUOUS
 62
    4
 10
1933.4683
 20
997.08470000000011
 11
1936.8854999999999
 21
994.78729999999996
  0
LINE
  8
_0-0_LAYER001
  6
CONTINUOUS
 62
    4
 10
1930.2727
 20
999.0616
 11
1933.4683
 21
997.08470000000011
  0
LINE
  8
_0-0_LAYER001
  6
CONTINUOUS
 62
    4
 10
1927.2887999999998
 20
1000.6806999999999
 11
1930.2727
 21
999.0616
  0
LINE
  8
_0-0_LAYER001
  6
CONTINUOUS
 62
    4
 10
1924.3222000000001
 20
1002.0099
 11
1927.2887999999998
 21
1000.6806999999999
  0
LINE
  8
_0-0_LAYER001
  6
CONTINUOUS
 62
    4
 10
1923.5722000000001
 20
1002.2826
 11
1924.3222000000001
 21
1002.0099
  0
LINE
  8
_0-0_LAYER001
  6
CONTINUOUS
 62
    4
 10
1923.9052999999999
 20
1022.3257000000001
 11
1923.7293
 21
1002.1523
  0
LINE
  8
_0-0_LAYER001
  6
CONTINUOUS
 62
    4
 10
2124.2309
 20
956.83789999999999
 11
2121.9854999999998
 21
965.41139999999996
  0
ARC
  8
_0-0_LAYER001
  6
CONTINUOUS
 62
    4
 10
2127.1329999999998
 20
957.59799999999996
 40
3
 50
194.67639000000003
 51
270.00000000000006
  0
LINE
  8
_0-0_LAYER001
  6
CONTINUOUS
 62
    4
 10
2130.5754999999999
 20
954.5936999999999
 11
2127.1577000000002
 21
954.5936999999999
  0
LINE
  8
_0-0_LAYER001
  6
CONTINUOUS
 62
    4
 10
2133.5347000000002
 20
957.10050000000001
 11
2135.4686999999999
 21
968.7047
  0
ARC
  8
_0-0_LAYER001
  6
CONTINUOUS
 62
    4
 10
2130.5754999999999
 20
957.5936999999999
 40
3
 50
270
 51
350.53766999999999
  0
LINE
  8
_0-0_LAYER001
  6
CONTINUOUS
 62
    4
 10
1876.8090999999999
 20
1031.7158999999999
 11
1877.6230999999998
 21
1032.0226
  0
LINE
  8
_0-0_LAYER001
  6
CONTINUOUS
 62
    4
 10
1877.6230999999998
 20
1032.0226
 11
1881.1723000000002
 21
1033.3622
  0
LINE
  8
_0-0_LAYER001
  6
CONTINUOUS
 62
    4
 10
1881.1723000000002
 20
1033.3622
 11
1884.7289000000001
 21
1034.711
  0
LINE
  8
_0-0_LAYER001
  6
CONTINUOUS
 62
    4
 10
1884.7289000000001
 20
1034.711
 11
1888.2975999999999
 21
1036.0751
  0
LINE
  8
_0-0_LAYER001
  6
CONTINUOUS
 62
    4
 10
1888.2975999999999
 20
1036.0751
 11
1891.8829000000001
 21
1037.4601
  0
LINE
  8
_0-0_LAYER001
  6
CONTINUOUS
 62
    4
 10
1891.8829000000001
 20
1037.4601
 11
1895.4897000000001
 21
1038.8721
  0
LINE
  8
_0-0_LAYER001
  6
CONTINUOUS
 62
    4
 10
1895.4897000000001
 20
1038.8721
 11
1897.5931999999998
 21
1039.7057
  0
LINE
  8
_0-0_LAYER001
  6
CONTINUOUS
 62
    4
 10
1897.5931999999998
 20
1039.7057
 11
1899.6725000000001
 21
1040.5346
  0
LINE
  8
_0-0_LAYER001
  6
CONTINUOUS
 62
    4
 10
1899.6725000000001
 20
1040.5346
 11
1903.2791000000002
 21
1041.9359999999999
  0
LINE
  8
_0-0_LAYER001
  6
CONTINUOUS
 62
    4
 10
1903.2791000000002
 20
1041.9359999999999
 11
1906.9117999999999
 21
1043.2186999999999
  0
LINE
  8
_0-0_LAYER001
  6
CONTINUOUS
 62
    4
 10
1906.9117999999999
 20
1043.2186999999999
 11
1910.5697
 21
1044.2854
  0
LINE
  8
_0-0_LAYER001
  6
CONTINUOUS
 62
    4
 10
1910.5697
 20
1044.2854
 11
1914.2519000000002
 21
1045.0386000000001
  0
LINE
  8
_0-0_LAYER001
  6
CONTINUOUS
 62
    4
 10
1914.2519000000002
 20
1045.0386000000001
 11
1917.9571000000001
 21
1045.3811000000001
  0
LINE
  8
_0-0_LAYER001
  6
CONTINUOUS
 62
    4
 10
1917.9571000000001
 20
1045.3811000000001
 11
1920.1163999999999
 21
1045.3532
  0
LINE
  8
_0-0_LAYER001
  6
CONTINUOUS
 62
    4
 10
1920.1163999999999
 20
1045.3532
 11
1920.9656
 21
1045.2918999999999
  0
LINE
  8
_0-0_LAYER001
  6
CONTINUOUS
 62
    4
 10
1920.9656
 20
1045.2918999999999
 11
1922.4299000000001
 21
1045.1213
  0
LINE
  8
_0-0_LAYER001
  6
CONTINUOUS
 62
    4
 10
1922.4299000000001
 20
1045.1213
 11
1923.8910000000001
 21
1044.8746000000001
  0
LINE
  8
_0-0_LAYER001
  6
CONTINUOUS
 62
    4
 10
1923.8910000000001
 20
1044.8746000000001
 11
1925.3447000000001
 21
1044.5585000000001
  0
LINE
  8
_0-0_LAYER001
  6
CONTINUOUS
 62
    4
 10
1925.3447000000001
 20
1044.5585000000001
 11
1926.7867999999999
 21
1044.1800000000001
  0
LINE
  8
_0-0_LAYER001
  6
CONTINUOUS
 62
    4
 10
1926.7867999999999
 20
1044.1800000000001
 11
1928.2132999999999
 21
1043.7458999999999
  0
LINE
  8
_0-0_LAYER001
  6
CONTINUOUS
 62
    4
 10
1928.2132999999999
 20
1043.7458999999999
 11
1929.0317
 21
1043.4712999999999
  0
LINE
  8
_0-0_LAYER001
  6
CONTINUOUS
 62
    4
 10
1929.0317
 20
1043.4712999999999
 11
1931.5300000000002
 21
1042.5231000000001
  0
LINE
  8
_0-0_LAYER001
  6
CONTINUOUS
 62
    4
 10
1931.5300000000002
 20
1042.5231000000001
 11
1935.6889000000001
 21
1040.5895
  0
LINE
  8
_0-0_LAYER001
  6
CONTINUOUS
 62
    4
 10
1935.6889000000001
 20
1040.5895
 11
1939.6927000000001
 21
1038.3441
  0
LINE
  8
_0-0_LAYER001
  6
CONTINUOUS
 62
    4
 10
1939.6927000000001
 20
1038.3441
 11
1943.5796
 21
1035.8639000000001
  0
LINE
  8
_0-0_LAYER001
  6
CONTINUOUS
 62
    4
 10
1943.5796
 20
1035.8639000000001
 11
1947.3876
 21
1033.2257
  0
LINE
  8
_0-0_LAYER001
  6
CONTINUOUS
 62
    4
 10
1947.3876
 20
1033.2257
 11
1951.1547999999998
 21
1030.5065999999999
  0
LINE
  8
_0-0_LAYER001
  6
CONTINUOUS
 62
    4
 10
1951.1547999999998
 20
1030.5065999999999
 11
1953.3362000000002
 21
1028.9228000000001
  0
LINE
  8
_0-0_LAYER001
  6
CONTINUOUS
 62
    4
 10
1953.3362000000002
 20
1028.9228000000001
 11
1956.6677
 21
1026.5360000000001
  0
LINE
  8
_0-0_LAYER001
  6
CONTINUOUS
 62
    4
 10
1956.6677
 20
1026.5360000000001
 11
1962.46
 21
1022.519
  0
LINE
  8
_0-0_LAYER001
  6
CONTINUOUS
 62
    4
 10
1962.46
 20
1022.519
 11
1968.3321000000001
 21
1018.6623999999999
  0
LINE
  8
_0-0_LAYER001
  6
CONTINUOUS
 62
    4
 10
1968.3321000000001
 20
1018.6623999999999
 11
1974.3063000000002
 21
1015.008
  0
LINE
  8
_0-0_LAYER001
  6
CONTINUOUS
 62
    4
 10
1974.3063000000002
 20
1015.008
 11
1980.4045000000001
 21
1011.5974000000001
  0
LINE
  8
_0-0_LAYER001
  6
CONTINUOUS
 62
    4
 10
1980.4045000000001
 20
1011.5974000000001
 11
1986.6487999999999
 21
1008.4726000000001
  0
LINE
  8
_0-0_LAYER001
  6
CONTINUOUS
 62
    4
 10
1986.6487999999999
 20
1008.4726000000001
 11
1990.3461000000002
 21
1006.8076000000001
  0
LINE
  8
_0-0_LAYER001
  6
CONTINUOUS
 62
    4
 10
1990.3461000000002
 20
1006.8076000000001
 11
1993.4052999999999
 21
1005.5364999999999
  0
LINE
  8
_0-0_LAYER001
  6
CONTINUOUS
 62
    4
 10
1993.4052999999999
 20
1005.5364999999999
 11
1998.7658000000001
 21
1003.5344
  0
LINE
  8
_0-0_LAYER001
  6
CONTINUOUS
 62
    4
 10
1998.7658000000001
 20
1003.5344
 11
2004.2215000000001
 21
1001.7789
  0
LINE
  8
_0-0_LAYER001
  6
CONTINUOUS
 62
    4
 10
2004.2215000000001
 20
1001.7789
 11
2009.7565
 21
1000.2781
  0
LINE
  8
_0-0_LAYER001
  6
CONTINUOUS
 62
    4
 10
2009.7565
 20
1000.2781
 11
2015.3548000000001
 21
999.04009999999994
  0
LINE
  8
_0-0_LAYER001
  6
CONTINUOUS
 62
    4
 10
2015.3548000000001
 20
999.04009999999994
 11
2021.0005000000001
 21
998.07289999999989
  0
LINE
  8
_0-0_LAYER001
  6
CONTINUOUS
 62
    4
 10
2021.0005000000001
 20
998.07289999999989
 11
2024.2905000000001
 21
997.63920000000007
  0
LINE
  8
_0-0_LAYER001
  6
CONTINUOUS
 62
    4
 10
2024.2905000000001
 20
997.63920000000007
 11
2026.8098
 21
997.37130000000002
  0
LINE
  8
_0-0_LAYER001
  6
CONTINUOUS
 62
    4
 10
2026.8098
 20
997.37130000000002
 11
2031.1619000000001
 21
997.0313000000001
  0
LINE
  8
_0-0_LAYER001
  6
CONTINUOUS
 62
    4
 10
2031.1619000000001
 20
997.0313000000001
 11
2035.5221000000001
 21
996.83179999999993
  0
LINE
  8
_0-0_LAYER001
  6
CONTINUOUS
 62
    4
 10
2035.5221000000001
 20
996.83179999999993
 11
2039.8872999999999
 21
996.75720000000001
  0
LINE
  8
_0-0_LAYER001
  6
CONTINUOUS
 62
    4
 10
2039.8872999999999
 20
996.75720000000001
 11
2044.2543999999998
 21
996.79160000000002
  0
LINE
  8
_0-0_LAYER001
  6
CONTINUOUS
 62
    4
 10
2044.2543999999998
 20
996.79160000000002
 11
2048.6203
 21
996.91910000000007
  0
LINE
  8
_0-0_LAYER001
  6
CONTINUOUS
 62
    4
 10
2048.6203
 20
996.91910000000007
 11
2051.1507999999999
 21
997.02960000000007
  0
LINE
  8
_0-0_LAYER001
  6
CONTINUOUS
 62
    4
 10
2051.1507999999999
 20
997.02960000000007
 11
2055.8798999999999
 21
997.29780000000005
  0
LINE
  8
_0-0_LAYER001
  6
CONTINUOUS
 62
    4
 10
2055.8798999999999
 20
997.29780000000005
 11
2064.018
 21
997.92879999999991
  0
LINE
  8
_0-0_LAYER001
  6
CONTINUOUS
 62
    4
 10
2064.018
 20
997.92879999999991
 11
2072.1388000000002
 21
998.74270000000001
  0
LINE
  8
_0-0_LAYER001
  6
CONTINUOUS
 62
    4
 10
2072.1388000000002
 20
998.74270000000001
 11
2080.2446
 21
999.70389999999998
  0
LINE
  8
_0-0_LAYER001
  6
CONTINUOUS
 62
    4
 10
2080.2446
 20
999.70389999999998
 11
2088.3380999999999
 21
1000.7771
  0
LINE
  8
_0-0_LAYER001
  6
CONTINUOUS
 62
    4
 10
2088.3380999999999
 20
1000.7771
 11
2096.4216000000001
 21
1001.9267
  0
LINE
  8
_0-0_LAYER001
  6
CONTINUOUS
 62
    4
 10
2096.4216000000001
 20
1001.9267
 11
2101.1064999999999
 21
1002.6144999999999
  0
LINE
  8
_0-0_LAYER001
  6
CONTINUOUS
 62
    4
 10
2101.1064999999999
 20
1002.6144999999999
 11
2103.5414000000001
 21
1002.9753000000001
  0
LINE
  8
_0-0_LAYER001
  6
CONTINUOUS
 62
    4
 10
2103.5414000000001
 20
1002.9753000000001
 11
2107.7384000000002
 21
1003.6013
  0
LINE
  8
_0-0_LAYER001
  6
CONTINUOUS
 62
    4
 10
2107.7384000000002
 20
1003.6013
 11
2111.9342000000001
 21
1004.2313999999999
  0
LINE
  8
_0-0_LAYER001
  6
CONTINUOUS
 62
    4
 10
2111.9342000000001
 20
1004.2313999999999
 11
2116.1289999999999
 21
1004.8647000000001
  0
LINE
  8
_0-0_LAYER001
  6
CONTINUOUS
 62
    4
 10
2116.1289999999999
 20
1004.8647000000001
 11
2120.3231999999998
 21
1005.5002999999999
  0
LINE
  8
_0-0_LAYER001
  6
CONTINUOUS
 62
    4
 10
2120.3231999999998
 20
1005.5002999999999
 11
2124.5169000000001
 21
1006.1373000000001
  0
LINE
  8
_0-0_LAYER001
  6
CONTINUOUS
 62
    4
 10
2124.5169000000001
 20
1006.1373000000001
 11
2126.9492
 21
1006.5070000000001
  0
LINE
  8
_0-0_LAYER001
  6
CONTINUOUS
 62
    4
 10
1881.9124000000002
 20
1014.4033999999999
 11
1883.9742999999999
 21
1015.1803
  0
LINE
  8
_0-0_LAYER001
  6
CONTINUOUS
 62
    4
 10
1883.9742999999999
 20
1015.1803
 11
1887.5419000000002
 21
1016.5268000000001
  0
LINE
  8
_0-0_LAYER001
  6
CONTINUOUS
 62
    4
 10
1887.5419000000002
 20
1016.5268000000001
 11
1891.1338000000001
 21
1017.8891000000001
  0
LINE
  8
_0-0_LAYER001
  6
CONTINUOUS
 62
    4
 10
1891.1338000000001
 20
1017.8891000000001
 11
1894.7541000000001
 21
1019.2728999999999
  0
LINE
  8
_0-0_LAYER001
  6
CONTINUOUS
 62
    4
 10
1894.7541000000001
 20
1019.2728999999999
 11
1898.4070999999999
 21
1020.6840999999999
  0
LINE
  8
_0-0_LAYER001
  6
CONTINUOUS
 62
    4
 10
1898.4070999999999
 20
1020.6840999999999
 11
1902.0862999999999
 21
1022.1243999999999
  0
LINE
  8
_0-0_LAYER001
  6
CONTINUOUS
 62
    4
 10
1902.0862999999999
 20
1022.1243999999999
 11
1904.2415000000001
 21
1022.9784999999999
  0
LINE
  8
_0-0_LAYER001
  6
CONTINUOUS
 62
    4
 10
1904.2415000000001
 20
1022.9784999999999
 11
1906.2651000000001
 21
1023.7851000000001
  0
LINE
  8
_0-0_LAYER001
  6
CONTINUOUS
 62
    4
 10
1906.2651000000001
 20
1023.7851000000001
 11
1909.5369000000001
 21
1025.0564999999999
  0
LINE
  8
_0-0_LAYER001
  6
CONTINUOUS
 62
    4
 10
1909.5369000000001
 20
1025.0564999999999
 11
1912.4321
 21
1026.0788
  0
LINE
  8
_0-0_LAYER001
  6
CONTINUOUS
 62
    4
 10
1912.4321
 20
1026.0788
 11
1914.9002
 21
1026.7985000000001
  0
LINE
  8
_0-0_LAYER001
  6
CONTINUOUS
 62
    4
 10
1914.9002
 20
1026.7985000000001
 11
1916.8919000000001
 21
1027.2058999999999
  0
LINE
  8
_0-0_LAYER001
  6
CONTINUOUS
 62
    4
 10
1916.8919000000001
 20
1027.2058999999999
 11
1918.6712000000002
 21
1027.3704
  0
LINE
  8
_0-0_LAYER001
  6
CONTINUOUS
 62
    4
 10
1918.6712000000002
 20
1027.3704
 11
1919.3508000000002
 21
1027.3616
  0
LINE
  8
_0-0_LAYER001
  6
CONTINUOUS
 62
    4
 10
1919.3508000000002
 20
1027.3616
 11
1919.2746999999999
 21
1027.3670999999999
  0
LINE
  8
_0-0_LAYER001
  6
CONTINUOUS
 62
    4
 10
1919.2746999999999
 20
1027.3670999999999
 11
1919.8883000000001
 21
1027.2955999999999
  0
LINE
  8
_0-0_LAYER001
  6
CONTINUOUS
 62
    4
 10
1919.8883000000001
 20
1027.2955999999999
 11
1920.4787000000001
 21
1027.1958999999999
  0
LINE
  8
_0-0_LAYER001
  6
CONTINUOUS
 62
    4
 10
1920.4787000000001
 20
1027.1958999999999
 11
1921.1462000000001
 21
1027.0508
  0
LINE
  8
_0-0_LAYER001
  6
CONTINUOUS
 62
    4
 10
1921.1462000000001
 20
1027.0508
 11
1921.8797
 21
1026.8583000000001
  0
LINE
  8
_0-0_LAYER001
  6
CONTINUOUS
 62
    4
 10
1921.8797
 20
1026.8583000000001
 11
1922.7289000000001
 21
1026.5998999999999
  0
LINE
  8
_0-0_LAYER001
  6
CONTINUOUS
 62
    4
 10
1922.7289000000001
 20
1026.5998999999999
 11
1922.973
 21
1026.518
  0
LINE
  8
_0-0_LAYER001
  6
CONTINUOUS
 62
    4
 10
1922.973
 20
1026.518
 11
1924.5329000000002
 21
1025.9259
  0
LINE
  8
_0-0_LAYER001
  6
CONTINUOUS
 62
    4
 10
1924.5329000000002
 20
1025.9259
 11
1927.4805999999999
 21
1024.5554999999999
  0
LINE
  8
_0-0_LAYER001
  6
CONTINUOUS
 62
    4
 10
1927.4805999999999
 20
1024.5554999999999
 11
1930.4416000000001
 21
1022.8949
  0
LINE
  8
_0-0_LAYER001
  6
CONTINUOUS
 62
    4
 10
1930.4416000000001
 20
1022.8949
 11
1933.6093000000001
 21
1020.8734999999999
  0
LINE
  8
_0-0_LAYER001
  6
CONTINUOUS
 62
    4
 10
1933.6093000000001
 20
1020.8734999999999
 11
1936.9940000000001
 21
1018.5286000000001
  0
LINE
  8
_0-0_LAYER001
  6
CONTINUOUS
 62
    4
 10
1936.9940000000001
 20
1018.5286000000001
 11
1940.5998
 21
1015.9260999999999
  0
LINE
  8
_0-0_LAYER001
  6
CONTINUOUS
 62
    4
 10
1940.5998
 20
1015.9260999999999
 11
1942.8067000000001
 21
1014.3236999999999
  0
LINE
  8
_0-0_LAYER001
  6
CONTINUOUS
 62
    4
 10
1942.8067000000001
 20
1014.3236999999999
 11
1946.2966999999999
 21
1011.8234
  0
LINE
  8
_0-0_LAYER001
  6
CONTINUOUS
 62
    4
 10
1946.2966999999999
 20
1011.8234
 11
1952.3888999999999
 21
1007.5984000000001
  0
LINE
  8
_0-0_LAYER001
  6
CONTINUOUS
 62
    4
 10
1952.3888999999999
 20
1007.5984000000001
 11
1958.6925999999999
 21
1003.4584
  0
LINE
  8
_0-0_LAYER001
  6
CONTINUOUS
 62
    4
 10
1958.6925999999999
 20
1003.4584
 11
1965.2132999999999
 21
999.4695999999999
  0
LINE
  8
_0-0_LAYER001
  6
CONTINUOUS
 62
    4
 10
1965.2132999999999
 20
999.4695999999999
 11
1971.9793
 21
995.68560000000002
  0
LINE
  8
_0-0_LAYER001
  6
CONTINUOUS
 62
    4
 10
1971.9793
 20
995.68560000000002
 11
1978.9223000000002
 21
992.21109999999999
  0
LINE
  8
_0-0_LAYER001
  6
CONTINUOUS
 62
    4
 10
1978.9223000000002
 20
992.21109999999999
 11
1983.1958
 21
990.28659999999991
  0
LINE
  8
_0-0_LAYER001
  6
CONTINUOUS
 62
    4
 10
1983.1958
 20
990.28659999999991
 11
1986.8008
 21
988.78870000000006
  0
LINE
  8
_0-0_LAYER001
  6
CONTINUOUS
 62
    4
 10
1986.8008
 20
988.78870000000006
 11
1992.8569000000002
 21
986.52680000000009
  0
LINE
  8
_0-0_LAYER001
  6
CONTINUOUS
 62
    4
 10
1992.8569000000002
 20
986.52680000000009
 11
1999.1068
 21
984.5157999999999
  0
LINE
  8
_0-0_LAYER001
  6
CONTINUOUS
 62
    4
 10
1999.1068
 20
984.5157999999999
 11
2005.4555
 21
982.7944
  0
LINE
  8
_0-0_LAYER001
  6
CONTINUOUS
 62
    4
 10
2005.4555
 20
982.7944
 11
2011.8897999999999
 21
981.37149999999997
  0
LINE
  8
_0-0_LAYER001
  6
CONTINUOUS
 62
    4
 10
2011.8897999999999
 20
981.37149999999997
 11
2018.3035
 21
980.27269999999999
  0
LINE
  8
_0-0_LAYER001
  6
CONTINUOUS
 62
    4
 10
2018.3035
 20
980.27269999999999
 11
2022.1623
 21
979.7639999999999
  0
LINE
  8
_0-0_LAYER001
  6
CONTINUOUS
 62
    4
 10
2022.1623
 20
979.7639999999999
 11
2025.1569
 21
979.44560000000001
  0
LINE
  8
_0-0_LAYER001
  6
CONTINUOUS
 62
    4
 10
2025.1569
 20
979.44560000000001
 11
2030.0493000000001
 21
979.06330000000003
  0
LINE
  8
_0-0_LAYER001
  6
CONTINUOUS
 62
    4
 10
2030.0493000000001
 20
979.06330000000003
 11
2034.9569000000001
 21
978.83889999999997
  0
LINE
  8
_0-0_LAYER001
  6
CONTINUOUS
 62
    4
 10
2034.9569000000001
 20
978.83889999999997
 11
2039.8042
 21
978.75600000000009
  0
LINE
  8
_0-0_LAYER001
  6
CONTINUOUS
 62
    4
 10
2039.8042
 20
978.75600000000009
 11
2044.5880999999999
 21
978.79359999999997
  0
LINE
  8
_0-0_LAYER001
  6
CONTINUOUS
 62
    4
 10
2044.5880999999999
 20
978.79359999999997
 11
2049.2757999999999
 21
978.93059999999991
  0
LINE
  8
_0-0_LAYER001
  6
CONTINUOUS
 62
    4
 10
2049.2757999999999
 20
978.93059999999991
 11
2052.0529999999999
 21
979.05189999999993
  0
LINE
  8
_0-0_LAYER001
  6
CONTINUOUS
 62
    4
 10
2052.0529999999999
 20
979.05189999999993
 11
2057.0853000000002
 21
979.33719999999994
  0
LINE
  8
_0-0_LAYER001
  6
CONTINUOUS
 62
    4
 10
2057.0853000000002
 20
979.33719999999994
 11
2065.6113999999998
 21
979.99829999999997
  0
LINE
  8
_0-0_LAYER001
  6
CONTINUOUS
 62
    4
 10
2065.6113999999998
 20
979.99829999999997
 11
2074.0963000000002
 21
980.84870000000001
  0
LINE
  8
_0-0_LAYER001
  6
CONTINUOUS
 62
    4
 10
2074.0963000000002
 20
980.84870000000001
 11
2082.4875999999999
 21
981.8438000000001
  0
LINE
  8
_0-0_LAYER001
  6
CONTINUOUS
 62
    4
 10
2082.4875999999999
 20
981.8438000000001
 11
2090.7883000000002
 21
982.94450000000006
  0
LINE
  8
_0-0_LAYER001
  6
CONTINUOUS
 62
    4
 10
2090.7883000000002
 20
982.94450000000006
 11
2098.9960999999998
 21
984.11169999999993
  0
LINE
  8
_0-0_LAYER001
  6
CONTINUOUS
 62
    4
 10
2098.9960999999998
 20
984.11169999999993
 11
2103.7332000000001
 21
984.80719999999997
  0
LINE
  8
_0-0_LAYER001
  6
CONTINUOUS
 62
    4
 10
2103.7332000000001
 20
984.80719999999997
 11
2106.1886
 21
985.17100000000005
  0
LINE
  8
_0-0_LAYER001
  6
CONTINUOUS
 62
    4
 10
2106.1886
 20
985.17100000000005
 11
2110.4027000000001
 21
985.79960000000005
  0
LINE
  8
_0-0_LAYER001
  6
CONTINUOUS
 62
    4
 10
2110.4027000000001
 20
985.79960000000005
 11
2114.6142
 21
986.43209999999999
  0
LINE
  8
_0-0_LAYER001
  6
CONTINUOUS
 62
    4
 10
2114.6142
 20
986.43209999999999
 11
2118.8209999999999
 21
987.06709999999998
  0
LINE
  8
_0-0_LAYER001
  6
CONTINUOUS
 62
    4
 10
2118.8209999999999
 20
987.06709999999998
 11
2123.0232000000001
 21
987.70389999999998
  0
LINE
  8
_0-0_LAYER001
  6
CONTINUOUS
 62
    4
 10
2123.0232000000001
 20
987.70389999999998
 11
2127.2211000000002
 21
988.34159999999997
  0
LINE
  8
_0-0_LAYER001
  6
CONTINUOUS
 62
    4
 10
2127.2211000000002
 20
988.34159999999997
 11
2128.8388
 21
988.58750000000009
  0
LINE
  8
_0-0_LAYER001
  6
CONTINUOUS
 62
    4
 10
1876.3834999999999
 20
1031.5536
 11
1876.8094999999998
 21
1031.7166999999999
  0
ARC
  8
_0-0_LAYER001
  6
CONTINUOUS
 62
    4
 10
1877.4560999999999
 20
1028.7519
 40
3
 50
110.94902000000002
 51
178.70000000000002
  0
LINE
  8
_0-0_LAYER001
  6
CONTINUOUS
 62
    4
 10
1874.3476000000001
 20
1012.9808
 11
1874.3476000000001
 21
1028.7032999999999
  0
LINE
  8
_0-0_LAYER001
  6
CONTINUOUS
 62
    4
 10
1875.7015999999999
 20
1012.0455999999999
 11
1881.8764000000001
 21
1014.3828000000001
  0
ARC
  8
_0-0_LAYER001
  6
CONTINUOUS
 62
    4
 10
1875.3476000000001
 20
1012.9808
 40
1
 50
180
 51
290.73165999999998
  0
LINE
  8
_0-0_LAYER001
  6
CONTINUOUS
 62
    4
 10
2127.0740999999998
 20
1006.5424
 11
2171.5284000000001
 21
1016.1903
  0
LINE
  8
_0-0_LAYER001
  6
CONTINUOUS
 62
    4
 10
2133.8193999999999
 20
986.70869999999991
 11
2172.4911999999999
 21
995.75870000000009
  0
LINE
  8
_0-0_LAYER001
  6
CONTINUOUS
 62
    4
 10
2172.4911999999999
 20
996.7152000000001
 11
2172.4911999999999
 21
995.75870000000009
  0
ARC
  8
_0-0_LAYER001
  6
CONTINUOUS
 62
    4
 10
2173.4911999999999
 20
996.7152000000001
 40
1
 50
102.72435
 51
180
  0
LINE
  8
_0-0_LAYER001
  6
CONTINUOUS
 62
    4
 10
2178.3081999999999
 20
998.82799999999997
 11
2173.2709
 21
997.6905999999999
  0
ARC
  8
_0-0_LAYER001
  6
CONTINUOUS
 62
    4
 10
2178.5284000000001
 20
997.85259999999994
 40
1
 50
0
 51
102.72435
  0
LINE
  8
_0-0_LAYER001
  6
CONTINUOUS
 62
    4
 10
2178.7404999999999
 20
999.33649999999989
 11
2128.6066000000001
 21
988.4559999999999
  0
ARC
  8
_0-0_LAYER001
  6
CONTINUOUS
 62
    4
 10
2178.5284000000001
 20
1000.3137999999999
 40
1
 50
282.24497000000002
 51
0
  0
LINE
  8
_0-0_LAYER001
  6
CONTINUOUS
 62
    4
 10
2178.7462999999998
 20
978.59580000000005
 11
2129.1623
 21
967.52790000000005
  0
LINE
  8
_0-0_LAYER001
  6
CONTINUOUS
 62
    4
 10
2179.5284000000001
 20
979.57179999999994
 11
2179.5284000000001
 21
997.85259999999994
  0
ARC
  8
_0-0_LAYER001
  6
CONTINUOUS
 62
    4
 10
2178.5284000000001
 20
979.57179999999994
 40
1
 50
282.58296000000001
 51
0.0000000000000254
  0
LINE
  8
_0-0_LAYER001
  6
CONTINUOUS
 62
    4
 10
2171.5284000000001
 20
1017.6473000000001
 11
2171.5284000000001
 21
1016.1903
  0
ARC
  8
_0-0_LAYER001
  6
CONTINUOUS
 62
    4
 10
2172.5284000000001
 20
1017.6473000000001
 40
1
 50
101.73308
 51
180
  0
LINE
  8
_0-0_LAYER001
  6
CONTINUOUS
 62
    4
 10
2178.3251
 20
1019.8725999999999
 11
2172.3251
 21
1018.6264000000001
  0
LINE
  8
_0-0_LAYER001
  6
CONTINUOUS
 62
    4
 10
2179.5284000000001
 20
1018.8934999999999
 11
2179.5284000000001
 21
1000.3137999999999
  0
ARC
  8
_0-0_LAYER001
  6
CONTINUOUS
 62
    4
 10
2178.5284000000001
 20
1018.8934999999999
 40
1
 50
0
 51
101.73308
  0
LINE
  8
_0-0_LAYER001
  6
CONTINUOUS
 62
    4
 10
1734.7977999999998
 20
948.00360000000001
 11
1726.2624000000001
 21
962.53690000000006
  0
LINE
  8
_0-0_LAYER001
  6
CONTINUOUS
 62
    4
 10
1742.9657000000002
 20
947.35329999999999
 11
1751.2719000000002
 21
957.41879999999992
  0
ARC
  8
_0-0_LAYER001
  6
CONTINUOUS
 62
    4
 10
1739.1091999999999
 20
950.53569999999991
 40
5
 50
210.42578
 51
320.47001
  0
LINE
  8
_0-0_LAYER001
  6
CONTINUOUS
 62
    4
 10
1818.9113000000002
 20
946.88339999999994
 11
1811.5859
 21
958.18949999999995
  0
LINE
  8
_0-0_LAYER001
  6
CONTINUOUS
 62
    4
 10
1827.4207999999999
 20
947.07339999999999
 11
1836.3593000000001
 21
962.31899999999996
  0
ARC
  8
_0-0_LAYER001
  6
CONTINUOUS
 62
    4
 10
1823.1075000000001
 20
949.60220000000004
 40
5
 50
212.93986000000001
 51
329.61716000000001
  0
LINE
  8
_0-0_LAYER001
  6
CONTINUOUS
 62
    4
 10
1866.7029000000002
 20
986.63100000000009
 11
1869.1309999999999
 21
987.03490000000011
  0
LINE
  8
_0-0_LAYER001
  6
CONTINUOUS
 62
    4
 10
1862.5138000000002
 20
985.93470000000002
 11
1866.7029000000002
 21
986.63100000000009
  0
LINE
  8
_0-0_LAYER001
  6
CONTINUOUS
 62
    4
 10
1858.3200999999999
 20
985.23919999999998
 11
1862.5138000000002
 21
985.93470000000002
  0
LINE
  8
_0-0_LAYER001
  6
CONTINUOUS
 62
    4
 10
1854.1212999999998
 20
984.54520000000002
 11
1858.3200999999999
 21
985.23919999999998
  0
LINE
  8
_0-0_LAYER001
  6
CONTINUOUS
 62
    4
 10
1849.9171999999999
 20
983.85369999999989
 11
1854.1212999999998
 21
984.54520000000002
  0
LINE
  8
_0-0_LAYER001
  6
CONTINUOUS
 62
    4
 10
1845.7103999999999
 20
983.16609999999991
 11
1849.9171999999999
 21
983.85369999999989
  0
LINE
  8
_0-0_LAYER001
  6
CONTINUOUS
 62
    4
 10
1843.2581
 20
982.7675999999999
 11
1845.7103999999999
 21
983.16609999999991
  0
LINE
  8
_0-0_LAYER001
  6
CONTINUOUS
 62
    4
 10
1838.5252999999998
 20
982.00510000000008
 11
1843.2581
 21
982.7675999999999
  0
LINE
  8
_0-0_LAYER001
  6
CONTINUOUS
 62
    4
 10
1830.3209000000002
 20
980.72119999999995
 11
1838.5252999999998
 21
982.00510000000008
  0
LINE
  8
_0-0_LAYER001
  6
CONTINUOUS
 62
    4
 10
1822.0133999999998
 20
979.5014000000001
 11
1830.3209000000002
 21
980.72119999999995
  0
LINE
  8
_0-0_LAYER001
  6
CONTINUOUS
 62
    4
 10
1813.6051000000002
 20
978.38499999999999
 11
1822.0133999999998
 21
979.5014000000001
  0
LINE
  8
_0-0_LAYER001
  6
CONTINUOUS
 62
    4
 10
1805.0925999999999
 20
977.41170000000011
 11
1813.6051000000002
 21
978.38499999999999
  0
LINE
  8
_0-0_LAYER001
  6
CONTINUOUS
 62
    4
 10
1796.5333999999998
 20
976.6277
 11
1805.0925999999999
 21
977.41170000000011
  0
LINE
  8
_0-0_LAYER001
  6
CONTINUOUS
 62
    4
 10
1791.4719
 20
976.26970000000006
 11
1796.5333999999998
 21
976.6277
  0
LINE
  8
_0-0_LAYER001
  6
CONTINUOUS
 62
    4
 10
1788.6693
 20
976.10809999999992
 11
1791.4719
 21
976.26970000000006
  0
LINE
  8
_0-0_LAYER001
  6
CONTINUOUS
 62
    4
 10
1783.9483
 20
975.90409999999997
 11
1788.6693
 21
976.10809999999992
  0
LINE
  8
_0-0_LAYER001
  6
CONTINUOUS
 62
    4
 10
1779.1190999999999
 20
975.79860000000008
 11
1783.9483
 21
975.90409999999997
  0
LINE
  8
_0-0_LAYER001
  6
CONTINUOUS
 62
    4
 10
1774.2174
 20
975.81400000000008
 11
1779.1190999999999
 21
975.79860000000008
  0
LINE
  8
_0-0_LAYER001
  6
CONTINUOUS
 62
    4
 10
1769.2464
 20
975.97190000000001
 11
1774.2174
 21
975.81400000000008
  0
LINE
  8
_0-0_LAYER001
  6
CONTINUOUS
 62
    4
 10
1764.2890000000002
 20
976.28960000000006
 11
1769.2464
 21
975.97190000000001
  0
LINE
  8
_0-0_LAYER001
  6
CONTINUOUS
 62
    4
 10
1761.2374
 20
976.57109999999989
 11
1764.2890000000002
 21
976.28960000000006
  0
LINE
  8
_0-0_LAYER001
  6
CONTINUOUS
 62
    4
 10
1757.3085000000001
 20
977.03330000000005
 11
1761.2374
 21
976.57109999999989
  0
LINE
  8
_0-0_LAYER001
  6
CONTINUOUS
 62
    4
 10
1750.7946000000002
 20
978.05590000000007
 11
1757.3085000000001
 21
977.03330000000005
  0
LINE
  8
_0-0_LAYER001
  6
CONTINUOUS
 62
    4
 10
1744.2478999999998
 20
979.4079999999999
 11
1750.7946000000002
 21
978.05590000000007
  0
LINE
  8
_0-0_LAYER001
  6
CONTINUOUS
 62
    4
 10
1737.7849999999999
 20
981.0639000000001
 11
1744.2478999999998
 21
979.4079999999999
  0
LINE
  8
_0-0_LAYER001
  6
CONTINUOUS
 62
    4
 10
1731.4191000000001
 20
983.01459999999997
 11
1737.7849999999999
 21
981.0639000000001
  0
LINE
  8
_0-0_LAYER001
  6
CONTINUOUS
 62
    4
 10
1725.2543000000001
 20
985.21949999999993
 11
1731.4191000000001
 21
983.01459999999997
  0
LINE
  8
_0-0_LAYER001
  6
CONTINUOUS
 62
    4
 10
1721.5675999999999
 20
986.69129999999996
 11
1725.2543000000001
 21
985.21949999999993
  0
LINE
  8
_0-0_LAYER001
  6
CONTINUOUS
 62
    4
 10
1717.2033999999999
 20
988.58380000000011
 11
1721.5675999999999
 21
986.69129999999996
  0
LINE
  8
_0-0_LAYER001
  6
CONTINUOUS
 62
    4
 10
1710.1343000000002
 20
991.99880000000007
 11
1717.2033999999999
 21
988.58380000000011
  0
LINE
  8
_0-0_LAYER001
  6
CONTINUOUS
 62
    4
 10
1703.2413999999999
 20
995.72839999999997
 11
1710.1343000000002
 21
991.99880000000007
  0
LINE
  8
_0-0_LAYER001
  6
CONTINUOUS
 62
    4
 10
1696.6044000000002
 20
999.66210000000001
 11
1703.2413999999999
 21
995.72839999999997
  0
LINE
  8
_0-0_LAYER001
  6
CONTINUOUS
 62
    4
 10
1690.1950999999999
 20
1003.7445
 11
1696.6044000000002
 21
999.66210000000001
  0
LINE
  8
_0-0_LAYER001
  6
CONTINUOUS
 62
    4
 10
1684.0109000000002
 20
1007.9067
 11
1690.1950999999999
 21
1003.7445
  0
LINE
  8
_0-0_LAYER001
  6
CONTINUOUS
 62
    4
 10
1680.4686000000002
 20
1010.3704
 11
1684.0109000000002
 21
1007.9067
  0
LINE
  8
_0-0_LAYER001
  6
CONTINUOUS
 62
    4
 10
1678.2365
 20
1011.9438
 11
1680.4686000000002
 21
1010.3704
  0
LINE
  8
_0-0_LAYER001
  6
CONTINUOUS
 62
    4
 10
1674.6129999999998
 20
1014.4829999999999
 11
1678.2365
 21
1011.9438
  0
LINE
  8
_0-0_LAYER001
  6
CONTINUOUS
 62
    4
 10
1671.2433000000001
 20
1016.7484999999999
 11
1674.6129999999998
 21
1014.4829999999999
  0
LINE
  8
_0-0_LAYER001
  6
CONTINUOUS
 62
    4
 10
1668.1282999999999
 20
1018.6756
 11
1671.2433000000001
 21
1016.7484999999999
  0
LINE
  8
_0-0_LAYER001
  6
CONTINUOUS
 62
    4
 10
1665.2611000000002
 20
1020.2312999999999
 11
1668.1282999999999
 21
1018.6756
  0
LINE
  8
_0-0_LAYER001
  6
CONTINUOUS
 62
    4
 10
1662.4299999999998
 20
1021.4998000000001
 11
1665.2611000000002
 21
1020.2312999999999
  0
LINE
  8
_0-0_LAYER001
  6
CONTINUOUS
 62
    4
 10
1660.9668000000001
 20
1022.0319
 11
1662.4299999999998
 21
1021.4998000000001
  0
LINE
  8
_0-0_LAYER001
  6
CONTINUOUS
 62
    4
 10
1660.7856999999999
 20
1022.0898999999999
 11
1660.9668000000001
 21
1022.0319
  0
LINE
  8
_0-0_LAYER001
  6
CONTINUOUS
 62
    4
 10
1659.9974000000002
 20
1022.3178
 11
1660.7856999999999
 21
1022.0898999999999
  0
LINE
  8
_0-0_LAYER001
  6
CONTINUOUS
 62
    4
 10
1659.3402999999998
 20
1022.4804999999999
 11
1659.9974000000002
 21
1022.3178
  0
LINE
  8
_0-0_LAYER001
  6
CONTINUOUS
 62
    4
 10
1658.7584999999999
 20
1022.5985000000001
 11
1659.3402999999998
 21
1022.4804999999999
  0
LINE
  8
_0-0_LAYER001
  6
CONTINUOUS
 62
    4
 10
1658.7184000000002
 20
1022.6047000000001
 11
1658.7584999999999
 21
1022.5985000000001
  0
LINE
  8
_0-0_LAYER001
  6
CONTINUOUS
 62
    4
 10
1862.6923000000002
 20
967.44350000000009
 11
1864.3063999999999
 21
967.71199999999999
  0
LINE
  8
_0-0_LAYER001
  6
CONTINUOUS
 62
    4
 10
1858.5037000000002
 20
966.7473
 11
1862.6923000000002
 21
967.44350000000009
  0
LINE
  8
_0-0_LAYER001
  6
CONTINUOUS
 62
    4
 10
1854.3108000000002
 20
966.05189999999993
 11
1858.5037000000002
 21
966.7473
  0
LINE
  8
_0-0_LAYER001
  6
CONTINUOUS
 62
    4
 10
1850.1133
 20
965.3581999999999
 11
1854.3108000000002
 21
966.05189999999993
  0
LINE
  8
_0-0_LAYER001
  6
CONTINUOUS
 62
    4
 10
1845.9110000000001
 20
964.66699999999992
 11
1850.1133
 21
965.3581999999999
  0
LINE
  8
_0-0_LAYER001
  6
CONTINUOUS
 62
    4
 10
1841.7060999999999
 20
963.97959999999989
 11
1845.9110000000001
 21
964.66699999999992
  0
LINE
  8
_0-0_LAYER001
  6
CONTINUOUS
 62
    4
 10
1839.2561000000001
 20
963.58150000000001
 11
1841.7060999999999
 21
963.97959999999989
  0
LINE
  8
_0-0_LAYER001
  6
CONTINUOUS
 62
    4
 10
1834.5291000000002
 20
962.81999999999994
 11
1839.2561000000001
 21
963.58150000000001
  0
LINE
  8
_0-0_LAYER001
  6
CONTINUOUS
 62
    4
 10
1826.3384000000001
 20
961.53819999999996
 11
1834.5291000000002
 21
962.81999999999994
  0
LINE
  8
_0-0_LAYER001
  6
CONTINUOUS
 62
    4
 10
1818.0538999999999
 20
960.32179999999994
 11
1826.3384000000001
 21
961.53819999999996
  0
LINE
  8
_0-0_LAYER001
  6
CONTINUOUS
 62
    4
 10
1809.6772999999998
 20
959.20959999999991
 11
1818.0538999999999
 21
960.32179999999994
  0
LINE
  8
_0-0_LAYER001
  6
CONTINUOUS
 62
    4
 10
1801.2051000000001
 20
958.24090000000001
 11
1809.6772999999998
 21
959.20959999999991
  0
LINE
  8
_0-0_LAYER001
  6
CONTINUOUS
 62
    4
 10
1792.6889999999999
 20
957.46080000000006
 11
1801.2051000000001
 21
958.24090000000001
  0
LINE
  8
_0-0_LAYER001
  6
CONTINUOUS
 62
    4
 10
1787.6612
 20
957.10519999999997
 11
1792.6889999999999
 21
957.46080000000006
  0
LINE
  8
_0-0_LAYER001
  6
CONTINUOUS
 62
    4
 10
1784.886
 20
956.94520000000011
 11
1787.6612
 21
957.10519999999997
  0
LINE
  8
_0-0_LAYER001
  6
CONTINUOUS
 62
    4
 10
1780.2006999999999
 20
956.74279999999999
 11
1784.886
 21
956.94520000000011
  0
LINE
  8
_0-0_LAYER001
  6
CONTINUOUS
 62
    4
 10
1775.4178000000002
 20
956.63830000000007
 11
1780.2006999999999
 21
956.74279999999999
  0
LINE
  8
_0-0_LAYER001
  6
CONTINUOUS
 62
    4
 10
1770.5697
 20
956.65349999999989
 11
1775.4178000000002
 21
956.63830000000007
  0
LINE
  8
_0-0_LAYER001
  6
CONTINUOUS
 62
    4
 10
1765.6595000000002
 20
956.80950000000007
 11
1770.5697
 21
956.65349999999989
  0
LINE
  8
_0-0_LAYER001
  6
CONTINUOUS
 62
    4
 10
1760.7622999999999
 20
957.12339999999995
 11
1765.6595000000002
 21
956.80950000000007
  0
LINE
  8
_0-0_LAYER001
  6
CONTINUOUS
 62
    4
 10
1757.7635
 20
957.39989999999989
 11
1760.7622999999999
 21
957.12339999999995
  0
LINE
  8
_0-0_LAYER001
  6
CONTINUOUS
 62
    4
 10
1753.8978999999999
 20
957.85470000000009
 11
1757.7635
 21
957.39989999999989
  0
LINE
  8
_0-0_LAYER001
  6
CONTINUOUS
 62
    4
 10
1747.4695000000002
 20
958.86380000000008
 11
1753.8978999999999
 21
957.85470000000009
  0
LINE
  8
_0-0_LAYER001
  6
CONTINUOUS
 62
    4
 10
1741.0160999999998
 20
960.19669999999996
 11
1747.4695000000002
 21
958.86380000000008
  0
LINE
  8
_0-0_LAYER001
  6
CONTINUOUS
 62
    4
 10
1734.6439
 20
961.8293000000001
 11
1741.0160999999998
 21
960.19669999999996
  0
LINE
  8
_0-0_LAYER001
  6
CONTINUOUS
 62
    4
 10
1728.3665999999998
 20
963.75289999999995
 11
1734.6439
 21
961.8293000000001
  0
LINE
  8
_0-0_LAYER001
  6
CONTINUOUS
 62
    4
 10
1722.2795000000001
 20
965.93010000000004
 11
1728.3665999999998
 21
963.75289999999995
  0
LINE
  8
_0-0_LAYER001
  6
CONTINUOUS
 62
    4
 10
1718.6538
 20
967.37750000000005
 11
1722.2795000000001
 21
965.93010000000004
  0
LINE
  8
_0-0_LAYER001
  6
CONTINUOUS
 62
    4
 10
1714.3539999999998
 20
969.24209999999994
 11
1718.6538
 21
967.37750000000005
  0
LINE
  8
_0-0_LAYER001
  6
CONTINUOUS
 62
    4
 10
1707.3631
 20
972.61930000000007
 11
1714.3539999999998
 21
969.24209999999994
  0
LINE
  8
_0-0_LAYER001
  6
CONTINUOUS
 62
    4
 10
1700.5450000000001
 20
976.30839999999989
 11
1707.3631
 21
972.61930000000007
  0
LINE
  8
_0-0_LAYER001
  6
CONTINUOUS
 62
    4
 10
1693.9692
 20
980.20579999999995
 11
1700.5450000000001
 21
976.30839999999989
  0
LINE
  8
_0-0_LAYER001
  6
CONTINUOUS
 62
    4
 10
1687.6082999999999
 20
984.25739999999996
 11
1693.9692
 21
980.20579999999995
  0
LINE
  8
_0-0_LAYER001
  6
CONTINUOUS
 62
    4
 10
1681.4576999999999
 20
988.39689999999996
 11
1687.6082999999999
 21
984.25739999999996
  0
LINE
  8
_0-0_LAYER001
  6
CONTINUOUS
 62
    4
 10
1677.9331000000002
 20
990.84830000000011
 11
1681.4576999999999
 21
988.39689999999996
  0
LINE
  8
_0-0_LAYER001
  6
CONTINUOUS
 62
    4
 10
1675.7040000000002
 20
992.41969999999992
 11
1677.9331000000002
 21
990.84830000000011
  0
LINE
  8
_0-0_LAYER001
  6
CONTINUOUS
 62
    4
 10
1672.0623000000001
 20
994.97160000000008
 11
1675.7040000000002
 21
992.41969999999992
  0
LINE
  8
_0-0_LAYER001
  6
CONTINUOUS
 62
    4
 10
1668.6451999999999
 20
997.26900000000001
 11
1672.0623000000001
 21
994.97160000000008
  0
LINE
  8
_0-0_LAYER001
  6
CONTINUOUS
 62
    4
 10
1665.4495999999999
 20
999.24600000000009
 11
1668.6451999999999
 21
997.26900000000001
  0
LINE
  8
_0-0_LAYER001
  6
CONTINUOUS
 62
    4
 10
1662.4656
 20
1000.8651
 11
1665.4495999999999
 21
999.24600000000009
  0
LINE
  8
_0-0_LAYER001
  6
CONTINUOUS
 62
    4
 10
1659.4991
 20
1002.1941999999999
 11
1662.4656
 21
1000.8651
  0
LINE
  8
_0-0_LAYER001
  6
CONTINUOUS
 62
    4
 10
1658.7491
 20
1002.4668999999999
 11
1659.4991
 21
1002.1941999999999
  0
LINE
  8
_0-0_LAYER001
  6
CONTINUOUS
 62
    4
 10
1659.0821999999998
 20
1022.5101
 11
1658.9061000000002
 21
1002.3366000000001
  0
LINE
  8
_0-0_LAYER001
  6
CONTINUOUS
 62
    4
 10
1859.4078
 20
957.02230000000009
 11
1857.1624000000002
 21
965.59570000000008
  0
ARC
  8
_0-0_LAYER001
  6
CONTINUOUS
 62
    4
 10
1862.3099000000002
 20
957.78240000000005
 40
3
 50
194.67639000000003
 51
270.00000000000006
  0
LINE
  8
_0-0_LAYER001
  6
CONTINUOUS
 62
    4
 10
1865.7523999999999
 20
954.77809999999999
 11
1862.3346000000001
 21
954.77809999999999
  0
LINE
  8
_0-0_LAYER001
  6
CONTINUOUS
 62
    4
 10
1868.7116000000001
 20
957.28490000000011
 11
1870.6455999999998
 21
968.8889999999999
  0
ARC
  8
_0-0_LAYER001
  6
CONTINUOUS
 62
    4
 10
1865.7523999999999
 20
957.77809999999999
 40
3
 50
270
 51
350.53766999999999
  0
LINE
  8
_0-0_LAYER001
  6
CONTINUOUS
 62
    4
 10
1611.9859999999999
 20
1031.9003
 11
1612.7999
 21
1032.2068999999999
  0
LINE
  8
_0-0_LAYER001
  6
CONTINUOUS
 62
    4
 10
1612.7999
 20
1032.2068999999999
 11
1616.3492000000001
 21
1033.5464999999999
  0
LINE
  8
_0-0_LAYER001
  6
CONTINUOUS
 62
    4
 10
1616.3492000000001
 20
1033.5464999999999
 11
1619.9058
 21
1034.8954000000001
  0
LINE
  8
_0-0_LAYER001
  6
CONTINUOUS
 62
    4
 10
1619.9058
 20
1034.8954000000001
 11
1623.4744000000001
 21
1036.2593999999999
  0
LINE
  8
_0-0_LAYER001
  6
CONTINUOUS
 62
    4
 10
1623.4744000000001
 20
1036.2593999999999
 11
1627.0598
 21
1037.6445000000001
  0
LINE
  8
_0-0_LAYER001
  6
CONTINUOUS
 62
    4
 10
1627.0598
 20
1037.6445000000001
 11
1630.6664999999998
 21
1039.0564999999999
  0
LINE
  8
_0-0_LAYER001
  6
CONTINUOUS
 62
    4
 10
1630.6664999999998
 20
1039.0564999999999
 11
1632.77
 21
1039.8901000000001
  0
LINE
  8
_0-0_LAYER001
  6
CONTINUOUS
 62
    4
 10
1632.77
 20
1039.8901000000001
 11
1634.8494000000001
 21
1040.7189000000001
  0
LINE
  8
_0-0_LAYER001
  6
CONTINUOUS
 62
    4
 10
1634.8494000000001
 20
1040.7189000000001
 11
1638.4558999999999
 21
1042.1204
  0
LINE
  8
_0-0_LAYER001
  6
CONTINUOUS
 62
    4
 10
1638.4558999999999
 20
1042.1204
 11
1642.0886999999998
 21
1043.4031
  0
LINE
  8
_0-0_LAYER001
  6
CONTINUOUS
 62
    4
 10
1642.0886999999998
 20
1043.4031
 11
1645.7465999999999
 21
1044.4697000000001
  0
LINE
  8
_0-0_LAYER001
  6
CONTINUOUS
 62
    4
 10
1645.7465999999999
 20
1044.4697000000001
 11
1649.4286999999999
 21
1045.223
  0
LINE
  8
_0-0_LAYER001
  6
CONTINUOUS
 62
    4
 10
1649.4286999999999
 20
1045.223
 11
1653.134
 21
1045.5654999999999
  0
LINE
  8
_0-0_LAYER001
  6
CONTINUOUS
 62
    4
 10
1653.134
 20
1045.5654999999999
 11
1655.2932999999998
 21
1045.5376000000001
  0
LINE
  8
_0-0_LAYER001
  6
CONTINUOUS
 62
    4
 10
1655.2932999999998
 20
1045.5376000000001
 11
1656.1424000000002
 21
1045.4762000000001
  0
LINE
  8
_0-0_LAYER001
  6
CONTINUOUS
 62
    4
 10
1656.1424000000002
 20
1045.4762000000001
 11
1657.6068
 21
1045.3055999999999
  0
LINE
  8
_0-0_LAYER001
  6
CONTINUOUS
 62
    4
 10
1657.6068
 20
1045.3055999999999
 11
1659.0679
 21
1045.0589
  0
LINE
  8
_0-0_LAYER001
  6
CONTINUOUS
 62
    4
 10
1659.0679
 20
1045.0589
 11
1660.5216
 21
1044.7429
  0
LINE
  8
_0-0_LAYER001
  6
CONTINUOUS
 62
    4
 10
1660.5216
 20
1044.7429
 11
1661.9636999999998
 21
1044.3643999999999
  0
LINE
  8
_0-0_LAYER001
  6
CONTINUOUS
 62
    4
 10
1661.9636999999998
 20
1044.3643999999999
 11
1663.3901000000001
 21
1043.9302
  0
LINE
  8
_0-0_LAYER001
  6
CONTINUOUS
 62
    4
 10
1663.3901000000001
 20
1043.9302
 11
1664.2085999999999
 21
1043.6556
  0
LINE
  8
_0-0_LAYER001
  6
CONTINUOUS
 62
    4
 10
1664.2085999999999
 20
1043.6556
 11
1666.7067999999999
 21
1042.7074
  0
LINE
  8
_0-0_LAYER001
  6
CONTINUOUS
 62
    4
 10
1666.7067999999999
 20
1042.7074
 11
1670.8658
 21
1040.7738999999999
  0
LINE
  8
_0-0_LAYER001
  6
CONTINUOUS
 62
    4
 10
1670.8658
 20
1040.7738999999999
 11
1674.8696
 21
1038.5284999999999
  0
LINE
  8
_0-0_LAYER001
  6
CONTINUOUS
 62
    4
 10
1674.8696
 20
1038.5284999999999
 11
1678.7564000000002
 21
1036.0482
  0
LINE
  8
_0-0_LAYER001
  6
CONTINUOUS
 62
    4
 10
1678.7564000000002
 20
1036.0482
 11
1682.5644000000002
 21
1033.4100000000001
  0
LINE
  8
_0-0_LAYER001
  6
CONTINUOUS
 62
    4
 10
1682.5644000000002
 20
1033.4100000000001
 11
1686.3317000000002
 21
1030.691
  0
LINE
  8
_0-0_LAYER001
  6
CONTINUOUS
 62
    4
 10
1686.3317000000002
 20
1030.691
 11
1688.5129999999999
 21
1029.1071999999999
  0
LINE
  8
_0-0_LAYER001
  6
CONTINUOUS
 62
    4
 10
1688.5129999999999
 20
1029.1071999999999
 11
1691.8445999999999
 21
1026.7203
  0
LINE
  8
_0-0_LAYER001
  6
CONTINUOUS
 62
    4
 10
1691.8445999999999
 20
1026.7203
 11
1697.6368000000002
 21
1022.7034000000001
  0
LINE
  8
_0-0_LAYER001
  6
CONTINUOUS
 62
    4
 10
1697.6368000000002
 20
1022.7034000000001
 11
1703.509
 21
1018.8468
  0
LINE
  8
_0-0_LAYER001
  6
CONTINUOUS
 62
    4
 10
1703.509
 20
1018.8468
 11
1709.4832000000001
 21
1015.1922999999999
  0
LINE
  8
_0-0_LAYER001
  6
CONTINUOUS
 62
    4
 10
1709.4832000000001
 20
1015.1922999999999
 11
1715.5812999999998
 21
1011.7818
  0
LINE
  8
_0-0_LAYER001
  6
CONTINUOUS
 62
    4
 10
1715.5812999999998
 20
1011.7818
 11
1721.8256000000001
 21
1008.6569999999999
  0
LINE
  8
_0-0_LAYER001
  6
CONTINUOUS
 62
    4
 10
1721.8256000000001
 20
1008.6569999999999
 11
1725.5228999999999
 21
1006.992
  0
LINE
  8
_0-0_LAYER001
  6
CONTINUOUS
 62
    4
 10
1725.5228999999999
 20
1006.992
 11
1728.5821999999998
 21
1005.7209
  0
LINE
  8
_0-0_LAYER001
  6
CONTINUOUS
 62
    4
 10
1728.5821999999998
 20
1005.7209
 11
1733.9427000000001
 21
1003.7186999999999
  0
LINE
  8
_0-0_LAYER001
  6
CONTINUOUS
 62
    4
 10
1733.9427000000001
 20
1003.7186999999999
 11
1739.3984
 21
1001.9631999999999
  0
LINE
  8
_0-0_LAYER001
  6
CONTINUOUS
 62
    4
 10
1739.3984
 20
1001.9631999999999
 11
1744.9333999999999
 21
1000.4625000000001
  0
LINE
  8
_0-0_LAYER001
  6
CONTINUOUS
 62
    4
 10
1744.9333999999999
 20
1000.4625000000001
 11
1750.5317
 21
999.22440000000006
  0
LINE
  8
_0-0_LAYER001
  6
CONTINUOUS
 62
    4
 10
1750.5317
 20
999.22440000000006
 11
1756.1774
 21
998.25720000000001
  0
LINE
  8
_0-0_LAYER001
  6
CONTINUOUS
 62
    4
 10
1756.1774
 20
998.25720000000001
 11
1759.4674
 21
997.82349999999997
  0
LINE
  8
_0-0_LAYER001
  6
CONTINUOUS
 62
    4
 10
1759.4674
 20
997.82349999999997
 11
1761.9866000000002
 21
997.55559999999991
  0
LINE
  8
_0-0_LAYER001
  6
CONTINUOUS
 62
    4
 10
1761.9866000000002
 20
997.55559999999991
 11
1766.3386999999998
 21
997.21559999999999
  0
LINE
  8
_0-0_LAYER001
  6
CONTINUOUS
 62
    4
 10
1766.3386999999998
 20
997.21559999999999
 11
1770.6990000000001
 21
997.01620000000003
  0
LINE
  8
_0-0_LAYER001
  6
CONTINUOUS
 62
    4
 10
1770.6990000000001
 20
997.01620000000003
 11
1775.0641999999998
 21
996.94149999999991
  0
LINE
  8
_0-0_LAYER001
  6
CONTINUOUS
 62
    4
 10
1775.0641999999998
 20
996.94149999999991
 11
1779.4313000000002
 21
996.97589999999991
  0
LINE
  8
_0-0_LAYER001
  6
CONTINUOUS
 62
    4
 10
1779.4313000000002
 20
996.97589999999991
 11
1783.7972
 21
997.10349999999994
  0
LINE
  8
_0-0_LAYER001
  6
CONTINUOUS
 62
    4
 10
1783.7972
 20
997.10349999999994
 11
1786.3276000000001
 21
997.21399999999994
  0
LINE
  8
_0-0_LAYER001
  6
CONTINUOUS
 62
    4
 10
1786.3276000000001
 20
997.21399999999994
 11
1791.0567000000001
 21
997.48209999999995
  0
LINE
  8
_0-0_LAYER001
  6
CONTINUOUS
 62
    4
 10
1791.0567000000001
 20
997.48209999999995
 11
1799.1949
 21
998.11310000000003
  0
LINE
  8
_0-0_LAYER001
  6
CONTINUOUS
 62
    4
 10
1799.1949
 20
998.11310000000003
 11
1807.3155999999999
 21
998.92699999999991
  0
LINE
  8
_0-0_LAYER001
  6
CONTINUOUS
 62
    4
 10
1807.3155999999999
 20
998.92699999999991
 11
1815.4214999999999
 21
999.88830000000007
  0
LINE
  8
_0-0_LAYER001
  6
CONTINUOUS
 62
    4
 10
1815.4214999999999
 20
999.88830000000007
 11
1823.5149999999999
 21
1000.9614999999999
  0
LINE
  8
_0-0_LAYER001
  6
CONTINUOUS
 62
    4
 10
1823.5149999999999
 20
1000.9614999999999
 11
1831.5985000000001
 21
1002.1110000000001
  0
LINE
  8
_0-0_LAYER001
  6
CONTINUOUS
 62
    4
 10
1831.5985000000001
 20
1002.1110000000001
 11
1836.2833999999998
 21
1002.7988
  0
LINE
  8
_0-0_LAYER001
  6
CONTINUOUS
 62
    4
 10
1836.2833999999998
 20
1002.7988
 11
1838.7183
 21
1003.1596999999999
  0
LINE
  8
_0-0_LAYER001
  6
CONTINUOUS
 62
    4
 10
1838.7183
 20
1003.1596999999999
 11
1842.9153000000001
 21
1003.7856999999999
  0
LINE
  8
_0-0_LAYER001
  6
CONTINUOUS
 62
    4
 10
1842.9153000000001
 20
1003.7856999999999
 11
1847.1109999999999
 21
1004.4158
  0
LINE
  8
_0-0_LAYER001
  6
CONTINUOUS
 62
    4
 10
1847.1109999999999
 20
1004.4158
 11
1851.3058999999998
 21
1005.0491
  0
LINE
  8
_0-0_LAYER001
  6
CONTINUOUS
 62
    4
 10
1851.3058999999998
 20
1005.0491
 11
1855.5
 21
1005.6846
  0
LINE
  8
_0-0_LAYER001
  6
CONTINUOUS
 62
    4
 10
1855.5
 20
1005.6846
 11
1859.6938
 21
1006.3216
  0
LINE
  8
_0-0_LAYER001
  6
CONTINUOUS
 62
    4
 10
1859.6938
 20
1006.3216
 11
1862.1261
 21
1006.6913999999999
  0
LINE
  8
_0-0_LAYER001
  6
CONTINUOUS
 62
    4
 10
1617.0891999999999
 20
1014.5878
 11
1619.1511
 21
1015.3646000000001
  0
LINE
  8
_0-0_LAYER001
  6
CONTINUOUS
 62
    4
 10
1619.1511
 20
1015.3646000000001
 11
1622.7186999999999
 21
1016.7111
  0
LINE
  8
_0-0_LAYER001
  6
CONTINUOUS
 62
    4
 10
1622.7186999999999
 20
1016.7111
 11
1626.3105999999998
 21
1018.0734
  0
LINE
  8
_0-0_LAYER001
  6
CONTINUOUS
 62
    4
 10
1626.3105999999998
 20
1018.0734
 11
1629.931
 21
1019.4572000000001
  0
LINE
  8
_0-0_LAYER001
  6
CONTINUOUS
 62
    4
 10
1629.931
 20
1019.4572000000001
 11
1633.5839999999998
 21
1020.8684000000001
  0
LINE
  8
_0-0_LAYER001
  6
CONTINUOUS
 62
    4
 10
1633.5839999999998
 20
1020.8684000000001
 11
1637.2631999999999
 21
1022.3088
  0
LINE
  8
_0-0_LAYER001
  6
CONTINUOUS
 62
    4
 10
1637.2631999999999
 20
1022.3088
 11
1639.4182999999998
 21
1023.1628000000001
  0
LINE
  8
_0-0_LAYER001
  6
CONTINUOUS
 62
    4
 10
1639.4182999999998
 20
1023.1628000000001
 11
1641.4418999999998
 21
1023.9694999999999
  0
LINE
  8
_0-0_LAYER001
  6
CONTINUOUS
 62
    4
 10
1641.4418999999998
 20
1023.9694999999999
 11
1644.7138
 21
1025.2409
  0
LINE
  8
_0-0_LAYER001
  6
CONTINUOUS
 62
    4
 10
1644.7138
 20
1025.2409
 11
1647.6089000000002
 21
1026.2630999999999
  0
LINE
  8
_0-0_LAYER001
  6
CONTINUOUS
 62
    4
 10
1647.6089000000002
 20
1026.2630999999999
 11
1650.0770000000002
 21
1026.9828
  0
LINE
  8
_0-0_LAYER001
  6
CONTINUOUS
 62
    4
 10
1650.0770000000002
 20
1026.9828
 11
1652.0688
 21
1027.3903
  0
LINE
  8
_0-0_LAYER001
  6
CONTINUOUS
 62
    4
 10
1652.0688
 20
1027.3903
 11
1653.8481000000002
 21
1027.5546999999999
  0
LINE
  8
_0-0_LAYER001
  6
CONTINUOUS
 62
    4
 10
1653.8481000000002
 20
1027.5546999999999
 11
1654.5275999999999
 21
1027.546
  0
LINE
  8
_0-0_LAYER001
  6
CONTINUOUS
 62
    4
 10
1654.5275999999999
 20
1027.546
 11
1654.4515000000001
 21
1027.5515
  0
LINE
  8
_0-0_LAYER001
  6
CONTINUOUS
 62
    4
 10
1654.4515000000001
 20
1027.5515
 11
1655.0652
 21
1027.48
  0
LINE
  8
_0-0_LAYER001
  6
CONTINUOUS
 62
    4
 10
1655.0652
 20
1027.48
 11
1655.6556
 21
1027.3803
  0
LINE
  8
_0-0_LAYER001
  6
CONTINUOUS
 62
    4
 10
1655.6556
 20
1027.3803
 11
1656.3229999999999
 21
1027.2352000000001
  0
LINE
  8
_0-0_LAYER001
  6
CONTINUOUS
 62
    4
 10
1656.3229999999999
 20
1027.2352000000001
 11
1657.0565999999999
 21
1027.0427
  0
LINE
  8
_0-0_LAYER001
  6
CONTINUOUS
 62
    4
 10
1657.0565999999999
 20
1027.0427
 11
1657.9056999999998
 21
1026.7842000000001
  0
LINE
  8
_0-0_LAYER001
  6
CONTINUOUS
 62
    4
 10
1657.9056999999998
 20
1026.7842000000001
 11
1658.1498000000001
 21
1026.7022999999999
  0
LINE
  8
_0-0_LAYER001
  6
CONTINUOUS
 62
    4
 10
1658.1498000000001
 20
1026.7022999999999
 11
1659.7096999999999
 21
1026.1102000000001
  0
LINE
  8
_0-0_LAYER001
  6
CONTINUOUS
 62
    4
 10
1659.7096999999999
 20
1026.1102000000001
 11
1662.6574000000001
 21
1024.7398000000001
  0
LINE
  8
_0-0_LAYER001
  6
CONTINUOUS
 62
    4
 10
1662.6574000000001
 20
1024.7398000000001
 11
1665.6185
 21
1023.0791999999999
  0
LINE
  8
_0-0_LAYER001
  6
CONTINUOUS
 62
    4
 10
1665.6185
 20
1023.0791999999999
 11
1668.7862
 21
1021.0578
  0
LINE
  8
_0-0_LAYER001
  6
CONTINUOUS
 62
    4
 10
1668.7862
 20
1021.0578
 11
1672.1709000000001
 21
1018.7129
  0
LINE
  8
_0-0_LAYER001
  6
CONTINUOUS
 62
    4
 10
1672.1709000000001
 20
1018.7129
 11
1675.7766000000001
 21
1016.1105
  0
LINE
  8
_0-0_LAYER001
  6
CONTINUOUS
 62
    4
 10
1675.7766000000001
 20
1016.1105
 11
1677.9836
 21
1014.508
  0
LINE
  8
_0-0_LAYER001
  6
CONTINUOUS
 62
    4
 10
1677.9836
 20
1014.508
 11
1681.4735999999998
 21
1012.0077000000001
  0
LINE
  8
_0-0_LAYER001
  6
CONTINUOUS
 62
    4
 10
1681.4735999999998
 20
1012.0077000000001
 11
1687.5657999999999
 21
1007.7828
  0
LINE
  8
_0-0_LAYER001
  6
CONTINUOUS
 62
    4
 10
1687.5657999999999
 20
1007.7828
 11
1693.8694999999998
 21
1003.6427000000001
  0
LINE
  8
_0-0_LAYER001
  6
CONTINUOUS
 62
    4
 10
1693.8694999999998
 20
1003.6427000000001
 11
1700.3901999999998
 21
999.65390000000002
  0
LINE
  8
_0-0_LAYER001
  6
CONTINUOUS
 62
    4
 10
1700.3901999999998
 20
999.65390000000002
 11
1707.1561999999999
 21
995.86989999999992
  0
LINE
  8
_0-0_LAYER001
  6
CONTINUOUS
 62
    4
 10
1707.1561999999999
 20
995.86989999999992
 11
1714.0992000000001
 21
992.39540000000011
  0
LINE
  8
_0-0_LAYER001
  6
CONTINUOUS
 62
    4
 10
1714.0992000000001
 20
992.39540000000011
 11
1718.3726000000001
 21
990.471
  0
LINE
  8
_0-0_LAYER001
  6
CONTINUOUS
 62
    4
 10
1718.3726000000001
 20
990.471
 11
1721.9776999999999
 21
988.97309999999993
  0
LINE
  8
_0-0_LAYER001
  6
CONTINUOUS
 62
    4
 10
1721.9776999999999
 20
988.97309999999993
 11
1728.0338000000002
 21
986.71109999999999
  0
LINE
  8
_0-0_LAYER001
  6
CONTINUOUS
 62
    4
 10
1728.0338000000002
 20
986.71109999999999
 11
1734.2836000000002
 21
984.70010000000002
  0
LINE
  8
_0-0_LAYER001
  6
CONTINUOUS
 62
    4
 10
1734.2836000000002
 20
984.70010000000002
 11
1740.6324
 21
982.97869999999989
  0
LINE
  8
_0-0_LAYER001
  6
CONTINUOUS
 62
    4
 10
1740.6324
 20
982.97869999999989
 11
1747.0666000000001
 21
981.55580000000009
  0
LINE
  8
_0-0_LAYER001
  6
CONTINUOUS
 62
    4
 10
1747.0666000000001
 20
981.55580000000009
 11
1753.4803000000002
 21
980.45700000000011
  0
LINE
  8
_0-0_LAYER001
  6
CONTINUOUS
 62
    4
 10
1753.4803000000002
 20
980.45700000000011
 11
1757.3391999999999
 21
979.94830000000002
  0
LINE
  8
_0-0_LAYER001
  6
CONTINUOUS
 62
    4
 10
1757.3391999999999
 20
979.94830000000002
 11
1760.3337999999999
 21
979.62989999999991
  0
LINE
  8
_0-0_LAYER001
  6
CONTINUOUS
 62
    4
 10
1760.3337999999999
 20
979.62989999999991
 11
1765.2262000000001
 21
979.2476999999999
  0
LINE
  8
_0-0_LAYER001
  6
CONTINUOUS
 62
    4
 10
1765.2262000000001
 20
979.2476999999999
 11
1770.1336999999999
 21
979.02320000000009
  0
LINE
  8
_0-0_LAYER001
  6
CONTINUOUS
 62
    4
 10
1770.1336999999999
 20
979.02320000000009
 11
1774.9811
 21
978.94029999999998
  0
LINE
  8
_0-0_LAYER001
  6
CONTINUOUS
 62
    4
 10
1774.9811
 20
978.94029999999998
 11
1779.7649999999999
 21
978.97800000000007
  0
LINE
  8
_0-0_LAYER001
  6
CONTINUOUS
 62
    4
 10
1779.7649999999999
 20
978.97800000000007
 11
1784.4526999999998
 21
979.11490000000003
  0
LINE
  8
_0-0_LAYER001
  6
CONTINUOUS
 62
    4
 10
1784.4526999999998
 20
979.11490000000003
 11
1787.2298000000001
 21
979.23620000000005
  0
LINE
  8
_0-0_LAYER001
  6
CONTINUOUS
 62
    4
 10
1787.2298000000001
 20
979.23620000000005
 11
1792.2622000000001
 21
979.52160000000003
  0
LINE
  8
_0-0_LAYER001
  6
CONTINUOUS
 62
    4
 10
1792.2622000000001
 20
979.52160000000003
 11
1800.7883000000002
 21
980.18270000000007
  0
LINE
  8
_0-0_LAYER001
  6
CONTINUOUS
 62
    4
 10
1800.7883000000002
 20
980.18270000000007
 11
1809.2732000000001
 21
981.0329999999999
  0
LINE
  8
_0-0_LAYER001
  6
CONTINUOUS
 62
    4
 10
1809.2732000000001
 20
981.0329999999999
 11
1817.6644999999999
 21
982.02819999999997
  0
LINE
  8
_0-0_LAYER001
  6
CONTINUOUS
 62
    4
 10
1817.6644999999999
 20
982.02819999999997
 11
1825.9652000000001
 21
983.12879999999996
  0
LINE
  8
_0-0_LAYER001
  6
CONTINUOUS
 62
    4
 10
1825.9652000000001
 20
983.12879999999996
 11
1834.1729
 21
984.29600000000005
  0
LINE
  8
_0-0_LAYER001
  6
CONTINUOUS
 62
    4
 10
1834.1729
 20
984.29600000000005
 11
1838.9101000000001
 21
984.99150000000009
  0
LINE
  8
_0-0_LAYER001
  6
CONTINUOUS
 62
    4
 10
1838.9101000000001
 20
984.99150000000009
 11
1841.3654000000001
 21
985.35539999999992
  0
LINE
  8
_0-0_LAYER001
  6
CONTINUOUS
 62
    4
 10
1841.3654000000001
 20
985.35539999999992
 11
1845.5794999999998
 21
985.98399999999992
  0
LINE
  8
_0-0_LAYER001
  6
CONTINUOUS
 62
    4
 10
1845.5794999999998
 20
985.98399999999992
 11
1849.7910999999999
 21
986.61640000000011
  0
LINE
  8
_0-0_LAYER001
  6
CONTINUOUS
 62
    4
 10
1849.7910999999999
 20
986.61640000000011
 11
1853.9978000000001
 21
987.25150000000008
  0
LINE
  8
_0-0_LAYER001
  6
CONTINUOUS
 62
    4
 10
1853.9978000000001
 20
987.25150000000008
 11
1858.1999999999998
 21
987.88830000000007
  0
LINE
  8
_0-0_LAYER001
  6
CONTINUOUS
 62
    4
 10
1858.1999999999998
 20
987.88830000000007
 11
1862.3978999999999
 21
988.52590000000009
  0
LINE
  8
_0-0_LAYER001
  6
CONTINUOUS
 62
    4
 10
1862.3978999999999
 20
988.52590000000009
 11
1864.0156000000002
 21
988.77179999999998
  0
LINE
  8
_0-0_LAYER001
  6
CONTINUOUS
 62
    4
 10
1611.5603999999998
 20
1031.7379000000001
 11
1611.9863999999998
 21
1031.9010000000001
  0
ARC
  8
_0-0_LAYER001
  6
CONTINUOUS
 62
    4
 10
1612.6329999999998
 20
1028.9362000000001
 40
3
 50
110.94902000000002
 51
178.70000000000002
  0
LINE
  8
_0-0_LAYER001
  6
CONTINUOUS
 62
    4
 10
1609.5243999999998
 20
1013.1651999999999
 11
1609.5243999999998
 21
1028.8877
  0
LINE
  8
_0-0_LAYER001
  6
CONTINUOUS
 62
    4
 10
1610.8784000000001
 20
1012.2299
 11
1617.0533
 21
1014.5671
  0
ARC
  8
_0-0_LAYER001
  6
CONTINUOUS
 62
    4
 10
1610.5243999999998
 20
1013.1651999999999
 40
1
 50
180
 51
290.73165999999998
  0
LINE
  8
_0-0_LAYER001
  6
CONTINUOUS
 62
    4
 10
1874.5243999999998
 20
991.84300000000007
 11
1874.5243999999998
 21
1009.0402999999999
  0
LINE
  8
_0-0_LAYER001
  6
CONTINUOUS
 62
    4
 10
1862.2510000000002
 20
1006.7267999999999
 11
1906.7053000000001
 21
1016.3747000000001
  0
LINE
  8
_0-0_LAYER001
  6
CONTINUOUS
 62
    4
 10
1868.9962
 20
986.8931
 11
1907.6680000000001
 21
995.94299999999998
  0
LINE
  8
_0-0_LAYER001
  6
CONTINUOUS
 62
    4
 10
1907.6680000000001
 20
996.89949999999999
 11
1907.6680000000001
 21
995.94299999999998
  0
ARC
  8
_0-0_LAYER001
  6
CONTINUOUS
 62
    4
 10
1908.6680000000001
 20
996.89949999999999
 40
1
 50
102.72435
 51
180
  0
LINE
  8
_0-0_LAYER001
  6
CONTINUOUS
 62
    4
 10
1913.4850000000001
 20
999.01240000000007
 11
1908.4477999999999
 21
997.87490000000003
  0
ARC
  8
_0-0_LAYER001
  6
CONTINUOUS
 62
    4
 10
1913.7053000000001
 20
998.03700000000003
 40
1
 50
0
 51
102.72435
  0
LINE
  8
_0-0_LAYER001
  6
CONTINUOUS
 62
    4
 10
1913.9173999999998
 20
999.52089999999998
 11
1863.7833999999998
 21
988.64030000000002
  0
ARC
  8
_0-0_LAYER001
  6
CONTINUOUS
 62
    4
 10
1913.7053000000001
 20
1000.4981
 40
1
 50
282.24497000000002
 51
0
  0
LINE
  8
_0-0_LAYER001
  6
CONTINUOUS
 62
    4
 10
1913.9231
 20
978.78009999999995
 11
1864.3391999999999
 21
967.71229999999991
  0
LINE
  8
_0-0_LAYER001
  6
CONTINUOUS
 62
    4
 10
1914.7053000000001
 20
979.75610000000006
 11
1914.7053000000001
 21
998.03700000000003
  0
ARC
  8
_0-0_LAYER001
  6
CONTINUOUS
 62
    4
 10
1913.7053000000001
 20
979.75610000000006
 40
1
 50
282.58296000000001
 51
0.0000000000000254
  0
LINE
  8
_0-0_LAYER001
  6
CONTINUOUS
 62
    4
 10
1906.7053000000001
 20
1017.8317
 11
1906.7053000000001
 21
1016.3747000000001
  0
ARC
  8
_0-0_LAYER001
  6
CONTINUOUS
 62
    4
 10
1907.7053000000001
 20
1017.8317
 40
1
 50
101.73308
 51
180
  0
LINE
  8
_0-0_LAYER001
  6
CONTINUOUS
 62
    4
 10
1913.5019000000002
 20
1020.0569
 11
1907.5019000000002
 21
1018.8108
  0
LINE
  8
_0-0_LAYER001
  6
CONTINUOUS
 62
    4
 10
1914.7053000000001
 20
1019.0778
 11
1914.7053000000001
 21
1000.4981
  0
ARC
  8
_0-0_LAYER001
  6
CONTINUOUS
 62
    4
 10
1913.7053000000001
 20
1019.0778
 40
1
 50
0
 51
101.73308
  0
LINE
  8
_0-0_LAYER001
  6
DASHED1
 62
    2
 10
1713.9162000000001
 20
991.596
 11
1729.9162000000001
 21
991.596
  0
LINE
  8
_0-0_LAYER001
  6
DASHED1
 62
    2
 10
1729.9162000000001
 20
991.596
 11
1729.9162000000001
 21
988.596
  0
LINE
  8
_0-0_LAYER001
  6
DASHED1
 62
    2
 10
1713.9162000000001
 20
991.596
 11
1713.9162000000001
 21
988.596
  0
LINE
  8
_0-0_LAYER001
  6
DASHED1
 62
    2
 10
1713.9162000000001
 20
988.596
 11
1729.9162000000001
 21
988.596
  0
LINE
  8
_0-0_LAYER001
  6
DASHED1
 62
    2
 10
1724.9162000000001
 20
933.70000000000005
 11
1721.866
 21
919.19110000000001
  0
LINE
  8
_0-0_LAYER001
  6
DASHED1
 62
    2
 10
1724.9162000000001
 20
988.596
 11
1724.9162000000001
 21
933.70000000000005
  0
LINE
  8
_0-0_LAYER001
  6
DASHED1
 62
    2
 10
1721.866
 20
919.19110000000001
 11
1718.9162000000001
 21
933.44859999999994
  0
LINE
  8
_0-0_LAYER001
  6
DASHED1
 62
    2
 10
1718.9162000000001
 20
988.596
 11
1718.9162000000001
 21
933.44859999999994
  0
LINE
  8
_0-0_LAYER001
  6
DASHED1
 62
    2
 10
1978.9223999999999
 20
988.86480000000006
 11
1994.9223999999999
 21
988.86480000000006
  0
LINE
  8
_0-0_LAYER001
  6
DASHED1
 62
    2
 10
1994.9223999999999
 20
988.86480000000006
 11
1994.9223999999999
 21
985.86480000000006
  0
LINE
  8
_0-0_LAYER001
  6
DASHED1
 62
    2
 10
1978.9223999999999
 20
988.86480000000006
 11
1978.9223999999999
 21
985.86480000000006
  0
LINE
  8
_0-0_LAYER001
  6
DASHED1
 62
    2
 10
1978.9223999999999
 20
985.86480000000006
 11
1994.9223999999999
 21
985.86480000000006
  0
LINE
  8
_0-0_LAYER001
  6
DASHED1
 62
    2
 10
1989.9223999999999
 20
930.9686999999999
 11
1986.8721999999998
 21
916.45980000000009
  0
LINE
  8
_0-0_LAYER001
  6
DASHED1
 62
    2
 10
1989.9223999999999
 20
985.86480000000006
 11
1989.9223999999999
 21
930.9686999999999
  0
LINE
  8
_0-0_LAYER001
  6
DASHED1
 62
    2
 10
1986.8721999999998
 20
916.45980000000009
 11
1983.9223999999999
 21
930.71730000000002
  0
LINE
  8
_0-0_LAYER001
  6
DASHED1
 62
    2
 10
1983.9223999999999
 20
985.86480000000006
 11
1983.9223999999999
 21
930.71730000000002
  0
LINE
  8
_0-0_LAYER001
  6
CONTINUOUS
 62
    4
 10
1126.1739
 20
1042.7898
 11
1126.1739
 21
1024.5849000000001
  0
LINE
  8
_0-0_LAYER001
  6
CONTINUOUS
 62
    4
 10
1126.1739
 20
1020.4400000000001
 11
1126.1739
 21
1001.0012999999999
  0
LINE
  8
_0-0_LAYER001
  6
CONTINUOUS
 62
    4
 10
1609.3476000000001
 20
988.97589999999991
 11
1609.3476000000001
 21
1006.1732999999999
  0
LINE
  8
_0-0_LAYER001
  6
CONTINUOUS
 62
    4
 10
1469.6210000000001
 20
945.13650000000007
 11
1461.0855000000001
 21
959.6699000000001
  0
LINE
  8
_0-0_LAYER001
  6
CONTINUOUS
 62
    4
 10
1477.7887999999998
 20
944.48620000000005
 11
1486.0949999999998
 21
954.55169999999998
  0
ARC
  8
_0-0_LAYER001
  6
CONTINUOUS
 62
    4
 10
1473.9324000000001
 20
947.66859999999997
 40
5
 50
210.42578
 51
320.47001
  0
LINE
  8
_0-0_LAYER001
  6
CONTINUOUS
 62
    4
 10
1553.7343999999998
 20
944.01639999999998
 11
1546.4090999999999
 21
955.32240000000002
  0
LINE
  8
_0-0_LAYER001
  6
CONTINUOUS
 62
    4
 10
1562.2440000000001
 20
944.20630000000006
 11
1571.1824000000001
 21
959.452
  0
ARC
  8
_0-0_LAYER001
  6
CONTINUOUS
 62
    4
 10
1557.9306999999999
 20
946.73520000000008
 40
5
 50
212.93986000000001
 51
329.61716000000001
  0
LINE
  8
_0-0_LAYER001
  6
CONTINUOUS
 62
    4
 10
1601.5259999999998
 20
983.76389999999992
 11
1603.9540999999999
 21
984.16779999999994
  0
LINE
  8
_0-0_LAYER001
  6
CONTINUOUS
 62
    4
 10
1597.337
 20
983.06770000000006
 11
1601.5259999999998
 21
983.76389999999992
  0
LINE
  8
_0-0_LAYER001
  6
CONTINUOUS
 62
    4
 10
1593.1432
 20
982.37210000000005
 11
1597.337
 21
983.06770000000006
  0
LINE
  8
_0-0_LAYER001
  6
CONTINUOUS
 62
    4
 10
1588.9443999999999
 20
981.67810000000009
 11
1593.1432
 21
982.37210000000005
  0
LINE
  8
_0-0_LAYER001
  6
CONTINUOUS
 62
    4
 10
1584.7404000000001
 20
980.98659999999995
 11
1588.9443999999999
 21
981.67810000000009
  0
LINE
  8
_0-0_LAYER001
  6
CONTINUOUS
 62
    4
 10
1580.5335
 20
980.29899999999998
 11
1584.7404000000001
 21
980.98659999999995
  0
LINE
  8
_0-0_LAYER001
  6
CONTINUOUS
 62
    4
 10
1578.0812000000001
 20
979.90049999999997
 11
1580.5335
 21
980.29899999999998
  0
LINE
  8
_0-0_LAYER001
  6
CONTINUOUS
 62
    4
 10
1573.3485000000001
 20
979.13799999999992
 11
1578.0812000000001
 21
979.90049999999997
  0
LINE
  8
_0-0_LAYER001
  6
CONTINUOUS
 62
    4
 10
1565.1439999999998
 20
977.85410000000002
 11
1573.3485000000001
 21
979.13799999999992
  0
LINE
  8
_0-0_LAYER001
  6
CONTINUOUS
 62
    4
 10
1556.8366000000001
 20
976.63429999999994
 11
1565.1439999999998
 21
977.85410000000002
  0
LINE
  8
_0-0_LAYER001
  6
CONTINUOUS
 62
    4
 10
1548.4283
 20
975.51790000000005
 11
1556.8366000000001
 21
976.63429999999994
  0
LINE
  8
_0-0_LAYER001
  6
CONTINUOUS
 62
    4
 10
1539.9157
 20
974.54459999999995
 11
1548.4283
 21
975.51790000000005
  0
LINE
  8
_0-0_LAYER001
  6
CONTINUOUS
 62
    4
 10
1531.3566000000001
 20
973.76060000000007
 11
1539.9157
 21
974.54459999999995
  0
LINE
  8
_0-0_LAYER001
  6
CONTINUOUS
 62
    4
 10
1526.2950000000001
 20
973.40259999999989
 11
1531.3566000000001
 21
973.76060000000007
  0
LINE
  8
_0-0_LAYER001
  6
CONTINUOUS
 62
    4
 10
1523.4924999999998
 20
973.24099999999999
 11
1526.2950000000001
 21
973.40259999999989
  0
LINE
  8
_0-0_LAYER001
  6
CONTINUOUS
 62
    4
 10
1518.7714000000001
 20
973.03700000000003
 11
1523.4924999999998
 21
973.24099999999999
  0
LINE
  8
_0-0_LAYER001
  6
CONTINUOUS
 62
    4
 10
1513.9422
 20
972.93159999999989
 11
1518.7714000000001
 21
973.03700000000003
  0
LINE
  8
_0-0_LAYER001
  6
CONTINUOUS
 62
    4
 10
1509.0405999999998
 20
972.94689999999991
 11
1513.9422
 21
972.93159999999989
  0
LINE
  8
_0-0_LAYER001
  6
CONTINUOUS
 62
    4
 10
1504.0695000000001
 20
973.10480000000007
 11
1509.0405999999998
 21
972.94689999999991
  0
LINE
  8
_0-0_LAYER001
  6
CONTINUOUS
 62
    4
 10
1499.1120999999998
 20
973.4226000000001
 11
1504.0695000000001
 21
973.10480000000007
  0
LINE
  8
_0-0_LAYER001
  6
CONTINUOUS
 62
    4
 10
1496.0605
 20
973.70399999999995
 11
1499.1120999999998
 21
973.4226000000001
  0
LINE
  8
_0-0_LAYER001
  6
CONTINUOUS
 62
    4
 10
1492.1316000000002
 20
974.16619999999989
 11
1496.0605
 21
973.70399999999995
  0
LINE
  8
_0-0_LAYER001
  6
CONTINUOUS
 62
    4
 10
1485.6176999999998
 20
975.1887999999999
 11
1492.1316000000002
 21
974.16619999999989
  0
LINE
  8
_0-0_LAYER001
  6
CONTINUOUS
 62
    4
 10
1479.0711000000001
 20
976.54089999999997
 11
1485.6176999999998
 21
975.1887999999999
  0
LINE
  8
_0-0_LAYER001
  6
CONTINUOUS
 62
    4
 10
1472.6080999999999
 20
978.19679999999994
 11
1479.0711000000001
 21
976.54089999999997
  0
LINE
  8
_0-0_LAYER001
  6
CONTINUOUS
 62
    4
 10
1466.2422000000001
 20
980.14750000000004
 11
1472.6080999999999
 21
978.19679999999994
  0
LINE
  8
_0-0_LAYER001
  6
CONTINUOUS
 62
    4
 10
1460.0774000000001
 20
982.35239999999999
 11
1466.2422000000001
 21
980.14750000000004
  0
LINE
  8
_0-0_LAYER001
  6
CONTINUOUS
 62
    4
 10
1456.3908000000001
 20
983.82420000000002
 11
1460.0774000000001
 21
982.35239999999999
  0
LINE
  8
_0-0_LAYER001
  6
CONTINUOUS
 62
    4
 10
1452.0264999999999
 20
985.71669999999995
 11
1456.3908000000001
 21
983.82420000000002
  0
LINE
  8
_0-0_LAYER001
  6
CONTINUOUS
 62
    4
 10
1444.9575
 20
989.13169999999991
 11
1452.0264999999999
 21
985.71669999999995
  0
LINE
  8
_0-0_LAYER001
  6
CONTINUOUS
 62
    4
 10
1438.0646000000002
 20
992.86130000000003
 11
1444.9575
 21
989.13169999999991
  0
LINE
  8
_0-0_LAYER001
  6
CONTINUOUS
 62
    4
 10
1431.4276
 20
996.79500000000007
 11
1438.0646000000002
 21
992.86130000000003
  0
LINE
  8
_0-0_LAYER001
  6
CONTINUOUS
 62
    4
 10
1425.0182
 20
1000.8774000000001
 11
1431.4276
 21
996.79500000000007
  0
LINE
  8
_0-0_LAYER001
  6
CONTINUOUS
 62
    4
 10
1418.8339999999998
 20
1005.0396000000001
 11
1425.0182
 21
1000.8774000000001
  0
LINE
  8
_0-0_LAYER001
  6
CONTINUOUS
 62
    4
 10
1415.2917
 20
1007.5033000000001
 11
1418.8339999999998
 21
1005.0396000000001
  0
LINE
  8
_0-0_LAYER001
  6
CONTINUOUS
 62
    4
 10
1413.0597
 20
1009.0768
 11
1415.2917
 21
1007.5033000000001
  0
LINE
  8
_0-0_LAYER001
  6
CONTINUOUS
 62
    4
 10
1409.4360999999999
 20
1011.6159
 11
1413.0597
 21
1009.0768
  0
LINE
  8
_0-0_LAYER001
  6
CONTINUOUS
 62
    4
 10
1406.0664999999999
 20
1013.8814
 11
1409.4360999999999
 21
1011.6159
  0
LINE
  8
_0-0_LAYER001
  6
CONTINUOUS
 62
    4
 10
1402.9514999999997
 20
1015.8085000000001
 11
1406.0664999999999
 21
1013.8814
  0
LINE
  8
_0-0_LAYER001
  6
CONTINUOUS
 62
    4
 10
1400.0843
 20
1017.3643
 11
1402.9514999999997
 21
1015.8085000000001
  0
LINE
  8
_0-0_LAYER001
  6
CONTINUOUS
 62
    4
 10
1397.2530999999999
 20
1018.6327000000001
 11
1400.0843
 21
1017.3643
  0
LINE
  8
_0-0_LAYER001
  6
CONTINUOUS
 62
    4
 10
1395.7899
 20
1019.1648
 11
1397.2530999999999
 21
1018.6327000000001
  0
LINE
  8
_0-0_LAYER001
  6
CONTINUOUS
 62
    4
 10
1395.6088
 20
1019.2228
 11
1395.7899
 21
1019.1648
  0
LINE
  8
_0-0_LAYER001
  6
CONTINUOUS
 62
    4
 10
1394.8206
 20
1019.4507000000001
 11
1395.6088
 21
1019.2228
  0
LINE
  8
_0-0_LAYER001
  6
CONTINUOUS
 62
    4
 10
1394.1633999999999
 20
1019.6134
 11
1394.8206
 21
1019.4507000000001
  0
LINE
  8
_0-0_LAYER001
  6
CONTINUOUS
 62
    4
 10
1393.5816
 20
1019.7313999999999
 11
1394.1633999999999
 21
1019.6134
  0
LINE
  8
_0-0_LAYER001
  6
CONTINUOUS
 62
    4
 10
1393.5416
 20
1019.7375999999999
 11
1393.5816
 21
1019.7313999999999
  0
LINE
  8
_0-0_LAYER001
  6
CONTINUOUS
 62
    4
 10
1597.5154000000002
 20
964.57639999999992
 11
1599.1295
 21
964.84490000000005
  0
LINE
  8
_0-0_LAYER001
  6
CONTINUOUS
 62
    4
 10
1593.3267999999998
 20
963.88030000000003
 11
1597.5154000000002
 21
964.57639999999992
  0
LINE
  8
_0-0_LAYER001
  6
CONTINUOUS
 62
    4
 10
1589.1338999999998
 20
963.1848
 11
1593.3267999999998
 21
963.88030000000003
  0
LINE
  8
_0-0_LAYER001
  6
CONTINUOUS
 62
    4
 10
1584.9364999999998
 20
962.49109999999996
 11
1589.1338999999998
 21
963.1848
  0
LINE
  8
_0-0_LAYER001
  6
CONTINUOUS
 62
    4
 10
1580.7341999999999
 20
961.79989999999998
 11
1584.9364999999998
 21
962.49109999999996
  0
LINE
  8
_0-0_LAYER001
  6
CONTINUOUS
 62
    4
 10
1576.5291999999999
 20
961.11259999999993
 11
1580.7341999999999
 21
961.79989999999998
  0
LINE
  8
_0-0_LAYER001
  6
CONTINUOUS
 62
    4
 10
1574.0792000000001
 20
960.71440000000007
 11
1576.5291999999999
 21
961.11259999999993
  0
LINE
  8
_0-0_LAYER001
  6
CONTINUOUS
 62
    4
 10
1569.3521999999998
 20
959.9529
 11
1574.0792000000001
 21
960.71440000000007
  0
LINE
  8
_0-0_LAYER001
  6
CONTINUOUS
 62
    4
 10
1561.1615999999999
 20
958.6712
 11
1569.3521999999998
 21
959.9529
  0
LINE
  8
_0-0_LAYER001
  6
CONTINUOUS
 62
    4
 10
1552.8771000000002
 20
957.4547
 11
1561.1615999999999
 21
958.6712
  0
LINE
  8
_0-0_LAYER001
  6
CONTINUOUS
 62
    4
 10
1544.5005000000001
 20
956.34249999999997
 11
1552.8771000000002
 21
957.4547
  0
LINE
  8
_0-0_LAYER001
  6
CONTINUOUS
 62
    4
 10
1536.0282999999999
 20
955.37380000000007
 11
1544.5005000000001
 21
956.34249999999997
  0
LINE
  8
_0-0_LAYER001
  6
CONTINUOUS
 62
    4
 10
1527.5122000000001
 20
954.5936999999999
 11
1536.0282999999999
 21
955.37380000000007
  0
LINE
  8
_0-0_LAYER001
  6
CONTINUOUS
 62
    4
 10
1522.4843000000001
 20
954.23810000000003
 11
1527.5122000000001
 21
954.5936999999999
  0
LINE
  8
_0-0_LAYER001
  6
CONTINUOUS
 62
    4
 10
1519.7091
 20
954.07809999999995
 11
1522.4843000000001
 21
954.23810000000003
  0
LINE
  8
_0-0_LAYER001
  6
CONTINUOUS
 62
    4
 10
1515.0237999999999
 20
953.87570000000005
 11
1519.7091
 21
954.07809999999995
  0
LINE
  8
_0-0_LAYER001
  6
CONTINUOUS
 62
    4
 10
1510.2408999999998
 20
953.77119999999991
 11
1515.0237999999999
 21
953.87570000000005
  0
LINE
  8
_0-0_LAYER001
  6
CONTINUOUS
 62
    4
 10
1505.3928999999998
 20
953.78639999999996
 11
1510.2408999999998
 21
953.77119999999991
  0
LINE
  8
_0-0_LAYER001
  6
CONTINUOUS
 62
    4
 10
1500.4827
 20
953.94239999999991
 11
1505.3928999999998
 21
953.78639999999996
  0
LINE
  8
_0-0_LAYER001
  6
CONTINUOUS
 62
    4
 10
1495.5853999999999
 20
954.25630000000001
 11
1500.4827
 21
953.94239999999991
  0
LINE
  8
_0-0_LAYER001
  6
CONTINUOUS
 62
    4
 10
1492.5866000000001
 20
954.53279999999995
 11
1495.5853999999999
 21
954.25630000000001
  0
LINE
  8
_0-0_LAYER001
  6
CONTINUOUS
 62
    4
 10
1488.7211000000002
 20
954.98759999999993
 11
1492.5866000000001
 21
954.53279999999995
  0
LINE
  8
_0-0_LAYER001
  6
CONTINUOUS
 62
    4
 10
1482.2927
 20
955.99669999999992
 11
1488.7211000000002
 21
954.98759999999993
  0
LINE
  8
_0-0_LAYER001
  6
CONTINUOUS
 62
    4
 10
1475.8391999999999
 20
957.32960000000003
 11
1482.2927
 21
955.99669999999992
  0
LINE
  8
_0-0_LAYER001
  6
CONTINUOUS
 62
    4
 10
1469.4670000000001
 20
958.96229999999991
 11
1475.8391999999999
 21
957.32960000000003
  0
LINE
  8
_0-0_LAYER001
  6
CONTINUOUS
 62
    4
 10
1463.1896999999999
 20
960.88580000000002
 11
1469.4670000000001
 21
958.96229999999991
  0
LINE
  8
_0-0_LAYER001
  6
CONTINUOUS
 62
    4
 10
1457.1026000000002
 20
963.0630000000001
 11
1463.1896999999999
 21
960.88580000000002
  0
LINE
  8
_0-0_LAYER001
  6
CONTINUOUS
 62
    4
 10
1453.4769999999999
 20
964.51039999999989
 11
1457.1026000000002
 21
963.0630000000001
  0
LINE
  8
_0-0_LAYER001
  6
CONTINUOUS
 62
    4
 10
1449.1770999999999
 20
966.375
 11
1453.4769999999999
 21
964.51039999999989
  0
LINE
  8
_0-0_LAYER001
  6
CONTINUOUS
 62
    4
 10
1442.1862000000001
 20
969.7521999999999
 11
1449.1770999999999
 21
966.375
  0
LINE
  8
_0-0_LAYER001
  6
CONTINUOUS
 62
    4
 10
1435.3681000000001
 20
973.44139999999993
 11
1442.1862000000001
 21
969.7521999999999
  0
LINE
  8
_0-0_LAYER001
  6
CONTINUOUS
 62
    4
 10
1428.7923000000001
 20
977.33870000000002
 11
1435.3681000000001
 21
973.44139999999993
  0
LINE
  8
_0-0_LAYER001
  6
CONTINUOUS
 62
    4
 10
1422.4313999999999
 20
981.3904
 11
1428.7923000000001
 21
977.33870000000002
  0
LINE
  8
_0-0_LAYER001
  6
CONTINUOUS
 62
    4
 10
1416.2808
 20
985.52980000000002
 11
1422.4313999999999
 21
981.3904
  0
LINE
  8
_0-0_LAYER001
  6
CONTINUOUS
 62
    4
 10
1412.7563
 20
987.98119999999994
 11
1416.2808
 21
985.52980000000002
  0
LINE
  8
_0-0_LAYER001
  6
CONTINUOUS
 62
    4
 10
1410.5272
 20
989.55259999999998
 11
1412.7563
 21
987.98119999999994
  0
LINE
  8
_0-0_LAYER001
  6
CONTINUOUS
 62
    4
 10
1406.8855000000003
 20
992.10449999999992
 11
1410.5272
 21
989.55259999999998
  0
LINE
  8
_0-0_LAYER001
  6
CONTINUOUS
 62
    4
 10
1403.4683
 20
994.40190000000007
 11
1406.8855000000003
 21
992.10449999999992
  0
LINE
  8
_0-0_LAYER001
  6
CONTINUOUS
 62
    4
 10
1400.2727
 20
996.37889999999993
 11
1403.4683
 21
994.40190000000007
  0
LINE
  8
_0-0_LAYER001
  6
CONTINUOUS
 62
    4
 10
1397.2888
 20
997.99800000000005
 11
1400.2727
 21
996.37889999999993
  0
LINE
  8
_0-0_LAYER001
  6
CONTINUOUS
 62
    4
 10
1394.3222000000001
 20
999.32709999999997
 11
1397.2888
 21
997.99800000000005
  0
LINE
  8
_0-0_LAYER001
  6
CONTINUOUS
 62
    4
 10
1393.5722000000001
 20
999.59989999999993
 11
1394.3222000000001
 21
999.32709999999997
  0
LINE
  8
_0-0_LAYER001
  6
CONTINUOUS
 62
    4
 10
1393.9052999999999
 20
1019.643
 11
1393.7293
 21
999.46949999999993
  0
LINE
  8
_0-0_LAYER001
  6
CONTINUOUS
 62
    4
 10
1594.2309
 20
954.15519999999992
 11
1591.9854999999998
 21
962.72859999999991
  0
ARC
  8
_0-0_LAYER001
  6
CONTINUOUS
 62
    4
 10
1597.1329999999998
 20
954.91529999999989
 40
3
 50
194.67639000000003
 51
270.00000000000006
  0
LINE
  8
_0-0_LAYER001
  6
CONTINUOUS
 62
    4
 10
1600.5754999999999
 20
951.91100000000006
 11
1597.1577000000002
 21
951.91100000000006
  0
LINE
  8
_0-0_LAYER001
  6
CONTINUOUS
 62
    4
 10
1603.5347000000002
 20
954.41779999999994
 11
1605.4686999999999
 21
966.02189999999996
  0
ARC
  8
_0-0_LAYER001
  6
CONTINUOUS
 62
    4
 10
1600.5754999999999
 20
954.91100000000006
 40
3
 50
270
 51
350.53766999999999
  0
LINE
  8
_0-0_LAYER001
  6
CONTINUOUS
 62
    4
 10
1346.8090999999999
 20
1029.0332000000001
 11
1347.6231000000002
 21
1029.3398
  0
LINE
  8
_0-0_LAYER001
  6
CONTINUOUS
 62
    4
 10
1347.6231000000002
 20
1029.3398
 11
1351.1723000000002
 21
1030.6794
  0
LINE
  8
_0-0_LAYER001
  6
CONTINUOUS
 62
    4
 10
1351.1723000000002
 20
1030.6794
 11
1354.7289000000001
 21
1032.0282999999999
  0
LINE
  8
_0-0_LAYER001
  6
CONTINUOUS
 62
    4
 10
1354.7289000000001
 20
1032.0282999999999
 11
1358.2976000000003
 21
1033.3923
  0
LINE
  8
_0-0_LAYER001
  6
CONTINUOUS
 62
    4
 10
1358.2976000000003
 20
1033.3923
 11
1361.8829000000001
 21
1034.7773999999999
  0
LINE
  8
_0-0_LAYER001
  6
CONTINUOUS
 62
    4
 10
1361.8829000000001
 20
1034.7773999999999
 11
1365.4897000000001
 21
1036.1894
  0
LINE
  8
_0-0_LAYER001
  6
CONTINUOUS
 62
    4
 10
1365.4897000000001
 20
1036.1894
 11
1367.5932
 21
1037.0229999999999
  0
LINE
  8
_0-0_LAYER001
  6
CONTINUOUS
 62
    4
 10
1367.5932
 20
1037.0229999999999
 11
1369.6724999999997
 21
1037.8518999999999
  0
LINE
  8
_0-0_LAYER001
  6
CONTINUOUS
 62
    4
 10
1369.6724999999997
 20
1037.8518999999999
 11
1373.2791
 21
1039.2533000000001
  0
LINE
  8
_0-0_LAYER001
  6
CONTINUOUS
 62
    4
 10
1373.2791
 20
1039.2533000000001
 11
1376.9118000000001
 21
1040.5360000000001
  0
LINE
  8
_0-0_LAYER001
  6
CONTINUOUS
 62
    4
 10
1376.9118000000001
 20
1040.5360000000001
 11
1380.5697
 21
1041.6025999999999
  0
LINE
  8
_0-0_LAYER001
  6
CONTINUOUS
 62
    4
 10
1380.5697
 20
1041.6025999999999
 11
1384.2518999999998
 21
1042.3559
  0
LINE
  8
_0-0_LAYER001
  6
CONTINUOUS
 62
    4
 10
1384.2518999999998
 20
1042.3559
 11
1387.9571000000001
 21
1042.6984
  0
LINE
  8
_0-0_LAYER001
  6
CONTINUOUS
 62
    4
 10
1387.9571000000001
 20
1042.6984
 11
1390.1163999999999
 21
1042.6704999999999
  0
LINE
  8
_0-0_LAYER001
  6
CONTINUOUS
 62
    4
 10
1390.1163999999999
 20
1042.6704999999999
 11
1390.9656
 21
1042.6090999999999
  0
LINE
  8
_0-0_LAYER001
  6
CONTINUOUS
 62
    4
 10
1390.9656
 20
1042.6090999999999
 11
1392.4299000000001
 21
1042.4385
  0
LINE
  8
_0-0_LAYER001
  6
CONTINUOUS
 62
    4
 10
1392.4299000000001
 20
1042.4385
 11
1393.8910000000001
 21
1042.1918000000001
  0
LINE
  8
_0-0_LAYER001
  6
CONTINUOUS
 62
    4
 10
1393.8910000000001
 20
1042.1918000000001
 11
1395.3447000000001
 21
1041.8758
  0
LINE
  8
_0-0_LAYER001
  6
CONTINUOUS
 62
    4
 10
1395.3447000000001
 20
1041.8758
 11
1396.7868000000001
 21
1041.4973
  0
LINE
  8
_0-0_LAYER001
  6
CONTINUOUS
 62
    4
 10
1396.7868000000001
 20
1041.4973
 11
1398.2132999999999
 21
1041.0632000000001
  0
LINE
  8
_0-0_LAYER001
  6
CONTINUOUS
 62
    4
 10
1398.2132999999999
 20
1041.0632000000001
 11
1399.0317
 21
1040.7885000000001
  0
LINE
  8
_0-0_LAYER001
  6
CONTINUOUS
 62
    4
 10
1399.0317
 20
1040.7885000000001
 11
1401.53
 21
1039.8403000000001
  0
LINE
  8
_0-0_LAYER001
  6
CONTINUOUS
 62
    4
 10
1401.53
 20
1039.8403000000001
 11
1405.6889000000001
 21
1037.9068
  0
LINE
  8
_0-0_LAYER001
  6
CONTINUOUS
 62
    4
 10
1405.6889000000001
 20
1037.9068
 11
1409.6927000000001
 21
1035.6614
  0
LINE
  8
_0-0_LAYER001
  6
CONTINUOUS
 62
    4
 10
1409.6927000000001
 20
1035.6614
 11
1413.5796
 21
1033.1811
  0
LINE
  8
_0-0_LAYER001
  6
CONTINUOUS
 62
    4
 10
1413.5796
 20
1033.1811
 11
1417.3876
 21
1030.5429999999999
  0
LINE
  8
_0-0_LAYER001
  6
CONTINUOUS
 62
    4
 10
1417.3876
 20
1030.5429999999999
 11
1421.1547999999998
 21
1027.8239000000001
  0
LINE
  8
_0-0_LAYER001
  6
CONTINUOUS
 62
    4
 10
1421.1547999999998
 20
1027.8239000000001
 11
1423.3362
 21
1026.2401
  0
LINE
  8
_0-0_LAYER001
  6
CONTINUOUS
 62
    4
 10
1423.3362
 20
1026.2401
 11
1426.6677
 21
1023.8532
  0
LINE
  8
_0-0_LAYER001
  6
CONTINUOUS
 62
    4
 10
1426.6677
 20
1023.8532
 11
1432.46
 21
1019.8362999999999
  0
LINE
  8
_0-0_LAYER001
  6
CONTINUOUS
 62
    4
 10
1432.46
 20
1019.8362999999999
 11
1438.3321000000001
 21
1015.9797000000001
  0
LINE
  8
_0-0_LAYER001
  6
CONTINUOUS
 62
    4
 10
1438.3321000000001
 20
1015.9797000000001
 11
1444.3063000000002
 21
1012.3252
  0
LINE
  8
_0-0_LAYER001
  6
CONTINUOUS
 62
    4
 10
1444.3063000000002
 20
1012.3252
 11
1450.4045000000001
 21
1008.9147
  0
LINE
  8
_0-0_LAYER001
  6
CONTINUOUS
 62
    4
 10
1450.4045000000001
 20
1008.9147
 11
1456.6487999999999
 21
1005.7899
  0
LINE
  8
_0-0_LAYER001
  6
CONTINUOUS
 62
    4
 10
1456.6487999999999
 20
1005.7899
 11
1460.3461000000002
 21
1004.1249
  0
LINE
  8
_0-0_LAYER001
  6
CONTINUOUS
 62
    4
 10
1460.3461000000002
 20
1004.1249
 11
1463.4052999999999
 21
1002.8538000000001
  0
LINE
  8
_0-0_LAYER001
  6
CONTINUOUS
 62
    4
 10
1463.4052999999999
 20
1002.8538000000001
 11
1468.7658000000001
 21
1000.8516
  0
LINE
  8
_0-0_LAYER001
  6
CONTINUOUS
 62
    4
 10
1468.7658000000001
 20
1000.8516
 11
1474.2215000000001
 21
999.09609999999998
  0
LINE
  8
_0-0_LAYER001
  6
CONTINUOUS
 62
    4
 10
1474.2215000000001
 20
999.09609999999998
 11
1479.7565
 21
997.59539999999993
  0
LINE
  8
_0-0_LAYER001
  6
CONTINUOUS
 62
    4
 10
1479.7565
 20
997.59539999999993
 11
1485.3548000000001
 21
996.3574000000001
  0
LINE
  8
_0-0_LAYER001
  6
CONTINUOUS
 62
    4
 10
1485.3548000000001
 20
996.3574000000001
 11
1491.0005000000001
 21
995.39010000000007
  0
LINE
  8
_0-0_LAYER001
  6
CONTINUOUS
 62
    4
 10
1491.0005000000001
 20
995.39010000000007
 11
1494.2905000000001
 21
994.95640000000003
  0
LINE
  8
_0-0_LAYER001
  6
CONTINUOUS
 62
    4
 10
1494.2905000000001
 20
994.95640000000003
 11
1496.8098
 21
994.68859999999995
  0
LINE
  8
_0-0_LAYER001
  6
CONTINUOUS
 62
    4
 10
1496.8098
 20
994.68859999999995
 11
1501.1619000000001
 21
994.34850000000006
  0
LINE
  8
_0-0_LAYER001
  6
CONTINUOUS
 62
    4
 10
1501.1619000000001
 20
994.34850000000006
 11
1505.5221000000001
 21
994.14910000000009
  0
LINE
  8
_0-0_LAYER001
  6
CONTINUOUS
 62
    4
 10
1505.5221000000001
 20
994.14910000000009
 11
1509.8872999999999
 21
994.07439999999997
  0
LINE
  8
_0-0_LAYER001
  6
CONTINUOUS
 62
    4
 10
1509.8872999999999
 20
994.07439999999997
 11
1514.2543999999998
 21
994.10879999999997
  0
LINE
  8
_0-0_LAYER001
  6
CONTINUOUS
 62
    4
 10
1514.2543999999998
 20
994.10879999999997
 11
1518.6203
 21
994.2364
  0
LINE
  8
_0-0_LAYER001
  6
CONTINUOUS
 62
    4
 10
1518.6203
 20
994.2364
 11
1521.1507999999999
 21
994.34690000000001
  0
LINE
  8
_0-0_LAYER001
  6
CONTINUOUS
 62
    4
 10
1521.1507999999999
 20
994.34690000000001
 11
1525.8798999999999
 21
994.61509999999998
  0
LINE
  8
_0-0_LAYER001
  6
CONTINUOUS
 62
    4
 10
1525.8798999999999
 20
994.61509999999998
 11
1534.018
 21
995.24610000000007
  0
LINE
  8
_0-0_LAYER001
  6
CONTINUOUS
 62
    4
 10
1534.018
 20
995.24610000000007
 11
1542.1388000000002
 21
996.05989999999997
  0
LINE
  8
_0-0_LAYER001
  6
CONTINUOUS
 62
    4
 10
1542.1388000000002
 20
996.05989999999997
 11
1550.2446
 21
997.02119999999991
  0
LINE
  8
_0-0_LAYER001
  6
CONTINUOUS
 62
    4
 10
1550.2446
 20
997.02119999999991
 11
1558.3380999999999
 21
998.09439999999995
  0
LINE
  8
_0-0_LAYER001
  6
CONTINUOUS
 62
    4
 10
1558.3380999999999
 20
998.09439999999995
 11
1566.4216000000001
 21
999.24399999999991
  0
LINE
  8
_0-0_LAYER001
  6
CONTINUOUS
 62
    4
 10
1566.4216000000001
 20
999.24399999999991
 11
1571.1064999999999
 21
999.93170000000009
  0
LINE
  8
_0-0_LAYER001
  6
CONTINUOUS
 62
    4
 10
1571.1064999999999
 20
999.93170000000009
 11
1573.5414000000001
 21
1000.2926
  0
LINE
  8
_0-0_LAYER001
  6
CONTINUOUS
 62
    4
 10
1573.5414000000001
 20
1000.2926
 11
1577.7384000000002
 21
1000.9186
  0
LINE
  8
_0-0_LAYER001
  6
CONTINUOUS
 62
    4
 10
1577.7384000000002
 20
1000.9186
 11
1581.9342000000001
 21
1001.5487000000001
  0
LINE
  8
_0-0_LAYER001
  6
CONTINUOUS
 62
    4
 10
1581.9342000000001
 20
1001.5487000000001
 11
1586.1289999999999
 21
1002.182
  0
LINE
  8
_0-0_LAYER001
  6
CONTINUOUS
 62
    4
 10
1586.1289999999999
 20
1002.182
 11
1590.3231999999998
 21
1002.8176000000001
  0
LINE
  8
_0-0_LAYER001
  6
CONTINUOUS
 62
    4
 10
1590.3231999999998
 20
1002.8176000000001
 11
1594.5169000000001
 21
1003.4546
  0
LINE
  8
_0-0_LAYER001
  6
CONTINUOUS
 62
    4
 10
1594.5169000000001
 20
1003.4546
 11
1596.9492
 21
1003.8243
  0
LINE
  8
_0-0_LAYER001
  6
CONTINUOUS
 62
    4
 10
1351.9123999999999
 20
1011.7207000000001
 11
1353.9743000000001
 21
1012.4975999999999
  0
LINE
  8
_0-0_LAYER001
  6
CONTINUOUS
 62
    4
 10
1353.9743000000001
 20
1012.4975999999999
 11
1357.5418999999999
 21
1013.8441
  0
LINE
  8
_0-0_LAYER001
  6
CONTINUOUS
 62
    4
 10
1357.5418999999999
 20
1013.8441
 11
1361.1338000000001
 21
1015.2063000000001
  0
LINE
  8
_0-0_LAYER001
  6
CONTINUOUS
 62
    4
 10
1361.1338000000001
 20
1015.2063000000001
 11
1364.7541000000001
 21
1016.5900999999999
  0
LINE
  8
_0-0_LAYER001
  6
CONTINUOUS
 62
    4
 10
1364.7541000000001
 20
1016.5900999999999
 11
1368.4070999999999
 21
1018.0012999999999
  0
LINE
  8
_0-0_LAYER001
  6
CONTINUOUS
 62
    4
 10
1368.4070999999999
 20
1018.0012999999999
 11
1372.0862999999999
 21
1019.4417000000001
  0
LINE
  8
_0-0_LAYER001
  6
CONTINUOUS
 62
    4
 10
1372.0862999999999
 20
1019.4417000000001
 11
1374.2415000000001
 21
1020.2956999999999
  0
LINE
  8
_0-0_LAYER001
  6
CONTINUOUS
 62
    4
 10
1374.2415000000001
 20
1020.2956999999999
 11
1376.2651000000001
 21
1021.1024
  0
LINE
  8
_0-0_LAYER001
  6
CONTINUOUS
 62
    4
 10
1376.2651000000001
 20
1021.1024
 11
1379.5369000000001
 21
1022.3738000000001
  0
LINE
  8
_0-0_LAYER001
  6
CONTINUOUS
 62
    4
 10
1379.5369000000001
 20
1022.3738000000001
 11
1382.4321
 21
1023.3960999999999
  0
LINE
  8
_0-0_LAYER001
  6
CONTINUOUS
 62
    4
 10
1382.4321
 20
1023.3960999999999
 11
1384.9002
 21
1024.1157000000001
  0
LINE
  8
_0-0_LAYER001
  6
CONTINUOUS
 62
    4
 10
1384.9002
 20
1024.1157000000001
 11
1386.8919000000001
 21
1024.5232000000001
  0
LINE
  8
_0-0_LAYER001
  6
CONTINUOUS
 62
    4
 10
1386.8919000000001
 20
1024.5232000000001
 11
1388.6712
 21
1024.6876999999999
  0
LINE
  8
_0-0_LAYER001
  6
CONTINUOUS
 62
    4
 10
1388.6712
 20
1024.6876999999999
 11
1389.3507999999999
 21
1024.6789000000001
  0
LINE
  8
_0-0_LAYER001
  6
CONTINUOUS
 62
    4
 10
1389.3507999999999
 20
1024.6789000000001
 11
1389.2746999999999
 21
1024.6844000000001
  0
LINE
  8
_0-0_LAYER001
  6
CONTINUOUS
 62
    4
 10
1389.2746999999999
 20
1024.6844000000001
 11
1389.8883000000001
 21
1024.6129000000001
  0
LINE
  8
_0-0_LAYER001
  6
CONTINUOUS
 62
    4
 10
1389.8883000000001
 20
1024.6129000000001
 11
1390.4786999999999
 21
1024.5132000000001
  0
LINE
  8
_0-0_LAYER001
  6
CONTINUOUS
 62
    4
 10
1390.4786999999999
 20
1024.5132000000001
 11
1391.1462000000001
 21
1024.3680999999999
  0
LINE
  8
_0-0_LAYER001
  6
CONTINUOUS
 62
    4
 10
1391.1462000000001
 20
1024.3680999999999
 11
1391.8797
 21
1024.1756
  0
LINE
  8
_0-0_LAYER001
  6
CONTINUOUS
 62
    4
 10
1391.8797
 20
1024.1756
 11
1392.7289000000001
 21
1023.9170999999999
  0
LINE
  8
_0-0_LAYER001
  6
CONTINUOUS
 62
    4
 10
1392.7289000000001
 20
1023.9170999999999
 11
1392.973
 21
1023.8352
  0
LINE
  8
_0-0_LAYER001
  6
CONTINUOUS
 62
    4
 10
1392.973
 20
1023.8352
 11
1394.5328999999997
 21
1023.2431999999999
  0
LINE
  8
_0-0_LAYER001
  6
CONTINUOUS
 62
    4
 10
1394.5328999999997
 20
1023.2431999999999
 11
1397.4806000000001
 21
1021.8726999999999
  0
LINE
  8
_0-0_LAYER001
  6
CONTINUOUS
 62
    4
 10
1397.4806000000001
 20
1021.8726999999999
 11
1400.4416000000001
 21
1020.2121
  0
LINE
  8
_0-0_LAYER001
  6
CONTINUOUS
 62
    4
 10
1400.4416000000001
 20
1020.2121
 11
1403.6093000000001
 21
1018.1908000000001
  0
LINE
  8
_0-0_LAYER001
  6
CONTINUOUS
 62
    4
 10
1403.6093000000001
 20
1018.1908000000001
 11
1406.9939999999999
 21
1015.8459
  0
LINE
  8
_0-0_LAYER001
  6
CONTINUOUS
 62
    4
 10
1406.9939999999999
 20
1015.8459
 11
1410.5998
 21
1013.2434000000001
  0
LINE
  8
_0-0_LAYER001
  6
CONTINUOUS
 62
    4
 10
1410.5998
 20
1013.2434000000001
 11
1412.8067000000001
 21
1011.6410000000001
  0
LINE
  8
_0-0_LAYER001
  6
CONTINUOUS
 62
    4
 10
1412.8067000000001
 20
1011.6410000000001
 11
1416.2967000000001
 21
1009.1405999999999
  0
LINE
  8
_0-0_LAYER001
  6
CONTINUOUS
 62
    4
 10
1416.2967000000001
 20
1009.1405999999999
 11
1422.3888999999999
 21
1004.9157
  0
LINE
  8
_0-0_LAYER001
  6
CONTINUOUS
 62
    4
 10
1422.3888999999999
 20
1004.9157
 11
1428.6925999999999
 21
1000.7755999999999
  0
LINE
  8
_0-0_LAYER001
  6
CONTINUOUS
 62
    4
 10
1428.6925999999999
 20
1000.7755999999999
 11
1435.2132999999999
 21
996.78680000000008
  0
LINE
  8
_0-0_LAYER001
  6
CONTINUOUS
 62
    4
 10
1435.2132999999999
 20
996.78680000000008
 11
1441.9793
 21
993.00279999999998
  0
LINE
  8
_0-0_LAYER001
  6
CONTINUOUS
 62
    4
 10
1441.9793
 20
993.00279999999998
 11
1448.9223000000002
 21
989.52829999999994
  0
LINE
  8
_0-0_LAYER001
  6
CONTINUOUS
 62
    4
 10
1448.9223000000002
 20
989.52829999999994
 11
1453.1958
 21
987.60390000000007
  0
LINE
  8
_0-0_LAYER001
  6
CONTINUOUS
 62
    4
 10
1453.1958
 20
987.60390000000007
 11
1456.8008
 21
986.10599999999999
  0
LINE
  8
_0-0_LAYER001
  6
CONTINUOUS
 62
    4
 10
1456.8008
 20
986.10599999999999
 11
1462.8569000000002
 21
983.84400000000005
  0
LINE
  8
_0-0_LAYER001
  6
CONTINUOUS
 62
    4
 10
1462.8569000000002
 20
983.84400000000005
 11
1469.1068
 21
981.83300000000008
  0
LINE
  8
_0-0_LAYER001
  6
CONTINUOUS
 62
    4
 10
1469.1068
 20
981.83300000000008
 11
1475.4555
 21
980.11159999999995
  0
LINE
  8
_0-0_LAYER001
  6
CONTINUOUS
 62
    4
 10
1475.4555
 20
980.11159999999995
 11
1481.8897999999999
 21
978.68869999999993
  0
LINE
  8
_0-0_LAYER001
  6
CONTINUOUS
 62
    4
 10
1481.8897999999999
 20
978.68869999999993
 11
1488.3035
 21
977.58999999999992
  0
LINE
  8
_0-0_LAYER001
  6
CONTINUOUS
 62
    4
 10
1488.3035
 20
977.58999999999992
 11
1492.1623
 21
977.08120000000008
  0
LINE
  8
_0-0_LAYER001
  6
CONTINUOUS
 62
    4
 10
1492.1623
 20
977.08120000000008
 11
1495.1569
 21
976.76279999999997
  0
LINE
  8
_0-0_LAYER001
  6
CONTINUOUS
 62
    4
 10
1495.1569
 20
976.76279999999997
 11
1500.0493000000001
 21
976.38059999999996
  0
LINE
  8
_0-0_LAYER001
  6
CONTINUOUS
 62
    4
 10
1500.0493000000001
 20
976.38059999999996
 11
1504.9569000000001
 21
976.15609999999992
  0
LINE
  8
_0-0_LAYER001
  6
CONTINUOUS
 62
    4
 10
1504.9569000000001
 20
976.15609999999992
 11
1509.8042
 21
976.07320000000004
  0
LINE
  8
_0-0_LAYER001
  6
CONTINUOUS
 62
    4
 10
1509.8042
 20
976.07320000000004
 11
1514.5880999999999
 21
976.1108999999999
  0
LINE
  8
_0-0_LAYER001
  6
CONTINUOUS
 62
    4
 10
1514.5880999999999
 20
976.1108999999999
 11
1519.2757999999999
 21
976.24790000000007
  0
LINE
  8
_0-0_LAYER001
  6
CONTINUOUS
 62
    4
 10
1519.2757999999999
 20
976.24790000000007
 11
1522.0529999999999
 21
976.36909999999989
  0
LINE
  8
_0-0_LAYER001
  6
CONTINUOUS
 62
    4
 10
1522.0529999999999
 20
976.36909999999989
 11
1527.0853000000002
 21
976.6545000000001
  0
LINE
  8
_0-0_LAYER001
  6
CONTINUOUS
 62
    4
 10
1527.0853000000002
 20
976.6545000000001
 11
1535.6113999999998
 21
977.3155999999999
  0
LINE
  8
_0-0_LAYER001
  6
CONTINUOUS
 62
    4
 10
1535.6113999999998
 20
977.3155999999999
 11
1544.0963000000002
 21
978.16589999999997
  0
LINE
  8
_0-0_LAYER001
  6
CONTINUOUS
 62
    4
 10
1544.0963000000002
 20
978.16589999999997
 11
1552.4875999999999
 21
979.16110000000003
  0
LINE
  8
_0-0_LAYER001
  6
CONTINUOUS
 62
    4
 10
1552.4875999999999
 20
979.16110000000003
 11
1560.7883000000002
 21
980.26170000000002
  0
LINE
  8
_0-0_LAYER001
  6
CONTINUOUS
 62
    4
 10
1560.7883000000002
 20
980.26170000000002
 11
1568.9960999999998
 21
981.42900000000009
  0
LINE
  8
_0-0_LAYER001
  6
CONTINUOUS
 62
    4
 10
1568.9960999999998
 20
981.42900000000009
 11
1573.7332000000001
 21
982.12439999999992
  0
LINE
  8
_0-0_LAYER001
  6
CONTINUOUS
 62
    4
 10
1573.7332000000001
 20
982.12439999999992
 11
1576.1886
 21
982.48829999999998
  0
LINE
  8
_0-0_LAYER001
  6
CONTINUOUS
 62
    4
 10
1576.1886
 20
982.48829999999998
 11
1580.4027000000001
 21
983.11689999999999
  0
LINE
  8
_0-0_LAYER001
  6
CONTINUOUS
 62
    4
 10
1580.4027000000001
 20
983.11689999999999
 11
1584.6142
 21
983.74929999999995
  0
LINE
  8
_0-0_LAYER001
  6
CONTINUOUS
 62
    4
 10
1584.6142
 20
983.74929999999995
 11
1588.8209999999999
 21
984.38439999999991
  0
LINE
  8
_0-0_LAYER001
  6
CONTINUOUS
 62
    4
 10
1588.8209999999999
 20
984.38439999999991
 11
1593.0232000000001
 21
985.02119999999991
  0
LINE
  8
_0-0_LAYER001
  6
CONTINUOUS
 62
    4
 10
1593.0232000000001
 20
985.02119999999991
 11
1597.2211000000002
 21
985.65879999999993
  0
LINE
  8
_0-0_LAYER001
  6
CONTINUOUS
 62
    4
 10
1597.2211000000002
 20
985.65879999999993
 11
1598.8388
 21
985.90480000000002
  0
LINE
  8
_0-0_LAYER001
  6
CONTINUOUS
 62
    4
 10
1346.3834999999999
 20
1028.8707999999999
 11
1346.8094999999998
 21
1029.0338999999999
  0
ARC
  8
_0-0_LAYER001
  6
CONTINUOUS
 62
    4
 10
1347.4560999999999
 20
1026.0690999999999
 40
3
 50
110.94902000000002
 51
178.70000000000002
  0
LINE
  8
_0-0_LAYER001
  6
CONTINUOUS
 62
    4
 10
1344.3476000000001
 20
1010.2981
 11
1344.3476000000001
 21
1026.0206000000001
  0
LINE
  8
_0-0_LAYER001
  6
CONTINUOUS
 62
    4
 10
1345.7016000000001
 20
1009.3628000000001
 11
1351.8764000000001
 21
1011.7
  0
ARC
  8
_0-0_LAYER001
  6
CONTINUOUS
 62
    4
 10
1345.3476000000001
 20
1010.2981
 40
1
 50
180
 51
290.73165999999998
  0
LINE
  8
_0-0_LAYER001
  6
CONTINUOUS
 62
    4
 10
1597.0740999999998
 20
1003.8597
 11
1641.5284000000001
 21
1013.5075999999999
  0
LINE
  8
_0-0_LAYER001
  6
CONTINUOUS
 62
    4
 10
1603.8193999999999
 20
984.02600000000007
 11
1642.4911999999999
 21
993.07590000000005
  0
LINE
  8
_0-0_LAYER001
  6
CONTINUOUS
 62
    4
 10
1642.4911999999999
 20
994.03240000000005
 11
1642.4911999999999
 21
993.07590000000005
  0
ARC
  8
_0-0_LAYER001
  6
CONTINUOUS
 62
    4
 10
1643.4911999999999
 20
994.03240000000005
 40
1
 50
102.72435
 51
180
  0
LINE
  8
_0-0_LAYER001
  6
CONTINUOUS
 62
    4
 10
1648.3081999999999
 20
996.14529999999991
 11
1643.2709
 21
995.00790000000006
  0
ARC
  8
_0-0_LAYER001
  6
CONTINUOUS
 62
    4
 10
1648.5284000000001
 20
995.1699000000001
 40
1
 50
0
 51
102.72435
  0
LINE
  8
_0-0_LAYER001
  6
CONTINUOUS
 62
    4
 10
1648.7404999999999
 20
996.65380000000005
 11
1598.6066000000001
 21
985.77320000000009
  0
ARC
  8
_0-0_LAYER001
  6
CONTINUOUS
 62
    4
 10
1648.5284000000001
 20
997.63100000000009
 40
1
 50
282.24497000000002
 51
0
  0
LINE
  8
_0-0_LAYER001
  6
CONTINUOUS
 62
    4
 10
1648.7462999999998
 20
975.91300000000001
 11
1599.1623
 21
964.84519999999998
  0
LINE
  8
_0-0_LAYER001
  6
CONTINUOUS
 62
    4
 10
1649.5284000000001
 20
976.8889999999999
 11
1649.5284000000001
 21
995.1699000000001
  0
ARC
  8
_0-0_LAYER001
  6
CONTINUOUS
 62
    4
 10
1648.5284000000001
 20
976.8889999999999
 40
1
 50
282.58296000000001
 51
0.0000000000000254
  0
LINE
  8
_0-0_LAYER001
  6
CONTINUOUS
 62
    4
 10
1641.5284000000001
 20
1014.9646
 11
1641.5284000000001
 21
1013.5075999999999
  0
ARC
  8
_0-0_LAYER001
  6
CONTINUOUS
 62
    4
 10
1642.5284000000001
 20
1014.9646
 40
1
 50
101.73308
 51
180
  0
LINE
  8
_0-0_LAYER001
  6
CONTINUOUS
 62
    4
 10
1648.3251
 20
1017.1899000000001
 11
1642.3251
 21
1015.9437
  0
LINE
  8
_0-0_LAYER001
  6
CONTINUOUS
 62
    4
 10
1649.5284000000001
 20
1016.2108000000001
 11
1649.5284000000001
 21
997.63100000000009
  0
ARC
  8
_0-0_LAYER001
  6
CONTINUOUS
 62
    4
 10
1648.5284000000001
 20
1016.2108000000001
 40
1
 50
0
 51
101.73308
  0
LINE
  8
_0-0_LAYER001
  6
CONTINUOUS
 62
    4
 10
1204.7978000000001
 20
945.32089999999994
 11
1196.2624000000001
 21
959.85419999999999
  0
LINE
  8
_0-0_LAYER001
  6
CONTINUOUS
 62
    4
 10
1212.9657
 20
944.67059999999992
 11
1221.2719
 21
954.7360000000001
  0
ARC
  8
_0-0_LAYER001
  6
CONTINUOUS
 62
    4
 10
1209.1092000000001
 20
947.85300000000007
 40
5
 50
210.42578
 51
320.47001
  0
LINE
  8
_0-0_LAYER001
  6
CONTINUOUS
 62
    4
 10
1288.9113
 20
944.2007000000001
 11
1281.5859
 21
955.50669999999991
  0
LINE
  8
_0-0_LAYER001
  6
CONTINUOUS
 62
    4
 10
1297.4208000000001
 20
944.39059999999995
 11
1306.3593000000001
 21
959.63629999999989
  0
ARC
  8
_0-0_LAYER001
  6
CONTINUOUS
 62
    4
 10
1293.1075000000001
 20
946.91949999999997
 40
5
 50
212.93986000000001
 51
329.61716000000001
  0
LINE
  8
_0-0_LAYER001
  6
CONTINUOUS
 62
    4
 10
1336.7029
 20
983.94830000000002
 11
1339.1310000000001
 21
984.35210000000006
  0
LINE
  8
_0-0_LAYER001
  6
CONTINUOUS
 62
    4
 10
1332.5137999999997
 20
983.25199999999995
 11
1336.7029
 21
983.94830000000002
  0
LINE
  8
_0-0_LAYER001
  6
CONTINUOUS
 62
    4
 10
1328.3200999999999
 20
982.55639999999994
 11
1332.5137999999997
 21
983.25199999999995
  0
LINE
  8
_0-0_LAYER001
  6
CONTINUOUS
 62
    4
 10
1324.1212999999998
 20
981.86249999999995
 11
1328.3200999999999
 21
982.55639999999994
  0
LINE
  8
_0-0_LAYER001
  6
CONTINUOUS
 62
    4
 10
1319.9172000000001
 20
981.17100000000005
 11
1324.1212999999998
 21
981.86249999999995
  0
LINE
  8
_0-0_LAYER001
  6
CONTINUOUS
 62
    4
 10
1315.7103999999999
 20
980.4833000000001
 11
1319.9172000000001
 21
981.17100000000005
  0
LINE
  8
_0-0_LAYER001
  6
CONTINUOUS
 62
    4
 10
1313.2581
 20
980.08480000000009
 11
1315.7103999999999
 21
980.4833000000001
  0
LINE
  8
_0-0_LAYER001
  6
CONTINUOUS
 62
    4
 10
1308.5253
 20
979.32240000000002
 11
1313.2581
 21
980.08480000000009
  0
LINE
  8
_0-0_LAYER001
  6
CONTINUOUS
 62
    4
 10
1300.3208999999997
 20
978.03850000000011
 11
1308.5253
 21
979.32240000000002
  0
LINE
  8
_0-0_LAYER001
  6
CONTINUOUS
 62
    4
 10
1292.0134000000003
 20
976.81870000000004
 11
1300.3208999999997
 21
978.03850000000011
  0
LINE
  8
_0-0_LAYER001
  6
CONTINUOUS
 62
    4
 10
1283.6051
 20
975.70229999999992
 11
1292.0134000000003
 21
976.81870000000004
  0
LINE
  8
_0-0_LAYER001
  6
CONTINUOUS
 62
    4
 10
1275.0925999999999
 20
974.72890000000007
 11
1283.6051
 21
975.70229999999992
  0
LINE
  8
_0-0_LAYER001
  6
CONTINUOUS
 62
    4
 10
1266.5334
 20
973.94489999999996
 11
1275.0925999999999
 21
974.72890000000007
  0
LINE
  8
_0-0_LAYER001
  6
CONTINUOUS
 62
    4
 10
1261.4719
 20
973.58690000000001
 11
1266.5334
 21
973.94489999999996
  0
LINE
  8
_0-0_LAYER001
  6
CONTINUOUS
 62
    4
 10
1258.6693
 20
973.42530000000011
 11
1261.4719
 21
973.58690000000001
  0
LINE
  8
_0-0_LAYER001
  6
CONTINUOUS
 62
    4
 10
1253.9483
 20
973.2213999999999
 11
1258.6693
 21
973.42530000000011
  0
LINE
  8
_0-0_LAYER001
  6
CONTINUOUS
 62
    4
 10
1249.1190999999999
 20
973.11590000000001
 11
1253.9483
 21
973.2213999999999
  0
LINE
  8
_0-0_LAYER001
  6
CONTINUOUS
 62
    4
 10
1244.2174
 20
973.13130000000001
 11
1249.1190999999999
 21
973.11590000000001
  0
LINE
  8
_0-0_LAYER001
  6
CONTINUOUS
 62
    4
 10
1239.2464
 20
973.28909999999996
 11
1244.2174
 21
973.13130000000001
  0
LINE
  8
_0-0_LAYER001
  6
CONTINUOUS
 62
    4
 10
1234.289
 20
973.6069
 11
1239.2464
 21
973.28909999999996
  0
LINE
  8
_0-0_LAYER001
  6
CONTINUOUS
 62
    4
 10
1231.2374
 20
973.88830000000007
 11
1234.289
 21
973.6069
  0
LINE
  8
_0-0_LAYER001
  6
CONTINUOUS
 62
    4
 10
1227.3085000000001
 20
974.35059999999999
 11
1231.2374
 21
973.88830000000007
  0
LINE
  8
_0-0_LAYER001
  6
CONTINUOUS
 62
    4
 10
1220.7945999999999
 20
975.37310000000002
 11
1227.3085000000001
 21
974.35059999999999
  0
LINE
  8
_0-0_LAYER001
  6
CONTINUOUS
 62
    4
 10
1214.2479000000001
 20
976.72530000000006
 11
1220.7945999999999
 21
975.37310000000002
  0
LINE
  8
_0-0_LAYER001
  6
CONTINUOUS
 62
    4
 10
1207.7850000000001
 20
978.38110000000006
 11
1214.2479000000001
 21
976.72530000000006
  0
LINE
  8
_0-0_LAYER001
  6
CONTINUOUS
 62
    4
 10
1201.4191000000001
 20
980.33179999999993
 11
1207.7850000000001
 21
978.38110000000006
  0
LINE
  8
_0-0_LAYER001
  6
CONTINUOUS
 62
    4
 10
1195.2543000000001
 20
982.53680000000008
 11
1201.4191000000001
 21
980.33179999999993
  0
LINE
  8
_0-0_LAYER001
  6
CONTINUOUS
 62
    4
 10
1191.5676000000001
 20
984.00859999999989
 11
1195.2543000000001
 21
982.53680000000008
  0
LINE
  8
_0-0_LAYER001
  6
CONTINUOUS
 62
    4
 10
1187.2034000000001
 20
985.90110000000004
 11
1191.5676000000001
 21
984.00859999999989
  0
LINE
  8
_0-0_LAYER001
  6
CONTINUOUS
 62
    4
 10
1180.1342999999999
 20
989.31610000000001
 11
1187.2034000000001
 21
985.90110000000004
  0
LINE
  8
_0-0_LAYER001
  6
CONTINUOUS
 62
    4
 10
1173.2414000000001
 20
993.0456999999999
 11
1180.1342999999999
 21
989.31610000000001
  0
LINE
  8
_0-0_LAYER001
  6
CONTINUOUS
 62
    4
 10
1166.6043999999999
 20
996.97929999999997
 11
1173.2414000000001
 21
993.0456999999999
  0
LINE
  8
_0-0_LAYER001
  6
CONTINUOUS
 62
    4
 10
1160.1950999999999
 20
1001.0617999999999
 11
1166.6043999999999
 21
996.97929999999997
  0
LINE
  8
_0-0_LAYER001
  6
CONTINUOUS
 62
    4
 10
1154.0109
 20
1005.2239
 11
1160.1950999999999
 21
1001.0617999999999
  0
LINE
  8
_0-0_LAYER001
  6
CONTINUOUS
 62
    4
 10
1150.4685999999999
 20
1007.6876
 11
1154.0109
 21
1005.2239
  0
LINE
  8
_0-0_LAYER001
  6
CONTINUOUS
 62
    4
 10
1148.2365
 20
1009.2610999999999
 11
1150.4685999999999
 21
1007.6876
  0
LINE
  8
_0-0_LAYER001
  6
CONTINUOUS
 62
    4
 10
1144.6130000000001
 20
1011.8003000000001
 11
1148.2365
 21
1009.2610999999999
  0
LINE
  8
_0-0_LAYER001
  6
CONTINUOUS
 62
    4
 10
1141.2433000000001
 20
1014.0658000000001
 11
1144.6130000000001
 21
1011.8003000000001
  0
LINE
  8
_0-0_LAYER001
  6
CONTINUOUS
 62
    4
 10
1138.1283000000001
 20
1015.9929
 11
1141.2433000000001
 21
1014.0658000000001
  0
LINE
  8
_0-0_LAYER001
  6
CONTINUOUS
 62
    4
 10
1135.2610999999999
 20
1017.5486000000001
 11
1138.1283000000001
 21
1015.9929
  0
LINE
  8
_0-0_LAYER001
  6
CONTINUOUS
 62
    4
 10
1132.4300000000001
 20
1018.8171
 11
1135.2610999999999
 21
1017.5486000000001
  0
LINE
  8
_0-0_LAYER001
  6
CONTINUOUS
 62
    4
 10
1130.9667999999999
 20
1019.3492000000001
 11
1132.4300000000001
 21
1018.8171
  0
LINE
  8
_0-0_LAYER001
  6
CONTINUOUS
 62
    4
 10
1130.7856999999999
 20
1019.4070999999999
 11
1130.9667999999999
 21
1019.3492000000001
  0
LINE
  8
_0-0_LAYER001
  6
CONTINUOUS
 62
    4
 10
1129.9974
 20
1019.6351
 11
1130.7856999999999
 21
1019.4070999999999
  0
LINE
  8
_0-0_LAYER001
  6
CONTINUOUS
 62
    4
 10
1129.3403000000001
 20
1019.7978000000001
 11
1129.9974
 21
1019.6351
  0
LINE
  8
_0-0_LAYER001
  6
CONTINUOUS
 62
    4
 10
1126.1739
 20
1020.4400000000001
 11
1129.3403000000001
 21
1019.7978000000001
  0
LINE
  8
_0-0_LAYER001
  6
CONTINUOUS
 62
    4
 10
1332.6922999999999
 20
964.76080000000002
 11
1334.3063999999999
 21
965.02929999999992
  0
LINE
  8
_0-0_LAYER001
  6
CONTINUOUS
 62
    4
 10
1328.5037
 20
964.06459999999993
 11
1332.6922999999999
 21
964.76080000000002
  0
LINE
  8
_0-0_LAYER001
  6
CONTINUOUS
 62
    4
 10
1324.3108000000002
 20
963.36920000000009
 11
1328.5037
 21
964.06459999999993
  0
LINE
  8
_0-0_LAYER001
  6
CONTINUOUS
 62
    4
 10
1320.1133
 20
962.67540000000008
 11
1324.3108000000002
 21
963.36920000000009
  0
LINE
  8
_0-0_LAYER001
  6
CONTINUOUS
 62
    4
 10
1315.9110000000001
 20
961.9842000000001
 11
1320.1133
 21
962.67540000000008
  0
LINE
  8
_0-0_LAYER001
  6
CONTINUOUS
 62
    4
 10
1311.7061000000001
 20
961.29690000000005
 11
1315.9110000000001
 21
961.9842000000001
  0
LINE
  8
_0-0_LAYER001
  6
CONTINUOUS
 62
    4
 10
1309.2561000000001
 20
960.89879999999994
 11
1311.7061000000001
 21
961.29690000000005
  0
LINE
  8
_0-0_LAYER001
  6
CONTINUOUS
 62
    4
 10
1304.5291
 20
960.13719999999989
 11
1309.2561000000001
 21
960.89879999999994
  0
LINE
  8
_0-0_LAYER001
  6
CONTINUOUS
 62
    4
 10
1296.3384000000001
 20
958.85549999999989
 11
1304.5291
 21
960.13719999999989
  0
LINE
  8
_0-0_LAYER001
  6
CONTINUOUS
 62
    4
 10
1288.0539000000001
 20
957.6391000000001
 11
1296.3384000000001
 21
958.85549999999989
  0
LINE
  8
_0-0_LAYER001
  6
CONTINUOUS
 62
    4
 10
1279.6773000000001
 20
956.52690000000007
 11
1288.0539000000001
 21
957.6391000000001
  0
LINE
  8
_0-0_LAYER001
  6
CONTINUOUS
 62
    4
 10
1271.2050999999999
 20
955.55809999999997
 11
1279.6773000000001
 21
956.52690000000007
  0
LINE
  8
_0-0_LAYER001
  6
CONTINUOUS
 62
    4
 10
1262.6890000000001
 20
954.77809999999999
 11
1271.2050999999999
 21
955.55809999999997
  0
LINE
  8
_0-0_LAYER001
  6
CONTINUOUS
 62
    4
 10
1257.6612
 20
954.42239999999993
 11
1262.6890000000001
 21
954.77809999999999
  0
LINE
  8
_0-0_LAYER001
  6
CONTINUOUS
 62
    4
 10
1254.886
 20
954.26240000000007
 11
1257.6612
 21
954.42239999999993
  0
LINE
  8
_0-0_LAYER001
  6
CONTINUOUS
 62
    4
 10
1250.2007000000001
 20
954.05999999999995
 11
1254.886
 21
954.26240000000007
  0
LINE
  8
_0-0_LAYER001
  6
CONTINUOUS
 62
    4
 10
1245.4177999999999
 20
953.9556
 11
1250.2007000000001
 21
954.05999999999995
  0
LINE
  8
_0-0_LAYER001
  6
CONTINUOUS
 62
    4
 10
1240.5697
 20
953.97080000000005
 11
1245.4177999999999
 21
953.9556
  0
LINE
  8
_0-0_LAYER001
  6
CONTINUOUS
 62
    4
 10
1235.6595
 20
954.12670000000003
 11
1240.5697
 21
953.97080000000005
  0
LINE
  8
_0-0_LAYER001
  6
CONTINUOUS
 62
    4
 10
1230.7623000000001
 20
954.4405999999999
 11
1235.6595
 21
954.12670000000003
  0
LINE
  8
_0-0_LAYER001
  6
CONTINUOUS
 62
    4
 10
1227.7635
 20
954.71720000000005
 11
1230.7623000000001
 21
954.4405999999999
  0
LINE
  8
_0-0_LAYER001
  6
CONTINUOUS
 62
    4
 10
1223.8978999999999
 20
955.17200000000003
 11
1227.7635
 21
954.71720000000005
  0
LINE
  8
_0-0_LAYER001
  6
CONTINUOUS
 62
    4
 10
1217.4694999999999
 20
956.18110000000001
 11
1223.8978999999999
 21
955.17200000000003
  0
LINE
  8
_0-0_LAYER001
  6
CONTINUOUS
 62
    4
 10
1211.0161000000001
 20
957.5139999999999
 11
1217.4694999999999
 21
956.18110000000001
  0
LINE
  8
_0-0_LAYER001
  6
CONTINUOUS
 62
    4
 10
1204.6439
 20
959.14660000000003
 11
1211.0161000000001
 21
957.5139999999999
  0
LINE
  8
_0-0_LAYER001
  6
CONTINUOUS
 62
    4
 10
1198.3666000000001
 20
961.07009999999991
 11
1204.6439
 21
959.14660000000003
  0
LINE
  8
_0-0_LAYER001
  6
CONTINUOUS
 62
    4
 10
1192.2795000000001
 20
963.2473
 11
1198.3666000000001
 21
961.07009999999991
  0
LINE
  8
_0-0_LAYER001
  6
CONTINUOUS
 62
    4
 10
1188.6538
 20
964.69470000000001
 11
1192.2795000000001
 21
963.2473
  0
LINE
  8
_0-0_LAYER001
  6
CONTINUOUS
 62
    4
 10
1184.354
 20
966.55929999999989
 11
1188.6538
 21
964.69470000000001
  0
LINE
  8
_0-0_LAYER001
  6
CONTINUOUS
 62
    4
 10
1177.3631
 20
969.93650000000002
 11
1184.354
 21
966.55929999999989
  0
LINE
  8
_0-0_LAYER001
  6
CONTINUOUS
 62
    4
 10
1170.5450000000001
 20
973.62570000000005
 11
1177.3631
 21
969.93650000000002
  0
LINE
  8
_0-0_LAYER001
  6
CONTINUOUS
 62
    4
 10
1163.9692
 20
977.52310000000011
 11
1170.5450000000001
 21
973.62570000000005
  0
LINE
  8
_0-0_LAYER001
  6
CONTINUOUS
 62
    4
 10
1157.6083000000001
 20
981.57469999999989
 11
1163.9692
 21
977.52310000000011
  0
LINE
  8
_0-0_LAYER001
  6
CONTINUOUS
 62
    4
 10
1151.4576999999999
 20
985.71419999999989
 11
1157.6083000000001
 21
981.57469999999989
  0
LINE
  8
_0-0_LAYER001
  6
CONTINUOUS
 62
    4
 10
1147.9331
 20
988.16550000000007
 11
1151.4576999999999
 21
985.71419999999989
  0
LINE
  8
_0-0_LAYER001
  6
CONTINUOUS
 62
    4
 10
1145.704
 20
989.73700000000008
 11
1147.9331
 21
988.16550000000007
  0
LINE
  8
_0-0_LAYER001
  6
CONTINUOUS
 62
    4
 10
1142.0623000000001
 20
992.28890000000001
 11
1145.704
 21
989.73700000000008
  0
LINE
  8
_0-0_LAYER001
  6
CONTINUOUS
 62
    4
 10
1138.6451999999999
 20
994.58629999999994
 11
1142.0623000000001
 21
992.28890000000001
  0
LINE
  8
_0-0_LAYER001
  6
CONTINUOUS
 62
    4
 10
1135.4495999999999
 20
996.56320000000005
 11
1138.6451999999999
 21
994.58629999999994
  0
LINE
  8
_0-0_LAYER001
  6
CONTINUOUS
 62
    4
 10
1132.4656
 20
998.18229999999994
 11
1135.4495999999999
 21
996.56320000000005
  0
LINE
  8
_0-0_LAYER001
  6
CONTINUOUS
 62
    4
 10
1126.1739
 20
1001.0012999999999
 11
1132.4656
 21
998.18229999999994
  0
LINE
  8
_0-0_LAYER001
  6
CONTINUOUS
 62
    4
 10
1329.4078
 20
954.33950000000004
 11
1327.1623999999999
 21
962.91300000000001
  0
ARC
  8
_0-0_LAYER001
  6
CONTINUOUS
 62
    4
 10
1332.3099
 20
955.09960000000001
 40
3
 50
194.67639000000003
 51
270.00000000000006
  0
LINE
  8
_0-0_LAYER001
  6
CONTINUOUS
 62
    4
 10
1335.7524000000001
 20
952.09529999999995
 11
1332.3345999999997
 21
952.09529999999995
  0
LINE
  8
_0-0_LAYER001
  6
CONTINUOUS
 62
    4
 10
1338.7116000000001
 20
954.60210000000006
 11
1340.6456000000001
 21
966.20630000000006
  0
ARC
  8
_0-0_LAYER001
  6
CONTINUOUS
 62
    4
 10
1335.7524000000001
 20
955.09529999999995
 40
3
 50
270
 51
350.53766999999999
  0
LINE
  8
_0-0_LAYER001
  6
CONTINUOUS
 62
    4
 10
1126.1424
 20
1042.7935
 11
1127.6068
 21
1042.6229000000001
  0
LINE
  8
_0-0_LAYER001
  6
CONTINUOUS
 62
    4
 10
1127.6068
 20
1042.6229000000001
 11
1129.0679
 21
1042.3761999999999
  0
LINE
  8
_0-0_LAYER001
  6
CONTINUOUS
 62
    4
 10
1129.0679
 20
1042.3761999999999
 11
1130.5216
 21
1042.0600999999999
  0
LINE
  8
_0-0_LAYER001
  6
CONTINUOUS
 62
    4
 10
1130.5216
 20
1042.0600999999999
 11
1131.9637
 21
1041.6815999999999
  0
LINE
  8
_0-0_LAYER001
  6
CONTINUOUS
 62
    4
 10
1131.9637
 20
1041.6815999999999
 11
1133.3901000000001
 21
1041.2474999999999
  0
LINE
  8
_0-0_LAYER001
  6
CONTINUOUS
 62
    4
 10
1133.3901000000001
 20
1041.2474999999999
 11
1134.2085999999999
 21
1040.9729
  0
LINE
  8
_0-0_LAYER001
  6
CONTINUOUS
 62
    4
 10
1134.2085999999999
 20
1040.9729
 11
1136.7067999999999
 21
1040.0246999999999
  0
LINE
  8
_0-0_LAYER001
  6
CONTINUOUS
 62
    4
 10
1136.7067999999999
 20
1040.0246999999999
 11
1140.8658
 21
1038.0911000000001
  0
LINE
  8
_0-0_LAYER001
  6
CONTINUOUS
 62
    4
 10
1140.8658
 20
1038.0911000000001
 11
1144.8696
 21
1035.8457000000001
  0
LINE
  8
_0-0_LAYER001
  6
CONTINUOUS
 62
    4
 10
1144.8696
 20
1035.8457000000001
 11
1148.7564
 21
1033.3655000000001
  0
LINE
  8
_0-0_LAYER001
  6
CONTINUOUS
 62
    4
 10
1148.7564
 20
1033.3655000000001
 11
1152.5644
 21
1030.7273
  0
LINE
  8
_0-0_LAYER001
  6
CONTINUOUS
 62
    4
 10
1152.5644
 20
1030.7273
 11
1156.3317
 21
1028.0082
  0
LINE
  8
_0-0_LAYER001
  6
CONTINUOUS
 62
    4
 10
1156.3317
 20
1028.0082
 11
1158.5129999999999
 21
1026.4244000000001
  0
LINE
  8
_0-0_LAYER001
  6
CONTINUOUS
 62
    4
 10
1158.5129999999999
 20
1026.4244000000001
 11
1161.8445999999999
 21
1024.0376000000001
  0
LINE
  8
_0-0_LAYER001
  6
CONTINUOUS
 62
    4
 10
1161.8445999999999
 20
1024.0376000000001
 11
1167.6368
 21
1020.0206000000001
  0
LINE
  8
_0-0_LAYER001
  6
CONTINUOUS
 62
    4
 10
1167.6368
 20
1020.0206000000001
 11
1173.509
 21
1016.164
  0
LINE
  8
_0-0_LAYER001
  6
CONTINUOUS
 62
    4
 10
1173.509
 20
1016.164
 11
1179.4831999999999
 21
1012.5096000000001
  0
LINE
  8
_0-0_LAYER001
  6
CONTINUOUS
 62
    4
 10
1179.4831999999999
 20
1012.5096000000001
 11
1185.5813000000001
 21
1009.0989999999999
  0
LINE
  8
_0-0_LAYER001
  6
CONTINUOUS
 62
    4
 10
1185.5813000000001
 20
1009.0989999999999
 11
1191.8255999999999
 21
1005.9742000000001
  0
LINE
  8
_0-0_LAYER001
  6
CONTINUOUS
 62
    4
 10
1191.8255999999999
 20
1005.9742000000001
 11
1195.5228999999999
 21
1004.3091999999999
  0
LINE
  8
_0-0_LAYER001
  6
CONTINUOUS
 62
    4
 10
1195.5228999999999
 20
1004.3091999999999
 11
1198.5822000000001
 21
1003.0381
  0
LINE
  8
_0-0_LAYER001
  6
CONTINUOUS
 62
    4
 10
1198.5822000000001
 20
1003.0381
 11
1203.9427000000001
 21
1001.0360000000001
  0
LINE
  8
_0-0_LAYER001
  6
CONTINUOUS
 62
    4
 10
1203.9427000000001
 20
1001.0360000000001
 11
1209.3984
 21
999.28050000000007
  0
LINE
  8
_0-0_LAYER001
  6
CONTINUOUS
 62
    4
 10
1209.3984
 20
999.28050000000007
 11
1214.9333999999999
 21
997.77970000000005
  0
LINE
  8
_0-0_LAYER001
  6
CONTINUOUS
 62
    4
 10
1214.9333999999999
 20
997.77970000000005
 11
1220.5317
 21
996.54169999999999
  0
LINE
  8
_0-0_LAYER001
  6
CONTINUOUS
 62
    4
 10
1220.5317
 20
996.54169999999999
 11
1226.1774
 21
995.57449999999994
  0
LINE
  8
_0-0_LAYER001
  6
CONTINUOUS
 62
    4
 10
1226.1774
 20
995.57449999999994
 11
1229.4674
 21
995.1407999999999
  0
LINE
  8
_0-0_LAYER001
  6
CONTINUOUS
 62
    4
 10
1229.4674
 20
995.1407999999999
 11
1231.9866
 21
994.87290000000007
  0
LINE
  8
_0-0_LAYER001
  6
CONTINUOUS
 62
    4
 10
1231.9866
 20
994.87290000000007
 11
1236.3387
 21
994.53289999999993
  0
LINE
  8
_0-0_LAYER001
  6
CONTINUOUS
 62
    4
 10
1236.3387
 20
994.53289999999993
 11
1240.6990000000001
 21
994.33339999999998
  0
LINE
  8
_0-0_LAYER001
  6
CONTINUOUS
 62
    4
 10
1240.6990000000001
 20
994.33339999999998
 11
1245.0642
 21
994.25880000000006
  0
LINE
  8
_0-0_LAYER001
  6
CONTINUOUS
 62
    4
 10
1245.0642
 20
994.25880000000006
 11
1249.4313
 21
994.29320000000007
  0
LINE
  8
_0-0_LAYER001
  6
CONTINUOUS
 62
    4
 10
1249.4313
 20
994.29320000000007
 11
1253.7972
 21
994.4206999999999
  0
LINE
  8
_0-0_LAYER001
  6
CONTINUOUS
 62
    4
 10
1253.7972
 20
994.4206999999999
 11
1256.3276000000001
 21
994.5311999999999
  0
LINE
  8
_0-0_LAYER001
  6
CONTINUOUS
 62
    4
 10
1256.3276000000001
 20
994.5311999999999
 11
1261.0567000000001
 21
994.79940000000011
  0
LINE
  8
_0-0_LAYER001
  6
CONTINUOUS
 62
    4
 10
1261.0567000000001
 20
994.79940000000011
 11
1269.1949
 21
995.43039999999996
  0
LINE
  8
_0-0_LAYER001
  6
CONTINUOUS
 62
    4
 10
1269.1949
 20
995.43039999999996
 11
1277.3155999999999
 21
996.24430000000007
  0
LINE
  8
_0-0_LAYER001
  6
CONTINUOUS
 62
    4
 10
1277.3155999999999
 20
996.24430000000007
 11
1285.4214999999999
 21
997.20550000000003
  0
LINE
  8
_0-0_LAYER001
  6
CONTINUOUS
 62
    4
 10
1285.4214999999999
 20
997.20550000000003
 11
1293.5150000000001
 21
998.27870000000007
  0
LINE
  8
_0-0_LAYER001
  6
CONTINUOUS
 62
    4
 10
1293.5150000000001
 20
998.27870000000007
 11
1301.5985000000001
 21
999.42830000000004
  0
LINE
  8
_0-0_LAYER001
  6
CONTINUOUS
 62
    4
 10
1301.5985000000001
 20
999.42830000000004
 11
1306.2834
 21
1000.1161
  0
LINE
  8
_0-0_LAYER001
  6
CONTINUOUS
 62
    4
 10
1306.2834
 20
1000.1161
 11
1308.7183
 21
1000.4768999999999
  0
LINE
  8
_0-0_LAYER001
  6
CONTINUOUS
 62
    4
 10
1308.7183
 20
1000.4768999999999
 11
1312.9152999999999
 21
1001.1029000000001
  0
LINE
  8
_0-0_LAYER001
  6
CONTINUOUS
 62
    4
 10
1312.9152999999999
 20
1001.1029000000001
 11
1317.1110000000001
 21
1001.7329999999999
  0
LINE
  8
_0-0_LAYER001
  6
CONTINUOUS
 62
    4
 10
1317.1110000000001
 20
1001.7329999999999
 11
1321.3059000000001
 21
1002.3662999999999
  0
LINE
  8
_0-0_LAYER001
  6
CONTINUOUS
 62
    4
 10
1321.3059000000001
 20
1002.3662999999999
 11
1325.5
 21
1003.0019
  0
LINE
  8
_0-0_LAYER001
  6
CONTINUOUS
 62
    4
 10
1325.5
 20
1003.0019
 11
1329.6938
 21
1003.6388999999999
  0
LINE
  8
_0-0_LAYER001
  6
CONTINUOUS
 62
    4
 10
1329.6938
 20
1003.6388999999999
 11
1332.1261
 21
1004.0085999999999
  0
LINE
  8
_0-0_LAYER001
  6
CONTINUOUS
 62
    4
 10
1126.1739
 20
1024.5849000000001
 11
1126.3230000000001
 21
1024.5524
  0
LINE
  8
_0-0_LAYER001
  6
CONTINUOUS
 62
    4
 10
1126.3230000000001
 20
1024.5524
 11
1127.0565999999999
 21
1024.3598999999999
  0
LINE
  8
_0-0_LAYER001
  6
CONTINUOUS
 62
    4
 10
1127.0565999999999
 20
1024.3598999999999
 11
1127.9057
 21
1024.1015
  0
LINE
  8
_0-0_LAYER001
  6
CONTINUOUS
 62
    4
 10
1127.9057
 20
1024.1015
 11
1128.1497999999999
 21
1024.0196000000001
  0
LINE
  8
_0-0_LAYER001
  6
CONTINUOUS
 62
    4
 10
1128.1497999999999
 20
1024.0196000000001
 11
1129.7097000000001
 21
1023.4275
  0
LINE
  8
_0-0_LAYER001
  6
CONTINUOUS
 62
    4
 10
1129.7097000000001
 20
1023.4275
 11
1132.6574000000001
 21
1022.0571
  0
LINE
  8
_0-0_LAYER001
  6
CONTINUOUS
 62
    4
 10
1132.6574000000001
 20
1022.0571
 11
1135.6185
 21
1020.3965000000001
  0
LINE
  8
_0-0_LAYER001
  6
CONTINUOUS
 62
    4
 10
1135.6185
 20
1020.3965000000001
 11
1138.7862
 21
1018.3751
  0
LINE
  8
_0-0_LAYER001
  6
CONTINUOUS
 62
    4
 10
1138.7862
 20
1018.3751
 11
1142.1709000000001
 21
1016.0301999999999
  0
LINE
  8
_0-0_LAYER001
  6
CONTINUOUS
 62
    4
 10
1142.1709000000001
 20
1016.0301999999999
 11
1145.7765999999999
 21
1013.4277
  0
LINE
  8
_0-0_LAYER001
  6
CONTINUOUS
 62
    4
 10
1145.7765999999999
 20
1013.4277
 11
1147.9836
 21
1011.8253
  0
LINE
  8
_0-0_LAYER001
  6
CONTINUOUS
 62
    4
 10
1147.9836
 20
1011.8253
 11
1151.4736
 21
1009.325
  0
LINE
  8
_0-0_LAYER001
  6
CONTINUOUS
 62
    4
 10
1151.4736
 20
1009.325
 11
1157.5658000000001
 21
1005.0999999999999
  0
LINE
  8
_0-0_LAYER001
  6
CONTINUOUS
 62
    4
 10
1157.5658000000001
 20
1005.0999999999999
 11
1163.8695
 21
1000.96
  0
LINE
  8
_0-0_LAYER001
  6
CONTINUOUS
 62
    4
 10
1163.8695
 20
1000.96
 11
1170.3902
 21
996.97119999999995
  0
LINE
  8
_0-0_LAYER001
  6
CONTINUOUS
 62
    4
 10
1170.3902
 20
996.97119999999995
 11
1177.1561999999999
 21
993.18720000000008
  0
LINE
  8
_0-0_LAYER001
  6
CONTINUOUS
 62
    4
 10
1177.1561999999999
 20
993.18720000000008
 11
1184.0992000000001
 21
989.71270000000004
  0
LINE
  8
_0-0_LAYER001
  6
CONTINUOUS
 62
    4
 10
1184.0992000000001
 20
989.71270000000004
 11
1188.3725999999999
 21
987.78819999999996
  0
LINE
  8
_0-0_LAYER001
  6
CONTINUOUS
 62
    4
 10
1188.3725999999999
 20
987.78819999999996
 11
1191.9776999999999
 21
986.29029999999989
  0
LINE
  8
_0-0_LAYER001
  6
CONTINUOUS
 62
    4
 10
1191.9776999999999
 20
986.29029999999989
 11
1198.0337999999999
 21
984.02839999999992
  0
LINE
  8
_0-0_LAYER001
  6
CONTINUOUS
 62
    4
 10
1198.0337999999999
 20
984.02839999999992
 11
1204.2836
 21
982.01739999999995
  0
LINE
  8
_0-0_LAYER001
  6
CONTINUOUS
 62
    4
 10
1204.2836
 20
982.01739999999995
 11
1210.6324
 21
980.29600000000005
  0
LINE
  8
_0-0_LAYER001
  6
CONTINUOUS
 62
    4
 10
1210.6324
 20
980.29600000000005
 11
1217.0666000000001
 21
978.87310000000002
  0
LINE
  8
_0-0_LAYER001
  6
CONTINUOUS
 62
    4
 10
1217.0666000000001
 20
978.87310000000002
 11
1223.4802999999999
 21
977.77430000000004
  0
LINE
  8
_0-0_LAYER001
  6
CONTINUOUS
 62
    4
 10
1223.4802999999999
 20
977.77430000000004
 11
1227.3391999999999
 21
977.26559999999995
  0
LINE
  8
_0-0_LAYER001
  6
CONTINUOUS
 62
    4
 10
1227.3391999999999
 20
977.26559999999995
 11
1230.3338000000001
 21
976.94720000000007
  0
LINE
  8
_0-0_LAYER001
  6
CONTINUOUS
 62
    4
 10
1230.3338000000001
 20
976.94720000000007
 11
1235.2262000000001
 21
976.56490000000008
  0
LINE
  8
_0-0_LAYER001
  6
CONTINUOUS
 62
    4
 10
1235.2262000000001
 20
976.56490000000008
 11
1240.1337000000001
 21
976.34050000000002
  0
LINE
  8
_0-0_LAYER001
  6
CONTINUOUS
 62
    4
 10
1240.1337000000001
 20
976.34050000000002
 11
1244.9811
 21
976.25759999999991
  0
LINE
  8
_0-0_LAYER001
  6
CONTINUOUS
 62
    4
 10
1244.9811
 20
976.25759999999991
 11
1249.7650000000001
 21
976.29520000000002
  0
LINE
  8
_0-0_LAYER001
  6
CONTINUOUS
 62
    4
 10
1249.7650000000001
 20
976.29520000000002
 11
1254.4527
 21
976.43219999999997
  0
LINE
  8
_0-0_LAYER001
  6
CONTINUOUS
 62
    4
 10
1254.4527
 20
976.43219999999997
 11
1257.2298000000001
 21
976.55349999999999
  0
LINE
  8
_0-0_LAYER001
  6
CONTINUOUS
 62
    4
 10
1257.2298000000001
 20
976.55349999999999
 11
1262.2621999999999
 21
976.83879999999999
  0
LINE
  8
_0-0_LAYER001
  6
CONTINUOUS
 62
    4
 10
1262.2621999999999
 20
976.83879999999999
 11
1270.7882999999999
 21
977.49990000000003
  0
LINE
  8
_0-0_LAYER001
  6
CONTINUOUS
 62
    4
 10
1270.7882999999999
 20
977.49990000000003
 11
1279.2732000000001
 21
978.35030000000006
  0
LINE
  8
_0-0_LAYER001
  6
CONTINUOUS
 62
    4
 10
1279.2732000000001
 20
978.35030000000006
 11
1287.6645000000003
 21
979.34539999999993
  0
LINE
  8
_0-0_LAYER001
  6
CONTINUOUS
 62
    4
 10
1287.6645000000003
 20
979.34539999999993
 11
1295.9652000000001
 21
980.44609999999989
  0
LINE
  8
_0-0_LAYER001
  6
CONTINUOUS
 62
    4
 10
1295.9652000000001
 20
980.44609999999989
 11
1304.1729
 21
981.61329999999998
  0
LINE
  8
_0-0_LAYER001
  6
CONTINUOUS
 62
    4
 10
1304.1729
 20
981.61329999999998
 11
1308.9101000000001
 21
982.30880000000002
  0
LINE
  8
_0-0_LAYER001
  6
CONTINUOUS
 62
    4
 10
1308.9101000000001
 20
982.30880000000002
 11
1311.3653999999999
 21
982.6726000000001
  0
LINE
  8
_0-0_LAYER001
  6
CONTINUOUS
 62
    4
 10
1311.3653999999999
 20
982.6726000000001
 11
1315.5795000000001
 21
983.30120000000011
  0
LINE
  8
_0-0_LAYER001
  6
CONTINUOUS
 62
    4
 10
1315.5795000000001
 20
983.30120000000011
 11
1319.7910999999999
 21
983.93370000000004
  0
LINE
  8
_0-0_LAYER001
  6
CONTINUOUS
 62
    4
 10
1319.7910999999999
 20
983.93370000000004
 11
1323.9978000000001
 21
984.56870000000004
  0
LINE
  8
_0-0_LAYER001
  6
CONTINUOUS
 62
    4
 10
1323.9978000000001
 20
984.56870000000004
 11
1328.1999999999998
 21
985.2056
  0
LINE
  8
_0-0_LAYER001
  6
CONTINUOUS
 62
    4
 10
1328.1999999999998
 20
985.2056
 11
1332.3978999999999
 21
985.84320000000002
  0
LINE
  8
_0-0_LAYER001
  6
CONTINUOUS
 62
    4
 10
1332.3978999999999
 20
985.84320000000002
 11
1334.0155999999999
 21
986.08909999999992
  0
LINE
  8
_0-0_LAYER001
  6
CONTINUOUS
 62
    4
 10
1344.5244
 20
989.16020000000003
 11
1344.5244
 21
1006.3576
  0
LINE
  8
_0-0_LAYER001
  6
CONTINUOUS
 62
    4
 10
1332.251
 20
1004.0440000000001
 11
1376.7053000000001
 21
1013.6919
  0
LINE
  8
_0-0_LAYER001
  6
CONTINUOUS
 62
    4
 10
1338.9962
 20
984.21029999999996
 11
1377.6679999999999
 21
993.26029999999992
  0
LINE
  8
_0-0_LAYER001
  6
CONTINUOUS
 62
    4
 10
1377.6679999999999
 20
994.21679999999992
 11
1377.6679999999999
 21
993.26029999999992
  0
ARC
  8
_0-0_LAYER001
  6
CONTINUOUS
 62
    4
 10
1378.6679999999999
 20
994.21679999999992
 40
1
 50
102.72435
 51
180
  0
LINE
  8
_0-0_LAYER001
  6
CONTINUOUS
 62
    4
 10
1383.4850000000001
 20
996.3297
 11
1378.4477999999999
 21
995.19219999999996
  0
ARC
  8
_0-0_LAYER001
  6
CONTINUOUS
 62
    4
 10
1383.7053000000001
 20
995.35419999999999
 40
1
 50
0
 51
102.72435
  0
LINE
  8
_0-0_LAYER001
  6
CONTINUOUS
 62
    4
 10
1383.9174
 20
996.83809999999994
 11
1333.7834
 21
985.95759999999996
  0
ARC
  8
_0-0_LAYER001
  6
CONTINUOUS
 62
    4
 10
1383.7053000000001
 20
997.81539999999995
 40
1
 50
282.24497000000002
 51
0
  0
LINE
  8
_0-0_LAYER001
  6
CONTINUOUS
 62
    4
 10
1383.9231
 20
976.09740000000011
 11
1334.3391999999999
 21
965.0295000000001
  0
LINE
  8
_0-0_LAYER001
  6
CONTINUOUS
 62
    4
 10
1384.7053000000001
 20
977.07339999999999
 11
1384.7053000000001
 21
995.35419999999999
  0
ARC
  8
_0-0_LAYER001
  6
CONTINUOUS
 62
    4
 10
1383.7053000000001
 20
977.07339999999999
 40
1
 50
282.58296000000001
 51
0.0000000000000254
  0
LINE
  8
_0-0_LAYER001
  6
CONTINUOUS
 62
    4
 10
1376.7053000000001
 20
1015.1488999999999
 11
1376.7053000000001
 21
1013.6919
  0
ARC
  8
_0-0_LAYER001
  6
CONTINUOUS
 62
    4
 10
1377.7053000000001
 20
1015.1488999999999
 40
1
 50
101.73308
 51
180
  0
LINE
  8
_0-0_LAYER001
  6
CONTINUOUS
 62
    4
 10
1383.5019
 20
1017.3742
 11
1377.5019
 21
1016.1280999999999
  0
LINE
  8
_0-0_LAYER001
  6
CONTINUOUS
 62
    4
 10
1384.7053000000001
 20
1016.3951
 11
1384.7053000000001
 21
997.81539999999995
  0
ARC
  8
_0-0_LAYER001
  6
CONTINUOUS
 62
    4
 10
1383.7053000000001
 20
1016.3951
 40
1
 50
0
 51
101.73308
  0
LINE
  8
_0-0_LAYER001
  6
DASHED1
 62
    2
 10
1448.9223999999999
 20
986.18209999999999
 11
1464.9223999999999
 21
986.18209999999999
  0
LINE
  8
_0-0_LAYER001
  6
DASHED1
 62
    2
 10
1464.9223999999999
 20
986.18209999999999
 11
1464.9223999999999
 21
983.18209999999999
  0
LINE
  8
_0-0_LAYER001
  6
DASHED1
 62
    2
 10
1448.9223999999999
 20
986.18209999999999
 11
1448.9223999999999
 21
983.18209999999999
  0
LINE
  8
_0-0_LAYER001
  6
DASHED1
 62
    2
 10
1448.9223999999999
 20
983.18209999999999
 11
1464.9223999999999
 21
983.18209999999999
  0
LINE
  8
_0-0_LAYER001
  6
DASHED1
 62
    2
 10
1459.9223999999999
 20
928.28600000000006
 11
1456.8721999999998
 21
913.77710000000002
  0
LINE
  8
_0-0_LAYER001
  6
DASHED1
 62
    2
 10
1459.9223999999999
 20
983.18209999999999
 11
1459.9223999999999
 21
928.28600000000006
  0
LINE
  8
_0-0_LAYER001
  6
DASHED1
 62
    2
 10
1456.8721999999998
 20
913.77710000000002
 11
1453.9223999999999
 21
928.03459999999995
  0
LINE
  8
_0-0_LAYER001
  6
DASHED1
 62
    2
 10
1453.9223999999999
 20
983.18209999999999
 11
1453.9223999999999
 21
928.03459999999995
  0
LINE
  8
_0-1_LAYER003
  6
CONTINUOUS
 62
    2
 10
1207.384
 20
1095.1231
 11
1202.0807
 21
1089.8198
  0
LINE
  8
_0-1_LAYER003
  6
CONTINUOUS
 62
    2
 10
1202.0807
 20
1089.8198
 11
1204.0218
 21
1097.0642
  0
LINE
  8
_0-1_LAYER003
  6
CONTINUOUS
 62
    2
 10
1202.0807
 20
1089.8198
 11
1271.8267000000001
 21
1210.6233999999999
  0
LINE
  8
_0-1_LAYER003
  6
CONTINUOUS
 62
    2
 10
1271.8267000000001
 20
1210.6233999999999
 11
1402.3267000000001
 21
1210.6233999999999
  0
LINE
  8
_0-1_LAYER003
  6
CONTINUOUS
 62
    2
 10
1189.1125999999999
 20
1107.0141000000001
 11
1183.8092999999999
 21
1101.7108000000001
  0
LINE
  8
_0-1_LAYER003
  6
CONTINUOUS
 62
    2
 10
1183.8092999999999
 20
1101.7108000000001
 11
1185.7503999999999
 21
1108.9553000000001
  0
LINE
  8
_0-1_LAYER003
  6
CONTINUOUS
 62
    2
 10
1183.8092999999999
 20
1101.7108000000001
 11
1267.5387000000001
 21
1246.7345
  0
LINE
  8
_0-1_LAYER003
  6
CONTINUOUS
 62
    2
 10
1267.5387000000001
 20
1246.7345
 11
1501.5387000000001
 21
1246.7345
  0
ARC
  8
_0-0_LAYER001
  6
CONTINUOUS
 62
    2
 10
1157.7886000000001
 20
1217.5211999999999
 40
20.694040000000001
 50
146.68045000000001
 51
204.50830999999999
  0
LINE
  8
_0-0_LAYER001
  6
CONTINUOUS
 62
    2
 10
1125.4866
 20
1228.8886
 11
1125.4866
 21
1208.8886
  0
LINE
  8
_0-2_LAYER004
  6
CONTINUOUS
 62
    2
 10
1120.0246
 20
1228.8886
 11
1125.4866
 21
1208.8886
  0
LINE
  8
_0-2_LAYER004
  6
CONTINUOUS
 62
    2
 10
1120.0246
 20
1208.8886
 11
1125.4866
 21
1228.8886
  0
LINE
  8
_0-2_LAYER004
  6
CONTINUOUS
 62
    2
 10
1117.9627
 20
1208.9902
 11
1117.9627
 21
1225.933
  0
LINE
  8
_0-3_LAYER005
  6
CONTINUOUS
 62
    2
 10
1140.9695999999999
 20
1228.8886
 11
1115.9695999999999
 21
1228.8886
  0
LINE
  8
_0-3_LAYER005
  6
CONTINUOUS
 62
    2
 10
1140.9695999999999
 20
1208.8886
 11
1115.9695999999999
 21
1208.8886
  0
LINE
  8
_0-3_LAYER005
  6
CONTINUOUS
 62
    2
 10
1120.0246
 20
1208.8886
 11
1120.0246
 21
1228.8886
  0
LINE
  8
_0-3_LAYER005
  6
CONTINUOUS
 62
    2
 10
1131.7945999999999
 20
1208.8886
 11
1125.4866
 21
1215.1966
  0
LINE
  8
_0-3_LAYER005
  6
CONTINUOUS
 62
    2
 10
1136.0376000000001
 20
1208.8886
 11
1125.4866
 21
1219.4395999999999
  0
LINE
  8
_0-3_LAYER005
  6
CONTINUOUS
 62
    2
 10
1138.1388999999999
 20
1211.0305000000001
 11
1125.4866
 21
1223.6819
  0
LINE
  8
_0-3_LAYER005
  6
CONTINUOUS
 62
    2
 10
1137.1319000000001
 20
1216.2792999999999
 11
1125.4866
 21
1227.9246000000001
  0
LINE
  8
_0-3_LAYER005
  6
CONTINUOUS
 62
    2
 10
1137.2905000000001
 20
1220.3624
 11
1128.7656999999999
 21
1228.8886
  0
LINE
  8
_0-3_LAYER005
  6
CONTINUOUS
 62
    2
 10
1138.076
 20
1223.8184000000001
 11
1133.0092
 21
1228.8886
  0
LINE
  8
_0-2_LAYER004
  6
CONTINUOUS
 62
    2
 10
1263.1556
 20
951.33130000000006
 11
1263.1556
 21
936.33130000000006
  0
LINE
  8
_0-2_LAYER004
  6
CONTINUOUS
 62
    2
 10
1257.8806
 20
934.76060000000007
 11
1257.8806
 21
951.33130000000006
  0
LINE
  8
_0-2_LAYER004
  6
CONTINUOUS
 62
    2
 10
1257.8806
 20
951.33130000000006
 11
1237.3366000000001
 21
951.33130000000006
  0
LINE
  8
_0-2_LAYER004
  6
CONTINUOUS
 62
    2
 10
1121.6405999999999
 20
934.76060000000007
 11
1121.6405999999999
 21
1051.8886
  0
LINE
  8
_0-2_LAYER004
  6
CONTINUOUS
 62
    2
 10
1257.8806
 20
934.76060000000007
 11
1121.6405999999999
 21
934.76060000000007
  0
LINE
  8
_0-2_LAYER004
  6
CONTINUOUS
 62
    2
 10
1213.9906000000001
 20
1078.3222000000001
 11
1216.6936000000001
 21
1093.0762
  0
LINE
  8
_0-2_LAYER004
  6
CONTINUOUS
 62
    2
 10
1216.6936000000001
 20
1093.0762
 11
1128.1666
 21
1109.2922000000001
  0
LINE
  8
_0-2_LAYER004
  6
CONTINUOUS
 62
    2
 10
1216.6936000000001
 20
1093.0762
 11
1125.4636
 21
1094.5372
  0
LINE
  8
_0-2_LAYER004
  6
CONTINUOUS
 62
    2
 10
1230.9695999999999
 20
1092.4037000000001
 11
1231.5175999999999
 21
1074.3246999999999
  0
LINE
  8
_0-2_LAYER004
  6
CONTINUOUS
 62
    2
 10
2204.6369
 20
951.33130000000006
 11
1263.1556
 21
951.33130000000006
  0
LINE
  8
_0-2_LAYER004
  6
CONTINUOUS
 62
    2
 10
1263.1556
 20
936.33130000000006
 11
2204.6369
 21
936.33130000000006
  0
LINE
  8
_0-2_LAYER004
  6
CONTINUOUS
 62
    2
 10
2204.6369
 20
929.8886
 11
1115.9695999999999
 21
929.8886
  0
LINE
  8
_0-2_LAYER004
  6
CONTINUOUS
 62
    2
 10
1140.9695999999999
 20
1228.8886
 11
1140.9695999999999
 21
1471.0025999999998
  0
LINE
  8
_0-2_LAYER004
  6
CONTINUOUS
 62
    2
 10
1230.9695999999999
 20
1092.4037000000001
 11
1140.9695999999999
 21
1108.8886
  0
LINE
  8
_0-2_LAYER004
  6
DASHED3
 62
    2
 10
1118.2926
 20
932.38560000000007
 11
1118.2926
 21
1179.8886
  0
LINE
  8
_0-2_LAYER004
  6
CONTINUOUS
 62
    2
 10
1115.9695999999999
 20
1228.8886
 11
1115.9695999999999
 21
929.8886
  0
LINE
  8
_0-2_LAYER004
  6
CONTINUOUS
 62
    2
 10
2204.6369
 20
809.8886
 11
1115.9695999999999
 21
809.8886
  0
LINE
  8
_0-4_LAYER007
  6
CONTINUOUS
 62
    2
 10
1455.1466
 20
929.8886
 11
1335.1466
 21
809.8886
  0
LINE
  8
_0-4_LAYER007
  6
CONTINUOUS
 62
    2
 10
1443.8326000000002
 20
929.8886
 11
1323.8326000000002
 21
809.8886
  0
LINE
  8
_0-4_LAYER007
  6
CONTINUOUS
 62
    2
 10
1466.4605999999999
 20
929.8886
 11
1346.4606000000001
 21
809.8886
  0
LINE
  8
_0-4_LAYER007
  6
CONTINUOUS
 62
    2
 10
2052.7636000000002
 20
929.8886
 11
1932.7636000000002
 21
809.8886
  0
LINE
  8
_0-4_LAYER007
  6
CONTINUOUS
 62
    2
 10
2041.4506000000001
 20
929.8886
 11
1921.4506000000001
 21
809.8886
  0
LINE
  8
_0-4_LAYER007
  6
CONTINUOUS
 62
    2
 10
2030.1365999999998
 20
929.8886
 11
1910.1365999999998
 21
809.8886
  0
LINE
  8
_0-4_LAYER007
  6
CONTINUOUS
 62
    2
 10
1021.6905999999999
 20
1270.5386000000001
 11
1140.9695999999999
 21
1389.8176000000001
  0
LINE
  8
_0-4_LAYER007
  6
CONTINUOUS
 62
    2
 10
1021.6905999999999
 20
1281.8525999999999
 11
1140.9695999999999
 21
1401.1315999999999
  0
LINE
  8
_0-4_LAYER007
  6
CONTINUOUS
 62
    2
 10
1021.6905999999999
 20
1293.1656
 11
1140.9695999999999
 21
1412.4456
  0
ARC
  8
_0-4_LAYER007
  6
CONTINUOUS
 62
    2
 10
1234.4348
 20
1042.1104
 40
11.497
 50
165.33239
 51
201.42179999999999
  0
CIRCLE
  8
_0-3_LAYER005
  6
CONTINUOUS
 62
    2
 10
1221.6874
 20
1011.4695999999999
 40
1.1619999999999999
  0
CIRCLE
  8
_0-3_LAYER005
  6
CONTINUOUS
 62
    2
 10
1214.6137000000001
 20
996.78539999999998
 40
1.1619999999999999
  0
CIRCLE
  8
_0-3_LAYER005
  6
CONTINUOUS
 62
    2
 10
1206.3957
 20
996.78539999999998
 40
1.1619999999999999
  0
CIRCLE
  8
_0-3_LAYER005
  6
CONTINUOUS
 62
    2
 10
1187.7485999999999
 20
1020.2706000000001
 40
1.1619999999999999
  0
CIRCLE
  8
_0-3_LAYER005
  6
CONTINUOUS
 62
    2
 10
1154.7606000000001
 20
1026.7046
 40
1.1619999999999999
  0
CIRCLE
  8
_0-3_LAYER005
  6
CONTINUOUS
 62
    2
 10
1162.6025999999999
 20
1011.0206000000001
 40
1.1619999999999999
  0
CIRCLE
  8
_0-3_LAYER005
  6
CONTINUOUS
 62
    2
 10
1202.7820999999999
 20
1019.9838
 40
1.1619999999999999
  0
CIRCLE
  8
_0-3_LAYER005
  6
CONTINUOUS
 62
    2
 10
1197.6106
 20
1049.0326
 40
1.1619999999999999
  0
CIRCLE
  8
_0-3_LAYER005
  6
CONTINUOUS
 62
    2
 10
1178.7095999999999
 20
1053.1415999999999
 40
1.1619999999999999
  0
CIRCLE
  8
_0-3_LAYER005
  6
CONTINUOUS
 62
    2
 10
1205.0065999999999
 20
1048.2116000000001
 40
1.1619999999999999
  0
CIRCLE
  8
_0-3_LAYER005
  6
CONTINUOUS
 62
    2
 10
1170.4916000000001
 20
1016.9836
 40
1.1619999999999999
  0
CIRCLE
  8
_0-3_LAYER005
  6
CONTINUOUS
 62
    2
 10
1161.4526000000001
 20
1021.9146000000001
 40
1.1619999999999999
  0
CIRCLE
  8
_0-3_LAYER005
  6
CONTINUOUS
 62
    2
 10
1186.9966999999999
 20
998.82140000000004
 40
1.1619999999999999
  0
CIRCLE
  8
_0-3_LAYER005
  6
CONTINUOUS
 62
    2
 10
1158.1656
 20
1045.7456
 40
1.1619999999999999
  0
CIRCLE
  8
_0-3_LAYER005
  6
CONTINUOUS
 62
    2
 10
1159.8086000000001
 20
1048.2116000000001
 40
1.1619999999999999
  0
CIRCLE
  8
_0-3_LAYER005
  6
CONTINUOUS
 62
    2
 10
1152.4126000000001
 20
1052.3196
 40
1.1619999999999999
  0
CIRCLE
  8
_0-3_LAYER005
  6
CONTINUOUS
 62
    2
 10
1149.9476
 20
1060.5376000000001
 40
1.1619999999999999
  0
CIRCLE
  8
_0-3_LAYER005
  6
CONTINUOUS
 62
    2
 10
1188.5706
 20
1044.9236000000001
 40
1.1619999999999999
  0
CIRCLE
  8
_0-3_LAYER005
  6
CONTINUOUS
 62
    2
 10
1207.4716000000001
 20
1043.2806
 40
1.1619999999999999
  0
CIRCLE
  8
_0-3_LAYER005
  6
CONTINUOUS
 62
    2
 10
1216.2577000000001
 20
989.38940000000002
 40
1.1619999999999999
  0
CIRCLE
  8
_0-3_LAYER005
  6
CONTINUOUS
 62
    2
 10
1180.3535999999999
 20
1022.7366
 40
1.1619999999999999
  0
CIRCLE
  8
_0-3_LAYER005
  6
CONTINUOUS
 62
    2
 10
1211.0044
 20
1009.0046
 40
1.1619999999999999
  0
CIRCLE
  8
_0-3_LAYER005
  6
CONTINUOUS
 62
    2
 10
1182.8186000000001
 20
1055.6066000000001
 40
1.1619999999999999
  0
CIRCLE
  8
_0-3_LAYER005
  6
CONTINUOUS
 62
    2
 10
1194.3235999999999
 20
1051.4985999999999
 40
1.1619999999999999
  0
CIRCLE
  8
_0-3_LAYER005
  6
CONTINUOUS
 62
    2
 10
1153.9395999999999
 20
1021.7736
 40
1.1619999999999999
  0
CIRCLE
  8
_0-3_LAYER005
  6
CONTINUOUS
 62
    2
 10
1169.5455999999999
 20
1005.9336000000001
 40
1.1619999999999999
  0
CIRCLE
  8
_0-3_LAYER005
  6
CONTINUOUS
 62
    2
 10
1179.5316
 20
1016.9836
 40
1.1619999999999999
  0
CIRCLE
  8
_0-3_LAYER005
  6
CONTINUOUS
 62
    2
 10
1171.3136
 20
1021.0925999999999
 40
1.1619999999999999
  0
CIRCLE
  8
_0-3_LAYER005
  6
CONTINUOUS
 62
    2
 10
1162.2746
 20
1026.8456000000001
 40
1.1619999999999999
  0
CIRCLE
  8
_0-3_LAYER005
  6
CONTINUOUS
 62
    2
 10
1174.8082999999999
 20
1047.5888
 40
1.1619999999999999
  0
CIRCLE
  8
_0-3_LAYER005
  6
CONTINUOUS
 62
    2
 10
1163.9176
 20
1051.4985999999999
 40
1.1619999999999999
  0
CIRCLE
  8
_0-3_LAYER005
  6
CONTINUOUS
 62
    2
 10
1165.5616
 20
1053.1415999999999
 40
1.1619999999999999
  0
CIRCLE
  8
_0-3_LAYER005
  6
CONTINUOUS
 62
    2
 10
1170.4916000000001
 20
1053.1415999999999
 40
1.1619999999999999
  0
CIRCLE
  8
_0-3_LAYER005
  6
CONTINUOUS
 62
    2
 10
1185.2836
 20
1049.0326
 40
1.1619999999999999
  0
CIRCLE
  8
_0-3_LAYER005
  6
CONTINUOUS
 62
    2
 10
1207.0724
 20
989.221
 40
1.1619999999999999
  0
CIRCLE
  8
_0-3_LAYER005
  6
CONTINUOUS
 62
    2
 10
1193.1713
 20
1008.3521000000001
 40
1.1619999999999999
  0
CIRCLE
  8
_0-3_LAYER005
  6
CONTINUOUS
 62
    2
 10
1208.5383999999999
 20
1009.8266000000001
 40
1.1619999999999999
  0
CIRCLE
  8
_0-3_LAYER005
  6
CONTINUOUS
 62
    2
 10
1208.5341000000001
 20
1015.0527999999999
 40
1.1619999999999999
  0
CIRCLE
  8
_0-3_LAYER005
  6
CONTINUOUS
 62
    2
 10
1153.1176
 20
1040.6746000000001
 40
1.1619999999999999
  0
CIRCLE
  8
_0-3_LAYER005
  6
CONTINUOUS
 62
    2
 10
1155.5826
 20
1032.4566
 40
1.1619999999999999
  0
CIRCLE
  8
_0-3_LAYER005
  6
CONTINUOUS
 62
    2
 10
1158.0476000000001
 20
1020.9516000000001
 40
1.1619999999999999
  0
ARC
  8
_0-4_LAYER007
  6
CONTINUOUS
 62
    2
 10
1322.9143999999999
 20
998.24610000000007
 40
96.859999999999999
 50
169.12774000000002
 51
194.38803000000001
  0
CIRCLE
  8
_0-3_LAYER005
  6
CONTINUOUS
 62
    2
 10
1147.7836
 20
1070.6695999999999
 40
1.1619999999999999
  0
CIRCLE
  8
_0-3_LAYER005
  6
CONTINUOUS
 62
    2
 10
1147.2336
 20
1029.4426000000001
 40
1.1619999999999999
  0
LINE
  8
_0-2_LAYER004
  6
CONTINUOUS
 62
    2
 10
1140.9695999999999
 20
1208.8886
 11
1140.9695999999999
 21
1130.4340999999999
  0
LINE
  8
_0-0_LAYER001
  6
CONTINUOUS
 62
    2
 10
1136.0631000000001
 20
1224.9675
 11
1130.7598
 21
1219.6641999999999
  0
LINE
  8
_0-0_LAYER001
  6
CONTINUOUS
 62
    2
 10
1130.7598
 20
1219.6641999999999
 11
1132.701
 21
1226.9087
  0
LINE
  8
_0-0_LAYER001
  6
CONTINUOUS
 62
    2
 10
1130.7598
 20
1219.6641999999999
 11
1181.4976999999999
 21
1307.5448000000001
  0
LINE
  8
_0-0_LAYER001
  6
CONTINUOUS
 62
    2
 10
1181.4976999999999
 20
1307.5448000000001
 11
1262.4976999999999
 21
1307.5448000000001
  0
LINE
  8
_0-0_LAYER001
  6
CONTINUOUS
 62
    2
 10
1124.0633
 20
721.70630000000006
 11
1124.0633
 21
774.20630000000006
  0
CIRCLE
  8
_0-0_LAYER001
  6
CONTINUOUS
 62
    2
 10
1124.0633
 20
724.20630000000006
 40
1.6999999999999997
  0
LINE
  8
_0-0_LAYER001
  6
CONTINUOUS
 62
    2
 10
1124.0633
 20
724.20630000000006
 11
1344.0633
 21
724.20630000000006
  0
CIRCLE
  8
_0-0_LAYER001
  6
CONTINUOUS
 62
    2
 10
1344.0633
 20
724.20630000000006
 40
1.6999999999999997
  0
LINE
  8
_0-0_LAYER001
  6
CONTINUOUS
 62
    2
 10
1344.0633
 20
721.70630000000006
 11
1344.0633
 21
774.20630000000006
  0
CIRCLE
  8
_0-0_LAYER001
  6
CONTINUOUS
 62
    2
 10
1344.0633
 20
724.20630000000006
 40
1.6999999999999997
  0
LINE
  8
_0-0_LAYER001
  6
CONTINUOUS
 62
    2
 10
1344.0633
 20
724.20630000000006
 11
1609.0632999999998
 21
724.20630000000006
  0
CIRCLE
  8
_0-0_LAYER001
  6
CONTINUOUS
 62
    2
 10
1609.0632999999998
 20
724.20630000000006
 40
1.6999999999999997
  0
LINE
  8
_0-0_LAYER001
  6
CONTINUOUS
 62
    2
 10
1609.0632999999998
 20
721.70630000000006
 11
1609.0632999999998
 21
774.20630000000006
  0
CIRCLE
  8
_0-0_LAYER001
  6
CONTINUOUS
 62
    2
 10
1609.0632999999998
 20
724.20630000000006
 40
1.6999999999999997
  0
LINE
  8
_0-0_LAYER001
  6
CONTINUOUS
 62
    2
 10
1609.0632999999998
 20
724.20630000000006
 11
1874.0632999999998
 21
724.20630000000006
  0
CIRCLE
  8
_0-0_LAYER001
  6
CONTINUOUS
 62
    2
 10
1874.0632999999998
 20
724.20630000000006
 40
1.6999999999999997
  0
LINE
  8
_0-0_LAYER001
  6
CONTINUOUS
 62
    2
 10
1874.0632999999998
 20
721.70630000000006
 11
1874.0632999999998
 21
774.20630000000006
  0
CIRCLE
  8
_0-0_LAYER001
  6
CONTINUOUS
 62
    2
 10
1874.0632999999998
 20
724.20630000000006
 40
1.6999999999999997
  0
LINE
  8
_0-0_LAYER001
  6
CONTINUOUS
 62
    2
 10
1874.0632999999998
 20
724.20630000000006
 11
2139.0632999999998
 21
724.20630000000006
  0
CIRCLE
  8
_0-0_LAYER001
  6
CONTINUOUS
 62
    2
 10
2139.0632999999998
 20
724.20630000000006
 40
1.6999999999999997
  0
LINE
  8
_0-0_LAYER001
  6
CONTINUOUS
 62
    2
 10
2139.0632999999998
 20
721.70630000000006
 11
2139.0632999999998
 21
774.20630000000006
  0
LINE
  8
_0-1_LAYER003
  6
CONTINUOUS
 62
    7
 10
779.16300000000001
 20
1179.8886
 11
830.86300000000006
 21
1179.8886
  0
LINE
  8
_0-1_LAYER003
  6
CONTINUOUS
 62
    7
 10
780.86300000000006
 20
1179.8886
 11
780.86300000000006
 21
929.8886
  0
LINE
  8
_0-1_LAYER003
  6
CONTINUOUS
 62
    7
 10
779.16300000000001
 20
929.8886
 11
830.86300000000006
 21
929.8886
  0
LINE
  8
_0-1_LAYER003
  6
CONTINUOUS
 62
    7
 10
852.64689999999996
 20
846.93669999999997
 11
1086.6469
 21
846.93669999999997
  0
LINE
  8
_0-1_LAYER003
  6
CONTINUOUS
 62
    7
 10
1086.6469
 20
846.93669999999997
 11
1138.7355
 21
937.1567
  0
LINE
  8
_0-1_LAYER003
  6
CONTINUOUS
 62
    7
 10
1138.7355
 20
937.1567
 11
1133.4322
 21
931.85339999999997
  0
LINE
  8
_0-1_LAYER003
  6
CONTINUOUS
 62
    7
 10
1138.7355
 20
937.1567
 11
1136.7943
 21
929.91229999999996
  0
LINE
  8
_0-1_LAYER003
  6
CONTINUOUS
 62
    7
 10
1000.5316
 20
885.75320000000011
 11
1078.4929999999999
 21
885.75320000000011
  0
LINE
  8
_0-1_LAYER003
  6
CONTINUOUS
 62
    7
 10
1078.4929999999999
 20
885.75320000000011
 11
1155.3735999999999
 21
1018.9143999999999
  0
LINE
  8
_0-1_LAYER003
  6
CONTINUOUS
 62
    7
 10
1155.3735999999999
 20
1018.9143999999999
 11
1150.0703000000001
 21
1013.6111000000001
  0
LINE
  8
_0-1_LAYER003
  6
CONTINUOUS
 62
    7
 10
1155.3735999999999
 20
1018.9143999999999
 11
1153.4324999999999
 21
1011.6699000000001
  0
LINE
  8
_0-0_LAYER001
  6
CONTINUOUS
 62
    2
 10
1119.7219
 20
1087.1396999999999
 11
1095.6601577174424
 21
1128.8158000000001
  0
LINE
  8
_0-1_LAYER003
  6
CONTINUOUS
 62
    7
 10
960.85470000000009
 20
1128.8158000000001
 11
1095.6601577174424
 21
1128.8158000000001
  0
LINE
  8
_0-1_LAYER003
  6
CONTINUOUS
 62
    7
 10
1095.6601577174424
 20
1128.8158000000001
 11
1119.7219
 21
1087.1396999999999
  0
LINE
  8
_0-1_LAYER003
  6
CONTINUOUS
 62
    7
 10
1119.7219
 20
1087.1396999999999
 11
1118.2926
 21
1093.7711999999999
  0
LINE
  8
_0-1_LAYER003
  6
CONTINUOUS
 62
    7
 10
1119.7219
 20
1087.1396999999999
 11
1114.4186
 21
1092.443
  0
LINE
  8
_0-1_LAYER003
  6
CONTINUOUS
 62
    7
 10
1074.9067
 20
1078.2282
 11
1100.1796999999999
 21
1073.7723000000001
  0
LINE
  8
_0-1_LAYER003
  6
CONTINUOUS
 62
    7
 10
1100.1796999999999
 20
1073.7723000000001
 11
1075.0817999999999
 21
1069.3462
  0
LINE
  8
_0-1_LAYER003
  6
CONTINUOUS
 62
    7
 10
1075.0817999999999
 20
1069.3462
 11
1075.4797000000001
 21
1067.0813000000001
  0
LINE
  8
_0-1_LAYER003
  6
CONTINUOUS
 62
    7
 10
1075.4797000000001
 20
1067.0813000000001
 11
1077.2186999999999
 21
1065.8652
  0
LINE
  8
_0-1_LAYER003
  6
CONTINUOUS
 62
    7
 10
1077.2186999999999
 20
1065.8652
 11
1078.6958
 21
1066.1262999999999
  0
LINE
  8
_0-1_LAYER003
  6
CONTINUOUS
 62
    7
 10
1078.6958
 20
1066.1262999999999
 11
1078.3996999999999
 21
1067.7991999999999
  0
LINE
  8
_0-1_LAYER003
  6
CONTINUOUS
 62
    7
 10
1078.3996999999999
 20
1067.7991999999999
 11
1080.0738272037306
 21
1068.0940461918162
  0
LINE
  8
_0-1_LAYER003
  6
CONTINUOUS
 62
    7
 10
1080.0738272037306
 20
1068.0940461918162
 11
1080.3697
 21
1066.4212
  0
LINE
  8
_0-1_LAYER003
  6
CONTINUOUS
 62
    7
 10
1080.3697
 20
1066.4212
 11
1083.0288
 21
1066.8903
  0
LINE
  8
_0-1_LAYER003
  6
CONTINUOUS
 62
    7
 10
1083.0288
 20
1066.8903
 11
1082.7337
 21
1068.5633
  0
LINE
  8
_0-1_LAYER003
  6
CONTINUOUS
 62
    7
 10
1082.7337
 20
1068.5633
 11
1084.4077
 21
1068.8583000000001
  0
LINE
  8
_0-1_LAYER003
  6
CONTINUOUS
 62
    7
 10
1084.4077
 20
1068.8583000000001
 11
1084.7027
 21
1067.1851999999999
  0
LINE
  8
_0-1_LAYER003
  6
CONTINUOUS
 62
    7
 10
1084.7027
 20
1067.1851999999999
 11
1087.3619000000001
 21
1067.6541999999999
  0
LINE
  8
_0-1_LAYER003
  6
CONTINUOUS
 62
    7
 10
1087.3619000000001
 20
1067.6541999999999
 11
1087.0668000000001
 21
1069.3271999999999
  0
LINE
  8
_0-1_LAYER003
  6
CONTINUOUS
 62
    7
 10
1087.0668000000001
 20
1069.3271999999999
 11
1088.7407000000001
 21
1069.6222
  0
LINE
  8
_0-1_LAYER003
  6
CONTINUOUS
 62
    7
 10
1088.7407000000001
 20
1069.6222
 11
1089.0358000000001
 21
1067.9493
  0
LINE
  8
_0-1_LAYER003
  6
CONTINUOUS
 62
    7
 10
1089.0358000000001
 20
1067.9493
 11
1097.9558
 21
1069.5211999999999
  0
LINE
  8
_0-1_LAYER003
  6
CONTINUOUS
 62
    7
 10
1097.9558
 20
1069.5211999999999
 11
1115.9695999999999
 21
1069.5211999999999
  0
LINE
  8
_0-1_LAYER003
  6
CONTINUOUS
 62
    7
 10
1115.9695999999999
 20
1069.5211999999999
 11
1115.9695999999999
 21
1078.0211999999999
  0
LINE
  8
_0-1_LAYER003
  6
CONTINUOUS
 62
    7
 10
1115.9695999999999
 20
1078.0211999999999
 11
1097.9558
 21
1078.0211999999999
  0
LINE
  8
_0-1_LAYER003
  6
CONTINUOUS
 62
    7
 10
1097.9558
 20
1078.0211999999999
 11
1088.8619000000001
 21
1079.6252999999999
  0
LINE
  8
_0-1_LAYER003
  6
CONTINUOUS
 62
    7
 10
1088.8619000000001
 20
1079.6252999999999
 11
1088.5658000000001
 21
1077.9521999999999
  0
LINE
  8
_0-1_LAYER003
  6
CONTINUOUS
 62
    7
 10
1088.5658000000001
 20
1077.9521999999999
 11
1086.8928000000001
 21
1078.2473
  0
LINE
  8
_0-1_LAYER003
  6
CONTINUOUS
 62
    7
 10
1087.1877999999999
 20
1079.9212
 11
1084.5288
 21
1080.3892000000001
  0
LINE
  8
_0-1_LAYER003
  6
CONTINUOUS
 62
    7
 10
1084.5288
 20
1080.3892000000001
 11
1084.2327
 21
1078.7163
  0
LINE
  8
_0-1_LAYER003
  6
CONTINUOUS
 62
    7
 10
1084.2327
 20
1078.7163
 11
1082.5587
 21
1079.0111999999999
  0
LINE
  8
_0-1_LAYER003
  6
CONTINUOUS
 62
    7
 10
1082.5587
 20
1079.0111999999999
 11
1082.8547000000001
 21
1080.6853000000001
  0
LINE
  8
_0-1_LAYER003
  6
CONTINUOUS
 62
    7
 10
1082.8547000000001
 20
1080.6853000000001
 11
1080.1958
 21
1081.1542999999999
  0
LINE
  8
_0-1_LAYER003
  6
CONTINUOUS
 62
    7
 10
1080.1958
 20
1081.1542999999999
 11
1079.8997999999999
 21
1079.4802999999999
  0
LINE
  8
_0-1_LAYER003
  6
CONTINUOUS
 62
    7
 10
1079.8997999999999
 20
1079.4802999999999
 11
1078.2257
 21
1079.7752
  0
LINE
  8
_0-1_LAYER003
  6
CONTINUOUS
 62
    7
 10
1078.2257
 20
1079.7752
 11
1078.5217
 21
1081.4481000000001
  0
LINE
  8
_0-1_LAYER003
  6
CONTINUOUS
 62
    7
 10
1078.5217
 20
1081.4481000000001
 11
1077.0438999999999
 21
1081.7092
  0
LINE
  8
_0-1_LAYER003
  6
CONTINUOUS
 62
    7
 10
1077.0438999999999
 20
1081.7092
 11
1075.3067000000001
 21
1080.4943000000001
  0
LINE
  8
_0-1_LAYER003
  6
CONTINUOUS
 62
    7
 10
1075.3067000000001
 20
1080.4943000000001
 11
1074.9067
 21
1078.2282
  0
LINE
  8
_0-1_LAYER003
  6
CONTINUOUS
 62
    7
 10
1116.1557
 20
1076.7711999999999
 11
1140.1558
 21
1076.7711999999999
  0
LINE
  8
_0-1_LAYER003
  6
CONTINUOUS
 62
    7
 10
1140.1558
 20
1076.7711999999999
 11
1146.1557
 21
1079.7713000000001
  0
LINE
  8
_0-1_LAYER003
  6
CONTINUOUS
 62
    7
 10
1146.1557
 20
1079.7713000000001
 11
1146.1557
 21
1067.7710999999999
  0
LINE
  8
_0-1_LAYER003
  6
CONTINUOUS
 62
    7
 10
1146.1557
 20
1067.7710999999999
 11
1140.1558
 21
1070.7713000000001
  0
LINE
  8
_0-1_LAYER003
  6
CONTINUOUS
 62
    7
 10
1140.1558
 20
1070.7713000000001
 11
1140.1558
 21
1076.7711999999999
  0
LINE
  8
_0-1_LAYER003
  6
CONTINUOUS
 62
    7
 10
1140.1558
 20
1070.7713000000001
 11
1116.1557
 21
1070.7713000000001
  0
LINE
  8
_0-1_LAYER003
  6
CONTINUOUS
 62
    7
 10
1141.9191000000001
 20
1078.1903
 11
1156.7601
 21
1078.1903
  0
LINE
  8
_0-1_LAYER003
  6
CONTINUOUS
 62
    7
 10
1156.7601
 20
1078.1903
 11
1156.7601
 21
1060.8140353218496
  0
LINE
  8
_0-1_LAYER003
  6
CONTINUOUS
 62
    7
 10
1156.7601
 20
1059.9534000000001
 11
1156.7601
 21
1060.8140353218496
  0
LINE
  8
_0-1_LAYER003
  6
CONTINUOUS
 62
    7
 10
1141.9191000000001
 20
1078.1903
 11
1141.9191000000001
 21
1059.9534000000001
  0
LINE
  8
_0-1_LAYER003
  6
CONTINUOUS
 62
    7
 10
1141.9191000000001
 20
1059.9534000000001
 11
1156.7601
 21
1059.9534000000001
  0
LINE
  8
_0-1_LAYER003
  6
CONTINUOUS
 62
    7
 10
1115.9695999999999
 20
1069.5211999999999
 11
1116.1557
 21
1069.5211999999999
  0
LINE
  8
_0-1_LAYER003
  6
CONTINUOUS
 62
    7
 10
1116.1557
 20
1069.5211999999999
 11
1116.1557
 21
1078.0211999999999
  0
LINE
  8
_0-1_LAYER003
  6
CONTINUOUS
 62
    7
 10
1116.1557
 20
1078.0211999999999
 11
1115.9695999999999
 21
1078.0211999999999
  0
LINE
  8
_0-1_LAYER003
  6
CONTINUOUS
 62
    7
 10
1115.9695999999999
 20
1069.5211999999999
 11
1115.9695999999999
 21
929.8886
  0
LINE
  8
_0-1_LAYER003
  6
CONTINUOUS
 62
    7
 10
1115.9695999999999
 20
929.8886
 11
2204.6369
 21
929.8886
  0
LINE
  8
_0-1_LAYER003
  6
CONTINUOUS
 62
    7
 10
2204.6369
 20
932.38560000000007
 11
1118.2926
 21
932.38560000000007
  0
LINE
  8
_0-1_LAYER003
  6
CONTINUOUS
 62
    7
 10
1118.2926
 20
932.38560000000007
 11
1118.2926
 21
1179.8886
  0
LINE
  8
_0-1_LAYER003
  6
CONTINUOUS
 62
    7
 10
1115.9695999999999
 20
1228.8886
 11
1115.9695999999999
 21
929.8886
  0
LINE
  8
_0-1_LAYER003
  6
CONTINUOUS
 62
    7
 10
1121.6405999999999
 20
934.76060000000007
 11
1121.6405999999999
 21
1051.8886
  0
LINE
  8
_0-1_LAYER003
  6
CONTINUOUS
 62
    7
 10
1116.1557
 20
1053.7711999999999
 11
1146.1557
 21
1053.7711999999999
  0
LINE
  8
_0-1_LAYER003
  6
CONTINUOUS
 62
    7
 10
1146.1557
 20
1053.7711999999999
 11
1146.1557
 21
1090.7108433353321
  0
LINE
  8
_0-1_LAYER003
  6
CONTINUOUS
 62
    7
 10
1146.1557
 20
1090.7108433353321
 11
1127.8554999999999
 21
1093.7711999999999
  0
LINE
  8
_0-1_LAYER003
  6
CONTINUOUS
 62
    7
 10
1127.8554999999999
 20
1093.7711999999999
 11
1116.1557
 21
1093.7711999999999
  0
LINE
  8
_0-1_LAYER003
  6
CONTINUOUS
 62
    7
 10
1125.4636
 20
1094.5372
 11
1128.1666
 21
1109.2922000000001
  0
LINE
  8
_0-1_LAYER003
  6
CONTINUOUS
 62
    7
 10
1128.1666
 20
1109.2922000000001
 11
1216.6936000000001
 21
1093.0762
  0
LINE
  8
_0-1_LAYER003
  6
CONTINUOUS
 62
    7
 10
1216.6936000000001
 20
1093.0762
 11
1125.4636
 21
1094.5372
  0
LINE
  8
_0-1_LAYER003
  6
CONTINUOUS
 62
    7
 10
1213.9906000000001
 20
1078.3222000000001
 11
1216.6936000000001
 21
1093.0762
  0
LINE
  8
_0-1_LAYER003
  6
CONTINUOUS
 62
    7
 10
1227.5237999999999
 20
1080.3088
 11
1231.5175999999999
 21
1074.3246999999999
  0
LINE
  8
_0-1_LAYER003
  6
CONTINUOUS
 62
    7
 10
1231.5175999999999
 20
1074.3246999999999
 11
1230.9695999999999
 21
1092.4037000000001
  0
LINE
  8
_0-1_LAYER003
  6
CONTINUOUS
 62
    7
 10
1230.9695999999999
 20
1092.4037000000001
 11
1140.9695999999999
 21
1108.8886
  0
LINE
  8
_0-1_LAYER003
  6
CONTINUOUS
 62
    7
 10
1140.9695999999999
 20
1108.8886
 11
1140.9695999999999
 21
1208.8886
  0
LINE
  8
_0-1_LAYER003
  6
CONTINUOUS
 62
    7
 10
1140.9695999999999
 20
1208.8886
 11
1117.9627
 21
1208.9902
  0
LINE
  8
_0-1_LAYER003
  6
CONTINUOUS
 62
    7
 10
1115.9695999999999
 20
1228.8886
 11
1140.9695999999999
 21
1228.8886
  0
LINE
  8
_0-1_LAYER003
  6
CONTINUOUS
 62
    7
 10
1140.9695999999999
 20
1228.8886
 11
1140.9695999999999
 21
1471.0025999999998
  0
LINE
  8
_0-1_LAYER003
  6
CONTINUOUS
 62
    7
 10
1140.9695999999999
 20
1412.4456
 11
1021.6905999999999
 21
1293.1656
  0
LINE
  8
_0-1_LAYER003
  6
CONTINUOUS
 62
    7
 10
1140.9695999999999
 20
1401.1315999999999
 11
1021.6905999999999
 21
1281.8525999999999
  0
LINE
  8
_0-1_LAYER003
  6
CONTINUOUS
 62
    7
 10
1140.9695999999999
 20
1389.8176000000001
 11
1021.6905999999999
 21
1270.5386000000001
  0
LINE
  8
_0-1_LAYER003
  6
CONTINUOUS
 62
    7
 10
1262.4976999999999
 20
1307.5448000000001
 11
1181.4976999999999
 21
1307.5448000000001
  0
LINE
  8
_0-1_LAYER003
  6
CONTINUOUS
 62
    7
 10
1181.4976999999999
 20
1307.5448000000001
 11
1130.7598
 21
1219.6641999999999
  0
LINE
  8
_0-1_LAYER003
  6
CONTINUOUS
 62
    7
 10
1130.7598
 20
1219.6641999999999
 11
1132.701
 21
1226.9087
  0
LINE
  8
_0-1_LAYER003
  6
CONTINUOUS
 62
    7
 10
1130.7598
 20
1219.6641999999999
 11
1136.0631000000001
 21
1224.9675
  0
ARC
  8
_0-1_LAYER003
  6
CONTINUOUS
 62
    7
 10
1151.1922069189695
 20
1218.8886
 40
14.30040881302933
 50
135.63067644418021
 51
224.36932355581982
  0
LINE
  8
_0-1_LAYER003
  6
CONTINUOUS
 62
    7
 10
1140.9695999999999
 20
1147.731
 11
1230.9695999999999
 21
1147.731
  0
LINE
  8
_0-1_LAYER003
  6
CONTINUOUS
 62
    7
 10
1230.9695999999999
 20
1150.231
 11
1230.9695999999999
 21
1122.731
  0
LINE
  8
_0-1_LAYER003
  6
CONTINUOUS
 62
    7
 10
1148.6457
 20
1103.5659000000001
 11
1145.6169
 21
1103.2192
  0
LINE
  8
_0-1_LAYER003
  6
CONTINUOUS
 62
    7
 10
1145.6169
 20
1103.2192
 11
1134.2059999999999
 21
1078.7448999999999
  0
LINE
  8
_0-1_LAYER003
  6
CONTINUOUS
 62
    7
 10
1134.2059999999999
 20
1078.7448999999999
 11
1128.7497000000001
 21
1071.6769999999999
  0
LINE
  8
_0-1_LAYER003
  6
CONTINUOUS
 62
    7
 10
1128.7497000000001
 20
1071.6769999999999
 11
1130.8468
 21
1080.3112000000001
  0
LINE
  8
_0-1_LAYER003
  6
CONTINUOUS
 62
    7
 10
1130.8468
 20
1080.3112000000001
 11
1142.2574999999999
 21
1104.7840000000001
  0
LINE
  8
_0-1_LAYER003
  6
CONTINUOUS
 62
    7
 10
1142.2574999999999
 20
1104.7840000000001
 11
1140.575
 21
1107.3286000000001
  0
LINE
  8
_0-1_LAYER003
  6
CONTINUOUS
 62
    7
 10
1140.8077070308561
 20
1106.9766556845666
 11
1148.6457
 21
1103.5659000000001
  0
LINE
  8
_0-2_LAYER004
  6
CONTINUOUS
 62
    2
 10
1128.1666
 20
1109.2922000000001
 11
1125.4552027620155
 21
1094.4913615810349
  0
LINE
  8
_0-2_LAYER004
  6
CONTINUOUS
 62
    2
 10
1213.9906000000001
 20
1078.3222000000001
 11
1125.4552027620155
 21
1094.4913615810349
  0
LINE
  8
_0-1_LAYER003
  6
CONTINUOUS
 62
    7
 10
1125.4552027620155
 20
1094.4913615810349
 11
1213.9906000000001
 21
1078.3222000000001
  0
LINE
  8
_0-1_LAYER003
  6
CONTINUOUS
 62
    7
 10
1128.1666
 20
1109.2922000000001
 11
1125.4636
 21
1094.5372
  0
LINE
  8
_0-1_LAYER003
  6
CONTINUOUS
 62
    7
 10
1141.9191000000001
 20
1059.9534000000001
 11
1140.7872
 21
1056.1803
  0
LINE
  8
_0-1_LAYER003
  6
CONTINUOUS
 62
    7
 10
1140.7872
 20
1056.1803
 11
1161.5744
 21
1029.3213000000001
  0
LINE
  8
_0-1_LAYER003
  6
CONTINUOUS
 62
    7
 10
1161.5744
 20
1029.3213000000001
 11
1167.9538
 21
1028.7620999999999
  0
LINE
  8
_0-1_LAYER003
  6
CONTINUOUS
 62
    7
 10
1167.9538
 20
1028.7620999999999
 11
1167.9538
 21
1046.7474
  0
LINE
  8
_0-1_LAYER003
  6
CONTINUOUS
 62
    7
 10
1167.9538
 20
1046.7474
 11
1141.9191000000001
 21
1059.9534000000001
  0
LINE
  8
_0-1_LAYER003
  6
CONTINUOUS
 62
    7
 10
1121.6405999999999
 20
1051.8886
 11
1127.1481000000001
 21
1044.4193
  0
LINE
  8
_0-1_LAYER003
  6
CONTINUOUS
 62
    7
 10
1185.7503999999999
 20
1108.9553000000001
 11
1183.8092999999999
 21
1101.7108000000001
  0
LINE
  8
_0-1_LAYER003
  6
CONTINUOUS
 62
    7
 10
1183.8092999999999
 20
1101.7108000000001
 11
1189.1125999999999
 21
1107.0141000000001
  0
LINE
  8
_0-1_LAYER003
  6
CONTINUOUS
 62
    7
 10
1183.8092999999999
 20
1101.7108000000001
 11
1267.5387000000001
 21
1246.7345
  0
LINE
  8
_0-1_LAYER003
  6
CONTINUOUS
 62
    7
 10
1267.5387000000001
 20
1246.7345
 11
1501.5387000000001
 21
1246.7345
  0
LINE
  8
_0-1_LAYER003
  6
CONTINUOUS
 62
    7
 10
1402.3267000000001
 20
1210.6233999999999
 11
1271.8267000000001
 21
1210.6233999999999
  0
LINE
  8
_0-1_LAYER003
  6
CONTINUOUS
 62
    7
 10
1271.8267000000001
 20
1210.6233999999999
 11
1202.0807
 21
1089.8198
  0
LINE
  8
_0-1_LAYER003
  6
CONTINUOUS
 62
    7
 10
1202.0807
 20
1089.8198
 11
1204.0218
 21
1097.0642
  0
LINE
  8
_0-1_LAYER003
  6
CONTINUOUS
 62
    7
 10
1202.0807
 20
1089.8198
 11
1207.0952795824064
 21
1094.8343795824064
  0
LINE
  8
_0-1_LAYER003
  6
CONTINUOUS
 62
    7
 10
1238.9954
 20
1051.3021000000001
 11
1237.0542
 21
1044.0577000000001
  0
LINE
  8
_0-1_LAYER003
  6
CONTINUOUS
 62
    7
 10
1237.0542
 20
1044.0577000000001
 11
1242.3575000000001
 21
1049.3610000000001
  0
LINE
  8
_0-1_LAYER003
  6
CONTINUOUS
 62
    7
 10
1237.0542
 20
1044.0577000000001
 11
1297.9908
 21
1149.6030000000001
  0
LINE
  8
_0-1_LAYER003
  6
CONTINUOUS
 62
    7
 10
1297.9908
 20
1149.6030000000001
 11
1411.9908
 21
1149.6030000000001
  0
ARC
  8
_0-1_LAYER003
  6
CONTINUOUS
 62
    7
 10
1314.5079275356727
 20
997.98810105970745
 40
88.672158009963979
 50
167.93938156607956
 51
195.5763884339205
  0
LINE
  8
_0-1_LAYER003
  6
CONTINUOUS
 62
    7
 10
1237.3366000000001
 20
951.33130000000006
 11
1257.8806
 21
951.33130000000006
  0
LINE
  8
_0-1_LAYER003
  6
CONTINUOUS
 62
    7
 10
1257.8806
 20
951.33130000000006
 11
1257.8806
 21
934.76060000000007
  0
LINE
  8
_0-1_LAYER003
  6
CONTINUOUS
 62
    7
 10
1257.8806
 20
934.76060000000007
 11
1121.6405999999999
 21
934.76060000000007
  0
LINE
  8
_0-1_LAYER003
  6
CONTINUOUS
 62
    7
 10
1263.1556
 20
951.33130000000006
 11
1263.1556
 21
936.33130000000006
  0
LINE
  8
_0-1_LAYER003
  6
CONTINUOUS
 62
    7
 10
1263.1556
 20
936.33130000000006
 11
2204.6369
 21
936.33130000000006
  0
LINE
  8
_0-1_LAYER003
  6
CONTINUOUS
 62
    7
 10
2204.6369
 20
951.33130000000006
 11
1263.1556
 21
951.33130000000006
  0
LINE
  8
_0-1_LAYER003
  6
CONTINUOUS
 62
    7
 10
1115.9695999999999
 20
882.24299999999994
 11
1115.9695999999999
 21
832.24299999999994
  0
LINE
  8
_0-1_LAYER003
  6
CONTINUOUS
 62
    7
 10
1115.9695999999999
 20
832.24299999999994
 11
1115.9695999999999
 21
830.54299999999989
  0
LINE
  8
_0-1_LAYER003
  6
CONTINUOUS
 62
    7
 10
1115.9695999999999
 20
832.24299999999994
 11
1265.9695999999999
 21
832.24299999999994
  0
LINE
  8
_0-1_LAYER003
  6
CONTINUOUS
 62
    7
 10
1265.9695999999999
 20
830.54299999999989
 11
1265.9695999999999
 21
882.24299999999994
  0
LINE
  8
_0-1_LAYER003
  6
CONTINUOUS
 62
    7
 10
1115.9695999999999
 20
809.8886
 11
2204.6369
 21
809.8886
  0
LINE
  8
_0-1_LAYER003
  6
CONTINUOUS
 62
    7
 10
1932.7636000000002
 20
809.8886
 11
2052.7636000000002
 21
929.8886
  0
LINE
  8
_0-1_LAYER003
  6
CONTINUOUS
 62
    7
 10
1921.4506000000001
 20
809.8886
 11
2041.4506000000001
 21
929.8886
  0
LINE
  8
_0-1_LAYER003
  6
CONTINUOUS
 62
    7
 10
1910.1365999999998
 20
809.8886
 11
2030.1365999999998
 21
929.8886
  0
LINE
  8
_0-1_LAYER003
  6
CONTINUOUS
 62
    7
 10
2139.0632999999998
 20
774.20630000000006
 11
2139.0632999999998
 21
721.70630000000006
  0
LINE
  8
_0-1_LAYER003
  6
CONTINUOUS
 62
    7
 10
2137.3633
 20
724.20630000000006
 11
1124.0633
 21
724.20630000000006
  0
LINE
  8
_0-1_LAYER003
  6
CONTINUOUS
 62
    7
 10
1124.0633
 20
722.50630000000001
 11
1124.0633
 21
774.20630000000006
  0
LINE
  8
_0-1_LAYER003
  6
CONTINUOUS
 62
    7
 10
1344.0633
 20
722.50630000000001
 11
1344.0633
 21
774.20630000000006
  0
LINE
  8
_0-1_LAYER003
  6
CONTINUOUS
 62
    7
 10
1609.0632999999998
 20
722.50630000000001
 11
1609.0632999999998
 21
774.20630000000006
  0
LINE
  8
_0-1_LAYER003
  6
CONTINUOUS
 62
    7
 10
1874.0632999999998
 20
722.50630000000001
 11
1874.0195723219042
 21
774.3041437252798
  0
LINE
  8
_0-1_LAYER003
  6
CONTINUOUS
 62
    7
 10
2137.3633
 20
724.20630000000006
 11
2139.0632999999998
 21
724.20630000000006
  0
LINE
  8
_0-1_LAYER003
  6
CONTINUOUS
 62
    7
 10
1466.4605999999999
 20
929.8886
 11
1346.4606000000001
 21
809.8886
  0
LINE
  8
_0-1_LAYER003
  6
CONTINUOUS
 62
    7
 10
1335.1466
 20
809.8886
 11
1453.9223999999999
 21
928.66439999999989
  0
LINE
  8
_0-1_LAYER003
  6
CONTINUOUS
 62
    7
 10
1443.8326000000002
 20
929.8886
 11
1323.8326000000002
 21
809.8886
  0
LINE
  8
_0-1_LAYER003
  6
CONTINUOUS
 62
    7
 10
1717.7507999999998
 20
939.28790000000004
 11
1717.7507999999998
 21
931.78790000000004
  0
LINE
  8
_0-1_LAYER003
  6
CONTINUOUS
 62
    7
 10
1717.7507999999998
 20
939.28790000000004
 11
1721.5007999999998
 21
932.79269999999997
  0
LINE
  8
_0-1_LAYER003
  6
CONTINUOUS
 62
    7
 10
1717.7507999999998
 20
939.28790000000004
 11
1800.8928999999998
 21
628.9973
  0
LINE
  8
_0-1_LAYER003
  6
CONTINUOUS
 62
    7
 10
1792.5603999999998
 20
658.65650000000005
 11
1997.3831
 21
658.65650000000005
  0
LINE
  8
_0-1_LAYER003
  6
CONTINUOUS
 62
    7
 10
1706.7959000000001
 20
977.82680000000005
 11
1712.0992000000001
 21
983.13010000000008
  0
LINE
  8
_0-1_LAYER003
  6
CONTINUOUS
 62
    7
 10
1706.7959000000001
 20
977.82680000000005
 11
1708.7370999999998
 21
985.07130000000006
  0
LINE
  8
_0-1_LAYER003
  6
CONTINUOUS
 62
    7
 10
1706.7959000000001
 20
977.82680000000005
 11
1775.3638000000001
 21
1096.5898
  0
LINE
  8
_0-1_LAYER003
  6
CONTINUOUS
 62
    7
 10
1775.3638000000001
 20
1096.5898
 11
1815.8638000000001
 21
1096.5898
  0
CIRCLE
  8
_0-0_LAYER001
  6
CONTINUOUS
 62
    2
 10
909.55824891696409
 20
1108.8886
 40
1.6999999999999997
  0
LINE
  8
_0-0_LAYER001
  6
CONTINUOUS
 62
    2
 10
909.55824891696409
 20
1108.8886
 11
909.55824891696409
 21
1208.8886
  0
CIRCLE
  8
_0-0_LAYER001
  6
CONTINUOUS
 62
    2
 10
909.55824891696409
 20
1208.8886
 40
1.6999999999999997
  0
CIRCLE
  8
_0-0_LAYER001
  6
CONTINUOUS
 62
    2
 10
909.55824891696409
 20
1208.8886
 40
1.6999999999999997
  0
LINE
  8
_0-0_LAYER001
  6
CONTINUOUS
 62
    2
 10
909.55824891696409
 20
1208.8886
 11
909.55824891696409
 21
1228.8886
  0
CIRCLE
  8
_0-0_LAYER001
  6
CONTINUOUS
 62
    2
 10
909.55824891696409
 20
1228.8886
 40
1.6999999999999997
  0
LINE
  8
_0-1_LAYER003
  6
CONTINUOUS
 62
    7
 10
909.55824891696409
 20
1108.8886
 11
909.55824891696409
 21
1228.8886
  0
TEXT
  8
_0-1_LAYER003
 62
    7
 10
1176.8375977109556
 20
1157.69212621052
 40
20
 41
1
 50
0
  1
90
  0
TEXT
  8
_0-2_LAYER004
 62
    7
 10
764.46461747656997
 20
850.87137198335483
 40
20
 41
1
 50
0
  1
捨谷水切カラー鋼板0.35ｍｍ以上
  0
TEXT
  8
_0-2_LAYER004
 62
    7
 10
988.10944315991969
 20
890.41832286638623
 40
20
 41
1
 50
0
  1
葺　土　
  0
TEXT
  8
_0-2_LAYER004
 62
    7
 10
969.01781169914614
 20
1135.8821559334774
 40
20
 41
1
 50
0
  1
下地：40x30
  0
TEXT
  8
_0-2_LAYER004
 62
    7
 10
1275.84760303301
 20
1213.6123697380563
 40
20
 41
1
 50
0
  1
笠木：15x90
  0
TEXT
  8
_0-1_LAYER003
 62
    7
 10
1301.7576743012032
 20
1156.337475355735
 40
20
 41
1
 50
0
  1
熨斗瓦２段積み
  0
TEXT
  8
_0-2_LAYER004
 62
    7
 10
1776.3210848975796
 20
1101.7899568963817
 40
20
 41
1
 50
0
  1
桟　瓦
  0
TEXT
  8
_0-0_LAYER001
 62
    7
 10
1176.2983818446899
 20
841.32555625296789
 40
20
 41
1
 50
0
  1
150
  0
TEXT
  8
_0-2_LAYER004
 62
    7
 10
1225.3911484581081
 20
737.68527118019608
 40
20
 41
1
 50
0
  1
220
  0
TEXT
  8
_0-2_LAYER004
 62
    7
 10
1488.5829250244892
 20
740.41264710316364
 40
20
 41
1
 50
0
  1
265
  0
TEXT
  8
_0-2_LAYER004
 62
    7
 10
1729.955694207129
 20
740.41264710316364
 40
20
 41
1
 50
0
  1
265
  0
TEXT
  8
_0-2_LAYER004
 62
    7
 10
2002.6932865038971
 20
737.68527118019608
 40
20
 41
1
 50
0
  1
265
  0
TEXT
  8
_0-2_LAYER004
 62
    7
 10
1265.4964146186708
 20
1251.9567957181653
 40
20
 41
1
 50
0
  1
捨谷水切カラー鋼板０．３５ｍｍ以上
  0
TEXT
  8
_0-2_LAYER004
 62
    7
 10
1186.2245377151378
 20
1312.7680985482725
 40
20
 41
1
 50
0
  1
シーリング
  0
LINE
  8
_0-0_LAYER001
  6
CONTINUOUS
 62
    2
 10
907.05824891696409
 20
1228.8886
 11
923.43283619931617
 21
1228.8886
  0
LINE
  8
_0-1_LAYER003
  6
CONTINUOUS
 62
    7
 10
906.81344321684037
 20
1228.8886
 11
922.34692007734998
 21
1228.8886
  0
LINE
  8
_0-0_LAYER001
  6
CONTINUOUS
 62
    2
 10
907.05824891696409
 20
1208.8886
 11
922.34692007734998
 21
1208.8886
  0
LINE
  8
_0-1_LAYER003
  6
CONTINUOUS
 62
    7
 10
906.81344321684037
 20
1208.8886
 11
925.60466844324856
 21
1208.8886
  0
LINE
  8
_0-0_LAYER001
  6
CONTINUOUS
 62
    2
 10
907.05824891696409
 20
1108.8886
 11
922.34692007734998
 21
1108.8886
  0
LINE
  8
_0-1_LAYER003
  6
CONTINUOUS
 62
    7
 10
906.81344321684037
 20
1108.8886
 11
925.60466844324856
 21
1108.8886
  0
TEXT
  8
_0-2_LAYER004
 62
    7
 10
944.06524251667406
 20
1143.3651835215446
 40
20
 41
1
 50
90
  1
100
  0
TEXT
  8
_0-2_LAYER004
 62
    7
 10
944.06524251667406
 20
1205.2624024736183
 40
20
 41
1
 50
90
  1
20
  0
TEXT
  8
_0-2_LAYER004
 62
    7
 10
900.62859763802578
 20
1063.0073904960457
 40
20
 41
1
 50
90
  1
水切り立上がり寸法
  0
TEXT
  8
_0-1_LAYER003
 62
    7
 10
821.35672073449291
 20
1046.7186486665523
 40
20
 41
1
 50
90
  1
250
  0
TEXT
  8
_0-1_LAYER003
 62
    7
 10
764.8890823922502
 20
950.07211381156026
 40
20
 41
1
 50
90
  1
下葺き材立上がり寸法
  0
LINE
  8
_0-2_LAYER004
  6
CONTINUOUS
 62
    7
 10
852.64689999999996
 20
846.93669999999997
 11
762.71725014831782
 21
846.93669999999997
  0
LINE
  8
_0-2_LAYER004
  6
CONTINUOUS
 62
    7
 10
1262.4976999999999
 20
1307.5448000000001
 11
1305.6753111314201
 21
1307.5448000000001
  0
LINE
  8
_0-2_LAYER004
  6
CONTINUOUS
 62
    7
 10
1501.5387000000001
 20
1246.7345
 11
1635.7938122091466
 21
1246.7345
  0
LINE
  8
_0-2_LAYER004
  6
CONTINUOUS
 62
    7
 10
1411.9908
 20
1149.6030000000001
 11
1462.0472326945537
 21
1149.6030000000001
  0
LINE
  8
_0-2_LAYER004
  6
CONTINUOUS
 62
    7
 10
1815.8638000000001
 20
1096.5898
 11
1855.1488688463201
 21
1096.5898
  0
LINE
  8
_0-2_LAYER004
  6
CONTINUOUS
 62
    7
 10
1997.3831
 20
658.65650000000005
 11
2022.3799516291158
 21
658.65650000000005
  0
TEXT
  8
_0-2_LAYER004
 62
    7
 10
1794.0025795356837
 20
672.04643164230436
 40
20
 41
1
 50
0
  1
瓦桟：１５ｘ３０以上
  0
TEXT
  8
_0-2_LAYER004
 62
    7
 10
1799.110060189166
 20
633.74032674118655
 40
20
 41
1
 50
0
  1
下葺材：ルーフィング
  0
LINE
  8
_0-0_LAYER001
  6
CONTINUOUS
 62
    2
 10
1800.8928999999998
 20
628.9973
 11
1988.0868443680138
 21
628.9973
  0
LINE
  8
_0-0_LAYER001
  6
CONTINUOUS
 62
    2
 10
2010.8100601891658
 20
628.9973
 11
2137.4803000000002
 21
628.9973
  0
LINE
  8
_0-1_LAYER003
  6
CONTINUOUS
 62
    7
 10
2010.8100601891658
 20
628.9973
 11
1800.8928999999998
 21
628.9973
  0
ENDSEC
  0
EOF
