  0
SECTION
  2
HEADER
  9
$ACADVER
  1
AC1009
  9
$INSBASE
 10
0
 20
0
 30
0
  9
$EXTMIN
 10
0
 20
0
  9
$EXTMAX
 10
2970
 20
2100
  9
$LIMMIN
 10
0
 20
0
  9
$LIMMAX
 10
2970
 20
2100
  9
$LTSCALE
 40
10
  0
ENDSEC
  0
SECTION
  2
TABLES
  0
TABLE
  2
LTYPE
 70
     9
  0
LTYPE
  2
CONTINUOUS
 70
    64
  3
実線
 72
    65
 73
     0
 40
0.0
  0
LTYPE
  2
DASHED1
 70
    64
  3
--  --  --  --  --  --  --  --  
 72
    65
 73
     2
 40
2.5
 49
1.25
 49
-1.25
  0
LTYPE
  2
DASHED2
 70
    64
  3
----    ----    ----    ----    
 72
    65
 73
     2
 40
5.0
 49
2.5
 49
-2.5
  0
LTYPE
  2
DASHED3
 70
    64
  3
------  ------  ------  ------  
 72
    65
 73
     2
 40
5.0
 49
3.75
 49
-1.25
  0
LTYPE
  2
CENTER1
 70
    64
  3
----- - ----- - ----- - ----- - 
 72
    65
 73
     4
 40
10.0
 49
6.25
 49
-1.25
 49
1.25
 49
-1.25
  0
LTYPE
  2
CENTER2
 70
    64
  3
----------  --  ----------  --  
 72
    65
 73
     4
 40
20.0
 49
12.5
 49
-2.5
 49
2.5
 49
-2.5
  0
LTYPE
  2
PHANTOM1
 70
    64
  3
--- - - --- - - --- - - --- - - 
 72
    65
 73
     6
 40
10.0
 49
3.25
 49
-1.25
 49
1.25
 49
-1.25
 49
1.25
 49
-1.25
  0
LTYPE
  2
PHANTOM2
 70
    64
  3
--------  -  -  --------  -  -  
 72
    65
 73
     6
 40
20.0
 49
10.0
 49
-2.5
 49
1.25
 49
-2.5
 49
1.25
 49
-2.5
  0
LTYPE
  2
DOT
 70
    64
  3
-   -   -   -   -   -   -   -   
 72
    65
 73
     2
 40
2.5
 49
0.625
 49
-1.875
  0
LTYPE
  2
DUMMY
 70
    64
  3
ダミー
 72
    65
 73
     0
 40
0.0
  0
LTYPE
  2
RAND1
 70
    64
  3
ランダム線1
 72
    65
 73
     4
 40
10.0
 49
1.0
 49
-2.0
 49
3.0
 49
-4.0
  0
LTYPE
  2
RAND2
 70
    64
  3
ランダム線2
 72
    65
 73
     4
 40
14.0
 49
2.0
 49
-3.0
 49
4.0
 49
-5.0
  0
LTYPE
  2
RAND3
 70
    64
  3
ランダム線3
 72
    65
 73
     4
 40
18.0
 49
3.0
 49
-4.0
 49
5.0
 49
-6.0
  0
LTYPE
  2
RAND4
 70
    64
  3
ランダム線4
 72
    65
 73
     4
 40
22.0
 49
4.0
 49
-5.0
 49
6.0
 49
-7.0
  0
LTYPE
  2
RAND5
 70
    64
  3
ランダム線5
 72
    65
 73
     4
 40
26.0
 49
5.0
 49
-6.0
 49
7.0
 49
-8.0
  0
LTYPE
  2
LONG1
 70
    64
  3
----------  --  ----------  --  
 72
    65
 73
     4
 40
40.0
 49
32.5
 49
-2.5
 49
2.5
 49
-2.5
  0
LTYPE
  2
LONG2
 70
    64
  3
--------  -  -  --------  -  -  
 72
    65
 73
     6
 40
40.0
 49
30.0
 49
-2.5
 49
1.25
 49
-2.5
 49
1.25
 49
-2.5
  0
LTYPE
  2
LONG3
 70
    64
  3
+++++++++++++++..+++++++++++++++
 72
    65
 73
     2
 40
40.0
 49
37.5
 49
-2.5
  0
LTYPE
  2
LONG4
 70
    64
  3
+++++++++++++++..+++++++++++++++
 72
    65
 73
     2
 40
80.0
 49
75.0
 49
-5.0
  0
LTYPE
  2
LONG5
 70
    64
  3
----------  --  ----------  --  
 72
    65
 73
     4
 40
60.0
 49
37.5
 49
-7.5
 49
7.5
 49
-7.5
  0
LTYPE
  2
dashed
 70
   64
  3
-------   -------------   ------
 72
   65
 73
    2
 40
7.5
 49
6
 49
-1.5
  0
LTYPE
  2
dashed_spaced
 70
   64
  3
----        --------        ----
 72
   65
 73
    2
 40
12
 49
6
 49
-6
  0
LTYPE
  2
long_dashed_dotted
 70
   64
  3
------------- --- --------------
 72
   65
 73
    4
 40
15.25
 49
12
 49
-1.5
 49
0.25
 49
-1.5
  0
LTYPE
  2
long_dashed_double-dotted
 70
   64
  3
----------- --- --- ------------
 72
   65
 73
    6
 40
17
 49
12
 49
-1.5
 49
0.25
 49
-1.5
 49
0.25
 49
-1.5
  0
LTYPE
  2
long_dashed_triplicate-dotted
 70
   64
  3
--------- --- --- --- ----------
 72
   65
 73
    8
 40
18.75
 49
12
 49
-1.5
 49
0.25
 49
-1.5
 49
0.25
 49
-1.5
 49
0.25
 49
-1.5
  0
LTYPE
  2
dotted
 70
   64
  3
   -       -       -       -    
 72
   65
 73
    2
 40
1.75
 49
0.25
 49
-1.5
  0
LTYPE
  2
chain
 70
   64
  3
-------------- -- --------------
 72
   65
 73
    4
 40
18.5
 49
12
 49
-1.5
 49
3.5
 49
-1.5
  0
LTYPE
  2
chain_double_dash
 70
   64
  3
------------ -- -- -------------
 72
   65
 73
    6
 40
23.5
 49
12
 49
-1.5
 49
3.5
 49
-1.5
 49
3.5
 49
-1.5
  0
LTYPE
  2
dashed_dotted
 70
   64
  3
-----------     -     ----------
 72
   65
 73
    4
 40
9.25
 49
6
 49
-1.5
 49
0.25
 49
-1.5
  0
LTYPE
  2
double-dashed_dotted
 70
   64
  3
------   -----------   -   -----
 72
   65
 73
    6
 40
16.75
 49
6
 49
-1.5
 49
6
 49
-1.5
 49
0.25
 49
-1.5
  0
LTYPE
  2
dashed_double-dotted
 70
   64
  3
---------    -    -    ---------
 72
   65
 73
    6
 40
11
 49
6
 49
-1.5
 49
0.25
 49
-1.5
 49
0.25
 49
-1.5
  0
LTYPE
  2
double-dashed_double-dotted
 70
   64
  3
-----   ---------   -   -   ----
 72
   65
 73
    8
 40
18.5
 49
6
 49
-1.5
 49
6
 49
-1.5
 49
0.25
 49
-1.5
 49
0.25
 49
-1.5
  0
LTYPE
  2
dashed_triplicate-dotted
 70
   64
  3
-------    -    -    -    ------
 72
   65
 73
    8
 40
12.75
 49
6
 49
-1.5
 49
0.25
 49
-1.5
 49
0.25
 49
-1.5
 49
0.25
 49
-1.5
  0
LTYPE
  2
double-dashed_triplicate-dotted
 70
   64
  3
-----  ---------  -  -  -  -----
 72
   65
 73
   10
 40
20.25
 49
6
 49
-1.5
 49
6
 49
-1.5
 49
0.25
 49
-1.5
 49
0.25
 49
-1.5
 49
0.25
 49
-1.5
  0
LTYPE
  2
undefined
 70
   64
  3
--------------------------------
 72
   65
 73
    0
 40
0
  0
ENDTAB
  0
TABLE
  2
STYLE
  5
3
100
AcDbSymbolTable
 70
     1
  0
STYLE
  5
10
100
AcDbSymbolTableRecord
100
AcDbTextStyleTableRecord
  2
STANDARD
 70
     0
 40
0.0
 41
1.0
 50
0.0
 71
     0
 42
0.2
  3
txt
  4
bigfont.shx
  0
STYLE
  5
26
100
AcDbSymbolTableRecord
100
AcDbTextStyleTableRecord
  2
TATEGAKI
 70
    68
 40
0.0
 41
1.0
 50
0.0
 71
     0
 42
1.0
  3
txt
  4
bigfont.shx
  0
ENDTAB
  0
TABLE
  2
LAYER
 70
    6
  0
LAYER
  2
_0-0_LAYER001
 70
   64
 62
    7
  6
CONTINUOUS
  0
LAYER
  2
_0-1_LAYER003
 70
   64
 62
    7
  6
CONTINUOUS
  0
LAYER
  2
_0-2_LAYER004
 70
   64
 62
    7
  6
CONTINUOUS
  0
LAYER
  2
_0-3_LAYER005
 70
   64
 62
    7
  6
CONTINUOUS
  0
LAYER
  2
_0-4_LAYER007
 70
   64
 62
    7
  6
CONTINUOUS
  0
LAYER
  2
ADD_LINE
 70
   64
 62
    7
  6
CONTINUOUS
  0
ENDTAB
  0
ENDSEC
  0
SECTION
  2
BLOCKS
  0
ENDSEC
  0
SECTION
  2
ENTITIES
  0
LINE
  8
_0-0_LAYER001
  6
CONTINUOUS
 62
    2
 10
840.74279999999999
 20
940.49050000000011
 11
1869.6628000000001
 21
940.49050000000011
  0
LINE
  8
_0-0_LAYER001
  6
CONTINUOUS
 62
    1
 10
1857.9470999999999
 20
940.49050000000011
 11
1869.6628000000001
 21
952.20620000000008
  0
LINE
  8
_0-0_LAYER001
  6
CONTINUOUS
 62
    1
 10
1843.8049999999998
 20
940.49050000000011
 11
1869.6628000000001
 21
966.34840000000008
  0
LINE
  8
_0-0_LAYER001
  6
CONTINUOUS
 62
    1
 10
1829.6628000000001
 20
940.49050000000011
 11
1869.6628000000001
 21
980.49050000000011
  0
LINE
  8
_0-0_LAYER001
  6
CONTINUOUS
 62
    1
 10
1815.5207
 20
940.49050000000011
 11
1855.5207
 21
980.49050000000011
  0
LINE
  8
_0-0_LAYER001
  6
CONTINUOUS
 62
    1
 10
1801.3786
 20
940.49050000000011
 11
1841.3786
 21
980.49050000000011
  0
LINE
  8
_0-0_LAYER001
  6
CONTINUOUS
 62
    1
 10
1787.2363999999998
 20
940.49050000000011
 11
1827.2363999999998
 21
980.49050000000011
  0
LINE
  8
_0-0_LAYER001
  6
CONTINUOUS
 62
    1
 10
1773.0943000000002
 20
940.49050000000011
 11
1813.0943000000002
 21
980.49050000000011
  0
LINE
  8
_0-0_LAYER001
  6
CONTINUOUS
 62
    1
 10
1758.9522000000002
 20
940.49050000000011
 11
1798.9522000000002
 21
980.49050000000011
  0
LINE
  8
_0-0_LAYER001
  6
CONTINUOUS
 62
    1
 10
1744.8099999999999
 20
940.49050000000011
 11
1784.8099999999999
 21
980.49050000000011
  0
LINE
  8
_0-0_LAYER001
  6
CONTINUOUS
 62
    1
 10
1730.6678999999999
 20
940.49050000000011
 11
1770.6678999999999
 21
980.49050000000011
  0
LINE
  8
_0-0_LAYER001
  6
CONTINUOUS
 62
    1
 10
1716.5257000000001
 20
940.49050000000011
 11
1756.5257000000001
 21
980.49050000000011
  0
LINE
  8
_0-0_LAYER001
  6
CONTINUOUS
 62
    1
 10
1702.3836000000001
 20
940.49050000000011
 11
1742.3836000000001
 21
980.49050000000011
  0
LINE
  8
_0-0_LAYER001
  6
CONTINUOUS
 62
    1
 10
1688.2415000000001
 20
940.49050000000011
 11
1728.2415000000001
 21
980.49050000000011
  0
LINE
  8
_0-0_LAYER001
  6
CONTINUOUS
 62
    1
 10
1674.0992999999999
 20
940.49050000000011
 11
1714.0992999999999
 21
980.49050000000011
  0
LINE
  8
_0-0_LAYER001
  6
CONTINUOUS
 62
    1
 10
1659.9571999999998
 20
940.49050000000011
 11
1699.9571999999998
 21
980.49050000000011
  0
LINE
  8
_0-0_LAYER001
  6
CONTINUOUS
 62
    1
 10
1645.8150999999998
 20
940.49050000000011
 11
1685.8150999999998
 21
980.49050000000011
  0
LINE
  8
_0-0_LAYER001
  6
CONTINUOUS
 62
    1
 10
1631.6729
 20
940.49050000000011
 11
1671.6729
 21
980.49050000000011
  0
LINE
  8
_0-0_LAYER001
  6
CONTINUOUS
 62
    1
 10
1617.5308
 20
940.49050000000011
 11
1657.5308
 21
980.49050000000011
  0
LINE
  8
_0-0_LAYER001
  6
CONTINUOUS
 62
    1
 10
1603.3887
 20
940.49050000000011
 11
1643.3887
 21
980.49050000000011
  0
LINE
  8
_0-0_LAYER001
  6
CONTINUOUS
 62
    1
 10
1589.2465000000002
 20
940.49050000000011
 11
1629.2465000000002
 21
980.49050000000011
  0
LINE
  8
_0-0_LAYER001
  6
CONTINUOUS
 62
    1
 10
1575.1044000000002
 20
940.49050000000011
 11
1615.1044000000002
 21
980.49050000000011
  0
LINE
  8
_0-0_LAYER001
  6
CONTINUOUS
 62
    1
 10
1560.9623000000001
 20
940.49050000000011
 11
1600.9623000000001
 21
980.49050000000011
  0
LINE
  8
_0-0_LAYER001
  6
CONTINUOUS
 62
    1
 10
1546.8200999999999
 20
940.49050000000011
 11
1586.8200999999999
 21
980.49050000000011
  0
LINE
  8
_0-0_LAYER001
  6
CONTINUOUS
 62
    1
 10
1532.6779999999999
 20
940.49050000000011
 11
1572.6779999999999
 21
980.49050000000011
  0
LINE
  8
_0-0_LAYER001
  6
CONTINUOUS
 62
    1
 10
1518.5358999999999
 20
940.49050000000011
 11
1558.5358999999999
 21
980.49050000000011
  0
LINE
  8
_0-0_LAYER001
  6
CONTINUOUS
 62
    1
 10
1504.3937000000001
 20
940.49050000000011
 11
1544.3937000000001
 21
980.49050000000011
  0
LINE
  8
_0-0_LAYER001
  6
CONTINUOUS
 62
    1
 10
1490.2516000000001
 20
940.49050000000011
 11
1530.2516000000001
 21
980.49050000000011
  0
LINE
  8
_0-0_LAYER001
  6
CONTINUOUS
 62
    1
 10
1476.1093999999998
 20
940.49050000000011
 11
1516.1093999999998
 21
980.49050000000011
  0
LINE
  8
_0-0_LAYER001
  6
CONTINUOUS
 62
    1
 10
1461.9672999999998
 20
940.49050000000011
 11
1501.9672999999998
 21
980.49050000000011
  0
LINE
  8
_0-0_LAYER001
  6
CONTINUOUS
 62
    1
 10
1447.8252000000002
 20
940.49050000000011
 11
1487.8252000000002
 21
980.49050000000011
  0
LINE
  8
_0-0_LAYER001
  6
CONTINUOUS
 62
    1
 10
1433.683
 20
940.49050000000011
 11
1473.683
 21
980.49050000000011
  0
LINE
  8
_0-0_LAYER001
  6
CONTINUOUS
 62
    1
 10
1419.5409
 20
940.49050000000011
 11
1459.5409
 21
980.49050000000011
  0
LINE
  8
_0-0_LAYER001
  6
CONTINUOUS
 62
    1
 10
1405.3987999999999
 20
940.49050000000011
 11
1445.3987999999999
 21
980.49050000000011
  0
LINE
  8
_0-0_LAYER001
  6
CONTINUOUS
 62
    1
 10
1391.2565999999997
 20
940.49050000000011
 11
1431.2566000000002
 21
980.49050000000011
  0
LINE
  8
_0-0_LAYER001
  6
CONTINUOUS
 62
    1
 10
1377.1144999999999
 20
940.49050000000011
 11
1417.1144999999999
 21
980.49050000000011
  0
LINE
  8
_0-0_LAYER001
  6
CONTINUOUS
 62
    1
 10
1362.9724000000001
 20
940.49050000000011
 11
1402.9724000000001
 21
980.49050000000011
  0
LINE
  8
_0-0_LAYER001
  6
CONTINUOUS
 62
    1
 10
1348.8302000000001
 20
940.49050000000011
 11
1388.8302000000001
 21
980.49050000000011
  0
LINE
  8
_0-0_LAYER001
  6
CONTINUOUS
 62
    1
 10
1334.6881000000003
 20
940.49050000000011
 11
1374.6881000000003
 21
980.49050000000011
  0
LINE
  8
_0-0_LAYER001
  6
CONTINUOUS
 62
    1
 10
1320.5459999999998
 20
940.49050000000011
 11
1360.5459999999998
 21
980.49050000000011
  0
LINE
  8
_0-0_LAYER001
  6
CONTINUOUS
 62
    1
 10
1306.4038
 20
940.49050000000011
 11
1346.4038
 21
980.49050000000011
  0
LINE
  8
_0-0_LAYER001
  6
CONTINUOUS
 62
    1
 10
1292.2617
 20
940.49050000000011
 11
1332.2617
 21
980.49050000000011
  0
LINE
  8
_0-0_LAYER001
  6
CONTINUOUS
 62
    1
 10
1278.1195
 20
940.49050000000011
 11
1318.1195
 21
980.49050000000011
  0
LINE
  8
_0-0_LAYER001
  6
CONTINUOUS
 62
    1
 10
1263.9774
 20
940.49050000000011
 11
1303.9774
 21
980.49050000000011
  0
LINE
  8
_0-0_LAYER001
  6
CONTINUOUS
 62
    1
 10
1249.8353
 20
940.49050000000011
 11
1289.8353
 21
980.49050000000011
  0
LINE
  8
_0-0_LAYER001
  6
CONTINUOUS
 62
    1
 10
1235.6931
 20
940.49050000000011
 11
1275.6931
 21
980.49050000000011
  0
LINE
  8
_0-0_LAYER001
  6
CONTINUOUS
 62
    1
 10
1221.5509999999999
 20
940.49050000000011
 11
1261.5509999999999
 21
980.49050000000011
  0
LINE
  8
_0-0_LAYER001
  6
CONTINUOUS
 62
    1
 10
1207.4088999999999
 20
940.49050000000011
 11
1247.4088999999999
 21
980.49050000000011
  0
LINE
  8
_0-0_LAYER001
  6
CONTINUOUS
 62
    1
 10
1193.2666999999999
 20
940.49050000000011
 11
1233.2666999999999
 21
980.49050000000011
  0
LINE
  8
_0-0_LAYER001
  6
CONTINUOUS
 62
    1
 10
1179.1246000000001
 20
940.49050000000011
 11
1219.1246000000001
 21
980.49050000000011
  0
LINE
  8
_0-0_LAYER001
  6
CONTINUOUS
 62
    1
 10
1164.9825000000001
 20
940.49050000000011
 11
1204.9825000000001
 21
980.49050000000011
  0
LINE
  8
_0-0_LAYER001
  6
CONTINUOUS
 62
    1
 10
1150.8403000000001
 20
940.49050000000011
 11
1190.8403000000001
 21
980.49050000000011
  0
LINE
  8
_0-0_LAYER001
  6
CONTINUOUS
 62
    1
 10
1136.6982
 20
940.49050000000011
 11
1176.6982
 21
980.49050000000011
  0
LINE
  8
_0-0_LAYER001
  6
CONTINUOUS
 62
    1
 10
1122.5561
 20
940.49050000000011
 11
1162.5561
 21
980.49050000000011
  0
LINE
  8
_0-0_LAYER001
  6
CONTINUOUS
 62
    1
 10
1108.4139
 20
940.49050000000011
 11
1148.4139
 21
980.49050000000011
  0
LINE
  8
_0-0_LAYER001
  6
CONTINUOUS
 62
    1
 10
1094.2718
 20
940.49050000000011
 11
1134.2718
 21
980.49050000000011
  0
LINE
  8
_0-0_LAYER001
  6
CONTINUOUS
 62
    1
 10
1080.1296
 20
940.49050000000011
 11
1120.1296
 21
980.49050000000011
  0
LINE
  8
_0-0_LAYER001
  6
CONTINUOUS
 62
    1
 10
1065.9875
 20
940.49050000000011
 11
1105.9875
 21
980.49050000000011
  0
LINE
  8
_0-0_LAYER001
  6
CONTINUOUS
 62
    1
 10
1051.8453999999999
 20
940.49050000000011
 11
1091.8453999999999
 21
980.49050000000011
  0
LINE
  8
_0-0_LAYER001
  6
CONTINUOUS
 62
    1
 10
1037.7031999999999
 20
940.49050000000011
 11
1077.7031999999999
 21
980.49050000000011
  0
LINE
  8
_0-0_LAYER001
  6
CONTINUOUS
 62
    1
 10
1023.5610999999999
 20
940.49050000000011
 11
1063.5610999999999
 21
980.49050000000011
  0
LINE
  8
_0-0_LAYER001
  6
CONTINUOUS
 62
    1
 10
1009.4190000000001
 20
940.49050000000011
 11
1049.4190000000001
 21
980.49050000000011
  0
LINE
  8
_0-0_LAYER001
  6
CONTINUOUS
 62
    1
 10
995.27680000000009
 20
940.49050000000011
 11
1035.2768000000001
 21
980.49050000000011
  0
LINE
  8
_0-0_LAYER001
  6
CONTINUOUS
 62
    1
 10
981.13470000000007
 20
940.49050000000011
 11
1021.1347000000001
 21
980.49050000000011
  0
LINE
  8
_0-0_LAYER001
  6
CONTINUOUS
 62
    1
 10
966.99260000000004
 20
940.49050000000011
 11
1006.9926
 21
980.49050000000011
  0
LINE
  8
_0-0_LAYER001
  6
CONTINUOUS
 62
    1
 10
952.85040000000004
 20
940.49050000000011
 11
992.85040000000004
 21
980.49050000000011
  0
LINE
  8
_0-0_LAYER001
  6
CONTINUOUS
 62
    1
 10
938.70830000000001
 20
940.49050000000011
 11
978.70830000000001
 21
980.49050000000011
  0
LINE
  8
_0-0_LAYER001
  6
CONTINUOUS
 62
    1
 10
924.56619999999998
 20
940.49050000000011
 11
964.56619999999998
 21
980.49050000000011
  0
LINE
  8
_0-0_LAYER001
  6
CONTINUOUS
 62
    1
 10
910.42399999999998
 20
940.49050000000011
 11
950.42399999999998
 21
980.49050000000011
  0
LINE
  8
_0-0_LAYER001
  6
CONTINUOUS
 62
    1
 10
896.28189999999995
 20
940.49050000000011
 11
936.28189999999995
 21
980.49050000000011
  0
LINE
  8
_0-0_LAYER001
  6
CONTINUOUS
 62
    1
 10
882.13969999999995
 20
940.49050000000011
 11
922.13969999999995
 21
980.49050000000011
  0
LINE
  8
_0-0_LAYER001
  6
CONTINUOUS
 62
    1
 10
867.99759999999992
 20
940.49050000000011
 11
907.99759999999992
 21
980.49050000000011
  0
LINE
  8
_0-0_LAYER001
  6
CONTINUOUS
 62
    1
 10
853.85549999999989
 20
940.49050000000011
 11
893.85549999999989
 21
980.49050000000011
  0
LINE
  8
_0-0_LAYER001
  6
CONTINUOUS
 62
    1
 10
840.74279999999999
 20
941.51999999999998
 11
879.71329999999989
 21
980.49050000000011
  0
LINE
  8
_0-0_LAYER001
  6
CONTINUOUS
 62
    1
 10
840.74279999999999
 20
955.66210000000001
 11
865.57120000000009
 21
980.49050000000011
  0
LINE
  8
_0-0_LAYER001
  6
CONTINUOUS
 62
    1
 10
840.74279999999999
 20
969.80430000000001
 11
851.42910000000006
 21
980.49050000000011
  0
LINE
  8
_0-0_LAYER001
  6
CONTINUOUS
 62
    1
 10
840.74279999999999
 20
948.75029999999992
 11
849.0027
 21
940.49050000000011
  0
LINE
  8
_0-0_LAYER001
  6
CONTINUOUS
 62
    1
 10
840.74279999999999
 20
962.89249999999993
 11
863.14480000000003
 21
940.49050000000011
  0
LINE
  8
_0-0_LAYER001
  6
CONTINUOUS
 62
    1
 10
840.74279999999999
 20
977.03459999999995
 11
877.28690000000006
 21
940.49050000000011
  0
LINE
  8
_0-0_LAYER001
  6
CONTINUOUS
 62
    1
 10
851.42910000000006
 20
980.49050000000011
 11
891.42910000000006
 21
940.49050000000011
  0
LINE
  8
_0-0_LAYER001
  6
CONTINUOUS
 62
    1
 10
865.57120000000009
 20
980.49050000000011
 11
905.57120000000009
 21
940.49050000000011
  0
LINE
  8
_0-0_LAYER001
  6
CONTINUOUS
 62
    1
 10
879.71329999999989
 20
980.49050000000011
 11
919.71329999999989
 21
940.49050000000011
  0
LINE
  8
_0-0_LAYER001
  6
CONTINUOUS
 62
    1
 10
893.85549999999989
 20
980.49050000000011
 11
933.85549999999989
 21
940.49050000000011
  0
LINE
  8
_0-0_LAYER001
  6
CONTINUOUS
 62
    1
 10
907.99759999999992
 20
980.49050000000011
 11
947.99759999999992
 21
940.49050000000011
  0
LINE
  8
_0-0_LAYER001
  6
CONTINUOUS
 62
    1
 10
922.13969999999995
 20
980.49050000000011
 11
962.13969999999995
 21
940.49050000000011
  0
LINE
  8
_0-0_LAYER001
  6
CONTINUOUS
 62
    1
 10
936.28189999999995
 20
980.49050000000011
 11
976.28189999999995
 21
940.49050000000011
  0
LINE
  8
_0-0_LAYER001
  6
CONTINUOUS
 62
    1
 10
950.42399999999998
 20
980.49050000000011
 11
990.42399999999998
 21
940.49050000000011
  0
LINE
  8
_0-0_LAYER001
  6
CONTINUOUS
 62
    1
 10
964.56619999999998
 20
980.49050000000011
 11
1004.5662
 21
940.49050000000011
  0
LINE
  8
_0-0_LAYER001
  6
CONTINUOUS
 62
    1
 10
978.70830000000001
 20
980.49050000000011
 11
1018.7083
 21
940.49050000000011
  0
LINE
  8
_0-0_LAYER001
  6
CONTINUOUS
 62
    1
 10
992.85040000000004
 20
980.49050000000011
 11
1032.8504
 21
940.49050000000011
  0
LINE
  8
_0-0_LAYER001
  6
CONTINUOUS
 62
    1
 10
1006.9926
 20
980.49050000000011
 11
1046.9926
 21
940.49050000000011
  0
LINE
  8
_0-0_LAYER001
  6
CONTINUOUS
 62
    1
 10
1021.1347000000001
 20
980.49050000000011
 11
1061.1347000000001
 21
940.49050000000011
  0
LINE
  8
_0-0_LAYER001
  6
CONTINUOUS
 62
    1
 10
1035.2768000000001
 20
980.49050000000011
 11
1075.2768000000001
 21
940.49050000000011
  0
LINE
  8
_0-0_LAYER001
  6
CONTINUOUS
 62
    1
 10
1049.4190000000001
 20
980.49050000000011
 11
1089.4190000000001
 21
940.49050000000011
  0
LINE
  8
_0-0_LAYER001
  6
CONTINUOUS
 62
    1
 10
1063.5610999999999
 20
980.49050000000011
 11
1103.5610999999999
 21
940.49050000000011
  0
LINE
  8
_0-0_LAYER001
  6
CONTINUOUS
 62
    1
 10
1077.7031999999999
 20
980.49050000000011
 11
1117.7031999999999
 21
940.49050000000011
  0
LINE
  8
_0-0_LAYER001
  6
CONTINUOUS
 62
    1
 10
1091.8453999999999
 20
980.49050000000011
 11
1131.8453999999999
 21
940.49050000000011
  0
LINE
  8
_0-0_LAYER001
  6
CONTINUOUS
 62
    1
 10
1105.9875
 20
980.49050000000011
 11
1145.9875
 21
940.49050000000011
  0
LINE
  8
_0-0_LAYER001
  6
CONTINUOUS
 62
    1
 10
1120.1296
 20
980.49050000000011
 11
1160.1296
 21
940.49050000000011
  0
LINE
  8
_0-0_LAYER001
  6
CONTINUOUS
 62
    1
 10
1134.2718
 20
980.49050000000011
 11
1174.2718
 21
940.49050000000011
  0
LINE
  8
_0-0_LAYER001
  6
CONTINUOUS
 62
    1
 10
1148.4139
 20
980.49050000000011
 11
1188.4139
 21
940.49050000000011
  0
LINE
  8
_0-0_LAYER001
  6
CONTINUOUS
 62
    1
 10
1162.5561
 20
980.49050000000011
 11
1202.5561
 21
940.49050000000011
  0
LINE
  8
_0-0_LAYER001
  6
CONTINUOUS
 62
    1
 10
1176.6982
 20
980.49050000000011
 11
1216.6982
 21
940.49050000000011
  0
LINE
  8
_0-0_LAYER001
  6
CONTINUOUS
 62
    1
 10
1190.8403000000001
 20
980.49050000000011
 11
1230.8403000000001
 21
940.49050000000011
  0
LINE
  8
_0-0_LAYER001
  6
CONTINUOUS
 62
    1
 10
1204.9825000000001
 20
980.49050000000011
 11
1244.9825000000001
 21
940.49050000000011
  0
LINE
  8
_0-0_LAYER001
  6
CONTINUOUS
 62
    1
 10
1219.1246000000001
 20
980.49050000000011
 11
1259.1246000000001
 21
940.49050000000011
  0
LINE
  8
_0-0_LAYER001
  6
CONTINUOUS
 62
    1
 10
1233.2666999999999
 20
980.49050000000011
 11
1273.2666999999999
 21
940.49050000000011
  0
LINE
  8
_0-0_LAYER001
  6
CONTINUOUS
 62
    1
 10
1247.4088999999999
 20
980.49050000000011
 11
1287.4088999999999
 21
940.49050000000011
  0
LINE
  8
_0-0_LAYER001
  6
CONTINUOUS
 62
    1
 10
1261.5509999999999
 20
980.49050000000011
 11
1301.5509999999999
 21
940.49050000000011
  0
LINE
  8
_0-0_LAYER001
  6
CONTINUOUS
 62
    1
 10
1275.6931
 20
980.49050000000011
 11
1315.6931
 21
940.49050000000011
  0
LINE
  8
_0-0_LAYER001
  6
CONTINUOUS
 62
    1
 10
1289.8353
 20
980.49050000000011
 11
1329.8353
 21
940.49050000000011
  0
LINE
  8
_0-0_LAYER001
  6
CONTINUOUS
 62
    1
 10
1303.9774
 20
980.49050000000011
 11
1343.9774
 21
940.49050000000011
  0
LINE
  8
_0-0_LAYER001
  6
CONTINUOUS
 62
    1
 10
1318.1195
 20
980.49050000000011
 11
1358.1195
 21
940.49050000000011
  0
LINE
  8
_0-0_LAYER001
  6
CONTINUOUS
 62
    1
 10
1332.2617
 20
980.49050000000011
 11
1372.2617
 21
940.49050000000011
  0
LINE
  8
_0-0_LAYER001
  6
CONTINUOUS
 62
    1
 10
1346.4038
 20
980.49050000000011
 11
1386.4038
 21
940.49050000000011
  0
LINE
  8
_0-0_LAYER001
  6
CONTINUOUS
 62
    1
 10
1360.5459999999998
 20
980.49050000000011
 11
1400.5459999999998
 21
940.49050000000011
  0
LINE
  8
_0-0_LAYER001
  6
CONTINUOUS
 62
    1
 10
1374.6881000000003
 20
980.49050000000011
 11
1414.6881000000003
 21
940.49050000000011
  0
LINE
  8
_0-0_LAYER001
  6
CONTINUOUS
 62
    1
 10
1388.8302000000001
 20
980.49050000000011
 11
1428.8302000000001
 21
940.49050000000011
  0
LINE
  8
_0-0_LAYER001
  6
CONTINUOUS
 62
    1
 10
1402.9724000000001
 20
980.49050000000011
 11
1442.9724000000001
 21
940.49050000000011
  0
LINE
  8
_0-0_LAYER001
  6
CONTINUOUS
 62
    1
 10
1417.1144999999999
 20
980.49050000000011
 11
1457.1145000000001
 21
940.49050000000011
  0
LINE
  8
_0-0_LAYER001
  6
CONTINUOUS
 62
    1
 10
1431.2566000000002
 20
980.49050000000011
 11
1471.2566000000002
 21
940.49050000000011
  0
LINE
  8
_0-0_LAYER001
  6
CONTINUOUS
 62
    1
 10
1445.3987999999999
 20
980.49050000000011
 11
1485.3987999999999
 21
940.49050000000011
  0
LINE
  8
_0-0_LAYER001
  6
CONTINUOUS
 62
    1
 10
1459.5409
 20
980.49050000000011
 11
1499.5409
 21
940.49050000000011
  0
LINE
  8
_0-0_LAYER001
  6
CONTINUOUS
 62
    1
 10
1473.683
 20
980.49050000000011
 11
1513.683
 21
940.49050000000011
  0
LINE
  8
_0-0_LAYER001
  6
CONTINUOUS
 62
    1
 10
1487.8252000000002
 20
980.49050000000011
 11
1527.8252000000002
 21
940.49050000000011
  0
LINE
  8
_0-0_LAYER001
  6
CONTINUOUS
 62
    1
 10
1501.9672999999998
 20
980.49050000000011
 11
1541.9672999999998
 21
940.49050000000011
  0
LINE
  8
_0-0_LAYER001
  6
CONTINUOUS
 62
    1
 10
1516.1093999999998
 20
980.49050000000011
 11
1556.1093999999998
 21
940.49050000000011
  0
LINE
  8
_0-0_LAYER001
  6
CONTINUOUS
 62
    1
 10
1530.2516000000001
 20
980.49050000000011
 11
1570.2516000000001
 21
940.49050000000011
  0
LINE
  8
_0-0_LAYER001
  6
CONTINUOUS
 62
    1
 10
1544.3937000000001
 20
980.49050000000011
 11
1584.3937000000001
 21
940.49050000000011
  0
LINE
  8
_0-0_LAYER001
  6
CONTINUOUS
 62
    1
 10
1558.5358999999999
 20
980.49050000000011
 11
1598.5358999999999
 21
940.49050000000011
  0
LINE
  8
_0-0_LAYER001
  6
CONTINUOUS
 62
    1
 10
1572.6779999999999
 20
980.49050000000011
 11
1612.6779999999999
 21
940.49050000000011
  0
LINE
  8
_0-0_LAYER001
  6
CONTINUOUS
 62
    1
 10
1586.8200999999999
 20
980.49050000000011
 11
1626.8200999999999
 21
940.49050000000011
  0
LINE
  8
_0-0_LAYER001
  6
CONTINUOUS
 62
    1
 10
1600.9623000000001
 20
980.49050000000011
 11
1640.9623000000001
 21
940.49050000000011
  0
LINE
  8
_0-0_LAYER001
  6
CONTINUOUS
 62
    1
 10
1615.1044000000002
 20
980.49050000000011
 11
1655.1044000000002
 21
940.49050000000011
  0
LINE
  8
_0-0_LAYER001
  6
CONTINUOUS
 62
    1
 10
1629.2465000000002
 20
980.49050000000011
 11
1669.2465000000002
 21
940.49050000000011
  0
LINE
  8
_0-0_LAYER001
  6
CONTINUOUS
 62
    1
 10
1643.3887
 20
980.49050000000011
 11
1683.3887
 21
940.49050000000011
  0
LINE
  8
_0-0_LAYER001
  6
CONTINUOUS
 62
    1
 10
1657.5308
 20
980.49050000000011
 11
1697.5308
 21
940.49050000000011
  0
LINE
  8
_0-0_LAYER001
  6
CONTINUOUS
 62
    1
 10
1671.6729
 20
980.49050000000011
 11
1711.6729
 21
940.49050000000011
  0
LINE
  8
_0-0_LAYER001
  6
CONTINUOUS
 62
    1
 10
1685.8150999999998
 20
980.49050000000011
 11
1725.8150999999998
 21
940.49050000000011
  0
LINE
  8
_0-0_LAYER001
  6
CONTINUOUS
 62
    1
 10
1699.9571999999998
 20
980.49050000000011
 11
1739.9571999999998
 21
940.49050000000011
  0
LINE
  8
_0-0_LAYER001
  6
CONTINUOUS
 62
    1
 10
1714.0992999999999
 20
980.49050000000011
 11
1754.0992999999999
 21
940.49050000000011
  0
LINE
  8
_0-0_LAYER001
  6
CONTINUOUS
 62
    1
 10
1728.2415000000001
 20
980.49050000000011
 11
1768.2415000000001
 21
940.49050000000011
  0
LINE
  8
_0-0_LAYER001
  6
CONTINUOUS
 62
    1
 10
1742.3836000000001
 20
980.49050000000011
 11
1782.3836000000001
 21
940.49050000000011
  0
LINE
  8
_0-0_LAYER001
  6
CONTINUOUS
 62
    1
 10
1756.5257000000001
 20
980.49050000000011
 11
1796.5257000000001
 21
940.49050000000011
  0
LINE
  8
_0-0_LAYER001
  6
CONTINUOUS
 62
    1
 10
1770.6678999999999
 20
980.49050000000011
 11
1810.6678999999999
 21
940.49050000000011
  0
LINE
  8
_0-0_LAYER001
  6
CONTINUOUS
 62
    1
 10
1784.8099999999999
 20
980.49050000000011
 11
1824.8099999999999
 21
940.49050000000011
  0
LINE
  8
_0-0_LAYER001
  6
CONTINUOUS
 62
    1
 10
1798.9522000000002
 20
980.49050000000011
 11
1838.9522000000002
 21
940.49050000000011
  0
LINE
  8
_0-0_LAYER001
  6
CONTINUOUS
 62
    1
 10
1813.0943000000002
 20
980.49050000000011
 11
1853.0943000000002
 21
940.49050000000011
  0
LINE
  8
_0-0_LAYER001
  6
CONTINUOUS
 62
    1
 10
1827.2363999999998
 20
980.49050000000011
 11
1867.2363999999998
 21
940.49050000000011
  0
LINE
  8
_0-0_LAYER001
  6
CONTINUOUS
 62
    1
 10
1841.3786
 20
980.49050000000011
 11
1869.6628000000001
 21
952.20620000000008
  0
LINE
  8
_0-0_LAYER001
  6
CONTINUOUS
 62
    1
 10
1855.5207
 20
980.49050000000011
 11
1869.6628000000001
 21
966.34840000000008
  0
LINE
  8
_0-1_LAYER003
  6
CONTINUOUS
 62
    2
 10
2093.0210999999999
 20
980.49050000000011
 11
2040.5210999999999
 21
980.49050000000011
  0
CIRCLE
  8
_0-1_LAYER003
  6
CONTINUOUS
 62
    2
 10
2090.5210999999999
 20
980.49050000000011
 40
1.6999999999999997
  0
LINE
  8
_0-1_LAYER003
  6
CONTINUOUS
 62
    2
 10
2090.5210999999999
 20
980.49050000000011
 11
2090.5210999999999
 21
1230.4905000000001
  0
CIRCLE
  8
_0-1_LAYER003
  6
CONTINUOUS
 62
    2
 10
2090.5210999999999
 20
1230.4905000000001
 40
1.6999999999999997
  0
LINE
  8
_0-1_LAYER003
  6
CONTINUOUS
 62
    2
 10
2093.0210999999999
 20
1230.4905000000001
 11
2040.5210999999999
 21
1230.4905000000001
  0
LINE
  8
_0-1_LAYER003
  6
CONTINUOUS
 62
    2
 10
1750.1376
 20
1103.4739
 11
1752.0787999999998
 21
1096.2293999999999
  0
LINE
  8
_0-1_LAYER003
  6
CONTINUOUS
 62
    2
 10
1752.0787999999998
 20
1096.2293999999999
 11
1746.7755000000002
 21
1101.5327
  0
LINE
  8
_0-1_LAYER003
  6
CONTINUOUS
 62
    2
 10
1752.0787999999998
 20
1096.2293999999999
 11
1693.6014
 21
1197.5151000000001
  0
LINE
  8
_0-1_LAYER003
  6
CONTINUOUS
 62
    2
 10
1693.6014
 20
1197.5151000000001
 11
1557.5646000000002
 21
1197.5151000000001
  0
LINE
  8
_0-0_LAYER001
  6
CONTINUOUS
 62
    2
 10
1869.6628000000001
 20
831.27659999999992
 11
1869.6628000000001
 21
883.77659999999992
  0
CIRCLE
  8
_0-0_LAYER001
  6
CONTINUOUS
 62
    2
 10
1869.6628000000001
 20
833.77659999999992
 40
1.6999999999999997
  0
LINE
  8
_0-0_LAYER001
  6
CONTINUOUS
 62
    2
 10
1869.6628000000001
 20
833.77659999999992
 11
1719.6628000000001
 21
833.77659999999992
  0
CIRCLE
  8
_0-0_LAYER001
  6
CONTINUOUS
 62
    2
 10
1719.6628000000001
 20
833.77659999999992
 40
1.6999999999999997
  0
LINE
  8
_0-0_LAYER001
  6
CONTINUOUS
 62
    2
 10
1719.6628000000001
 20
831.27659999999992
 11
1719.6628000000001
 21
883.77659999999992
  0
LINE
  8
_0-0_LAYER001
  6
CONTINUOUS
 62
    2
 10
1825.0268999999998
 20
977.99600000000009
 11
1823.0857000000001
 21
985.24039999999991
  0
LINE
  8
_0-0_LAYER001
  6
CONTINUOUS
 62
    2
 10
1823.0857000000001
 20
985.24039999999991
 11
1828.3890000000001
 21
979.9371000000001
  0
LINE
  8
_0-0_LAYER001
  6
CONTINUOUS
 62
    2
 10
1823.0857000000001
 20
985.24039999999991
 11
1895.2570999999998
 21
860.2360000000001
  0
LINE
  8
_0-0_LAYER001
  6
CONTINUOUS
 62
    2
 10
1895.2570999999998
 20
860.2360000000001
 11
2129.2570999999998
 21
860.2360000000001
  0
LINE
  8
_0-1_LAYER003
  6
CONTINUOUS
 62
    2
 10
1260.6735000000001
 20
1024.2932000000001
 11
1262.6146000000001
 21
1017.0488
  0
LINE
  8
_0-1_LAYER003
  6
CONTINUOUS
 62
    2
 10
1262.6146000000001
 20
1017.0488
 11
1257.3113000000001
 21
1022.3521000000001
  0
LINE
  8
_0-1_LAYER003
  6
CONTINUOUS
 62
    2
 10
1262.6146000000001
 20
1017.0488
 11
1201.6007999999999
 21
1122.7277999999999
  0
LINE
  8
_0-1_LAYER003
  6
CONTINUOUS
 62
    2
 10
1201.6007999999999
 20
1122.7277999999999
 11
1161.1007999999999
 21
1122.7277999999999
  0
LINE
  8
_0-0_LAYER001
  6
CONTINUOUS
 62
    2
 10
1845.1603
 20
1268.1670999999999
 11
1847.1014
 21
1260.9226000000001
  0
LINE
  8
_0-0_LAYER001
  6
CONTINUOUS
 62
    2
 10
1847.1014
 20
1260.9226000000001
 11
1841.7981
 21
1266.2258999999999
  0
LINE
  8
_0-0_LAYER001
  6
CONTINUOUS
 62
    2
 10
1847.1014
 20
1260.9226000000001
 11
1798.2372999999998
 21
1345.5579
  0
LINE
  8
_0-0_LAYER001
  6
CONTINUOUS
 62
    2
 10
1798.2372999999998
 20
1345.5579
 11
1717.2372999999998
 21
1345.5579
  0
LINE
  8
_0-0_LAYER001
  6
CONTINUOUS
 62
    2
 10
1816.1545000000001
 20
1058.6061
 11
1814.2132999999999
 21
1065.8505
  0
LINE
  8
_0-0_LAYER001
  6
CONTINUOUS
 62
    2
 10
1814.2132999999999
 20
1065.8505
 11
1819.5165999999999
 21
1060.5472
  0
LINE
  8
_0-0_LAYER001
  6
CONTINUOUS
 62
    2
 10
1814.2132999999999
 20
1065.8505
 11
1906.1961000000001
 21
906.5317
  0
LINE
  8
_0-0_LAYER001
  6
CONTINUOUS
 62
    2
 10
1906.1961000000001
 20
906.5317
 11
1979.7716999999998
 21
906.5317
  0
LINE
  8
_0-2_LAYER004
  6
CONTINUOUS
 62
    3
 10
856.42759999999998
 20
953.4063000000001
 11
1846.5808999999999
 21
953.4063000000001
  0
CIRCLE
  8
_0-2_LAYER004
  6
CONTINUOUS
 62
    3
 10
861.90090000000009
 20
954.63139999999999
 40
1.3049219999999999
  0
CIRCLE
  8
_0-2_LAYER004
  6
CONTINUOUS
 62
    3
 10
1011.9009000000001
 20
954.63139999999999
 40
1.3049219999999999
  0
CIRCLE
  8
_0-2_LAYER004
  6
CONTINUOUS
 62
    3
 10
1161.9009000000001
 20
954.63139999999999
 40
1.3049219999999999
  0
CIRCLE
  8
_0-2_LAYER004
  6
CONTINUOUS
 62
    3
 10
1311.9009000000001
 20
954.63139999999999
 40
1.3049219999999999
  0
CIRCLE
  8
_0-2_LAYER004
  6
CONTINUOUS
 62
    3
 10
1611.9009000000001
 20
954.63139999999999
 40
1.3049219999999999
  0
CIRCLE
  8
_0-2_LAYER004
  6
CONTINUOUS
 62
    3
 10
1761.9009000000001
 20
954.63139999999999
 40
1.3049219999999999
  0
CIRCLE
  8
_0-2_LAYER004
  6
CONTINUOUS
 62
    3
 10
1461.9009000000001
 20
954.63139999999999
 40
1.3049219999999999
  0
LINE
  8
_0-2_LAYER004
  6
DASHED1
 62
    2
 10
946.67579999999998
 20
958.08539999999994
 11
936.67579999999998
 21
958.08539999999994
  0
LINE
  8
_0-2_LAYER004
  6
DASHED1
 62
    2
 10
968.0458000000001
 20
904.06670000000008
 11
968.0458000000001
 21
894.06670000000008
  0
LINE
  8
_0-2_LAYER004
  6
DASHED1
 62
    2
 10
946.67579999999998
 20
958.08539999999994
 11
946.67579999999998
 21
904.06670000000008
  0
LINE
  8
_0-2_LAYER004
  6
DASHED1
 62
    2
 10
936.67579999999998
 20
958.08539999999994
 11
936.67579999999998
 21
894.06670000000008
  0
LINE
  8
_0-2_LAYER004
  6
DASHED1
 62
    2
 10
946.67579999999998
 20
904.06670000000008
 11
968.0458000000001
 21
904.06670000000008
  0
LINE
  8
_0-2_LAYER004
  6
DASHED1
 62
    2
 10
936.67579999999998
 20
894.06670000000008
 11
968.0458000000001
 21
894.06670000000008
  0
LINE
  8
_0-2_LAYER004
  6
DASHED1
 62
    2
 10
1546.6758
 20
958.08539999999994
 11
1536.6758
 21
958.08539999999994
  0
LINE
  8
_0-2_LAYER004
  6
DASHED1
 62
    2
 10
1568.0457999999999
 20
904.06670000000008
 11
1568.0457999999999
 21
894.06670000000008
  0
LINE
  8
_0-2_LAYER004
  6
DASHED1
 62
    2
 10
1546.6758
 20
958.08539999999994
 11
1546.6758
 21
904.06670000000008
  0
LINE
  8
_0-2_LAYER004
  6
DASHED1
 62
    2
 10
1536.6758
 20
958.08539999999994
 11
1536.6758
 21
894.06670000000008
  0
LINE
  8
_0-2_LAYER004
  6
DASHED1
 62
    2
 10
1546.6758
 20
904.06670000000008
 11
1568.0457999999999
 21
904.06670000000008
  0
LINE
  8
_0-2_LAYER004
  6
DASHED1
 62
    2
 10
1536.6758
 20
894.06670000000008
 11
1568.0457999999999
 21
894.06670000000008
  0
LINE
  8
_0-2_LAYER004
  6
CONTINUOUS
 62
    2
 10
950.04259999999999
 20
892.0791999999999
 11
948.10140000000001
 21
899.32369999999992
  0
LINE
  8
_0-2_LAYER004
  6
CONTINUOUS
 62
    2
 10
948.10140000000001
 20
899.32369999999992
 11
953.40470000000005
 21
894.02040000000011
  0
LINE
  8
_0-2_LAYER004
  6
CONTINUOUS
 62
    2
 10
948.10140000000001
 20
899.32369999999992
 11
972.72970000000009
 21
856.66619999999989
  0
LINE
  8
_0-2_LAYER004
  6
CONTINUOUS
 62
    2
 10
972.72970000000009
 20
856.66619999999989
 11
1032.7297000000001
 21
856.66619999999989
  0
LINE
  8
_0-2_LAYER004
  6
CONTINUOUS
 62
    2
 10
1196.6298999999999
 20
945.88059999999996
 11
1194.6887999999999
 21
953.12509999999997
  0
LINE
  8
_0-2_LAYER004
  6
CONTINUOUS
 62
    2
 10
1194.6887999999999
 20
953.12509999999997
 11
1199.9920999999999
 21
947.82179999999994
  0
LINE
  8
_0-2_LAYER004
  6
CONTINUOUS
 62
    2
 10
1194.6887999999999
 20
953.12509999999997
 11
1232.1514
 21
888.23790000000008
  0
LINE
  8
_0-2_LAYER004
  6
CONTINUOUS
 62
    2
 10
1232.1514
 20
888.23790000000008
 11
1292.1514
 21
888.23790000000008
  0
LINE
  8
_0-0_LAYER001
  6
CONTINUOUS
 62
    2
 10
1858.2538
 20
1134.3516
 11
1860.1950000000002
 21
1127.1071999999999
  0
LINE
  8
_0-0_LAYER001
  6
CONTINUOUS
 62
    2
 10
1860.1950000000002
 20
1127.1071999999999
 11
1854.8917000000001
 21
1132.4105
  0
LINE
  8
_0-0_LAYER001
  6
CONTINUOUS
 62
    2
 10
1860.1950000000002
 20
1127.1071999999999
 11
1751.6325999999999
 21
1315.1427000000001
  0
LINE
  8
_0-0_LAYER001
  6
CONTINUOUS
 62
    2
 10
1751.6325999999999
 20
1315.1427000000001
 11
1612.3957999999998
 21
1315.1427000000001
  0
LINE
  8
_0-0_LAYER001
  6
CONTINUOUS
 62
    2
 10
1146.2411999999999
 20
684.82670000000007
 11
1351.0639000000001
 21
684.82670000000007
  0
LINE
  8
_0-0_LAYER001
  6
CONTINUOUS
 62
    2
 10
1063.4983999999999
 20
982.04510000000005
 11
1063.4983999999999
 21
989.54510000000005
  0
LINE
  8
_0-0_LAYER001
  6
CONTINUOUS
 62
    2
 10
1063.4983999999999
 20
989.54510000000005
 11
1067.2483999999999
 21
983.04989999999998
  0
LINE
  8
_0-0_LAYER001
  6
CONTINUOUS
 62
    2
 10
1063.4983999999999
 20
989.54510000000005
 11
1161.2698
 21
624.65740000000005
  0
LINE
  8
_0-1_LAYER003
  6
CONTINUOUS
 62
    2
 10
1844.2078000000001
 20
1218.2771
 11
1844.2078000000001
 21
1190.7771
  0
CIRCLE
  8
_0-1_LAYER003
  6
CONTINUOUS
 62
    2
 10
1844.2078000000001
 20
1215.7771
 40
1.6999999999999997
  0
LINE
  8
_0-1_LAYER003
  6
CONTINUOUS
 62
    2
 10
1844.2078000000001
 20
1215.7771
 11
1754.2078000000001
 21
1215.7771
  0
CIRCLE
  8
_0-1_LAYER003
  6
CONTINUOUS
 62
    2
 10
1754.2078000000001
 20
1215.7771
 40
1.6999999999999997
  0
LINE
  8
_0-1_LAYER003
  6
CONTINUOUS
 62
    2
 10
1754.2078000000001
 20
1218.2771
 11
1754.2078000000001
 21
1190.7771
  0
LINE
  8
_0-0_LAYER001
  6
CONTINUOUS
 62
    3
 10
1835.9677999999999
 20
1128.3901000000001
 11
1835.9452000000001
 21
1127.9249
  0
LINE
  8
_0-0_LAYER001
  6
CONTINUOUS
 62
    3
 10
1835.9452000000001
 20
1127.9249
 11
1835.8836999999999
 21
1126.6621
  0
LINE
  8
_0-0_LAYER001
  6
CONTINUOUS
 62
    3
 10
1835.8836999999999
 20
1126.6621
 11
1835.7930999999999
 21
1124.8012000000001
  0
LINE
  8
_0-0_LAYER001
  6
CONTINUOUS
 62
    3
 10
1835.7930999999999
 20
1124.8012000000001
 11
1835.6831000000002
 21
1122.5415
  0
LINE
  8
_0-0_LAYER001
  6
CONTINUOUS
 62
    3
 10
1835.6831000000002
 20
1122.5415
 11
1835.5634
 21
1120.0824
  0
LINE
  8
_0-0_LAYER001
  6
CONTINUOUS
 62
    3
 10
1835.5634
 20
1120.0824
 11
1835.4436999999998
 21
1117.6233999999999
  0
LINE
  8
_0-0_LAYER001
  6
CONTINUOUS
 62
    3
 10
1835.4436999999998
 20
1117.6233999999999
 11
1835.3337000000001
 21
1115.3637000000001
  0
LINE
  8
_0-0_LAYER001
  6
CONTINUOUS
 62
    3
 10
1835.3337000000001
 20
1115.3637000000001
 11
1835.2431000000001
 21
1113.5028
  0
LINE
  8
_0-0_LAYER001
  6
CONTINUOUS
 62
    3
 10
1835.2431000000001
 20
1113.5028
 11
1835.1815999999999
 21
1112.24
  0
LINE
  8
_0-0_LAYER001
  6
CONTINUOUS
 62
    3
 10
1835.1815999999999
 20
1112.24
 11
1835.1590000000001
 21
1111.7747999999999
  0
LINE
  8
_0-0_LAYER001
  6
CONTINUOUS
 62
    3
 10
1835.1590000000001
 20
1111.7747999999999
 11
1834.0138000000002
 21
1111.8505
  0
LINE
  8
_0-0_LAYER001
  6
CONTINUOUS
 62
    3
 10
1834.0138000000002
 20
1111.8505
 11
1830.6385
 21
1111.9191000000001
  0
LINE
  8
_0-0_LAYER001
  6
CONTINUOUS
 62
    3
 10
1830.6385
 20
1111.9191000000001
 11
1825.1235000000001
 21
1111.7430999999999
  0
LINE
  8
_0-0_LAYER001
  6
CONTINUOUS
 62
    3
 10
1825.1235000000001
 20
1111.7430999999999
 11
1817.5590000000002
 21
1111.085
  0
LINE
  8
_0-0_LAYER001
  6
CONTINUOUS
 62
    3
 10
1817.5590000000002
 20
1111.085
 11
1808.0354000000002
 21
1109.7072000000001
  0
LINE
  8
_0-0_LAYER001
  6
CONTINUOUS
 62
    3
 10
1808.0354000000002
 20
1109.7072000000001
 11
1796.6428999999998
 21
1107.3721
  0
LINE
  8
_0-0_LAYER001
  6
CONTINUOUS
 62
    3
 10
1796.6428999999998
 20
1107.3721
 11
1783.4720000000002
 21
1103.8421000000001
  0
LINE
  8
_0-0_LAYER001
  6
CONTINUOUS
 62
    3
 10
1783.4720000000002
 20
1103.8421000000001
 11
1768.6129000000001
 21
1098.8797
  0
LINE
  8
_0-0_LAYER001
  6
CONTINUOUS
 62
    3
 10
1768.6129000000001
 20
1098.8797
 11
1752.1559000000002
 21
1092.2473
  0
LINE
  8
_0-0_LAYER001
  6
CONTINUOUS
 62
    3
 10
1752.1559000000002
 20
1092.2473
 11
1734.1914000000002
 21
1083.7074
  0
LINE
  8
_0-0_LAYER001
  6
CONTINUOUS
 62
    3
 10
1734.1914000000002
 20
1083.7074
 11
1734.2283000000002
 21
1084.4646
  0
LINE
  8
_0-0_LAYER001
  6
CONTINUOUS
 62
    3
 10
1734.2283000000002
 20
1084.4646
 11
1734.3283000000001
 21
1086.5197000000001
  0
LINE
  8
_0-0_LAYER001
  6
CONTINUOUS
 62
    3
 10
1734.3283000000001
 20
1086.5197000000001
 11
1734.4758000000002
 21
1089.5482999999999
  0
LINE
  8
_0-0_LAYER001
  6
CONTINUOUS
 62
    3
 10
1734.4758000000002
 20
1089.5482999999999
 11
1734.6547999999998
 21
1093.2257999999999
  0
LINE
  8
_0-0_LAYER001
  6
CONTINUOUS
 62
    3
 10
1734.6547999999998
 20
1093.2257999999999
 11
1734.8496
 21
1097.2279000000001
  0
LINE
  8
_0-0_LAYER001
  6
CONTINUOUS
 62
    3
 10
1734.8496
 20
1097.2279000000001
 11
1735.0445
 21
1101.2299
  0
LINE
  8
_0-0_LAYER001
  6
CONTINUOUS
 62
    3
 10
1735.0445
 20
1101.2299
 11
1735.2235000000001
 21
1104.9075
  0
LINE
  8
_0-0_LAYER001
  6
CONTINUOUS
 62
    3
 10
1735.2235000000001
 20
1104.9075
 11
1735.3708999999999
 21
1107.9360999999999
  0
LINE
  8
_0-0_LAYER001
  6
CONTINUOUS
 62
    3
 10
1735.3708999999999
 20
1107.9360999999999
 11
1735.471
 21
1109.9911999999999
  0
LINE
  8
_0-0_LAYER001
  6
CONTINUOUS
 62
    3
 10
1735.471
 20
1109.9911999999999
 11
1735.5077999999999
 21
1110.7483
  0
LINE
  8
_0-0_LAYER001
  6
CONTINUOUS
 62
    3
 10
1735.5077999999999
 20
1110.7483
 11
1737.2013999999999
 21
1111.2527
  0
LINE
  8
_0-0_LAYER001
  6
CONTINUOUS
 62
    3
 10
1737.2013999999999
 20
1111.2527
 11
1741.9760000000001
 21
1112.6201000000001
  0
LINE
  8
_0-0_LAYER001
  6
CONTINUOUS
 62
    3
 10
1741.9760000000001
 20
1112.6201000000001
 11
1749.3723
 21
1114.6318000000001
  0
LINE
  8
_0-0_LAYER001
  6
CONTINUOUS
 62
    3
 10
1749.3723
 20
1114.6318000000001
 11
1758.9308999999998
 21
1117.0693000000001
  0
LINE
  8
_0-0_LAYER001
  6
CONTINUOUS
 62
    3
 10
1758.9308999999998
 20
1117.0693000000001
 11
1770.1923999999999
 21
1119.7138
  0
LINE
  8
_0-0_LAYER001
  6
CONTINUOUS
 62
    3
 10
1770.1923999999999
 20
1119.7138
 11
1782.6976
 21
1122.3467000000001
  0
LINE
  8
_0-0_LAYER001
  6
CONTINUOUS
 62
    3
 10
1782.6976
 20
1122.3467000000001
 11
1795.9870999999998
 21
1124.7494999999999
  0
LINE
  8
_0-0_LAYER001
  6
CONTINUOUS
 62
    3
 10
1795.9870999999998
 20
1124.7494999999999
 11
1809.6015000000002
 21
1126.7034000000001
  0
LINE
  8
_0-0_LAYER001
  6
CONTINUOUS
 62
    3
 10
1809.6015000000002
 20
1126.7034000000001
 11
1823.0814999999998
 21
1127.9898000000001
  0
LINE
  8
_0-0_LAYER001
  6
CONTINUOUS
 62
    3
 10
1835.9677999999999
 20
1128.3901000000001
 11
1822.9684999999999
 21
1127.979
  0
LINE
  8
_0-2_LAYER004
  6
CONTINUOUS
 62
    2
 10
1754.1459
 20
1123.1677999999999
 11
1758.4400000000001
 21
1129.5382999999999
  0
LINE
  8
_0-0_LAYER001
  6
CONTINUOUS
 62
    2
 10
1853.1986999999999
 20
1142.3507
 11
1869.6628000000001
 21
1142.3507
  0
LINE
  8
_0-0_LAYER001
  6
CONTINUOUS
 62
    2
 10
1917.6628000000001
 20
1122.3507
 11
1912.6628000000001
 21
1125.3507
  0
LINE
  8
_0-0_LAYER001
  6
CONTINUOUS
 62
    2
 10
1912.6628000000001
 20
1119.3507999999999
 11
1917.6628000000001
 21
1122.3507
  0
LINE
  8
_0-0_LAYER001
  6
CONTINUOUS
 62
    2
 10
1911.5877999999998
 20
1119.3507999999999
 11
1914.4367999999999
 21
1124.2868000000001
  0
LINE
  8
_0-0_LAYER001
  6
CONTINUOUS
 62
    2
 10
1845.6626999999999
 20
1119.3507999999999
 11
1845.6626999999999
 21
1125.3507
  0
LINE
  8
_0-0_LAYER001
  6
CONTINUOUS
 62
    2
 10
1839.6628000000001
 20
1116.3507
 11
1839.6628000000001
 21
1128.3507999999999
  0
LINE
  8
_0-0_LAYER001
  6
CONTINUOUS
 62
    2
 10
1848.5497999999998
 20
1119.3507999999999
 11
1852.0128
 21
1125.3507
  0
LINE
  8
_0-0_LAYER001
  6
CONTINUOUS
 62
    2
 10
1839.6628000000001
 20
1116.3507
 11
1845.6626999999999
 21
1119.3507999999999
  0
LINE
  8
_0-0_LAYER001
  6
CONTINUOUS
 62
    2
 10
1845.6626999999999
 20
1125.3507
 11
1839.6628000000001
 21
1128.3507999999999
  0
LINE
  8
_0-0_LAYER001
  6
CONTINUOUS
 62
    2
 10
1912.6628000000001
 20
1125.3507
 11
1902.6478000000002
 21
1125.3507
  0
LINE
  8
_0-0_LAYER001
  6
CONTINUOUS
 62
    2
 10
1893.9958999999999
 20
1120.8779
 11
1895.8897999999999
 21
1124.1587999999999
  0
LINE
  8
_0-0_LAYER001
  6
CONTINUOUS
 62
    2
 10
1902.3798000000002
 20
1119.3997999999999
 11
1905.8148000000001
 21
1125.3507
  0
LINE
  8
_0-0_LAYER001
  6
CONTINUOUS
 62
    2
 10
1912.6628000000001
 20
1119.3507999999999
 11
1902.6559000000002
 21
1119.3507999999999
  0
LINE
  8
_0-0_LAYER001
  6
CONTINUOUS
 62
    2
 10
1910.5118000000002
 20
1129.0737999999999
 11
1910.9117999999999
 21
1126.8077000000001
  0
LINE
  8
_0-0_LAYER001
  6
CONTINUOUS
 62
    2
 10
1910.3388
 20
1115.6609000000001
 11
1910.7366999999999
 21
1117.9258
  0
LINE
  8
_0-0_LAYER001
  6
CONTINUOUS
 62
    2
 10
1905.9187000000002
 20
1128.0598
 11
1907.5927999999999
 21
1128.3547000000001
  0
LINE
  8
_0-0_LAYER001
  6
CONTINUOUS
 62
    2
 10
1901.5857999999998
 20
1127.2958000000001
 11
1903.2586999999999
 21
1127.5907999999999
  0
LINE
  8
_0-0_LAYER001
  6
CONTINUOUS
 62
    2
 10
1897.2528000000002
 20
1126.5317
 11
1898.9256999999998
 21
1126.8268
  0
LINE
  8
_0-0_LAYER001
  6
CONTINUOUS
 62
    2
 10
1896.9567000000002
 20
1128.2048
 11
1887.8627999999999
 21
1126.6018999999999
  0
LINE
  8
_0-0_LAYER001
  6
CONTINUOUS
 62
    2
 10
1901.2896999999998
 20
1128.9686999999999
 11
1898.6307000000002
 21
1128.4997000000001
  0
LINE
  8
_0-0_LAYER001
  6
CONTINUOUS
 62
    2
 10
1905.6228000000001
 20
1129.7329
 11
1902.9638
 21
1129.2638999999999
  0
LINE
  8
_0-0_LAYER001
  6
CONTINUOUS
 62
    2
 10
1908.7746999999999
 20
1130.2887000000001
 11
1907.2968999999998
 21
1130.0277000000001
  0
LINE
  8
_0-0_LAYER001
  6
CONTINUOUS
 62
    2
 10
1907.5927999999999
 20
1128.3547000000001
 11
1907.2968999999998
 21
1130.0288
  0
LINE
  8
_0-0_LAYER001
  6
CONTINUOUS
 62
    2
 10
1905.9187000000002
 20
1128.0598
 11
1905.6228000000001
 21
1129.7338
  0
LINE
  8
_0-0_LAYER001
  6
CONTINUOUS
 62
    2
 10
1903.2599
 20
1127.5907999999999
 11
1902.9638
 21
1129.2648999999999
  0
LINE
  8
_0-0_LAYER001
  6
CONTINUOUS
 62
    2
 10
1901.5857999999998
 20
1127.2958000000001
 11
1901.2896999999998
 21
1128.9697000000001
  0
LINE
  8
_0-0_LAYER001
  6
CONTINUOUS
 62
    2
 10
1898.9268000000002
 20
1126.8268
 11
1898.6307000000002
 21
1128.5007000000001
  0
LINE
  8
_0-0_LAYER001
  6
CONTINUOUS
 62
    2
 10
1897.2528000000002
 20
1126.5317
 11
1896.9567000000002
 21
1128.2058
  0
LINE
  8
_0-0_LAYER001
  6
CONTINUOUS
 62
    2
 10
1905.7438000000002
 20
1116.6737000000001
 11
1907.4178000000002
 21
1116.3788
  0
LINE
  8
_0-0_LAYER001
  6
CONTINUOUS
 62
    2
 10
1901.4108999999999
 20
1117.4377999999999
 11
1903.0848000000001
 21
1117.1428000000001
  0
LINE
  8
_0-0_LAYER001
  6
CONTINUOUS
 62
    2
 10
1897.0778
 20
1118.2018
 11
1898.7516999999998
 21
1117.9067
  0
LINE
  8
_0-0_LAYER001
  6
CONTINUOUS
 62
    2
 10
1897.0787999999998
 20
1118.2018
 11
1896.7827000000002
 21
1116.5288
  0
LINE
  8
_0-0_LAYER001
  6
CONTINUOUS
 62
    2
 10
1898.7527
 20
1117.9067
 11
1898.4567000000002
 21
1116.2338
  0
LINE
  8
_0-0_LAYER001
  6
CONTINUOUS
 62
    2
 10
1901.4119000000001
 20
1117.4377999999999
 11
1901.1158
 21
1115.7647999999999
  0
LINE
  8
_0-0_LAYER001
  6
CONTINUOUS
 62
    2
 10
1903.0857999999998
 20
1117.1428000000001
 11
1902.7896999999998
 21
1115.4698000000001
  0
LINE
  8
_0-0_LAYER001
  6
CONTINUOUS
 62
    2
 10
1905.7447999999999
 20
1116.6737000000001
 11
1905.4488000000001
 21
1115.0008
  0
LINE
  8
_0-0_LAYER001
  6
CONTINUOUS
 62
    2
 10
1907.4187999999999
 20
1116.3788
 11
1907.1228000000001
 21
1114.7058
  0
LINE
  8
_0-0_LAYER001
  6
CONTINUOUS
 62
    2
 10
1896.7827000000002
 20
1116.5288
 11
1887.8627999999999
 21
1118.1007
  0
LINE
  8
_0-0_LAYER001
  6
CONTINUOUS
 62
    2
 10
1901.1158
 20
1115.7647999999999
 11
1898.4567000000002
 21
1116.2338
  0
LINE
  8
_0-0_LAYER001
  6
CONTINUOUS
 62
    2
 10
1905.4488000000001
 20
1115.0008
 11
1902.7896999999998
 21
1115.4698000000001
  0
LINE
  8
_0-0_LAYER001
  6
CONTINUOUS
 62
    2
 10
1908.5999000000002
 20
1114.4448
 11
1907.1228000000001
 21
1114.7048
  0
LINE
  8
_0-0_LAYER001
  6
CONTINUOUS
 62
    2
 10
1885.6388000000002
 20
1122.3517999999999
 11
1910.9117999999999
 21
1126.8077000000001
  0
LINE
  8
_0-0_LAYER001
  6
CONTINUOUS
 62
    2
 10
1885.6388000000002
 20
1122.3517999999999
 11
1910.7366999999999
 21
1117.9258
  0
LINE
  8
_0-0_LAYER001
  6
CONTINUOUS
 62
    2
 10
1869.6628000000001
 20
1126.6007999999999
 11
1887.8627999999999
 21
1126.6007999999999
  0
LINE
  8
_0-0_LAYER001
  6
CONTINUOUS
 62
    2
 10
1869.6628000000001
 20
1118.1007
 11
1887.8627999999999
 21
1118.1007
  0
LINE
  8
_0-0_LAYER001
  6
CONTINUOUS
 62
    2
 10
1869.6628000000001
 20
1118.1007
 11
1869.6628000000001
 21
1126.6007999999999
  0
LINE
  8
_0-0_LAYER001
  6
CONTINUOUS
 62
    2
 10
1839.6628000000001
 20
1102.3507
 11
1869.6628000000001
 21
1102.3507
  0
LINE
  8
_0-0_LAYER001
  6
CONTINUOUS
 62
    2
 10
1869.6628000000001
 20
1125.3507
 11
1845.6626999999999
 21
1125.3507
  0
LINE
  8
_0-0_LAYER001
  6
CONTINUOUS
 62
    2
 10
1869.6628000000001
 20
1119.3507999999999
 11
1845.6626999999999
 21
1119.3507999999999
  0
LINE
  8
_0-0_LAYER001
  6
CONTINUOUS
 62
    2
 10
1854.2728999999999
 20
1119.3507999999999
 11
1857.7359999999999
 21
1125.3507
  0
LINE
  8
_0-0_LAYER001
  6
CONTINUOUS
 62
    2
 10
1859.9960000000001
 20
1119.3507999999999
 11
1863.4591
 21
1125.3507
  0
LINE
  8
_0-0_LAYER001
  6
CONTINUOUS
 62
    2
 10
1865.7192
 20
1119.3507999999999
 11
1869.1822000000002
 21
1125.3507
  0
LINE
  8
_0-0_LAYER001
  6
CONTINUOUS
 62
    2
 10
1839.6628000000001
 20
1102.3507
 11
1839.6628000000001
 21
1139.8715
  0
LINE
  8
_0-0_LAYER001
  6
CONTINUOUS
 62
    2
 10
1869.6628000000001
 20
1102.3507
 11
1843.1668
 21
1137.6787999999999
  0
ARC
  8
_0-0_LAYER001
  6
CONTINUOUS
 62
    2
 10
1909.0268000000001
 20
1128.8068000000001
 40
1.5049999999999999
 50
10.451269999999999
 51
99.637527999999989
  0
ARC
  8
_0-0_LAYER001
  6
CONTINUOUS
 62
    2
 10
1908.8588
 20
1115.9238
 40
1.4969999999999999
 50
259.83899000000008
 51
350.14733000000001
  0
LINE
  8
_0-0_LAYER001
  6
CONTINUOUS
 62
    2
 10
1837.1727999999998
 20
1152.1454000000001
 11
1845.2435
 21
1155.9081000000001
  0
LINE
  8
_0-0_LAYER001
  6
CONTINUOUS
 62
    2
 10
1851.6125000000002
 20
1127.3244
 11
1857.0688
 21
1120.2565
  0
LINE
  8
_0-0_LAYER001
  6
CONTINUOUS
 62
    2
 10
1843.5610999999999
 20
1153.3634999999999
 11
1854.9717000000001
 21
1128.8906999999999
  0
LINE
  8
_0-0_LAYER001
  6
CONTINUOUS
 62
    2
 10
1857.0688
 20
1120.2565
 11
1854.9717000000001
 21
1128.8906999999999
  0
LINE
  8
_0-0_LAYER001
  6
CONTINUOUS
 62
    2
 10
1840.2015999999999
 20
1151.7987000000001
 11
1837.1727999999998
 21
1152.1454000000001
  0
LINE
  8
_0-0_LAYER001
  6
CONTINUOUS
 62
    2
 10
1843.5610999999999
 20
1153.3634999999999
 11
1845.2435
 21
1155.9081000000001
  0
LINE
  8
_0-0_LAYER001
  6
CONTINUOUS
 62
    2
 10
1840.2015999999999
 20
1151.7987000000001
 11
1851.6125000000002
 21
1127.3244
  0
LINE
  8
_0-0_LAYER001
  6
CONTINUOUS
 62
    2
 10
1863.6707999999999
 20
1102.3507
 11
1856.5635000000002
 21
1093.1893
  0
ARC
  8
_0-0_LAYER001
  6
CONTINUOUS
 62
    2
 10
1748.1075000000001
 20
1098.0816
 40
23.681063000000002
 50
338.32092999999998
 51
6.5449780000000279
  0
ARC
  8
_0-0_LAYER001
  6
CONTINUOUS
 62
    2
 10
1691.4430000000002
 20
1065.2537
 40
77.282124999999994
 50
333.06542999999999
 51
3.8251930000000165
  0
LINE
  8
_0-0_LAYER001
  6
CONTINUOUS
 62
    3
 10
1824.8667999999998
 20
1096.2324000000001
 11
1824.8442
 21
1095.7672
  0
LINE
  8
_0-0_LAYER001
  6
CONTINUOUS
 62
    3
 10
1824.8442
 20
1095.7672
 11
1824.7827000000002
 21
1094.5044
  0
LINE
  8
_0-0_LAYER001
  6
CONTINUOUS
 62
    3
 10
1824.7827000000002
 20
1094.5044
 11
1824.6921000000002
 21
1092.6434999999999
  0
LINE
  8
_0-0_LAYER001
  6
CONTINUOUS
 62
    3
 10
1824.6921000000002
 20
1092.6434999999999
 11
1824.5821000000001
 21
1090.3838000000001
  0
LINE
  8
_0-0_LAYER001
  6
CONTINUOUS
 62
    3
 10
1824.5821000000001
 20
1090.3838000000001
 11
1824.4623999999999
 21
1087.9248
  0
LINE
  8
_0-0_LAYER001
  6
CONTINUOUS
 62
    3
 10
1824.4623999999999
 20
1087.9248
 11
1824.3427000000001
 21
1085.4657
  0
LINE
  8
_0-0_LAYER001
  6
CONTINUOUS
 62
    3
 10
1824.3427000000001
 20
1085.4657
 11
1824.2327
 21
1083.2059999999999
  0
LINE
  8
_0-0_LAYER001
  6
CONTINUOUS
 62
    3
 10
1824.2327
 20
1083.2059999999999
 11
1824.1421
 21
1081.3451
  0
LINE
  8
_0-0_LAYER001
  6
CONTINUOUS
 62
    3
 10
1824.1421
 20
1081.3451
 11
1824.0805999999998
 21
1080.0824
  0
LINE
  8
_0-0_LAYER001
  6
CONTINUOUS
 62
    3
 10
1824.0805999999998
 20
1080.0824
 11
1824.058
 21
1079.6170999999999
  0
LINE
  8
_0-0_LAYER001
  6
CONTINUOUS
 62
    3
 10
1824.058
 20
1079.6170999999999
 11
1822.9128000000001
 21
1079.6928
  0
LINE
  8
_0-0_LAYER001
  6
CONTINUOUS
 62
    3
 10
1822.9128000000001
 20
1079.6928
 11
1819.5374999999999
 21
1079.7614000000001
  0
LINE
  8
_0-0_LAYER001
  6
CONTINUOUS
 62
    3
 10
1819.5374999999999
 20
1079.7614000000001
 11
1814.0225
 21
1079.5854999999999
  0
LINE
  8
_0-0_LAYER001
  6
CONTINUOUS
 62
    3
 10
1814.0225
 20
1079.5854999999999
 11
1806.4580000000001
 21
1078.9274
  0
LINE
  8
_0-0_LAYER001
  6
CONTINUOUS
 62
    3
 10
1806.4580000000001
 20
1078.9274
 11
1796.9344000000001
 21
1077.5495000000001
  0
LINE
  8
_0-0_LAYER001
  6
CONTINUOUS
 62
    3
 10
1796.9344000000001
 20
1077.5495000000001
 11
1785.5419000000002
 21
1075.2144000000001
  0
LINE
  8
_0-0_LAYER001
  6
CONTINUOUS
 62
    3
 10
1785.5419000000002
 20
1075.2144000000001
 11
1772.3710000000001
 21
1071.6844000000001
  0
LINE
  8
_0-0_LAYER001
  6
CONTINUOUS
 62
    3
 10
1772.3710000000001
 20
1071.6844000000001
 11
1757.5119
 21
1066.722
  0
LINE
  8
_0-0_LAYER001
  6
CONTINUOUS
 62
    3
 10
1757.5119
 20
1066.722
 11
1741.0549000000001
 21
1060.0897
  0
LINE
  8
_0-0_LAYER001
  6
CONTINUOUS
 62
    3
 10
1741.0549000000001
 20
1060.0897
 11
1723.0904
 21
1051.5498
  0
LINE
  8
_0-0_LAYER001
  6
CONTINUOUS
 62
    3
 10
1723.0904
 20
1051.5498
 11
1723.1273000000001
 21
1052.3069
  0
LINE
  8
_0-0_LAYER001
  6
CONTINUOUS
 62
    3
 10
1723.1273000000001
 20
1052.3069
 11
1723.2273
 21
1054.3620000000001
  0
LINE
  8
_0-0_LAYER001
  6
CONTINUOUS
 62
    3
 10
1723.2273
 20
1054.3620000000001
 11
1723.3748000000001
 21
1057.3905999999999
  0
LINE
  8
_0-0_LAYER001
  6
CONTINUOUS
 62
    3
 10
1723.3748000000001
 20
1057.3905999999999
 11
1723.5538000000001
 21
1061.0681999999999
  0
LINE
  8
_0-0_LAYER001
  6
CONTINUOUS
 62
    3
 10
1723.5538000000001
 20
1061.0681999999999
 11
1723.7485999999999
 21
1065.0702000000001
  0
LINE
  8
_0-0_LAYER001
  6
CONTINUOUS
 62
    3
 10
1723.7485999999999
 20
1065.0702000000001
 11
1723.9434999999999
 21
1069.0723
  0
LINE
  8
_0-0_LAYER001
  6
CONTINUOUS
 62
    3
 10
1723.9434999999999
 20
1069.0723
 11
1724.1224999999999
 21
1072.7498000000001
  0
LINE
  8
_0-0_LAYER001
  6
CONTINUOUS
 62
    3
 10
1724.1224999999999
 20
1072.7498000000001
 11
1724.2698999999998
 21
1075.7783999999999
  0
LINE
  8
_0-0_LAYER001
  6
CONTINUOUS
 62
    3
 10
1724.2698999999998
 20
1075.7783999999999
 11
1724.3699999999999
 21
1077.8335
  0
LINE
  8
_0-0_LAYER001
  6
CONTINUOUS
 62
    3
 10
1724.3699999999999
 20
1077.8335
 11
1724.4068000000002
 21
1078.5907
  0
LINE
  8
_0-0_LAYER001
  6
CONTINUOUS
 62
    3
 10
1724.4068000000002
 20
1078.5907
 11
1726.1003999999998
 21
1079.0951
  0
LINE
  8
_0-0_LAYER001
  6
CONTINUOUS
 62
    3
 10
1726.1003999999998
 20
1079.0951
 11
1730.875
 21
1080.4623999999999
  0
LINE
  8
_0-0_LAYER001
  6
CONTINUOUS
 62
    3
 10
1730.875
 20
1080.4623999999999
 11
1738.2712999999999
 21
1082.4742000000001
  0
LINE
  8
_0-0_LAYER001
  6
CONTINUOUS
 62
    3
 10
1738.2712999999999
 20
1082.4742000000001
 11
1747.8299000000002
 21
1084.9115999999999
  0
LINE
  8
_0-0_LAYER001
  6
CONTINUOUS
 62
    3
 10
1747.8299000000002
 20
1084.9115999999999
 11
1759.0913999999998
 21
1087.5561
  0
LINE
  8
_0-0_LAYER001
  6
CONTINUOUS
 62
    3
 10
1759.0913999999998
 20
1087.5561
 11
1771.5965999999999
 21
1090.1891000000001
  0
LINE
  8
_0-0_LAYER001
  6
CONTINUOUS
 62
    3
 10
1771.5965999999999
 20
1090.1891000000001
 11
1784.8861000000002
 21
1092.5917999999999
  0
LINE
  8
_0-0_LAYER001
  6
CONTINUOUS
 62
    3
 10
1784.8861000000002
 20
1092.5917999999999
 11
1798.5005000000001
 21
1094.5456999999999
  0
LINE
  8
_0-0_LAYER001
  6
CONTINUOUS
 62
    3
 10
1798.5005000000001
 20
1094.5456999999999
 11
1811.9805000000001
 21
1095.8322000000001
  0
LINE
  8
_0-0_LAYER001
  6
CONTINUOUS
 62
    3
 10
1824.8667999999998
 20
1096.2324000000001
 11
1811.8674999999998
 21
1095.8214
  0
ARC
  8
_0-0_LAYER001
  6
CONTINUOUS
 62
    2
 10
1827.3888000000002
 20
1266.2752
 40
20.694040000000001
 50
335.49168000000003
 51
33.319545000000062
  0
LINE
  8
_0-0_LAYER001
  6
CONTINUOUS
 62
    2
 10
1859.6907999999999
 20
1277.6425999999999
 11
1859.6907999999999
 21
1257.6425999999999
  0
LINE
  8
_0-2_LAYER004
  6
CONTINUOUS
 62
    2
 10
1865.1527999999998
 20
1277.6425999999999
 11
1859.6907999999999
 21
1257.6425999999999
  0
LINE
  8
_0-2_LAYER004
  6
CONTINUOUS
 62
    2
 10
1865.1527999999998
 20
1257.6425999999999
 11
1859.6907999999999
 21
1277.6425999999999
  0
LINE
  8
_0-2_LAYER004
  6
CONTINUOUS
 62
    2
 10
1867.2147
 20
1257.7442000000001
 11
1867.2147
 21
1274.6869999999999
  0
LINE
  8
_0-1_LAYER003
  6
CONTINUOUS
 62
    2
 10
1801.3258999999998
 20
1158.1202000000001
 11
1803.2671
 21
1150.8757000000001
  0
LINE
  8
_0-1_LAYER003
  6
CONTINUOUS
 62
    2
 10
1803.2671
 20
1150.8757000000001
 11
1797.9638
 21
1156.1790000000001
  0
LINE
  8
_0-1_LAYER003
  6
CONTINUOUS
 62
    2
 10
1784.7872000000002
 20
1142.7422999999999
 11
1786.7283000000002
 21
1135.4979000000001
  0
LINE
  8
_0-1_LAYER003
  6
CONTINUOUS
 62
    2
 10
1786.7283000000002
 20
1135.4979000000001
 11
1781.4250000000002
 21
1140.8012000000001
  0
LINE
  8
_0-0_LAYER001
  6
CONTINUOUS
 62
    2
 10
1827.0697
 20
1129.5472
 11
1827.0697
 21
1110.0885000000001
  0
LINE
  8
_0-0_LAYER001
  6
CONTINUOUS
 62
    2
 10
1827.0697
 20
1110.0885000000001
 11
1843.6095999999998
 21
1110.0885000000001
  0
LINE
  8
_0-0_LAYER001
  6
CONTINUOUS
 62
    2
 10
1827.0697
 20
1129.5472
 11
1844.5825
 21
1129.5472
  0
LINE
  8
_0-0_LAYER001
  6
CONTINUOUS
 62
    2
 10
1844.5825
 20
1129.5472
 11
1844.5825
 21
1110.0885000000001
  0
LINE
  8
_0-0_LAYER001
  6
CONTINUOUS
 62
    2
 10
1819.2862
 20
1097.4403
 11
1819.2862
 21
1079.7614000000001
  0
LINE
  8
_0-0_LAYER001
  6
CONTINUOUS
 62
    2
 10
1819.5374999999999
 20
1079.7614000000001
 11
1824.058
 21
1079.6170999999999
  0
LINE
  8
_0-0_LAYER001
  6
CONTINUOUS
 62
    2
 10
1824.058
 20
1079.6170999999999
 11
1847.0149000000001
 21
1104.2509
  0
LINE
  8
_0-0_LAYER001
  6
CONTINUOUS
 62
    2
 10
1819.2862
 20
1097.4403
 11
1844.5825
 21
1110.0885000000001
  0
LINE
  8
_0-0_LAYER001
  6
CONTINUOUS
 62
    2
 10
1844.5825
 20
1110.0885000000001
 11
1847.0149000000001
 21
1104.2509
  0
LINE
  8
_0-0_LAYER001
  6
CONTINUOUS
 62
    2
 10
1998.4845
 20
980.49050000000011
 11
1945.9845
 21
980.49050000000011
  0
CIRCLE
  8
_0-0_LAYER001
  6
CONTINUOUS
 62
    2
 10
1995.9845
 20
980.49050000000011
 40
1.6999999999999997
  0
LINE
  8
_0-0_LAYER001
  6
CONTINUOUS
 62
    2
 10
1995.9845
 20
980.49050000000011
 11
1995.9845
 21
1095.3507
  0
CIRCLE
  8
_0-0_LAYER001
  6
CONTINUOUS
 62
    2
 10
1995.9845
 20
1095.3507
 40
1.6999999999999997
  0
LINE
  8
_0-0_LAYER001
  6
CONTINUOUS
 62
    2
 10
1998.4845
 20
1095.3507
 11
1945.9845
 21
1095.3507
  0
LINE
  8
_0-0_LAYER001
  6
CONTINUOUS
 62
    2
 10
1998.4845
 20
1157.6425999999999
 11
1945.9845
 21
1157.6425999999999
  0
CIRCLE
  8
_0-0_LAYER001
  6
CONTINUOUS
 62
    2
 10
1995.9845
 20
1157.6425999999999
 40
1.6999999999999997
  0
LINE
  8
_0-0_LAYER001
  6
CONTINUOUS
 62
    2
 10
1995.9845
 20
1157.6425999999999
 11
1995.9845
 21
1257.6425999999999
  0
CIRCLE
  8
_0-0_LAYER001
  6
CONTINUOUS
 62
    2
 10
1995.9845
 20
1257.6425999999999
 40
1.6999999999999997
  0
LINE
  8
_0-0_LAYER001
  6
CONTINUOUS
 62
    2
 10
1998.4845
 20
1257.6425999999999
 11
1945.9845
 21
1257.6425999999999
  0
CIRCLE
  8
_0-0_LAYER001
  6
CONTINUOUS
 62
    2
 10
1995.9845
 20
1257.6425999999999
 40
1.6999999999999997
  0
LINE
  8
_0-0_LAYER001
  6
CONTINUOUS
 62
    2
 10
1995.9845
 20
1257.6425999999999
 11
1995.9845
 21
1277.6425999999999
  0
CIRCLE
  8
_0-0_LAYER001
  6
CONTINUOUS
 62
    2
 10
1995.9845
 20
1277.6425999999999
 40
1.6999999999999997
  0
LINE
  8
_0-0_LAYER001
  6
CONTINUOUS
 62
    2
 10
1998.4845
 20
1277.6425999999999
 11
1945.9845
 21
1277.6425999999999
  0
LINE
  8
_0-2_LAYER004
  6
CONTINUOUS
 62
    2
 10
840.74279999999999
 20
1002.4521
 11
1722.4767999999999
 21
1002.4521
  0
LINE
  8
_0-2_LAYER004
  6
CONTINUOUS
 62
    2
 10
840.74279999999999
 20
987.45209999999997
 11
1722.4767999999999
 21
987.45209999999997
  0
LINE
  8
_0-2_LAYER004
  6
CONTINUOUS
 62
    2
 10
1722.4767999999999
 20
1002.4521
 11
1722.4767999999999
 21
987.45209999999997
  0
LINE
  8
_0-2_LAYER004
  6
CONTINUOUS
 62
    2
 10
1727.7518
 20
985.36249999999995
 11
1727.7518
 21
1002.4521
  0
LINE
  8
_0-2_LAYER004
  6
CONTINUOUS
 62
    2
 10
1727.7518
 20
1002.4521
 11
1748.2957999999999
 21
1002.4521
  0
LINE
  8
_0-2_LAYER004
  6
CONTINUOUS
 62
    2
 10
1869.6628000000001
 20
980.49050000000011
 11
840.74279999999999
 21
980.49050000000011
  0
LINE
  8
_0-2_LAYER004
  6
CONTINUOUS
 62
    2
 10
1727.7518
 20
985.36249999999995
 11
1863.6707999999999
 21
985.36249999999995
  0
LINE
  8
_0-2_LAYER004
  6
DASHED3
 62
    2
 10
1867.3398000000002
 20
982.98749999999995
 11
840.74279999999999
 21
982.98749999999995
  0
LINE
  8
_0-2_LAYER004
  6
CONTINUOUS
 62
    2
 10
1772.1279
 20
1127.2485999999999
 11
1769.4249
 21
1142.0026
  0
LINE
  8
_0-2_LAYER004
  6
CONTINUOUS
 62
    2
 10
1769.4249
 20
1142.0026
 11
1857.9529000000002
 21
1158.2185999999999
  0
LINE
  8
_0-2_LAYER004
  6
CONTINUOUS
 62
    2
 10
1857.9529000000002
 20
1158.2185999999999
 11
1860.6549
 21
1143.4636
  0
LINE
  8
_0-2_LAYER004
  6
CONTINUOUS
 62
    2
 10
1860.6549
 20
1143.4636
 11
1772.1279
 21
1127.2485999999999
  0
LINE
  8
_0-2_LAYER004
  6
CONTINUOUS
 62
    2
 10
1769.4249
 20
1142.0026
 11
1860.6549
 21
1143.4636
  0
LINE
  8
_0-2_LAYER004
  6
CONTINUOUS
 62
    2
 10
1754.6939000000002
 20
1141.2467999999999
 11
1754.1459
 21
1123.1677999999999
  0
LINE
  8
_0-2_LAYER004
  6
CONTINUOUS
 62
    2
 10
1844.6628000000001
 20
1277.6425999999999
 11
1844.6628000000001
 21
1474.3454999999999
  0
LINE
  8
_0-2_LAYER004
  6
CONTINUOUS
 62
    2
 10
1754.6939000000002
 20
1141.2467999999999
 11
1844.2078000000001
 21
1157.6425999999999
  0
LINE
  8
_0-2_LAYER004
  6
CONTINUOUS
 62
    2
 10
1844.2078000000001
 20
1157.6425999999999
 11
1844.2078000000001
 21
1257.6425999999999
  0
LINE
  8
_0-2_LAYER004
  6
DASHED3
 62
    2
 10
1867.3398000000002
 20
982.98749999999995
 11
1867.3398000000002
 21
1230.4905000000001
  0
LINE
  8
_0-4_LAYER007
  6
CONTINUOUS
 62
    2
 10
1844.6628000000001
 20
1331.9645
 11
1988.0408000000002
 21
1475.3424999999997
  0
LINE
  8
_0-4_LAYER007
  6
CONTINUOUS
 62
    2
 10
1844.6628000000001
 20
1320.6504999999997
 11
1988.0408000000002
 21
1464.0284999999999
  0
LINE
  8
_0-4_LAYER007
  6
CONTINUOUS
 62
    2
 10
1844.6628000000001
 20
1309.3375000000001
 11
1988.0408000000002
 21
1452.7154999999998
  0
LINE
  8
_0-2_LAYER004
  6
CONTINUOUS
 62
    2
 10
1863.6707999999999
 20
1102.3507
 11
1863.6707999999999
 21
985.36249999999995
  0
LINE
  8
_0-2_LAYER004
  6
CONTINUOUS
 62
    2
 10
1869.6628000000001
 20
1277.6425999999999
 11
1869.6628000000001
 21
940.49050000000011
  0
LINE
  8
_0-4_LAYER007
  6
CONTINUOUS
 62
    2
 10
840.74279999999999
 20
810.49050000000011
 11
1869.6628000000001
 21
810.49050000000011
  0
LINE
  8
_0-4_LAYER007
  6
CONTINUOUS
 62
    2
 10
1046.1207999999999
 20
940.49050000000011
 11
916.12079999999992
 21
810.49050000000011
  0
LINE
  8
_0-4_LAYER007
  6
CONTINUOUS
 62
    2
 10
1023.4928
 20
940.49050000000011
 11
893.49279999999999
 21
810.49050000000011
  0
LINE
  8
_0-4_LAYER007
  6
CONTINUOUS
 62
    2
 10
1034.8068000000001
 20
940.49050000000011
 11
904.80680000000007
 21
810.49050000000011
  0
LINE
  8
_0-4_LAYER007
  6
CONTINUOUS
 62
    2
 10
1455.7507999999998
 20
940.49050000000011
 11
1325.7508000000003
 21
810.49050000000011
  0
LINE
  8
_0-4_LAYER007
  6
CONTINUOUS
 62
    2
 10
1467.0648000000001
 20
940.49050000000011
 11
1337.0648000000001
 21
810.49050000000011
  0
LINE
  8
_0-4_LAYER007
  6
CONTINUOUS
 62
    2
 10
1478.3778000000002
 20
940.49050000000011
 11
1348.3778000000002
 21
810.49050000000011
  0
CIRCLE
  8
_0-3_LAYER005
  6
CONTINUOUS
 62
    2
 10
1792.9528
 20
1072.7867000000001
 40
1.1619999999999999
  0
CIRCLE
  8
_0-3_LAYER005
  6
CONTINUOUS
 62
    2
 10
1801.1707999999999
 20
1072.7867000000001
 40
1.1619999999999999
  0
CIRCLE
  8
_0-3_LAYER005
  6
CONTINUOUS
 62
    2
 10
1788.0228000000002
 20
1066.7645
 40
1.1619999999999999
  0
CIRCLE
  8
_0-3_LAYER005
  6
CONTINUOUS
 62
    2
 10
1797.8838000000001
 20
1070.8724999999999
 40
1.1619999999999999
  0
CIRCLE
  8
_0-3_LAYER005
  6
CONTINUOUS
 62
    2
 10
1775.6958
 20
1063.4765
 40
1.1619999999999999
  0
CIRCLE
  8
_0-3_LAYER005
  6
CONTINUOUS
 62
    2
 10
1774.6032
 20
1041.6623
 40
1.1619999999999999
  0
CIRCLE
  8
_0-3_LAYER005
  6
CONTINUOUS
 62
    2
 10
1821.6329000000001
 20
1051.7068999999999
 40
1.1619999999999999
  0
CIRCLE
  8
_0-3_LAYER005
  6
CONTINUOUS
 62
    2
 10
1802.1122999999998
 20
1047.9260999999999
 40
1.1619999999999999
  0
CIRCLE
  8
_0-3_LAYER005
  6
CONTINUOUS
 62
    2
 10
1774.8737999999998
 20
1055.2594999999999
 40
1.1619999999999999
  0
CIRCLE
  8
_0-3_LAYER005
  6
CONTINUOUS
 62
    2
 10
1780.6268
 20
1051.1505
 40
1.1619999999999999
  0
CIRCLE
  8
_0-3_LAYER005
  6
CONTINUOUS
 62
    2
 10
1789.6658000000002
 20
1053.6155000000001
 40
1.1619999999999999
  0
CIRCLE
  8
_0-3_LAYER005
  6
CONTINUOUS
 62
    2
 10
1811.8537999999999
 20
1060.1895
 40
1.1619999999999999
  0
CIRCLE
  8
_0-3_LAYER005
  6
CONTINUOUS
 62
    2
 10
1815.1408000000001
 20
1067.5854999999999
 40
1.1619999999999999
  0
CIRCLE
  8
_0-3_LAYER005
  6
CONTINUOUS
 62
    2
 10
1824.1797999999999
 20
1072.5165
 40
1.1619999999999999
  0
CIRCLE
  8
_0-3_LAYER005
  6
CONTINUOUS
 62
    2
 10
1831.2568999999999
 20
1063.9121
 40
1.1619999999999999
  0
CIRCLE
  8
_0-3_LAYER005
  6
CONTINUOUS
 62
    2
 10
1815.9627999999998
 20
1071.9657
 40
1.1619999999999999
  0
CIRCLE
  8
_0-3_LAYER005
  6
CONTINUOUS
 62
    2
 10
1827.4668000000001
 20
1080.1827000000001
 40
1.1619999999999999
  0
CIRCLE
  8
_0-3_LAYER005
  6
CONTINUOUS
 62
    2
 10
1825.8238000000001
 20
1082.6487
 40
1.1619999999999999
  0
CIRCLE
  8
_0-3_LAYER005
  6
CONTINUOUS
 62
    2
 10
1833.2197999999999
 20
1086.7566999999999
 40
1.1619999999999999
  0
CIRCLE
  8
_0-3_LAYER005
  6
CONTINUOUS
 62
    2
 10
1835.6848
 20
1094.9747
 40
1.1619999999999999
  0
CIRCLE
  8
_0-3_LAYER005
  6
CONTINUOUS
 62
    2
 10
1797.6233999999999
 20
1098.3796
 40
1.1619999999999999
  0
CIRCLE
  8
_0-3_LAYER005
  6
CONTINUOUS
 62
    2
 10
1788.5844000000002
 20
1103.3106
 40
1.1619999999999999
  0
CIRCLE
  8
_0-3_LAYER005
  6
CONTINUOUS
 62
    2
 10
1786.1194
 20
1100.8456000000001
 40
1.1619999999999999
  0
CIRCLE
  8
_0-3_LAYER005
  6
CONTINUOUS
 62
    2
 10
1792.6934000000001
 20
1098.3796
 40
1.1619999999999999
  0
CIRCLE
  8
_0-3_LAYER005
  6
CONTINUOUS
 62
    2
 10
1802.9092000000001
 20
1100.5778
 40
1.1619999999999999
  0
CIRCLE
  8
_0-3_LAYER005
  6
CONTINUOUS
 62
    2
 10
1809.4832000000001
 20
1099.7568000000001
 40
1.1619999999999999
  0
CIRCLE
  8
_0-3_LAYER005
  6
CONTINUOUS
 62
    2
 10
1817.4157
 20
1102.0310999999999
 40
1.1619999999999999
  0
CIRCLE
  8
_0-3_LAYER005
  6
CONTINUOUS
 62
    2
 10
1825.6336999999999
 20
1102.8531
 40
1.1619999999999999
  0
CIRCLE
  8
_0-3_LAYER005
  6
CONTINUOUS
 62
    2
 10
1831.6948000000002
 20
1105.5503000000001
 40
1.1619999999999999
  0
CIRCLE
  8
_0-3_LAYER005
  6
CONTINUOUS
 62
    2
 10
1833.3388
 20
1099.7982999999999
 40
1.1619999999999999
  0
CIRCLE
  8
_0-3_LAYER005
  6
CONTINUOUS
 62
    2
 10
1828.2887999999998
 20
1111.4096999999999
 40
1.1619999999999999
  0
CIRCLE
  8
_0-3_LAYER005
  6
CONTINUOUS
 62
    2
 10
1811.7719000000002
 20
1043.4889000000001
 40
1.1619999999999999
  0
CIRCLE
  8
_0-3_LAYER005
  6
CONTINUOUS
 62
    2
 10
1799.6462999999999
 20
1042.9951000000001
 40
1.1619999999999999
  0
CIRCLE
  8
_0-3_LAYER005
  6
CONTINUOUS
 62
    2
 10
1791.3098
 20
1065.3906999999999
 40
1.1619999999999999
  0
CIRCLE
  8
_0-3_LAYER005
  6
CONTINUOUS
 62
    2
 10
1805.2797999999998
 20
1073.3385000000001
 40
1.1619999999999999
  0
CIRCLE
  8
_0-3_LAYER005
  6
CONTINUOUS
 62
    2
 10
1781.4477999999999
 20
1067.0346999999999
 40
1.1619999999999999
  0
CIRCLE
  8
_0-3_LAYER005
  6
CONTINUOUS
 62
    2
 10
1817.5239000000001
 20
1054.1719000000001
 40
1.1619999999999999
  0
CIRCLE
  8
_0-3_LAYER005
  6
CONTINUOUS
 62
    2
 10
1777.8901999999998
 20
1044.1283000000001
 40
1.1619999999999999
  0
CIRCLE
  8
_0-3_LAYER005
  6
CONTINUOUS
 62
    2
 10
1800.3488000000002
 20
1055.2594999999999
 40
1.1619999999999999
  0
CIRCLE
  8
_0-3_LAYER005
  6
CONTINUOUS
 62
    2
 10
1796.2397999999998
 20
1065.9425000000001
 40
1.1619999999999999
  0
CIRCLE
  8
_0-3_LAYER005
  6
CONTINUOUS
 62
    2
 10
1806.1008000000002
 20
1067.5854999999999
 40
1.1619999999999999
  0
CIRCLE
  8
_0-3_LAYER005
  6
CONTINUOUS
 62
    2
 10
1814.3188
 20
1071.6945000000001
 40
1.1619999999999999
  0
CIRCLE
  8
_0-3_LAYER005
  6
CONTINUOUS
 62
    2
 10
1823.3578000000002
 20
1077.4475
 40
1.1619999999999999
  0
CIRCLE
  8
_0-3_LAYER005
  6
CONTINUOUS
 62
    2
 10
1823.3578000000002
 20
1068.6786999999999
 40
1.1619999999999999
  0
CIRCLE
  8
_0-3_LAYER005
  6
CONTINUOUS
 62
    2
 10
1823.3578000000002
 20
1074.4306999999999
 40
1.1619999999999999
  0
CIRCLE
  8
_0-3_LAYER005
  6
CONTINUOUS
 62
    2
 10
1842.0891999999999
 20
1080.4884
 40
1.1619999999999999
  0
CIRCLE
  8
_0-3_LAYER005
  6
CONTINUOUS
 62
    2
 10
1838.6518999999998
 20
1071.5782999999999
 40
1.1619999999999999
  0
CIRCLE
  8
_0-3_LAYER005
  6
CONTINUOUS
 62
    2
 10
1833.7219
 20
1071.5782999999999
 40
1.1619999999999999
  0
CIRCLE
  8
_0-3_LAYER005
  6
CONTINUOUS
 62
    2
 10
1815.0589
 20
1047.5979
 40
1.1619999999999999
  0
CIRCLE
  8
_0-3_LAYER005
  6
CONTINUOUS
 62
    2
 10
1781.1772000000001
 20
1038.1051
 40
1.1619999999999999
  0
CIRCLE
  8
_0-3_LAYER005
  6
CONTINUOUS
 62
    2
 10
1806.1008000000002
 20
1067.8567
 40
1.1619999999999999
  0
CIRCLE
  8
_0-3_LAYER005
  6
CONTINUOUS
 62
    2
 10
1783.9137999999998
 20
1067.8567
 40
1.1619999999999999
  0
LINE
  8
_0-3_LAYER005
  6
CONTINUOUS
 62
    2
 10
1844.6810999999998
 20
1277.6425999999999
 11
1869.6628000000001
 21
1277.6425999999999
  0
LINE
  8
_0-3_LAYER005
  6
CONTINUOUS
 62
    2
 10
1844.2078000000001
 20
1257.6425999999999
 11
1869.2078000000001
 21
1257.6425999999999
  0
LINE
  8
_0-3_LAYER005
  6
CONTINUOUS
 62
    2
 10
1865.1527999999998
 20
1257.6425999999999
 11
1865.1527999999998
 21
1277.6425999999999
  0
LINE
  8
_0-3_LAYER005
  6
CONTINUOUS
 62
    2
 10
1853.3827999999999
 20
1257.6425999999999
 11
1859.6907999999999
 21
1263.9505999999999
  0
LINE
  8
_0-3_LAYER005
  6
CONTINUOUS
 62
    2
 10
1849.1397999999999
 20
1257.6425999999999
 11
1859.6907999999999
 21
1268.1936000000001
  0
LINE
  8
_0-3_LAYER005
  6
CONTINUOUS
 62
    2
 10
1847.0385000000001
 20
1259.7844
 11
1859.6907999999999
 21
1272.4358999999999
  0
LINE
  8
_0-3_LAYER005
  6
CONTINUOUS
 62
    2
 10
1848.0455000000002
 20
1265.0333000000001
 11
1859.6907999999999
 21
1276.6786
  0
LINE
  8
_0-3_LAYER005
  6
CONTINUOUS
 62
    2
 10
1847.8869
 20
1269.1162999999999
 11
1856.4117000000001
 21
1277.6425999999999
  0
LINE
  8
_0-3_LAYER005
  6
CONTINUOUS
 62
    2
 10
1847.1014
 20
1272.5724
 11
1852.1682000000001
 21
1277.6425999999999
  0
LINE
  8
_0-0_LAYER001
  6
CONTINUOUS
 62
    2
 10
1021.4014
 20
733.79130000000009
 11
1021.4014
 21
786.29130000000009
  0
CIRCLE
  8
_0-0_LAYER001
  6
CONTINUOUS
 62
    2
 10
1021.4014
 20
736.29130000000009
 40
1.6999999999999997
  0
LINE
  8
_0-0_LAYER001
  6
CONTINUOUS
 62
    2
 10
1021.4014
 20
736.29130000000009
 11
1286.4014
 21
736.29130000000009
  0
CIRCLE
  8
_0-0_LAYER001
  6
CONTINUOUS
 62
    2
 10
1286.4014
 20
736.29130000000009
 40
1.6999999999999997
  0
LINE
  8
_0-0_LAYER001
  6
CONTINUOUS
 62
    2
 10
1286.4014
 20
733.79130000000009
 11
1286.4014
 21
786.29130000000009
  0
CIRCLE
  8
_0-0_LAYER001
  6
CONTINUOUS
 62
    2
 10
1286.4014
 20
736.29130000000009
 40
1.6999999999999997
  0
LINE
  8
_0-0_LAYER001
  6
CONTINUOUS
 62
    2
 10
1286.4014
 20
736.29130000000009
 11
1551.4014000000002
 21
736.29130000000009
  0
CIRCLE
  8
_0-0_LAYER001
  6
CONTINUOUS
 62
    2
 10
1551.4014000000002
 20
736.29130000000009
 40
1.6999999999999997
  0
LINE
  8
_0-0_LAYER001
  6
CONTINUOUS
 62
    2
 10
1551.4014000000002
 20
733.79130000000009
 11
1551.4014000000002
 21
786.29130000000009
  0
CIRCLE
  8
_0-0_LAYER001
  6
CONTINUOUS
 62
    2
 10
1551.4014000000002
 20
736.29130000000009
 40
1.6999999999999997
  0
LINE
  8
_0-0_LAYER001
  6
CONTINUOUS
 62
    2
 10
1551.4014000000002
 20
736.29130000000009
 11
1856.4014000000002
 21
736.29130000000009
  0
CIRCLE
  8
_0-0_LAYER001
  6
CONTINUOUS
 62
    2
 10
1856.4014000000002
 20
736.29130000000009
 40
1.6999999999999997
  0
LINE
  8
_0-0_LAYER001
  6
CONTINUOUS
 62
    2
 10
1856.4014000000002
 20
733.79130000000009
 11
1856.4014000000002
 21
786.29130000000009
  0
LINE
  8
_0-0_LAYER001
  6
CONTINUOUS
 62
    4
 10
1816.6855999999998
 20
1042.7793999999999
 11
1816.6855999999998
 21
1059.9767999999999
  0
LINE
  8
_0-0_LAYER001
  6
CONTINUOUS
 62
    4
 10
1676.9589999999998
 20
998.94000000000005
 11
1668.4236000000001
 21
1013.4734000000001
  0
LINE
  8
_0-0_LAYER001
  6
CONTINUOUS
 62
    4
 10
1685.1269000000002
 20
998.28970000000004
 11
1693.4331000000002
 21
1008.3552
  0
ARC
  8
_0-0_LAYER001
  6
CONTINUOUS
 62
    4
 10
1681.2705000000001
 20
1001.4721
 40
5
 50
210.42578
 51
320.47001
  0
LINE
  8
_0-0_LAYER001
  6
CONTINUOUS
 62
    4
 10
1761.0725000000002
 20
997.81989999999996
 11
1753.7471
 21
1009.1259
  0
LINE
  8
_0-0_LAYER001
  6
CONTINUOUS
 62
    4
 10
1769.5821000000001
 20
998.00980000000004
 11
1778.5205000000001
 21
1013.2555
  0
ARC
  8
_0-0_LAYER001
  6
CONTINUOUS
 62
    4
 10
1765.2687000000001
 20
1000.5387000000001
 40
5
 50
212.93986000000001
 51
329.61716000000001
  0
LINE
  8
_0-0_LAYER001
  6
CONTINUOUS
 62
    4
 10
1808.8640999999998
 20
1037.5673999999999
 11
1811.2921999999999
 21
1037.9712999999999
  0
LINE
  8
_0-0_LAYER001
  6
CONTINUOUS
 62
    4
 10
1804.6750999999999
 20
1036.8712
 11
1808.8640999999998
 21
1037.5673999999999
  0
LINE
  8
_0-0_LAYER001
  6
CONTINUOUS
 62
    4
 10
1800.4812999999999
 20
1036.1756
 11
1804.6750999999999
 21
1036.8712
  0
LINE
  8
_0-0_LAYER001
  6
CONTINUOUS
 62
    4
 10
1796.2824999999998
 20
1035.4816000000001
 11
1800.4812999999999
 21
1036.1756
  0
LINE
  8
_0-0_LAYER001
  6
CONTINUOUS
 62
    4
 10
1792.0783999999999
 20
1034.7901999999999
 11
1796.2824999999998
 21
1035.4816000000001
  0
LINE
  8
_0-0_LAYER001
  6
CONTINUOUS
 62
    4
 10
1787.8715999999999
 20
1034.1025
 11
1792.0783999999999
 21
1034.7901999999999
  0
LINE
  8
_0-0_LAYER001
  6
CONTINUOUS
 62
    4
 10
1785.4193
 20
1033.704
 11
1787.8715999999999
 21
1034.1025
  0
LINE
  8
_0-0_LAYER001
  6
CONTINUOUS
 62
    4
 10
1780.6864999999998
 20
1032.9416000000001
 11
1785.4193
 21
1033.704
  0
LINE
  8
_0-0_LAYER001
  6
CONTINUOUS
 62
    4
 10
1772.4821000000002
 20
1031.6577
 11
1780.6864999999998
 21
1032.9416000000001
  0
LINE
  8
_0-0_LAYER001
  6
CONTINUOUS
 62
    4
 10
1764.1745999999998
 20
1030.4378999999999
 11
1772.4821000000002
 21
1031.6577
  0
LINE
  8
_0-0_LAYER001
  6
CONTINUOUS
 62
    4
 10
1755.7664
 20
1029.3215
 11
1764.1745999999998
 21
1030.4378999999999
  0
LINE
  8
_0-0_LAYER001
  6
CONTINUOUS
 62
    4
 10
1747.2538
 20
1028.3480999999999
 11
1755.7664
 21
1029.3215
  0
LINE
  8
_0-0_LAYER001
  6
CONTINUOUS
 62
    4
 10
1738.6945999999998
 20
1027.5641000000001
 11
1747.2538
 21
1028.3480999999999
  0
LINE
  8
_0-0_LAYER001
  6
CONTINUOUS
 62
    4
 10
1733.6331
 20
1027.2061000000001
 11
1738.6945999999998
 21
1027.5641000000001
  0
LINE
  8
_0-0_LAYER001
  6
CONTINUOUS
 62
    4
 10
1730.8305
 20
1027.0445
 11
1733.6331
 21
1027.2061000000001
  0
LINE
  8
_0-0_LAYER001
  6
CONTINUOUS
 62
    4
 10
1726.1095
 20
1026.8405
 11
1730.8305
 21
1027.0445
  0
LINE
  8
_0-0_LAYER001
  6
CONTINUOUS
 62
    4
 10
1721.2802999999999
 20
1026.7351000000001
 11
1726.1095
 21
1026.8405
  0
LINE
  8
_0-0_LAYER001
  6
CONTINUOUS
 62
    4
 10
1716.3786
 20
1026.7505000000001
 11
1721.2802999999999
 21
1026.7351000000001
  0
LINE
  8
_0-0_LAYER001
  6
CONTINUOUS
 62
    4
 10
1711.4076
 20
1026.9083000000001
 11
1716.3786
 21
1026.7505000000001
  0
LINE
  8
_0-0_LAYER001
  6
CONTINUOUS
 62
    4
 10
1706.4502000000002
 20
1027.2261000000001
 11
1711.4076
 21
1026.9083000000001
  0
LINE
  8
_0-0_LAYER001
  6
CONTINUOUS
 62
    4
 10
1703.3986
 20
1027.5074999999999
 11
1706.4502000000002
 21
1027.2261000000001
  0
LINE
  8
_0-0_LAYER001
  6
CONTINUOUS
 62
    4
 10
1699.4697000000001
 20
1027.9697000000001
 11
1703.3986
 21
1027.5074999999999
  0
LINE
  8
_0-0_LAYER001
  6
CONTINUOUS
 62
    4
 10
1692.9558000000002
 20
1028.9922999999999
 11
1699.4697000000001
 21
1027.9697000000001
  0
LINE
  8
_0-0_LAYER001
  6
CONTINUOUS
 62
    4
 10
1686.4090999999999
 20
1030.3444
 11
1692.9558000000002
 21
1028.9922999999999
  0
LINE
  8
_0-0_LAYER001
  6
CONTINUOUS
 62
    4
 10
1679.9461999999999
 20
1032.0002999999999
 11
1686.4090999999999
 21
1030.3444
  0
LINE
  8
_0-0_LAYER001
  6
CONTINUOUS
 62
    4
 10
1673.5803000000001
 20
1033.951
 11
1679.9461999999999
 21
1032.0002999999999
  0
LINE
  8
_0-0_LAYER001
  6
CONTINUOUS
 62
    4
 10
1667.4155000000001
 20
1036.1559999999999
 11
1673.5803000000001
 21
1033.951
  0
LINE
  8
_0-0_LAYER001
  6
CONTINUOUS
 62
    4
 10
1663.7289000000001
 20
1037.6277
 11
1667.4155000000001
 21
1036.1559999999999
  0
LINE
  8
_0-0_LAYER001
  6
CONTINUOUS
 62
    4
 10
1659.3645999999999
 20
1039.5201999999999
 11
1663.7289000000001
 21
1037.6277
  0
LINE
  8
_0-0_LAYER001
  6
CONTINUOUS
 62
    4
 10
1652.2955000000002
 20
1042.9351999999999
 11
1659.3645999999999
 21
1039.5201999999999
  0
LINE
  8
_0-0_LAYER001
  6
CONTINUOUS
 62
    4
 10
1645.4025999999999
 20
1046.6648
 11
1652.2955000000002
 21
1042.9351999999999
  0
LINE
  8
_0-0_LAYER001
  6
CONTINUOUS
 62
    4
 10
1638.7656000000002
 20
1050.5985000000001
 11
1645.4025999999999
 21
1046.6648
  0
LINE
  8
_0-0_LAYER001
  6
CONTINUOUS
 62
    4
 10
1632.3562999999999
 20
1054.681
 11
1638.7656000000002
 21
1050.5985000000001
  0
LINE
  8
_0-0_LAYER001
  6
CONTINUOUS
 62
    4
 10
1626.1720999999998
 20
1058.8431
 11
1632.3562999999999
 21
1054.681
  0
LINE
  8
_0-0_LAYER001
  6
CONTINUOUS
 62
    4
 10
1622.6298000000002
 20
1061.3068000000001
 11
1626.1720999999998
 21
1058.8431
  0
LINE
  8
_0-0_LAYER001
  6
CONTINUOUS
 62
    4
 10
1620.3978000000002
 20
1062.8803
 11
1622.6298000000002
 21
1061.3068000000001
  0
LINE
  8
_0-0_LAYER001
  6
CONTINUOUS
 62
    4
 10
1616.7741999999998
 20
1065.4195
 11
1620.3978000000002
 21
1062.8803
  0
LINE
  8
_0-0_LAYER001
  6
CONTINUOUS
 62
    4
 10
1613.4045000000001
 20
1067.6849999999999
 11
1616.7741999999998
 21
1065.4195
  0
LINE
  8
_0-0_LAYER001
  6
CONTINUOUS
 62
    4
 10
1610.2894999999999
 20
1069.6120000000001
 11
1613.4045000000001
 21
1067.6849999999999
  0
LINE
  8
_0-0_LAYER001
  6
CONTINUOUS
 62
    4
 10
1607.4223000000002
 20
1071.1677999999999
 11
1610.2894999999999
 21
1069.6120000000001
  0
LINE
  8
_0-0_LAYER001
  6
CONTINUOUS
 62
    4
 10
1604.5911999999998
 20
1072.4362000000001
 11
1607.4223000000002
 21
1071.1677999999999
  0
LINE
  8
_0-0_LAYER001
  6
CONTINUOUS
 62
    4
 10
1603.1280000000002
 20
1072.9684
 11
1604.5911999999998
 21
1072.4362000000001
  0
LINE
  8
_0-0_LAYER001
  6
CONTINUOUS
 62
    4
 10
1602.9468999999999
 20
1073.0263
 11
1603.1280000000002
 21
1072.9684
  0
LINE
  8
_0-0_LAYER001
  6
CONTINUOUS
 62
    4
 10
1602.1586000000002
 20
1073.2543000000001
 11
1602.9468999999999
 21
1073.0263
  0
LINE
  8
_0-0_LAYER001
  6
CONTINUOUS
 62
    4
 10
1601.5014999999999
 20
1073.4169999999999
 11
1602.1586000000002
 21
1073.2543000000001
  0
LINE
  8
_0-0_LAYER001
  6
CONTINUOUS
 62
    4
 10
1600.9196999999999
 20
1073.5350000000001
 11
1601.5014999999999
 21
1073.4169999999999
  0
LINE
  8
_0-0_LAYER001
  6
CONTINUOUS
 62
    4
 10
1600.8796000000002
 20
1073.5410999999999
 11
1600.9196999999999
 21
1073.5350000000001
  0
LINE
  8
_0-0_LAYER001
  6
CONTINUOUS
 62
    4
 10
1804.8535000000002
 20
1018.3798999999999
 11
1806.4675999999999
 21
1018.6484
  0
LINE
  8
_0-0_LAYER001
  6
CONTINUOUS
 62
    4
 10
1800.6649000000002
 20
1017.6838
 11
1804.8535000000002
 21
1018.3798999999999
  0
LINE
  8
_0-0_LAYER001
  6
CONTINUOUS
 62
    4
 10
1796.4720000000002
 20
1016.9884
 11
1800.6649000000002
 21
1017.6838
  0
LINE
  8
_0-0_LAYER001
  6
CONTINUOUS
 62
    4
 10
1792.2745
 20
1016.2945999999999
 11
1796.4720000000002
 21
1016.9884
  0
LINE
  8
_0-0_LAYER001
  6
CONTINUOUS
 62
    4
 10
1788.0722000000001
 20
1015.6034
 11
1792.2745
 21
1016.2945999999999
  0
LINE
  8
_0-0_LAYER001
  6
CONTINUOUS
 62
    4
 10
1783.8672999999999
 20
1014.9160999999999
 11
1788.0722000000001
 21
1015.6034
  0
LINE
  8
_0-0_LAYER001
  6
CONTINUOUS
 62
    4
 10
1781.4173000000001
 20
1014.5179000000001
 11
1783.8672999999999
 21
1014.9160999999999
  0
LINE
  8
_0-0_LAYER001
  6
CONTINUOUS
 62
    4
 10
1776.6903000000002
 20
1013.7564
 11
1781.4173000000001
 21
1014.5179000000001
  0
LINE
  8
_0-0_LAYER001
  6
CONTINUOUS
 62
    4
 10
1768.4996000000001
 20
1012.4747
 11
1776.6903000000002
 21
1013.7564
  0
LINE
  8
_0-0_LAYER001
  6
CONTINUOUS
 62
    4
 10
1760.2150999999999
 20
1011.2582
 11
1768.4996000000001
 21
1012.4747
  0
LINE
  8
_0-0_LAYER001
  6
CONTINUOUS
 62
    4
 10
1751.8384999999998
 20
1010.1460999999999
 11
1760.2150999999999
 21
1011.2582
  0
LINE
  8
_0-0_LAYER001
  6
CONTINUOUS
 62
    4
 10
1743.3663999999999
 20
1009.1773000000001
 11
1751.8384999999998
 21
1010.1460999999999
  0
LINE
  8
_0-0_LAYER001
  6
CONTINUOUS
 62
    4
 10
1734.8503000000001
 20
1008.3972000000001
 11
1743.3663999999999
 21
1009.1773000000001
  0
LINE
  8
_0-0_LAYER001
  6
CONTINUOUS
 62
    4
 10
1729.8224
 20
1008.0416
 11
1734.8503000000001
 21
1008.3972000000001
  0
LINE
  8
_0-0_LAYER001
  6
CONTINUOUS
 62
    4
 10
1727.0472
 20
1007.8815999999999
 11
1729.8224
 21
1008.0416
  0
LINE
  8
_0-0_LAYER001
  6
CONTINUOUS
 62
    4
 10
1722.3618999999999
 20
1007.6792
 11
1727.0472
 21
1007.8815999999999
  0
LINE
  8
_0-0_LAYER001
  6
CONTINUOUS
 62
    4
 10
1717.5790000000002
 20
1007.5748000000001
 11
1722.3618999999999
 21
1007.6792
  0
LINE
  8
_0-0_LAYER001
  6
CONTINUOUS
 62
    4
 10
1712.7309
 20
1007.5899999999999
 11
1717.5790000000002
 21
1007.5748000000001
  0
LINE
  8
_0-0_LAYER001
  6
CONTINUOUS
 62
    4
 10
1707.8208
 20
1007.7458999999999
 11
1712.7309
 21
1007.5899999999999
  0
LINE
  8
_0-0_LAYER001
  6
CONTINUOUS
 62
    4
 10
1702.9234999999999
 20
1008.0598
 11
1707.8208
 21
1007.7458999999999
  0
LINE
  8
_0-0_LAYER001
  6
CONTINUOUS
 62
    4
 10
1699.9247
 20
1008.3362999999999
 11
1702.9234999999999
 21
1008.0598
  0
LINE
  8
_0-0_LAYER001
  6
CONTINUOUS
 62
    4
 10
1696.0592000000001
 20
1008.7910999999999
 11
1699.9247
 21
1008.3362999999999
  0
LINE
  8
_0-0_LAYER001
  6
CONTINUOUS
 62
    4
 10
1689.6307000000002
 20
1009.8003000000001
 11
1696.0592000000001
 21
1008.7910999999999
  0
LINE
  8
_0-0_LAYER001
  6
CONTINUOUS
 62
    4
 10
1683.1772999999998
 20
1011.1332
 11
1689.6307000000002
 21
1009.8003000000001
  0
LINE
  8
_0-0_LAYER001
  6
CONTINUOUS
 62
    4
 10
1676.8051
 20
1012.7657999999999
 11
1683.1772999999998
 21
1011.1332
  0
LINE
  8
_0-0_LAYER001
  6
CONTINUOUS
 62
    4
 10
1670.5277999999998
 20
1014.6893
 11
1676.8051
 21
1012.7657999999999
  0
LINE
  8
_0-0_LAYER001
  6
CONTINUOUS
 62
    4
 10
1664.4407000000001
 20
1016.8665000000001
 11
1670.5277999999998
 21
1014.6893
  0
LINE
  8
_0-0_LAYER001
  6
CONTINUOUS
 62
    4
 10
1660.8150000000001
 20
1018.3139000000001
 11
1664.4407000000001
 21
1016.8665000000001
  0
LINE
  8
_0-0_LAYER001
  6
CONTINUOUS
 62
    4
 10
1656.5151999999998
 20
1020.1785
 11
1660.8150000000001
 21
1018.3139000000001
  0
LINE
  8
_0-0_LAYER001
  6
CONTINUOUS
 62
    4
 10
1649.5243
 20
1023.5556999999999
 11
1656.5151999999998
 21
1020.1785
  0
LINE
  8
_0-0_LAYER001
  6
CONTINUOUS
 62
    4
 10
1642.7062000000001
 20
1027.2448999999999
 11
1649.5243
 21
1023.5556999999999
  0
LINE
  8
_0-0_LAYER001
  6
CONTINUOUS
 62
    4
 10
1636.1304
 20
1031.1422
 11
1642.7062000000001
 21
1027.2448999999999
  0
LINE
  8
_0-0_LAYER001
  6
CONTINUOUS
 62
    4
 10
1629.7694999999999
 20
1035.1939
 11
1636.1304
 21
1031.1422
  0
LINE
  8
_0-0_LAYER001
  6
CONTINUOUS
 62
    4
 10
1623.6188999999999
 20
1039.3334
 11
1629.7694999999999
 21
1035.1939
  0
LINE
  8
_0-0_LAYER001
  6
CONTINUOUS
 62
    4
 10
1620.0944
 20
1041.7846999999999
 11
1623.6188999999999
 21
1039.3334
  0
LINE
  8
_0-0_LAYER001
  6
CONTINUOUS
 62
    4
 10
1617.8652000000002
 20
1043.3561999999999
 11
1620.0944
 21
1041.7846999999999
  0
LINE
  8
_0-0_LAYER001
  6
CONTINUOUS
 62
    4
 10
1614.2235000000001
 20
1045.9079999999999
 11
1617.8652000000002
 21
1043.3561999999999
  0
LINE
  8
_0-0_LAYER001
  6
CONTINUOUS
 62
    4
 10
1610.8063999999999
 20
1048.2055
 11
1614.2235000000001
 21
1045.9079999999999
  0
LINE
  8
_0-0_LAYER001
  6
CONTINUOUS
 62
    4
 10
1607.6107999999999
 20
1050.1823999999999
 11
1610.8063999999999
 21
1048.2055
  0
LINE
  8
_0-0_LAYER001
  6
CONTINUOUS
 62
    4
 10
1604.6268
 20
1051.8015
 11
1607.6107999999999
 21
1050.1823999999999
  0
LINE
  8
_0-0_LAYER001
  6
CONTINUOUS
 62
    4
 10
1601.6603
 20
1053.1306
 11
1604.6268
 21
1051.8015
  0
LINE
  8
_0-0_LAYER001
  6
CONTINUOUS
 62
    4
 10
1600.9103
 20
1053.4033999999999
 11
1601.6603
 21
1053.1306
  0
LINE
  8
_0-0_LAYER001
  6
CONTINUOUS
 62
    4
 10
1601.2433999999998
 20
1073.4465
 11
1601.0673000000002
 21
1053.2731000000001
  0
LINE
  8
_0-0_LAYER001
  6
CONTINUOUS
 62
    4
 10
1801.569
 20
1007.9586999999999
 11
1799.3236000000002
 21
1016.5320999999999
  0
ARC
  8
_0-0_LAYER001
  6
CONTINUOUS
 62
    4
 10
1804.4711000000002
 20
1008.7188000000001
 40
3
 50
194.67639000000003
 51
270.00000000000006
  0
LINE
  8
_0-0_LAYER001
  6
CONTINUOUS
 62
    4
 10
1807.9135999999999
 20
1005.7145
 11
1804.4958000000001
 21
1005.7145
  0
LINE
  8
_0-0_LAYER001
  6
CONTINUOUS
 62
    4
 10
1810.8728000000001
 20
1008.2212999999999
 11
1812.8067999999998
 21
1019.8253999999999
  0
ARC
  8
_0-0_LAYER001
  6
CONTINUOUS
 62
    4
 10
1807.9135999999999
 20
1008.7145
 40
3
 50
270
 51
350.53766999999999
  0
LINE
  8
_0-0_LAYER001
  6
CONTINUOUS
 62
    4
 10
1554.1471999999999
 20
1082.8367000000001
 11
1554.9611
 21
1083.1433
  0
LINE
  8
_0-0_LAYER001
  6
CONTINUOUS
 62
    4
 10
1554.9611
 20
1083.1433
 11
1558.5104000000001
 21
1084.4829
  0
LINE
  8
_0-0_LAYER001
  6
CONTINUOUS
 62
    4
 10
1558.5104000000001
 20
1084.4829
 11
1562.067
 21
1085.8317999999999
  0
LINE
  8
_0-0_LAYER001
  6
CONTINUOUS
 62
    4
 10
1562.067
 20
1085.8317999999999
 11
1565.6356999999998
 21
1087.1958
  0
LINE
  8
_0-0_LAYER001
  6
CONTINUOUS
 62
    4
 10
1565.6356999999998
 20
1087.1958
 11
1569.221
 21
1088.5808999999999
  0
LINE
  8
_0-0_LAYER001
  6
CONTINUOUS
 62
    4
 10
1569.221
 20
1088.5808999999999
 11
1572.8276999999998
 21
1089.9929
  0
LINE
  8
_0-0_LAYER001
  6
CONTINUOUS
 62
    4
 10
1572.8276999999998
 20
1089.9929
 11
1574.9312
 21
1090.8264999999999
  0
LINE
  8
_0-0_LAYER001
  6
CONTINUOUS
 62
    4
 10
1574.9312
 20
1090.8264999999999
 11
1577.0106000000001
 21
1091.6554000000001
  0
LINE
  8
_0-0_LAYER001
  6
CONTINUOUS
 62
    4
 10
1577.0106000000001
 20
1091.6554000000001
 11
1580.6170999999999
 21
1093.0568000000001
  0
LINE
  8
_0-0_LAYER001
  6
CONTINUOUS
 62
    4
 10
1580.6170999999999
 20
1093.0568000000001
 11
1584.2498999999998
 21
1094.3395
  0
LINE
  8
_0-0_LAYER001
  6
CONTINUOUS
 62
    4
 10
1584.2498999999998
 20
1094.3395
 11
1587.9078
 21
1095.4061999999999
  0
LINE
  8
_0-0_LAYER001
  6
CONTINUOUS
 62
    4
 10
1587.9078
 20
1095.4061999999999
 11
1591.5898999999999
 21
1096.1594
  0
LINE
  8
_0-0_LAYER001
  6
CONTINUOUS
 62
    4
 10
1591.5898999999999
 20
1096.1594
 11
1595.2952
 21
1096.5019
  0
LINE
  8
_0-0_LAYER001
  6
CONTINUOUS
 62
    4
 10
1595.2952
 20
1096.5019
 11
1597.4544999999998
 21
1096.4739999999999
  0
LINE
  8
_0-0_LAYER001
  6
CONTINUOUS
 62
    4
 10
1597.4544999999998
 20
1096.4739999999999
 11
1598.3036999999999
 21
1096.4126000000001
  0
LINE
  8
_0-0_LAYER001
  6
CONTINUOUS
 62
    4
 10
1598.3036999999999
 20
1096.4126000000001
 11
1599.768
 21
1096.2420999999999
  0
LINE
  8
_0-0_LAYER001
  6
CONTINUOUS
 62
    4
 10
1599.768
 20
1096.2420999999999
 11
1601.2291
 21
1095.9953
  0
LINE
  8
_0-0_LAYER001
  6
CONTINUOUS
 62
    4
 10
1601.2291
 20
1095.9953
 11
1602.6828
 21
1095.6793
  0
LINE
  8
_0-0_LAYER001
  6
CONTINUOUS
 62
    4
 10
1602.6828
 20
1095.6793
 11
1604.1248999999998
 21
1095.3008
  0
LINE
  8
_0-0_LAYER001
  6
CONTINUOUS
 62
    4
 10
1604.1248999999998
 20
1095.3008
 11
1605.5513000000001
 21
1094.8667
  0
LINE
  8
_0-0_LAYER001
  6
CONTINUOUS
 62
    4
 10
1605.5513000000001
 20
1094.8667
 11
1606.3697999999999
 21
1094.5921000000001
  0
LINE
  8
_0-0_LAYER001
  6
CONTINUOUS
 62
    4
 10
1606.3697999999999
 20
1094.5921000000001
 11
1608.8681000000001
 21
1093.6438000000001
  0
LINE
  8
_0-0_LAYER001
  6
CONTINUOUS
 62
    4
 10
1608.8681000000001
 20
1093.6438000000001
 11
1613.027
 21
1091.7103
  0
LINE
  8
_0-0_LAYER001
  6
CONTINUOUS
 62
    4
 10
1613.027
 20
1091.7103
 11
1617.0308
 21
1089.4648999999999
  0
LINE
  8
_0-0_LAYER001
  6
CONTINUOUS
 62
    4
 10
1617.0308
 20
1089.4648999999999
 11
1620.9176000000002
 21
1086.9846
  0
LINE
  8
_0-0_LAYER001
  6
CONTINUOUS
 62
    4
 10
1620.9176000000002
 20
1086.9846
 11
1624.7256000000002
 21
1084.3465000000001
  0
LINE
  8
_0-0_LAYER001
  6
CONTINUOUS
 62
    4
 10
1624.7256000000002
 20
1084.3465000000001
 11
1628.4929000000002
 21
1081.6274000000001
  0
LINE
  8
_0-0_LAYER001
  6
CONTINUOUS
 62
    4
 10
1628.4929000000002
 20
1081.6274000000001
 11
1630.6741999999999
 21
1080.0436
  0
LINE
  8
_0-0_LAYER001
  6
CONTINUOUS
 62
    4
 10
1630.6741999999999
 20
1080.0436
 11
1634.0057999999999
 21
1077.6568
  0
LINE
  8
_0-0_LAYER001
  6
CONTINUOUS
 62
    4
 10
1634.0057999999999
 20
1077.6568
 11
1639.7979999999998
 21
1073.6397999999999
  0
LINE
  8
_0-0_LAYER001
  6
CONTINUOUS
 62
    4
 10
1639.7979999999998
 20
1073.6397999999999
 11
1645.6702
 21
1069.7832000000001
  0
LINE
  8
_0-0_LAYER001
  6
CONTINUOUS
 62
    4
 10
1645.6702
 20
1069.7832000000001
 11
1651.6444000000001
 21
1066.1287
  0
LINE
  8
_0-0_LAYER001
  6
CONTINUOUS
 62
    4
 10
1651.6444000000001
 20
1066.1287
 11
1657.7426
 21
1062.7182
  0
LINE
  8
_0-0_LAYER001
  6
CONTINUOUS
 62
    4
 10
1657.7426
 20
1062.7182
 11
1663.9868000000001
 21
1059.5934
  0
LINE
  8
_0-0_LAYER001
  6
CONTINUOUS
 62
    4
 10
1663.9868000000001
 20
1059.5934
 11
1667.6840999999999
 21
1057.9284
  0
LINE
  8
_0-0_LAYER001
  6
CONTINUOUS
 62
    4
 10
1667.6840999999999
 20
1057.9284
 11
1670.7433999999998
 21
1056.6573000000001
  0
LINE
  8
_0-0_LAYER001
  6
CONTINUOUS
 62
    4
 10
1670.7433999999998
 20
1056.6573000000001
 11
1676.1039000000001
 21
1054.6550999999999
  0
LINE
  8
_0-0_LAYER001
  6
CONTINUOUS
 62
    4
 10
1676.1039000000001
 20
1054.6550999999999
 11
1681.5596
 21
1052.8996999999999
  0
LINE
  8
_0-0_LAYER001
  6
CONTINUOUS
 62
    4
 10
1681.5596
 20
1052.8996999999999
 11
1687.0945999999999
 21
1051.3988999999999
  0
LINE
  8
_0-0_LAYER001
  6
CONTINUOUS
 62
    4
 10
1687.0945999999999
 20
1051.3988999999999
 11
1692.6929
 21
1050.1609000000001
  0
LINE
  8
_0-0_LAYER001
  6
CONTINUOUS
 62
    4
 10
1692.6929
 20
1050.1609000000001
 11
1698.3386
 21
1049.1937
  0
LINE
  8
_0-0_LAYER001
  6
CONTINUOUS
 62
    4
 10
1698.3386
 20
1049.1937
 11
1701.6286
 21
1048.7599
  0
LINE
  8
_0-0_LAYER001
  6
CONTINUOUS
 62
    4
 10
1701.6286
 20
1048.7599
 11
1704.1478999999999
 21
1048.4920999999999
  0
LINE
  8
_0-0_LAYER001
  6
CONTINUOUS
 62
    4
 10
1704.1478999999999
 20
1048.4920999999999
 11
1708.5
 21
1048.1521
  0
LINE
  8
_0-0_LAYER001
  6
CONTINUOUS
 62
    4
 10
1708.5
 20
1048.1521
 11
1712.8602000000001
 21
1047.9526000000001
  0
LINE
  8
_0-0_LAYER001
  6
CONTINUOUS
 62
    4
 10
1712.8602000000001
 20
1047.9526000000001
 11
1717.2253999999998
 21
1047.8779999999999
  0
LINE
  8
_0-0_LAYER001
  6
CONTINUOUS
 62
    4
 10
1717.2253999999998
 20
1047.8779999999999
 11
1721.5925000000002
 21
1047.9123
  0
LINE
  8
_0-0_LAYER001
  6
CONTINUOUS
 62
    4
 10
1721.5925000000002
 20
1047.9123
 11
1725.9584
 21
1048.0399
  0
LINE
  8
_0-0_LAYER001
  6
CONTINUOUS
 62
    4
 10
1725.9584
 20
1048.0399
 11
1728.4888000000001
 21
1048.1504
  0
LINE
  8
_0-0_LAYER001
  6
CONTINUOUS
 62
    4
 10
1728.4888000000001
 20
1048.1504
 11
1733.2179000000001
 21
1048.4186
  0
LINE
  8
_0-0_LAYER001
  6
CONTINUOUS
 62
    4
 10
1733.2179000000001
 20
1048.4186
 11
1741.3561
 21
1049.0496000000001
  0
LINE
  8
_0-0_LAYER001
  6
CONTINUOUS
 62
    4
 10
1741.3561
 20
1049.0496000000001
 11
1749.4769000000001
 21
1049.8634999999999
  0
LINE
  8
_0-0_LAYER001
  6
CONTINUOUS
 62
    4
 10
1749.4769000000001
 20
1049.8634999999999
 11
1757.5826999999999
 21
1050.8246999999999
  0
LINE
  8
_0-0_LAYER001
  6
CONTINUOUS
 62
    4
 10
1757.5826999999999
 20
1050.8246999999999
 11
1765.6761999999999
 21
1051.8978999999999
  0
LINE
  8
_0-0_LAYER001
  6
CONTINUOUS
 62
    4
 10
1765.6761999999999
 20
1051.8978999999999
 11
1773.7597000000001
 21
1053.0474999999999
  0
LINE
  8
_0-0_LAYER001
  6
CONTINUOUS
 62
    4
 10
1773.7597000000001
 20
1053.0474999999999
 11
1778.4445999999998
 21
1053.7353000000001
  0
LINE
  8
_0-0_LAYER001
  6
CONTINUOUS
 62
    4
 10
1778.4445999999998
 20
1053.7353000000001
 11
1780.8795
 21
1054.0961
  0
LINE
  8
_0-0_LAYER001
  6
CONTINUOUS
 62
    4
 10
1780.8795
 20
1054.0961
 11
1785.0765000000001
 21
1054.7221
  0
LINE
  8
_0-0_LAYER001
  6
CONTINUOUS
 62
    4
 10
1785.0765000000001
 20
1054.7221
 11
1789.2723000000001
 21
1055.3522
  0
LINE
  8
_0-0_LAYER001
  6
CONTINUOUS
 62
    4
 10
1789.2723000000001
 20
1055.3522
 11
1793.4670999999998
 21
1055.9855
  0
LINE
  8
_0-0_LAYER001
  6
CONTINUOUS
 62
    4
 10
1793.4670999999998
 20
1055.9855
 11
1797.6613000000002
 21
1056.6211000000001
  0
LINE
  8
_0-0_LAYER001
  6
CONTINUOUS
 62
    4
 10
1797.6613000000002
 20
1056.6211000000001
 11
1801.855
 21
1057.2581
  0
LINE
  8
_0-0_LAYER001
  6
CONTINUOUS
 62
    4
 10
1801.855
 20
1057.2581
 11
1804.2873
 21
1057.6278
  0
LINE
  8
_0-0_LAYER001
  6
CONTINUOUS
 62
    4
 10
1559.2503999999999
 20
1065.5242000000001
 11
1561.3123000000001
 21
1066.3010999999999
  0
LINE
  8
_0-0_LAYER001
  6
CONTINUOUS
 62
    4
 10
1561.3123000000001
 20
1066.3010999999999
 11
1564.8798999999999
 21
1067.6476
  0
LINE
  8
_0-0_LAYER001
  6
CONTINUOUS
 62
    4
 10
1564.8798999999999
 20
1067.6476
 11
1568.4717999999998
 21
1069.0098
  0
LINE
  8
_0-0_LAYER001
  6
CONTINUOUS
 62
    4
 10
1568.4717999999998
 20
1069.0098
 11
1572.0922
 21
1070.3936000000001
  0
LINE
  8
_0-0_LAYER001
  6
CONTINUOUS
 62
    4
 10
1572.0922
 20
1070.3936000000001
 11
1575.7451999999998
 21
1071.8047999999999
  0
LINE
  8
_0-0_LAYER001
  6
CONTINUOUS
 62
    4
 10
1575.7451999999998
 20
1071.8047999999999
 11
1579.4243999999999
 21
1073.2452000000001
  0
LINE
  8
_0-0_LAYER001
  6
CONTINUOUS
 62
    4
 10
1579.4243999999999
 20
1073.2452000000001
 11
1581.5796
 21
1074.0993000000001
  0
LINE
  8
_0-0_LAYER001
  6
CONTINUOUS
 62
    4
 10
1581.5796
 20
1074.0993000000001
 11
1583.6030999999998
 21
1074.9059
  0
LINE
  8
_0-0_LAYER001
  6
CONTINUOUS
 62
    4
 10
1583.6030999999998
 20
1074.9059
 11
1586.875
 21
1076.1773000000001
  0
LINE
  8
_0-0_LAYER001
  6
CONTINUOUS
 62
    4
 10
1586.875
 20
1076.1773000000001
 11
1589.7701000000002
 21
1077.1995999999999
  0
LINE
  8
_0-0_LAYER001
  6
CONTINUOUS
 62
    4
 10
1589.7701000000002
 20
1077.1995999999999
 11
1592.2383
 21
1077.9193
  0
LINE
  8
_0-0_LAYER001
  6
CONTINUOUS
 62
    4
 10
1592.2383
 20
1077.9193
 11
1594.23
 21
1078.3267000000001
  0
LINE
  8
_0-0_LAYER001
  6
CONTINUOUS
 62
    4
 10
1594.23
 20
1078.3267000000001
 11
1596.0093000000002
 21
1078.4911999999999
  0
LINE
  8
_0-0_LAYER001
  6
CONTINUOUS
 62
    4
 10
1596.0093000000002
 20
1078.4911999999999
 11
1596.6887999999999
 21
1078.4824000000001
  0
LINE
  8
_0-0_LAYER001
  6
CONTINUOUS
 62
    4
 10
1596.6887999999999
 20
1078.4824000000001
 11
1596.6127000000001
 21
1078.4879000000001
  0
LINE
  8
_0-0_LAYER001
  6
CONTINUOUS
 62
    4
 10
1596.6127000000001
 20
1078.4879000000001
 11
1597.2264
 21
1078.4164000000001
  0
LINE
  8
_0-0_LAYER001
  6
CONTINUOUS
 62
    4
 10
1597.2264
 20
1078.4164000000001
 11
1597.8168000000001
 21
1078.3167000000001
  0
LINE
  8
_0-0_LAYER001
  6
CONTINUOUS
 62
    4
 10
1597.8168000000001
 20
1078.3167000000001
 11
1598.4841999999999
 21
1078.1715999999999
  0
LINE
  8
_0-0_LAYER001
  6
CONTINUOUS
 62
    4
 10
1598.4841999999999
 20
1078.1715999999999
 11
1599.2177999999999
 21
1077.9791
  0
LINE
  8
_0-0_LAYER001
  6
CONTINUOUS
 62
    4
 10
1599.2177999999999
 20
1077.9791
 11
1600.0668999999998
 21
1077.7206000000001
  0
LINE
  8
_0-0_LAYER001
  6
CONTINUOUS
 62
    4
 10
1600.0668999999998
 20
1077.7206000000001
 11
1600.3110000000001
 21
1077.6387
  0
LINE
  8
_0-0_LAYER001
  6
CONTINUOUS
 62
    4
 10
1600.3110000000001
 20
1077.6387
 11
1601.8708999999999
 21
1077.0467000000001
  0
LINE
  8
_0-0_LAYER001
  6
CONTINUOUS
 62
    4
 10
1601.8708999999999
 20
1077.0467000000001
 11
1604.8186000000001
 21
1075.6762000000001
  0
LINE
  8
_0-0_LAYER001
  6
CONTINUOUS
 62
    4
 10
1604.8186000000001
 20
1075.6762000000001
 11
1607.7797
 21
1074.0155999999999
  0
LINE
  8
_0-0_LAYER001
  6
CONTINUOUS
 62
    4
 10
1607.7797
 20
1074.0155999999999
 11
1610.9474
 21
1071.9943000000001
  0
LINE
  8
_0-0_LAYER001
  6
CONTINUOUS
 62
    4
 10
1610.9474
 20
1071.9943000000001
 11
1614.3321000000001
 21
1069.6494
  0
LINE
  8
_0-0_LAYER001
  6
CONTINUOUS
 62
    4
 10
1614.3321000000001
 20
1069.6494
 11
1617.9378000000002
 21
1067.0469000000001
  0
LINE
  8
_0-0_LAYER001
  6
CONTINUOUS
 62
    4
 10
1617.9378000000002
 20
1067.0469000000001
 11
1620.1448
 21
1065.4445000000001
  0
LINE
  8
_0-0_LAYER001
  6
CONTINUOUS
 62
    4
 10
1620.1448
 20
1065.4445000000001
 11
1623.6347999999998
 21
1062.9441999999999
  0
LINE
  8
_0-0_LAYER001
  6
CONTINUOUS
 62
    4
 10
1623.6347999999998
 20
1062.9441999999999
 11
1629.7269999999999
 21
1058.7192
  0
LINE
  8
_0-0_LAYER001
  6
CONTINUOUS
 62
    4
 10
1629.7269999999999
 20
1058.7192
 11
1636.0306999999998
 21
1054.5790999999999
  0
LINE
  8
_0-0_LAYER001
  6
CONTINUOUS
 62
    4
 10
1636.0306999999998
 20
1054.5790999999999
 11
1642.5513999999998
 21
1050.5903000000001
  0
LINE
  8
_0-0_LAYER001
  6
CONTINUOUS
 62
    4
 10
1642.5513999999998
 20
1050.5903000000001
 11
1649.3173999999999
 21
1046.8063
  0
LINE
  8
_0-0_LAYER001
  6
CONTINUOUS
 62
    4
 10
1649.3173999999999
 20
1046.8063
 11
1656.2604000000001
 21
1043.3318999999999
  0
LINE
  8
_0-0_LAYER001
  6
CONTINUOUS
 62
    4
 10
1656.2604000000001
 20
1043.3318999999999
 11
1660.5338000000002
 21
1041.4074000000001
  0
LINE
  8
_0-0_LAYER001
  6
CONTINUOUS
 62
    4
 10
1660.5338000000002
 20
1041.4074000000001
 11
1664.1388999999999
 21
1039.9095
  0
LINE
  8
_0-0_LAYER001
  6
CONTINUOUS
 62
    4
 10
1664.1388999999999
 20
1039.9095
 11
1670.1950000000002
 21
1037.6476
  0
LINE
  8
_0-0_LAYER001
  6
CONTINUOUS
 62
    4
 10
1670.1950000000002
 20
1037.6476
 11
1676.4449
 21
1035.6366
  0
LINE
  8
_0-0_LAYER001
  6
CONTINUOUS
 62
    4
 10
1676.4449
 20
1035.6366
 11
1682.7936
 21
1033.9150999999999
  0
LINE
  8
_0-0_LAYER001
  6
CONTINUOUS
 62
    4
 10
1682.7936
 20
1033.9150999999999
 11
1689.2278000000001
 21
1032.4922999999999
  0
LINE
  8
_0-0_LAYER001
  6
CONTINUOUS
 62
    4
 10
1689.2278000000001
 20
1032.4922999999999
 11
1695.6415000000002
 21
1031.3934999999999
  0
LINE
  8
_0-0_LAYER001
  6
CONTINUOUS
 62
    4
 10
1695.6415000000002
 20
1031.3934999999999
 11
1699.5003999999999
 21
1030.8848
  0
LINE
  8
_0-0_LAYER001
  6
CONTINUOUS
 62
    4
 10
1699.5003999999999
 20
1030.8848
 11
1702.4949999999999
 21
1030.5663999999999
  0
LINE
  8
_0-0_LAYER001
  6
CONTINUOUS
 62
    4
 10
1702.4949999999999
 20
1030.5663999999999
 11
1707.3874000000001
 21
1030.1840999999999
  0
LINE
  8
_0-0_LAYER001
  6
CONTINUOUS
 62
    4
 10
1707.3874000000001
 20
1030.1840999999999
 11
1712.2948999999999
 21
1029.9595999999999
  0
LINE
  8
_0-0_LAYER001
  6
CONTINUOUS
 62
    4
 10
1712.2948999999999
 20
1029.9595999999999
 11
1717.1423
 21
1029.8768
  0
LINE
  8
_0-0_LAYER001
  6
CONTINUOUS
 62
    4
 10
1717.1423
 20
1029.8768
 11
1721.9261999999999
 21
1029.9143999999999
  0
LINE
  8
_0-0_LAYER001
  6
CONTINUOUS
 62
    4
 10
1721.9261999999999
 20
1029.9143999999999
 11
1726.6138999999998
 21
1030.0514000000001
  0
LINE
  8
_0-0_LAYER001
  6
CONTINUOUS
 62
    4
 10
1726.6138999999998
 20
1030.0514000000001
 11
1729.3910000000001
 21
1030.1726000000001
  0
LINE
  8
_0-0_LAYER001
  6
CONTINUOUS
 62
    4
 10
1729.3910000000001
 20
1030.1726000000001
 11
1734.4234000000001
 21
1030.4580000000001
  0
LINE
  8
_0-0_LAYER001
  6
CONTINUOUS
 62
    4
 10
1734.4234000000001
 20
1030.4580000000001
 11
1742.9495000000002
 21
1031.1190999999999
  0
LINE
  8
_0-0_LAYER001
  6
CONTINUOUS
 62
    4
 10
1742.9495000000002
 20
1031.1190999999999
 11
1751.4344000000001
 21
1031.9694999999999
  0
LINE
  8
_0-0_LAYER001
  6
CONTINUOUS
 62
    4
 10
1751.4344000000001
 20
1031.9694999999999
 11
1759.8256999999999
 21
1032.9646
  0
LINE
  8
_0-0_LAYER001
  6
CONTINUOUS
 62
    4
 10
1759.8256999999999
 20
1032.9646
 11
1768.1264000000001
 21
1034.0652
  0
LINE
  8
_0-0_LAYER001
  6
CONTINUOUS
 62
    4
 10
1768.1264000000001
 20
1034.0652
 11
1776.3341999999998
 21
1035.2325000000001
  0
LINE
  8
_0-0_LAYER001
  6
CONTINUOUS
 62
    4
 10
1776.3341999999998
 20
1035.2325000000001
 11
1781.0713000000001
 21
1035.9278999999999
  0
LINE
  8
_0-0_LAYER001
  6
CONTINUOUS
 62
    4
 10
1781.0713000000001
 20
1035.9278999999999
 11
1783.5266000000001
 21
1036.2918
  0
LINE
  8
_0-0_LAYER001
  6
CONTINUOUS
 62
    4
 10
1783.5266000000001
 20
1036.2918
 11
1787.7408
 21
1036.9204
  0
LINE
  8
_0-0_LAYER001
  6
CONTINUOUS
 62
    4
 10
1787.7408
 20
1036.9204
 11
1791.9522999999999
 21
1037.5527999999999
  0
LINE
  8
_0-0_LAYER001
  6
CONTINUOUS
 62
    4
 10
1791.9522999999999
 20
1037.5527999999999
 11
1796.1590000000001
 21
1038.1878999999999
  0
LINE
  8
_0-0_LAYER001
  6
CONTINUOUS
 62
    4
 10
1796.1590000000001
 20
1038.1878999999999
 11
1800.3611999999998
 21
1038.8246999999999
  0
LINE
  8
_0-0_LAYER001
  6
CONTINUOUS
 62
    4
 10
1800.3611999999998
 20
1038.8246999999999
 11
1804.5590999999999
 21
1039.4623999999999
  0
LINE
  8
_0-0_LAYER001
  6
CONTINUOUS
 62
    4
 10
1804.5590999999999
 20
1039.4623999999999
 11
1806.1768000000002
 21
1039.7083
  0
LINE
  8
_0-0_LAYER001
  6
CONTINUOUS
 62
    4
 10
1553.7215999999999
 20
1082.6742999999999
 11
1554.1475999999998
 21
1082.8373999999999
  0
ARC
  8
_0-0_LAYER001
  6
CONTINUOUS
 62
    4
 10
1554.7941999999998
 20
1079.8725999999999
 40
3
 50
110.94902000000002
 51
178.70000000000002
  0
LINE
  8
_0-0_LAYER001
  6
CONTINUOUS
 62
    4
 10
1551.6855999999998
 20
1064.1016
 11
1551.6855999999998
 21
1079.8241
  0
LINE
  8
_0-0_LAYER001
  6
CONTINUOUS
 62
    4
 10
1553.0396000000001
 20
1063.1664000000001
 11
1559.2145
 21
1065.5035
  0
ARC
  8
_0-0_LAYER001
  6
CONTINUOUS
 62
    4
 10
1552.6855999999998
 20
1064.1016
 40
1
 50
180
 51
290.73165999999998
  0
LINE
  8
_0-0_LAYER001
  6
CONTINUOUS
 62
    4
 10
1804.4122000000002
 20
1057.6632
 11
1848.8665000000001
 21
1067.3110999999999
  0
LINE
  8
_0-0_LAYER001
  6
CONTINUOUS
 62
    4
 10
1811.1574000000001
 20
1037.8295000000001
 11
1849.8292000000001
 21
1046.8795
  0
LINE
  8
_0-0_LAYER001
  6
CONTINUOUS
 62
    4
 10
1849.8292000000001
 20
1047.8359
 11
1849.8292000000001
 21
1046.8795
  0
ARC
  8
_0-0_LAYER001
  6
CONTINUOUS
 62
    4
 10
1850.8292000000001
 20
1047.8359
 40
1
 50
102.72435
 51
180
  0
LINE
  8
_0-0_LAYER001
  6
CONTINUOUS
 62
    4
 10
1855.6462000000001
 20
1049.9487999999999
 11
1850.6089999999999
 21
1048.8114
  0
ARC
  8
_0-0_LAYER001
  6
CONTINUOUS
 62
    4
 10
1855.8665000000001
 20
1048.9734000000001
 40
1
 50
0
 51
102.72435
  0
LINE
  8
_0-0_LAYER001
  6
CONTINUOUS
 62
    4
 10
1856.0785999999998
 20
1050.4573
 11
1805.9445999999998
 21
1039.5767000000001
  0
ARC
  8
_0-0_LAYER001
  6
CONTINUOUS
 62
    4
 10
1855.8665000000001
 20
1051.4345000000001
 40
1
 50
282.24497000000002
 51
0
  0
LINE
  8
_0-0_LAYER001
  6
CONTINUOUS
 62
    4
 10
1856.0843
 20
1029.7166
 11
1806.5003999999999
 21
1018.6487
  0
LINE
  8
_0-0_LAYER001
  6
CONTINUOUS
 62
    4
 10
1856.8665000000001
 20
1030.6925000000001
 11
1856.8665000000001
 21
1048.9734000000001
  0
ARC
  8
_0-0_LAYER001
  6
CONTINUOUS
 62
    4
 10
1855.8665000000001
 20
1030.6925000000001
 40
1
 50
282.58296000000001
 51
0.0000000000000254
  0
LINE
  8
_0-0_LAYER001
  6
CONTINUOUS
 62
    4
 10
1848.8665000000001
 20
1068.7681
 11
1848.8665000000001
 21
1067.3110999999999
  0
ARC
  8
_0-0_LAYER001
  6
CONTINUOUS
 62
    4
 10
1849.8665000000001
 20
1068.7681
 40
1
 50
101.73308
 51
180
  0
LINE
  8
_0-0_LAYER001
  6
CONTINUOUS
 62
    4
 10
1855.6631000000002
 20
1070.9934000000001
 11
1849.6631000000002
 21
1069.7472
  0
LINE
  8
_0-0_LAYER001
  6
CONTINUOUS
 62
    4
 10
1856.8665000000001
 20
1070.0143
 11
1856.8665000000001
 21
1051.4345000000001
  0
ARC
  8
_0-0_LAYER001
  6
CONTINUOUS
 62
    4
 10
1855.8665000000001
 20
1070.0143
 40
1
 50
0
 51
101.73308
  0
LINE
  8
_0-0_LAYER001
  6
CONTINUOUS
 62
    4
 10
1412.1359000000002
 20
999.12439999999992
 11
1403.6004
 21
1013.6577
  0
LINE
  8
_0-0_LAYER001
  6
CONTINUOUS
 62
    4
 10
1420.3037999999997
 20
998.47409999999991
 11
1428.6099999999999
 21
1008.5396000000001
  0
ARC
  8
_0-0_LAYER001
  6
CONTINUOUS
 62
    4
 10
1416.4473
 20
1001.6565000000001
 40
5
 50
210.42578
 51
320.47001
  0
LINE
  8
_0-0_LAYER001
  6
CONTINUOUS
 62
    4
 10
1496.2494000000002
 20
998.00420000000008
 11
1488.924
 21
1009.3103000000001
  0
LINE
  8
_0-0_LAYER001
  6
CONTINUOUS
 62
    4
 10
1504.7588999999998
 20
998.19409999999993
 11
1513.6974
 21
1013.4398000000001
  0
ARC
  8
_0-0_LAYER001
  6
CONTINUOUS
 62
    4
 10
1500.4456
 20
1000.723
 40
5
 50
212.93986000000001
 51
329.61716000000001
  0
LINE
  8
_0-0_LAYER001
  6
CONTINUOUS
 62
    4
 10
1544.0410000000002
 20
1037.7518
 11
1546.4690999999998
 21
1038.1557
  0
LINE
  8
_0-0_LAYER001
  6
CONTINUOUS
 62
    4
 10
1539.8519000000001
 20
1037.0554999999999
 11
1544.0410000000002
 21
1037.7518
  0
LINE
  8
_0-0_LAYER001
  6
CONTINUOUS
 62
    4
 10
1535.6581000000001
 20
1036.3599999999999
 11
1539.8519000000001
 21
1037.0554999999999
  0
LINE
  8
_0-0_LAYER001
  6
CONTINUOUS
 62
    4
 10
1531.4593
 20
1035.6659999999999
 11
1535.6581000000001
 21
1036.3599999999999
  0
LINE
  8
_0-0_LAYER001
  6
CONTINUOUS
 62
    4
 10
1527.2552999999998
 20
1034.9745
 11
1531.4593
 21
1035.6659999999999
  0
LINE
  8
_0-0_LAYER001
  6
CONTINUOUS
 62
    4
 10
1523.0484999999999
 20
1034.2869000000001
 11
1527.2552999999998
 21
1034.9745
  0
LINE
  8
_0-0_LAYER001
  6
CONTINUOUS
 62
    4
 10
1520.5962
 20
1033.8884
 11
1523.0484999999999
 21
1034.2869000000001
  0
LINE
  8
_0-0_LAYER001
  6
CONTINUOUS
 62
    4
 10
1515.8634000000002
 20
1033.1259
 11
1520.5962
 21
1033.8884
  0
LINE
  8
_0-0_LAYER001
  6
CONTINUOUS
 62
    4
 10
1507.6590000000001
 20
1031.8420000000001
 11
1515.8634000000002
 21
1033.1259
  0
LINE
  8
_0-0_LAYER001
  6
CONTINUOUS
 62
    4
 10
1499.3515000000002
 20
1030.6222
 11
1507.6590000000001
 21
1031.8420000000001
  0
LINE
  8
_0-0_LAYER001
  6
CONTINUOUS
 62
    4
 10
1490.9432000000002
 20
1029.5057999999999
 11
1499.3515000000002
 21
1030.6222
  0
LINE
  8
_0-0_LAYER001
  6
CONTINUOUS
 62
    4
 10
1482.4306000000001
 20
1028.5324000000001
 11
1490.9432000000002
 21
1029.5057999999999
  0
LINE
  8
_0-0_LAYER001
  6
CONTINUOUS
 62
    4
 10
1473.8715000000002
 20
1027.7483999999999
 11
1482.4306000000001
 21
1028.5324000000001
  0
LINE
  8
_0-0_LAYER001
  6
CONTINUOUS
 62
    4
 10
1468.8099999999999
 20
1027.3904
 11
1473.8715000000002
 21
1027.7483999999999
  0
LINE
  8
_0-0_LAYER001
  6
CONTINUOUS
 62
    4
 10
1466.0074
 20
1027.2288000000001
 11
1468.8099999999999
 21
1027.3904
  0
LINE
  8
_0-0_LAYER001
  6
CONTINUOUS
 62
    4
 10
1461.2864
 20
1027.0248999999999
 11
1466.0074
 21
1027.2288000000001
  0
LINE
  8
_0-0_LAYER001
  6
CONTINUOUS
 62
    4
 10
1456.4571000000001
 20
1026.9194
 11
1461.2864
 21
1027.0248999999999
  0
LINE
  8
_0-0_LAYER001
  6
CONTINUOUS
 62
    4
 10
1451.5554999999999
 20
1026.9348
 11
1456.4571000000001
 21
1026.9194
  0
LINE
  8
_0-0_LAYER001
  6
CONTINUOUS
 62
    4
 10
1446.5844999999999
 20
1027.0926999999999
 11
1451.5554999999999
 21
1026.9348
  0
LINE
  8
_0-0_LAYER001
  6
CONTINUOUS
 62
    4
 10
1441.6271000000002
 20
1027.4104
 11
1446.5844999999999
 21
1027.0926999999999
  0
LINE
  8
_0-0_LAYER001
  6
CONTINUOUS
 62
    4
 10
1438.5754000000002
 20
1027.6918000000001
 11
1441.6271000000002
 21
1027.4104
  0
LINE
  8
_0-0_LAYER001
  6
CONTINUOUS
 62
    4
 10
1434.6466
 20
1028.1541
 11
1438.5754000000002
 21
1027.6918000000001
  0
LINE
  8
_0-0_LAYER001
  6
CONTINUOUS
 62
    4
 10
1428.1325999999999
 20
1029.1766
 11
1434.6466
 21
1028.1541
  0
LINE
  8
_0-0_LAYER001
  6
CONTINUOUS
 62
    4
 10
1421.586
 20
1030.5288
 11
1428.1325999999999
 21
1029.1766
  0
LINE
  8
_0-0_LAYER001
  6
CONTINUOUS
 62
    4
 10
1415.1231000000002
 20
1032.1846
 11
1421.586
 21
1030.5288
  0
LINE
  8
_0-0_LAYER001
  6
CONTINUOUS
 62
    4
 10
1408.7571
 20
1034.1353999999999
 11
1415.1231000000002
 21
1032.1846
  0
LINE
  8
_0-0_LAYER001
  6
CONTINUOUS
 62
    4
 10
1402.5924
 20
1036.3403000000001
 11
1408.7571
 21
1034.1353999999999
  0
LINE
  8
_0-0_LAYER001
  6
CONTINUOUS
 62
    4
 10
1398.9057
 20
1037.8121000000001
 11
1402.5924
 21
1036.3403000000001
  0
LINE
  8
_0-0_LAYER001
  6
CONTINUOUS
 62
    4
 10
1394.5414000000001
 20
1039.7046
 11
1398.9057
 21
1037.8121000000001
  0
LINE
  8
_0-0_LAYER001
  6
CONTINUOUS
 62
    4
 10
1387.4724000000001
 20
1043.1196
 11
1394.5414000000001
 21
1039.7046
  0
LINE
  8
_0-0_LAYER001
  6
CONTINUOUS
 62
    4
 10
1380.5795000000001
 20
1046.8492000000001
 11
1387.4724000000001
 21
1043.1196
  0
LINE
  8
_0-0_LAYER001
  6
CONTINUOUS
 62
    4
 10
1373.9425000000001
 20
1050.7828999999999
 11
1380.5795000000001
 21
1046.8492000000001
  0
LINE
  8
_0-0_LAYER001
  6
CONTINUOUS
 62
    4
 10
1367.5332000000001
 20
1054.8652999999999
 11
1373.9425000000001
 21
1050.7828999999999
  0
LINE
  8
_0-0_LAYER001
  6
CONTINUOUS
 62
    4
 10
1361.3489999999999
 20
1059.0273999999999
 11
1367.5332000000001
 21
1054.8652999999999
  0
LINE
  8
_0-0_LAYER001
  6
CONTINUOUS
 62
    4
 10
1357.8065999999999
 20
1061.4911999999999
 11
1361.3489999999999
 21
1059.0273999999999
  0
LINE
  8
_0-0_LAYER001
  6
CONTINUOUS
 62
    4
 10
1355.5745999999999
 20
1063.0645999999999
 11
1357.8065999999999
 21
1061.4911999999999
  0
LINE
  8
_0-0_LAYER001
  6
CONTINUOUS
 62
    4
 10
1351.951
 20
1065.6038000000001
 11
1355.5745999999999
 21
1063.0645999999999
  0
LINE
  8
_0-0_LAYER001
  6
CONTINUOUS
 62
    4
 10
1348.5814
 20
1067.8693000000001
 11
1351.951
 21
1065.6038000000001
  0
LINE
  8
_0-0_LAYER001
  6
CONTINUOUS
 62
    4
 10
1345.4664
 20
1069.7963999999999
 11
1348.5814
 21
1067.8693000000001
  0
LINE
  8
_0-0_LAYER001
  6
CONTINUOUS
 62
    4
 10
1342.5992000000001
 20
1071.3521000000001
 11
1345.4664
 21
1069.7963999999999
  0
LINE
  8
_0-0_LAYER001
  6
CONTINUOUS
 62
    4
 10
1339.7681
 20
1072.6206
 11
1342.5992000000001
 21
1071.3521000000001
  0
LINE
  8
_0-0_LAYER001
  6
CONTINUOUS
 62
    4
 10
1338.3049000000001
 20
1073.1527000000001
 11
1339.7681
 21
1072.6206
  0
LINE
  8
_0-0_LAYER001
  6
CONTINUOUS
 62
    4
 10
1338.1238000000003
 20
1073.2107000000001
 11
1338.3049000000001
 21
1073.1527000000001
  0
LINE
  8
_0-0_LAYER001
  6
CONTINUOUS
 62
    4
 10
1337.3354999999997
 20
1073.4386
 11
1338.1238000000003
 21
1073.2107000000001
  0
LINE
  8
_0-0_LAYER001
  6
CONTINUOUS
 62
    4
 10
1336.6783
 20
1073.6013
 11
1337.3354999999997
 21
1073.4386
  0
LINE
  8
_0-0_LAYER001
  6
CONTINUOUS
 62
    4
 10
1336.0965000000001
 20
1073.7193
 11
1336.6783
 21
1073.6013
  0
LINE
  8
_0-0_LAYER001
  6
CONTINUOUS
 62
    4
 10
1336.0564999999999
 20
1073.7255
 11
1336.0965000000001
 21
1073.7193
  0
LINE
  8
_0-0_LAYER001
  6
CONTINUOUS
 62
    4
 10
1540.0302999999999
 20
1018.5643
 11
1541.6444000000001
 21
1018.8327999999999
  0
LINE
  8
_0-0_LAYER001
  6
CONTINUOUS
 62
    4
 10
1535.8418000000001
 20
1017.8680999999999
 11
1540.0302999999999
 21
1018.5643
  0
LINE
  8
_0-0_LAYER001
  6
CONTINUOUS
 62
    4
 10
1531.6489000000001
 20
1017.1727000000001
 11
1535.8418000000001
 21
1017.8680999999999
  0
LINE
  8
_0-0_LAYER001
  6
CONTINUOUS
 62
    4
 10
1527.4513999999999
 20
1016.4789000000001
 11
1531.6489000000001
 21
1017.1727000000001
  0
LINE
  8
_0-0_LAYER001
  6
CONTINUOUS
 62
    4
 10
1523.2491
 20
1015.7878000000001
 11
1527.4513999999999
 21
1016.4789000000001
  0
LINE
  8
_0-0_LAYER001
  6
CONTINUOUS
 62
    4
 10
1519.0441999999998
 20
1015.1004
 11
1523.2491
 21
1015.7878000000001
  0
LINE
  8
_0-0_LAYER001
  6
CONTINUOUS
 62
    4
 10
1516.5940999999998
 20
1014.7022999999999
 11
1519.0441999999998
 21
1015.1004
  0
LINE
  8
_0-0_LAYER001
  6
CONTINUOUS
 62
    4
 10
1511.8672000000001
 20
1013.9408000000001
 11
1516.5940999999998
 21
1014.7022999999999
  0
LINE
  8
_0-0_LAYER001
  6
CONTINUOUS
 62
    4
 10
1503.6765
 20
1012.6590000000001
 11
1511.8672000000001
 21
1013.9408000000001
  0
LINE
  8
_0-0_LAYER001
  6
CONTINUOUS
 62
    4
 10
1495.3919999999998
 20
1011.4426000000001
 11
1503.6765
 21
1012.6590000000001
  0
LINE
  8
_0-0_LAYER001
  6
CONTINUOUS
 62
    4
 10
1487.0154000000002
 20
1010.3304000000001
 11
1495.3919999999998
 21
1011.4426000000001
  0
LINE
  8
_0-0_LAYER001
  6
CONTINUOUS
 62
    4
 10
1478.5432000000001
 20
1009.3616
 11
1487.0154000000002
 21
1010.3304000000001
  0
LINE
  8
_0-0_LAYER001
  6
CONTINUOUS
 62
    4
 10
1470.0270999999998
 20
1008.5816
 11
1478.5432000000001
 21
1009.3616
  0
LINE
  8
_0-0_LAYER001
  6
CONTINUOUS
 62
    4
 10
1464.9992999999999
 20
1008.2260000000001
 11
1470.0270999999998
 21
1008.5816
  0
LINE
  8
_0-0_LAYER001
  6
CONTINUOUS
 62
    4
 10
1462.2240999999999
 20
1008.0659000000001
 11
1464.9992999999999
 21
1008.2260000000001
  0
LINE
  8
_0-0_LAYER001
  6
CONTINUOUS
 62
    4
 10
1457.5387999999998
 20
1007.8634999999999
 11
1462.2240999999999
 21
1008.0659000000001
  0
LINE
  8
_0-0_LAYER001
  6
CONTINUOUS
 62
    4
 10
1452.7557999999999
 20
1007.7591
 11
1457.5387999999998
 21
1007.8634999999999
  0
LINE
  8
_0-0_LAYER001
  6
CONTINUOUS
 62
    4
 10
1447.9078
 20
1007.7743
 11
1452.7557999999999
 21
1007.7591
  0
LINE
  8
_0-0_LAYER001
  6
CONTINUOUS
 62
    4
 10
1442.9976000000001
 20
1007.9302
 11
1447.9078
 21
1007.7743
  0
LINE
  8
_0-0_LAYER001
  6
CONTINUOUS
 62
    4
 10
1438.1003000000001
 20
1008.2440999999999
 11
1442.9976000000001
 21
1007.9302
  0
LINE
  8
_0-0_LAYER001
  6
CONTINUOUS
 62
    4
 10
1435.1016
 20
1008.5207
 11
1438.1003000000001
 21
1008.2440999999999
  0
LINE
  8
_0-0_LAYER001
  6
CONTINUOUS
 62
    4
 10
1431.2359999999999
 20
1008.9755
 11
1435.1016
 21
1008.5207
  0
LINE
  8
_0-0_LAYER001
  6
CONTINUOUS
 62
    4
 10
1424.8076000000001
 20
1009.9846
 11
1431.2359999999999
 21
1008.9755
  0
LINE
  8
_0-0_LAYER001
  6
CONTINUOUS
 62
    4
 10
1418.3541
 20
1011.3175000000001
 11
1424.8076000000001
 21
1009.9846
  0
LINE
  8
_0-0_LAYER001
  6
CONTINUOUS
 62
    4
 10
1411.982
 20
1012.9501
 11
1418.3541
 21
1011.3175000000001
  0
LINE
  8
_0-0_LAYER001
  6
CONTINUOUS
 62
    4
 10
1405.7046
 20
1014.8737000000001
 11
1411.982
 21
1012.9501
  0
LINE
  8
_0-0_LAYER001
  6
CONTINUOUS
 62
    4
 10
1399.6176
 20
1017.0508
 11
1405.7046
 21
1014.8737000000001
  0
LINE
  8
_0-0_LAYER001
  6
CONTINUOUS
 62
    4
 10
1395.9919
 20
1018.4983
 11
1399.6176
 21
1017.0508
  0
LINE
  8
_0-0_LAYER001
  6
CONTINUOUS
 62
    4
 10
1391.692
 20
1020.3628000000001
 11
1395.9919
 21
1018.4983
  0
LINE
  8
_0-0_LAYER001
  6
CONTINUOUS
 62
    4
 10
1384.7012
 20
1023.7401
 11
1391.692
 21
1020.3628000000001
  0
LINE
  8
_0-0_LAYER001
  6
CONTINUOUS
 62
    4
 10
1377.8829999999998
 20
1027.4292
 11
1384.7012
 21
1023.7401
  0
LINE
  8
_0-0_LAYER001
  6
CONTINUOUS
 62
    4
 10
1371.3072999999999
 20
1031.3266000000001
 11
1377.8829999999998
 21
1027.4292
  0
LINE
  8
_0-0_LAYER001
  6
CONTINUOUS
 62
    4
 10
1364.9463000000001
 20
1035.3782000000001
 11
1371.3072999999999
 21
1031.3266000000001
  0
LINE
  8
_0-0_LAYER001
  6
CONTINUOUS
 62
    4
 10
1358.7958000000001
 20
1039.5177000000001
 11
1364.9463000000001
 21
1035.3782000000001
  0
LINE
  8
_0-0_LAYER001
  6
CONTINUOUS
 62
    4
 10
1355.2711999999999
 20
1041.9691
 11
1358.7958000000001
 21
1039.5177000000001
  0
LINE
  8
_0-0_LAYER001
  6
CONTINUOUS
 62
    4
 10
1353.0420999999999
 20
1043.5405000000001
 11
1355.2711999999999
 21
1041.9691
  0
LINE
  8
_0-0_LAYER001
  6
CONTINUOUS
 62
    4
 10
1349.4004
 20
1046.0924
 11
1353.0420999999999
 21
1043.5405000000001
  0
LINE
  8
_0-0_LAYER001
  6
CONTINUOUS
 62
    4
 10
1345.9833000000001
 20
1048.3897999999999
 11
1349.4004
 21
1046.0924
  0
LINE
  8
_0-0_LAYER001
  6
CONTINUOUS
 62
    4
 10
1342.7876000000001
 20
1050.3667
 11
1345.9833000000001
 21
1048.3897999999999
  0
LINE
  8
_0-0_LAYER001
  6
CONTINUOUS
 62
    4
 10
1339.8036999999999
 20
1051.9857999999999
 11
1342.7876000000001
 21
1050.3667
  0
LINE
  8
_0-0_LAYER001
  6
CONTINUOUS
 62
    4
 10
1336.8371
 20
1053.3150000000001
 11
1339.8036999999999
 21
1051.9857999999999
  0
LINE
  8
_0-0_LAYER001
  6
CONTINUOUS
 62
    4
 10
1336.0871999999999
 20
1053.5877
 11
1336.8371
 21
1053.3150000000001
  0
LINE
  8
_0-0_LAYER001
  6
CONTINUOUS
 62
    4
 10
1336.4202
 20
1073.6309000000001
 11
1336.2442000000001
 21
1053.4574
  0
LINE
  8
_0-0_LAYER001
  6
CONTINUOUS
 62
    4
 10
1536.7458999999999
 20
1008.1431
 11
1534.5003999999999
 21
1016.7165
  0
ARC
  8
_0-0_LAYER001
  6
CONTINUOUS
 62
    4
 10
1539.6480000000001
 20
1008.9031
 40
3
 50
194.67639000000003
 51
270.00000000000006
  0
LINE
  8
_0-0_LAYER001
  6
CONTINUOUS
 62
    4
 10
1543.0904999999998
 20
1005.8987999999999
 11
1539.6725999999999
 21
1005.8987999999999
  0
LINE
  8
_0-0_LAYER001
  6
CONTINUOUS
 62
    4
 10
1546.0495999999998
 20
1008.4056
 11
1547.9837000000002
 21
1020.0098
  0
ARC
  8
_0-0_LAYER001
  6
CONTINUOUS
 62
    4
 10
1543.0904999999998
 20
1008.8987999999999
 40
3
 50
270
 51
350.53766999999999
  0
LINE
  8
_0-0_LAYER001
  6
CONTINUOUS
 62
    4
 10
1289.3241
 20
1083.021
 11
1290.1379999999999
 21
1083.3277
  0
LINE
  8
_0-0_LAYER001
  6
CONTINUOUS
 62
    4
 10
1290.1379999999999
 20
1083.3277
 11
1293.6871999999998
 21
1084.6673000000001
  0
LINE
  8
_0-0_LAYER001
  6
CONTINUOUS
 62
    4
 10
1293.6871999999998
 20
1084.6673000000001
 11
1297.2438999999999
 21
1086.0162
  0
LINE
  8
_0-0_LAYER001
  6
CONTINUOUS
 62
    4
 10
1297.2438999999999
 20
1086.0162
 11
1300.8125
 21
1087.3802000000001
  0
LINE
  8
_0-0_LAYER001
  6
CONTINUOUS
 62
    4
 10
1300.8125
 20
1087.3802000000001
 11
1304.3978999999999
 21
1088.7653
  0
LINE
  8
_0-0_LAYER001
  6
CONTINUOUS
 62
    4
 10
1304.3978999999999
 20
1088.7653
 11
1308.0045999999998
 21
1090.1772000000001
  0
LINE
  8
_0-0_LAYER001
  6
CONTINUOUS
 62
    4
 10
1308.0045999999998
 20
1090.1772000000001
 11
1310.1080999999999
 21
1091.0108
  0
LINE
  8
_0-0_LAYER001
  6
CONTINUOUS
 62
    4
 10
1310.1080999999999
 20
1091.0108
 11
1312.1875
 21
1091.8397
  0
LINE
  8
_0-0_LAYER001
  6
CONTINUOUS
 62
    4
 10
1312.1875
 20
1091.8397
 11
1315.7940000000003
 21
1093.2411999999999
  0
LINE
  8
_0-0_LAYER001
  6
CONTINUOUS
 62
    4
 10
1315.7940000000003
 20
1093.2411999999999
 11
1319.4267
 21
1094.5238999999999
  0
LINE
  8
_0-0_LAYER001
  6
CONTINUOUS
 62
    4
 10
1319.4267
 20
1094.5238999999999
 11
1323.0846999999999
 21
1095.5905
  0
LINE
  8
_0-0_LAYER001
  6
CONTINUOUS
 62
    4
 10
1323.0846999999999
 20
1095.5905
 11
1326.7668000000001
 21
1096.3436999999999
  0
LINE
  8
_0-0_LAYER001
  6
CONTINUOUS
 62
    4
 10
1326.7668000000001
 20
1096.3436999999999
 11
1330.4721
 21
1096.6863000000001
  0
LINE
  8
_0-0_LAYER001
  6
CONTINUOUS
 62
    4
 10
1330.4721
 20
1096.6863000000001
 11
1332.6313
 21
1096.6584
  0
LINE
  8
_0-0_LAYER001
  6
CONTINUOUS
 62
    4
 10
1332.6313
 20
1096.6584
 11
1333.4805000000001
 21
1096.597
  0
LINE
  8
_0-0_LAYER001
  6
CONTINUOUS
 62
    4
 10
1333.4805000000001
 20
1096.597
 11
1334.9448000000002
 21
1096.4264000000001
  0
LINE
  8
_0-0_LAYER001
  6
CONTINUOUS
 62
    4
 10
1334.9448000000002
 20
1096.4264000000001
 11
1336.4059
 21
1096.1796999999999
  0
LINE
  8
_0-0_LAYER001
  6
CONTINUOUS
 62
    4
 10
1336.4059
 20
1096.1796999999999
 11
1337.8595999999998
 21
1095.8637000000001
  0
LINE
  8
_0-0_LAYER001
  6
CONTINUOUS
 62
    4
 10
1337.8595999999998
 20
1095.8637000000001
 11
1339.3018000000002
 21
1095.4852000000001
  0
LINE
  8
_0-0_LAYER001
  6
CONTINUOUS
 62
    4
 10
1339.3018000000002
 20
1095.4852000000001
 11
1340.7282
 21
1095.0509999999999
  0
LINE
  8
_0-0_LAYER001
  6
CONTINUOUS
 62
    4
 10
1340.7282
 20
1095.0509999999999
 11
1341.5467000000001
 21
1094.7764
  0
LINE
  8
_0-0_LAYER001
  6
CONTINUOUS
 62
    4
 10
1341.5467000000001
 20
1094.7764
 11
1344.0449000000001
 21
1093.8281999999999
  0
LINE
  8
_0-0_LAYER001
  6
CONTINUOUS
 62
    4
 10
1344.0449000000001
 20
1093.8281999999999
 11
1348.2038
 21
1091.8946000000001
  0
LINE
  8
_0-0_LAYER001
  6
CONTINUOUS
 62
    4
 10
1348.2038
 20
1091.8946000000001
 11
1352.2075999999997
 21
1089.6492000000001
  0
LINE
  8
_0-0_LAYER001
  6
CONTINUOUS
 62
    4
 10
1352.2075999999997
 20
1089.6492000000001
 11
1356.0944999999997
 21
1087.1690000000001
  0
LINE
  8
_0-0_LAYER001
  6
CONTINUOUS
 62
    4
 10
1356.0944999999997
 20
1087.1690000000001
 11
1359.9025000000001
 21
1084.5308
  0
LINE
  8
_0-0_LAYER001
  6
CONTINUOUS
 62
    4
 10
1359.9025000000001
 20
1084.5308
 11
1363.6697999999999
 21
1081.8117
  0
LINE
  8
_0-0_LAYER001
  6
CONTINUOUS
 62
    4
 10
1363.6697999999999
 20
1081.8117
 11
1365.8511000000001
 21
1080.2279000000001
  0
LINE
  8
_0-0_LAYER001
  6
CONTINUOUS
 62
    4
 10
1365.8511000000001
 20
1080.2279000000001
 11
1369.1827000000001
 21
1077.8411000000001
  0
LINE
  8
_0-0_LAYER001
  6
CONTINUOUS
 62
    4
 10
1369.1827000000001
 20
1077.8411000000001
 11
1374.9748999999999
 21
1073.8242
  0
LINE
  8
_0-0_LAYER001
  6
CONTINUOUS
 62
    4
 10
1374.9748999999999
 20
1073.8242
 11
1380.8471
 21
1069.9675999999999
  0
LINE
  8
_0-0_LAYER001
  6
CONTINUOUS
 62
    4
 10
1380.8471
 20
1069.9675999999999
 11
1386.8211999999999
 21
1066.3131000000001
  0
LINE
  8
_0-0_LAYER001
  6
CONTINUOUS
 62
    4
 10
1386.8211999999999
 20
1066.3131000000001
 11
1392.9194000000002
 21
1062.9024999999999
  0
LINE
  8
_0-0_LAYER001
  6
CONTINUOUS
 62
    4
 10
1392.9194000000002
 20
1062.9024999999999
 11
1399.1637000000001
 21
1059.7777000000001
  0
LINE
  8
_0-0_LAYER001
  6
CONTINUOUS
 62
    4
 10
1399.1637000000001
 20
1059.7777000000001
 11
1402.8610000000001
 21
1058.1126999999999
  0
LINE
  8
_0-0_LAYER001
  6
CONTINUOUS
 62
    4
 10
1402.8610000000001
 20
1058.1126999999999
 11
1405.9202
 21
1056.8416
  0
LINE
  8
_0-0_LAYER001
  6
CONTINUOUS
 62
    4
 10
1405.9202
 20
1056.8416
 11
1411.2808
 21
1054.8395
  0
LINE
  8
_0-0_LAYER001
  6
CONTINUOUS
 62
    4
 10
1411.2808
 20
1054.8395
 11
1416.7365
 21
1053.0840000000001
  0
LINE
  8
_0-0_LAYER001
  6
CONTINUOUS
 62
    4
 10
1416.7365
 20
1053.0840000000001
 11
1422.2714000000001
 21
1051.5832
  0
LINE
  8
_0-0_LAYER001
  6
CONTINUOUS
 62
    4
 10
1422.2714000000001
 20
1051.5832
 11
1427.8697
 21
1050.3452
  0
LINE
  8
_0-0_LAYER001
  6
CONTINUOUS
 62
    4
 10
1427.8697
 20
1050.3452
 11
1433.5155
 21
1049.3779999999999
  0
LINE
  8
_0-0_LAYER001
  6
CONTINUOUS
 62
    4
 10
1433.5155
 20
1049.3779999999999
 11
1436.8054000000002
 21
1048.9443000000001
  0
LINE
  8
_0-0_LAYER001
  6
CONTINUOUS
 62
    4
 10
1436.8054000000002
 20
1048.9443000000001
 11
1439.3247000000001
 21
1048.6764000000001
  0
LINE
  8
_0-0_LAYER001
  6
CONTINUOUS
 62
    4
 10
1439.3247000000001
 20
1048.6764000000001
 11
1443.6768000000002
 21
1048.3363999999999
  0
LINE
  8
_0-0_LAYER001
  6
CONTINUOUS
 62
    4
 10
1443.6768000000002
 20
1048.3363999999999
 11
1448.0369999999998
 21
1048.1369999999999
  0
LINE
  8
_0-0_LAYER001
  6
CONTINUOUS
 62
    4
 10
1448.0369999999998
 20
1048.1369999999999
 11
1452.4022
 21
1048.0623000000001
  0
LINE
  8
_0-0_LAYER001
  6
CONTINUOUS
 62
    4
 10
1452.4022
 20
1048.0623000000001
 11
1456.7692999999999
 21
1048.0967000000001
  0
LINE
  8
_0-0_LAYER001
  6
CONTINUOUS
 62
    4
 10
1456.7692999999999
 20
1048.0967000000001
 11
1461.1352000000002
 21
1048.2243000000001
  0
LINE
  8
_0-0_LAYER001
  6
CONTINUOUS
 62
    4
 10
1461.1352000000002
 20
1048.2243000000001
 11
1463.6657
 21
1048.3347000000001
  0
LINE
  8
_0-0_LAYER001
  6
CONTINUOUS
 62
    4
 10
1463.6657
 20
1048.3347000000001
 11
1468.3948
 21
1048.6029000000001
  0
LINE
  8
_0-0_LAYER001
  6
CONTINUOUS
 62
    4
 10
1468.3948
 20
1048.6029000000001
 11
1476.5329999999999
 21
1049.2338999999999
  0
LINE
  8
_0-0_LAYER001
  6
CONTINUOUS
 62
    4
 10
1476.5329999999999
 20
1049.2338999999999
 11
1484.6536999999998
 21
1050.0478000000001
  0
LINE
  8
_0-0_LAYER001
  6
CONTINUOUS
 62
    4
 10
1484.6536999999998
 20
1050.0478000000001
 11
1492.7595999999999
 21
1051.0091
  0
LINE
  8
_0-0_LAYER001
  6
CONTINUOUS
 62
    4
 10
1492.7595999999999
 20
1051.0091
 11
1500.8530000000001
 21
1052.0822000000001
  0
LINE
  8
_0-0_LAYER001
  6
CONTINUOUS
 62
    4
 10
1500.8530000000001
 20
1052.0822000000001
 11
1508.9366
 21
1053.2318
  0
LINE
  8
_0-0_LAYER001
  6
CONTINUOUS
 62
    4
 10
1508.9366
 20
1053.2318
 11
1513.6215000000002
 21
1053.9195999999999
  0
LINE
  8
_0-0_LAYER001
  6
CONTINUOUS
 62
    4
 10
1513.6215000000002
 20
1053.9195999999999
 11
1516.0563999999999
 21
1054.2805000000001
  0
LINE
  8
_0-0_LAYER001
  6
CONTINUOUS
 62
    4
 10
1516.0563999999999
 20
1054.2805000000001
 11
1520.2532999999999
 21
1054.9065000000001
  0
LINE
  8
_0-0_LAYER001
  6
CONTINUOUS
 62
    4
 10
1520.2532999999999
 20
1054.9065000000001
 11
1524.4490999999998
 21
1055.5365999999999
  0
LINE
  8
_0-0_LAYER001
  6
CONTINUOUS
 62
    4
 10
1524.4490999999998
 20
1055.5365999999999
 11
1528.6439
 21
1056.1697999999999
  0
LINE
  8
_0-0_LAYER001
  6
CONTINUOUS
 62
    4
 10
1528.6439
 20
1056.1697999999999
 11
1532.8380999999999
 21
1056.8054
  0
LINE
  8
_0-0_LAYER001
  6
CONTINUOUS
 62
    4
 10
1532.8380999999999
 20
1056.8054
 11
1537.0319
 21
1057.4423999999999
  0
LINE
  8
_0-0_LAYER001
  6
CONTINUOUS
 62
    4
 10
1537.0319
 20
1057.4423999999999
 11
1539.4641999999999
 21
1057.8122000000001
  0
LINE
  8
_0-0_LAYER001
  6
CONTINUOUS
 62
    4
 10
1294.4273000000001
 20
1065.7085999999999
 11
1296.4892
 21
1066.4854
  0
LINE
  8
_0-0_LAYER001
  6
CONTINUOUS
 62
    4
 10
1296.4892
 20
1066.4854
 11
1300.0568000000001
 21
1067.8318999999999
  0
LINE
  8
_0-0_LAYER001
  6
CONTINUOUS
 62
    4
 10
1300.0568000000001
 20
1067.8318999999999
 11
1303.6487
 21
1069.1941999999999
  0
LINE
  8
_0-0_LAYER001
  6
CONTINUOUS
 62
    4
 10
1303.6487
 20
1069.1941999999999
 11
1307.2691
 21
1070.578
  0
LINE
  8
_0-0_LAYER001
  6
CONTINUOUS
 62
    4
 10
1307.2691
 20
1070.578
 11
1310.922
 21
1071.9892
  0
LINE
  8
_0-0_LAYER001
  6
CONTINUOUS
 62
    4
 10
1310.922
 20
1071.9892
 11
1314.6012000000001
 21
1073.4295
  0
LINE
  8
_0-0_LAYER001
  6
CONTINUOUS
 62
    4
 10
1314.6012000000001
 20
1073.4295
 11
1316.7563999999998
 21
1074.2836
  0
LINE
  8
_0-0_LAYER001
  6
CONTINUOUS
 62
    4
 10
1316.7563999999998
 20
1074.2836
 11
1318.7799999999997
 21
1075.0903000000001
  0
LINE
  8
_0-0_LAYER001
  6
CONTINUOUS
 62
    4
 10
1318.7799999999997
 20
1075.0903000000001
 11
1322.0518999999999
 21
1076.3616999999999
  0
LINE
  8
_0-0_LAYER001
  6
CONTINUOUS
 62
    4
 10
1322.0518999999999
 20
1076.3616999999999
 11
1324.9469999999999
 21
1077.3839
  0
LINE
  8
_0-0_LAYER001
  6
CONTINUOUS
 62
    4
 10
1324.9469999999999
 20
1077.3839
 11
1327.4151000000002
 21
1078.1035999999999
  0
LINE
  8
_0-0_LAYER001
  6
CONTINUOUS
 62
    4
 10
1327.4151000000002
 20
1078.1035999999999
 11
1329.4069
 21
1078.5110999999999
  0
LINE
  8
_0-0_LAYER001
  6
CONTINUOUS
 62
    4
 10
1329.4069
 20
1078.5110999999999
 11
1331.1862000000001
 21
1078.6755000000001
  0
LINE
  8
_0-0_LAYER001
  6
CONTINUOUS
 62
    4
 10
1331.1862000000001
 20
1078.6755000000001
 11
1331.8657000000003
 21
1078.6667
  0
LINE
  8
_0-0_LAYER001
  6
CONTINUOUS
 62
    4
 10
1331.8657000000003
 20
1078.6667
 11
1331.7896000000001
 21
1078.6722
  0
LINE
  8
_0-0_LAYER001
  6
CONTINUOUS
 62
    4
 10
1331.7896000000001
 20
1078.6722
 11
1332.4032
 21
1078.6007999999999
  0
LINE
  8
_0-0_LAYER001
  6
CONTINUOUS
 62
    4
 10
1332.4032
 20
1078.6007999999999
 11
1332.9936
 21
1078.5011
  0
LINE
  8
_0-0_LAYER001
  6
CONTINUOUS
 62
    4
 10
1332.9936
 20
1078.5011
 11
1333.6610999999998
 21
1078.356
  0
LINE
  8
_0-0_LAYER001
  6
CONTINUOUS
 62
    4
 10
1333.6610999999998
 20
1078.356
 11
1334.3946000000001
 21
1078.1633999999999
  0
LINE
  8
_0-0_LAYER001
  6
CONTINUOUS
 62
    4
 10
1334.3946000000001
 20
1078.1633999999999
 11
1335.2438000000002
 21
1077.905
  0
LINE
  8
_0-0_LAYER001
  6
CONTINUOUS
 62
    4
 10
1335.2438000000002
 20
1077.905
 11
1335.4879000000001
 21
1077.8231000000001
  0
LINE
  8
_0-0_LAYER001
  6
CONTINUOUS
 62
    4
 10
1335.4879000000001
 20
1077.8231000000001
 11
1337.0478000000001
 21
1077.231
  0
LINE
  8
_0-0_LAYER001
  6
CONTINUOUS
 62
    4
 10
1337.0478000000001
 20
1077.231
 11
1339.9955
 21
1075.8606
  0
LINE
  8
_0-0_LAYER001
  6
CONTINUOUS
 62
    4
 10
1339.9955
 20
1075.8606
 11
1342.9566
 21
1074.2
  0
LINE
  8
_0-0_LAYER001
  6
CONTINUOUS
 62
    4
 10
1342.9566
 20
1074.2
 11
1346.1242999999999
 21
1072.1786
  0
LINE
  8
_0-0_LAYER001
  6
CONTINUOUS
 62
    4
 10
1346.1242999999999
 20
1072.1786
 11
1349.509
 21
1069.8336999999999
  0
LINE
  8
_0-0_LAYER001
  6
CONTINUOUS
 62
    4
 10
1349.509
 20
1069.8336999999999
 11
1353.1147000000001
 21
1067.2311999999999
  0
LINE
  8
_0-0_LAYER001
  6
CONTINUOUS
 62
    4
 10
1353.1147000000001
 20
1067.2311999999999
 11
1355.3217
 21
1065.6288
  0
LINE
  8
_0-0_LAYER001
  6
CONTINUOUS
 62
    4
 10
1355.3217
 20
1065.6288
 11
1358.8116
 21
1063.1285
  0
LINE
  8
_0-0_LAYER001
  6
CONTINUOUS
 62
    4
 10
1358.8116
 20
1063.1285
 11
1364.9038
 21
1058.9034999999999
  0
LINE
  8
_0-0_LAYER001
  6
CONTINUOUS
 62
    4
 10
1364.9038
 20
1058.9034999999999
 11
1371.2076
 21
1054.7635
  0
LINE
  8
_0-0_LAYER001
  6
CONTINUOUS
 62
    4
 10
1371.2076
 20
1054.7635
 11
1377.7283
 21
1050.7746999999999
  0
LINE
  8
_0-0_LAYER001
  6
CONTINUOUS
 62
    4
 10
1377.7283
 20
1050.7746999999999
 11
1384.4942000000001
 21
1046.9907000000001
  0
LINE
  8
_0-0_LAYER001
  6
CONTINUOUS
 62
    4
 10
1384.4942000000001
 20
1046.9907000000001
 11
1391.4373000000001
 21
1043.5162
  0
LINE
  8
_0-0_LAYER001
  6
CONTINUOUS
 62
    4
 10
1391.4373000000001
 20
1043.5162
 11
1395.7107000000001
 21
1041.5917999999999
  0
LINE
  8
_0-0_LAYER001
  6
CONTINUOUS
 62
    4
 10
1395.7107000000001
 20
1041.5917999999999
 11
1399.3157999999999
 21
1040.0939000000001
  0
LINE
  8
_0-0_LAYER001
  6
CONTINUOUS
 62
    4
 10
1399.3157999999999
 20
1040.0939000000001
 11
1405.3719000000001
 21
1037.8318999999999
  0
LINE
  8
_0-0_LAYER001
  6
CONTINUOUS
 62
    4
 10
1405.3719000000001
 20
1037.8318999999999
 11
1411.6217000000001
 21
1035.8208999999999
  0
LINE
  8
_0-0_LAYER001
  6
CONTINUOUS
 62
    4
 10
1411.6217000000001
 20
1035.8208999999999
 11
1417.9704999999999
 21
1034.0995
  0
LINE
  8
_0-0_LAYER001
  6
CONTINUOUS
 62
    4
 10
1417.9704999999999
 20
1034.0995
 11
1424.4047
 21
1032.6766
  0
LINE
  8
_0-0_LAYER001
  6
CONTINUOUS
 62
    4
 10
1424.4047
 20
1032.6766
 11
1430.8184000000001
 21
1031.5778
  0
LINE
  8
_0-0_LAYER001
  6
CONTINUOUS
 62
    4
 10
1430.8184000000001
 20
1031.5778
 11
1434.6772000000001
 21
1031.0690999999999
  0
LINE
  8
_0-0_LAYER001
  6
CONTINUOUS
 62
    4
 10
1434.6772000000001
 20
1031.0690999999999
 11
1437.6718000000001
 21
1030.7507000000001
  0
LINE
  8
_0-0_LAYER001
  6
CONTINUOUS
 62
    4
 10
1437.6718000000001
 20
1030.7507000000001
 11
1442.5643
 21
1030.3685
  0
LINE
  8
_0-0_LAYER001
  6
CONTINUOUS
 62
    4
 10
1442.5643
 20
1030.3685
 11
1447.4717999999998
 21
1030.144
  0
LINE
  8
_0-0_LAYER001
  6
CONTINUOUS
 62
    4
 10
1447.4717999999998
 20
1030.144
 11
1452.3191999999999
 21
1030.0610999999999
  0
LINE
  8
_0-0_LAYER001
  6
CONTINUOUS
 62
    4
 10
1452.3191999999999
 20
1030.0610999999999
 11
1457.1030999999998
 21
1030.0987
  0
LINE
  8
_0-0_LAYER001
  6
CONTINUOUS
 62
    4
 10
1457.1030999999998
 20
1030.0987
 11
1461.7907
 21
1030.2357
  0
LINE
  8
_0-0_LAYER001
  6
CONTINUOUS
 62
    4
 10
1461.7907
 20
1030.2357
 11
1464.5679
 21
1030.357
  0
LINE
  8
_0-0_LAYER001
  6
CONTINUOUS
 62
    4
 10
1464.5679
 20
1030.357
 11
1469.6001999999999
 21
1030.6424
  0
LINE
  8
_0-0_LAYER001
  6
CONTINUOUS
 62
    4
 10
1469.6001999999999
 20
1030.6424
 11
1478.1264000000001
 21
1031.3034
  0
LINE
  8
_0-0_LAYER001
  6
CONTINUOUS
 62
    4
 10
1478.1264000000001
 20
1031.3034
 11
1486.6113
 21
1032.1538
  0
LINE
  8
_0-0_LAYER001
  6
CONTINUOUS
 62
    4
 10
1486.6113
 20
1032.1538
 11
1495.0025999999998
 21
1033.1488999999999
  0
LINE
  8
_0-0_LAYER001
  6
CONTINUOUS
 62
    4
 10
1495.0025999999998
 20
1033.1488999999999
 11
1503.3033
 21
1034.2496000000001
  0
LINE
  8
_0-0_LAYER001
  6
CONTINUOUS
 62
    4
 10
1503.3033
 20
1034.2496000000001
 11
1511.511
 21
1035.4168
  0
LINE
  8
_0-0_LAYER001
  6
CONTINUOUS
 62
    4
 10
1511.511
 20
1035.4168
 11
1516.2482
 21
1036.1123
  0
LINE
  8
_0-0_LAYER001
  6
CONTINUOUS
 62
    4
 10
1516.2482
 20
1036.1123
 11
1518.7035000000001
 21
1036.4762000000001
  0
LINE
  8
_0-0_LAYER001
  6
CONTINUOUS
 62
    4
 10
1518.7035000000001
 20
1036.4762000000001
 11
1522.9176000000002
 21
1037.1047000000001
  0
LINE
  8
_0-0_LAYER001
  6
CONTINUOUS
 62
    4
 10
1522.9176000000002
 20
1037.1047000000001
 11
1527.1291999999999
 21
1037.7372
  0
LINE
  8
_0-0_LAYER001
  6
CONTINUOUS
 62
    4
 10
1527.1291999999999
 20
1037.7372
 11
1531.3359
 21
1038.3723
  0
LINE
  8
_0-0_LAYER001
  6
CONTINUOUS
 62
    4
 10
1531.3359
 20
1038.3723
 11
1535.5381000000002
 21
1039.0091
  0
LINE
  8
_0-0_LAYER001
  6
CONTINUOUS
 62
    4
 10
1535.5381000000002
 20
1039.0091
 11
1539.7359999999999
 21
1039.6467
  0
LINE
  8
_0-0_LAYER001
  6
CONTINUOUS
 62
    4
 10
1539.7359999999999
 20
1039.6467
 11
1541.3537000000001
 21
1039.8925999999999
  0
LINE
  8
_0-0_LAYER001
  6
CONTINUOUS
 62
    4
 10
1288.8984
 20
1082.8587
 11
1289.3244
 21
1083.0218
  0
ARC
  8
_0-0_LAYER001
  6
CONTINUOUS
 62
    4
 10
1289.9711
 20
1080.057
 40
3
 50
110.94902000000002
 51
178.70000000000002
  0
LINE
  8
_0-0_LAYER001
  6
CONTINUOUS
 62
    4
 10
1286.8625
 20
1064.2860000000001
 11
1286.8625
 21
1080.0083999999999
  0
LINE
  8
_0-0_LAYER001
  6
CONTINUOUS
 62
    4
 10
1288.2165
 20
1063.3507
 11
1294.3913
 21
1065.6878999999999
  0
ARC
  8
_0-0_LAYER001
  6
CONTINUOUS
 62
    4
 10
1287.8625
 20
1064.2860000000001
 40
1
 50
180
 51
290.73165999999998
  0
LINE
  8
_0-0_LAYER001
  6
CONTINUOUS
 62
    4
 10
1551.8625000000002
 20
1042.9637
 11
1551.8625000000002
 21
1060.1611
  0
LINE
  8
_0-0_LAYER001
  6
CONTINUOUS
 62
    4
 10
1539.5891000000001
 20
1057.8476000000001
 11
1584.0434
 21
1067.4954
  0
LINE
  8
_0-0_LAYER001
  6
CONTINUOUS
 62
    4
 10
1546.3343
 20
1038.0137999999999
 11
1585.0061000000001
 21
1047.0637999999999
  0
LINE
  8
_0-0_LAYER001
  6
CONTINUOUS
 62
    4
 10
1585.0061000000001
 20
1048.0202999999999
 11
1585.0061000000001
 21
1047.0637999999999
  0
ARC
  8
_0-0_LAYER001
  6
CONTINUOUS
 62
    4
 10
1586.0061000000001
 20
1048.0202999999999
 40
1
 50
102.72435
 51
180
  0
LINE
  8
_0-0_LAYER001
  6
CONTINUOUS
 62
    4
 10
1590.8231000000001
 20
1050.1332
 11
1585.7858000000001
 21
1048.9956999999999
  0
ARC
  8
_0-0_LAYER001
  6
CONTINUOUS
 62
    4
 10
1591.0434
 20
1049.1577
 40
1
 50
0
 51
102.72435
  0
LINE
  8
_0-0_LAYER001
  6
CONTINUOUS
 62
    4
 10
1591.2554
 20
1050.6415999999999
 11
1541.1215000000002
 21
1039.7610999999999
  0
ARC
  8
_0-0_LAYER001
  6
CONTINUOUS
 62
    4
 10
1591.0434
 20
1051.6188999999999
 40
1
 50
282.24497000000002
 51
0
  0
LINE
  8
_0-0_LAYER001
  6
CONTINUOUS
 62
    4
 10
1591.2611999999999
 20
1029.9009000000001
 11
1541.6772000000001
 21
1018.8331000000001
  0
LINE
  8
_0-0_LAYER001
  6
CONTINUOUS
 62
    4
 10
1592.0434
 20
1030.8769
 11
1592.0434
 21
1049.1577
  0
ARC
  8
_0-0_LAYER001
  6
CONTINUOUS
 62
    4
 10
1591.0434
 20
1030.8769
 40
1
 50
282.58296000000001
 51
0.0000000000000254
  0
LINE
  8
_0-0_LAYER001
  6
CONTINUOUS
 62
    4
 10
1584.0434
 20
1068.9525000000001
 11
1584.0434
 21
1067.4954
  0
ARC
  8
_0-0_LAYER001
  6
CONTINUOUS
 62
    4
 10
1585.0434
 20
1068.9525000000001
 40
1
 50
101.73308
 51
180
  0
LINE
  8
_0-0_LAYER001
  6
CONTINUOUS
 62
    4
 10
1590.8400000000001
 20
1071.1777
 11
1584.8400000000001
 21
1069.9315999999999
  0
LINE
  8
_0-0_LAYER001
  6
CONTINUOUS
 62
    4
 10
1592.0434
 20
1070.1985999999999
 11
1592.0434
 21
1051.6188999999999
  0
ARC
  8
_0-0_LAYER001
  6
CONTINUOUS
 62
    4
 10
1591.0434
 20
1070.1985999999999
 40
1
 50
0
 51
101.73308
  0
LINE
  8
_0-0_LAYER001
  6
DASHED1
 62
    2
 10
1391.2542000000003
 20
1042.7167999999999
 11
1407.2542000000001
 21
1042.7167999999999
  0
LINE
  8
_0-0_LAYER001
  6
DASHED1
 62
    2
 10
1407.2542000000001
 20
1042.7167999999999
 11
1407.2542000000001
 21
1039.7167999999999
  0
LINE
  8
_0-0_LAYER001
  6
DASHED1
 62
    2
 10
1391.2542000000003
 20
1042.7167999999999
 11
1391.2542000000003
 21
1039.7167999999999
  0
LINE
  8
_0-0_LAYER001
  6
DASHED1
 62
    2
 10
1391.2542000000003
 20
1039.7167999999999
 11
1407.2542000000001
 21
1039.7167999999999
  0
LINE
  8
_0-0_LAYER001
  6
DASHED1
 62
    2
 10
1402.2542000000001
 20
984.82079999999996
 11
1399.2040999999999
 21
970.31179999999995
  0
LINE
  8
_0-0_LAYER001
  6
DASHED1
 62
    2
 10
1402.2542000000001
 20
1039.7167999999999
 11
1402.2542000000001
 21
984.82079999999996
  0
LINE
  8
_0-0_LAYER001
  6
DASHED1
 62
    2
 10
1399.2040999999999
 20
970.31179999999995
 11
1396.2542000000003
 21
984.56930000000011
  0
LINE
  8
_0-0_LAYER001
  6
DASHED1
 62
    2
 10
1396.2542000000003
 20
1039.7167999999999
 11
1396.2542000000003
 21
984.56930000000011
  0
LINE
  8
_0-0_LAYER001
  6
DASHED1
 62
    2
 10
1656.2604999999999
 20
1039.9856
 11
1672.2604999999999
 21
1039.9856
  0
LINE
  8
_0-0_LAYER001
  6
DASHED1
 62
    2
 10
1672.2604999999999
 20
1039.9856
 11
1672.2604999999999
 21
1036.9856
  0
LINE
  8
_0-0_LAYER001
  6
DASHED1
 62
    2
 10
1656.2604999999999
 20
1039.9856
 11
1656.2604999999999
 21
1036.9856
  0
LINE
  8
_0-0_LAYER001
  6
DASHED1
 62
    2
 10
1656.2604999999999
 20
1036.9856
 11
1672.2604999999999
 21
1036.9856
  0
LINE
  8
_0-0_LAYER001
  6
DASHED1
 62
    2
 10
1667.2604999999999
 20
982.08950000000004
 11
1664.2103000000002
 21
967.5806
  0
LINE
  8
_0-0_LAYER001
  6
DASHED1
 62
    2
 10
1667.2604999999999
 20
1036.9856
 11
1667.2604999999999
 21
982.08950000000004
  0
LINE
  8
_0-0_LAYER001
  6
DASHED1
 62
    2
 10
1664.2103000000002
 20
967.5806
 11
1661.2604999999999
 21
981.83809999999994
  0
LINE
  8
_0-0_LAYER001
  6
DASHED1
 62
    2
 10
1661.2604999999999
 20
1036.9856
 11
1661.2604999999999
 21
981.83809999999994
  0
LINE
  8
_0-0_LAYER001
  6
CONTINUOUS
 62
    4
 10
1286.6856000000002
 20
1040.0967000000001
 11
1286.6856000000002
 21
1057.2940000000001
  0
LINE
  8
_0-0_LAYER001
  6
CONTINUOUS
 62
    4
 10
1146.9590000000001
 20
996.25729999999999
 11
1138.4236000000001
 21
1010.7906
  0
LINE
  8
_0-0_LAYER001
  6
CONTINUOUS
 62
    4
 10
1155.1269
 20
995.60699999999997
 11
1163.4331
 21
1005.6724999999999
  0
ARC
  8
_0-0_LAYER001
  6
CONTINUOUS
 62
    4
 10
1151.2705000000001
 20
998.78939999999989
 40
5
 50
210.42578
 51
320.47001
  0
LINE
  8
_0-0_LAYER001
  6
CONTINUOUS
 62
    4
 10
1231.0725
 20
995.13709999999992
 11
1223.7471
 21
1006.4431999999999
  0
LINE
  8
_0-0_LAYER001
  6
CONTINUOUS
 62
    4
 10
1239.5821000000001
 20
995.32709999999997
 11
1248.5205000000001
 21
1010.5726999999999
  0
ARC
  8
_0-0_LAYER001
  6
CONTINUOUS
 62
    4
 10
1235.2687000000001
 20
997.85590000000002
 40
5
 50
212.93986000000001
 51
329.61716000000001
  0
LINE
  8
_0-0_LAYER001
  6
CONTINUOUS
 62
    4
 10
1278.8641
 20
1034.8847000000001
 11
1281.2922000000001
 21
1035.2886000000001
  0
LINE
  8
_0-0_LAYER001
  6
CONTINUOUS
 62
    4
 10
1274.6750999999999
 20
1034.1884
 11
1278.8641
 21
1034.8847000000001
  0
LINE
  8
_0-0_LAYER001
  6
CONTINUOUS
 62
    4
 10
1270.4812999999999
 20
1033.4929
 11
1274.6750999999999
 21
1034.1884
  0
LINE
  8
_0-0_LAYER001
  6
CONTINUOUS
 62
    4
 10
1266.2825
 20
1032.7989
 11
1270.4812999999999
 21
1033.4929
  0
LINE
  8
_0-0_LAYER001
  6
CONTINUOUS
 62
    4
 10
1262.0784000000001
 20
1032.1074000000001
 11
1266.2825
 21
1032.7989
  0
LINE
  8
_0-0_LAYER001
  6
CONTINUOUS
 62
    4
 10
1257.8715999999999
 20
1031.4197999999999
 11
1262.0784000000001
 21
1032.1074000000001
  0
LINE
  8
_0-0_LAYER001
  6
CONTINUOUS
 62
    4
 10
1255.4193
 20
1031.0213000000001
 11
1257.8715999999999
 21
1031.4197999999999
  0
LINE
  8
_0-0_LAYER001
  6
CONTINUOUS
 62
    4
 10
1250.6865
 20
1030.2588000000001
 11
1255.4193
 21
1031.0213000000001
  0
LINE
  8
_0-0_LAYER001
  6
CONTINUOUS
 62
    4
 10
1242.4820999999999
 20
1028.9748999999999
 11
1250.6865
 21
1030.2588000000001
  0
LINE
  8
_0-0_LAYER001
  6
CONTINUOUS
 62
    4
 10
1234.1746000000001
 20
1027.7551000000001
 11
1242.4820999999999
 21
1028.9748999999999
  0
LINE
  8
_0-0_LAYER001
  6
CONTINUOUS
 62
    4
 10
1225.7664
 20
1026.6387
 11
1234.1746000000001
 21
1027.7551000000001
  0
LINE
  8
_0-0_LAYER001
  6
CONTINUOUS
 62
    4
 10
1217.2538
 20
1025.6654000000001
 11
1225.7664
 21
1026.6387
  0
LINE
  8
_0-0_LAYER001
  6
CONTINUOUS
 62
    4
 10
1208.6946
 20
1024.8814
 11
1217.2538
 21
1025.6654000000001
  0
LINE
  8
_0-0_LAYER001
  6
CONTINUOUS
 62
    4
 10
1203.6331
 20
1024.5233000000001
 11
1208.6946
 21
1024.8814
  0
LINE
  8
_0-0_LAYER001
  6
CONTINUOUS
 62
    4
 10
1200.8305
 20
1024.3616999999999
 11
1203.6331
 21
1024.5233000000001
  0
LINE
  8
_0-0_LAYER001
  6
CONTINUOUS
 62
    4
 10
1196.1095
 20
1024.1578
 11
1200.8305
 21
1024.3616999999999
  0
LINE
  8
_0-0_LAYER001
  6
CONTINUOUS
 62
    4
 10
1191.2802999999999
 20
1024.0523000000001
 11
1196.1095
 21
1024.1578
  0
LINE
  8
_0-0_LAYER001
  6
CONTINUOUS
 62
    4
 10
1186.3786
 20
1024.0677000000001
 11
1191.2802999999999
 21
1024.0523000000001
  0
LINE
  8
_0-0_LAYER001
  6
CONTINUOUS
 62
    4
 10
1181.4076
 20
1024.2256
 11
1186.3786
 21
1024.0677000000001
  0
LINE
  8
_0-0_LAYER001
  6
CONTINUOUS
 62
    4
 10
1176.4502
 20
1024.5433
 11
1181.4076
 21
1024.2256
  0
LINE
  8
_0-0_LAYER001
  6
CONTINUOUS
 62
    4
 10
1173.3986
 20
1024.8248000000001
 11
1176.4502
 21
1024.5433
  0
LINE
  8
_0-0_LAYER001
  6
CONTINUOUS
 62
    4
 10
1169.4697000000001
 20
1025.287
 11
1173.3986
 21
1024.8248000000001
  0
LINE
  8
_0-0_LAYER001
  6
CONTINUOUS
 62
    4
 10
1162.9558
 20
1026.3096
 11
1169.4697000000001
 21
1025.287
  0
LINE
  8
_0-0_LAYER001
  6
CONTINUOUS
 62
    4
 10
1156.4091000000001
 20
1027.6617000000001
 11
1162.9558
 21
1026.3096
  0
LINE
  8
_0-0_LAYER001
  6
CONTINUOUS
 62
    4
 10
1149.9462000000001
 20
1029.3176000000001
 11
1156.4091000000001
 21
1027.6617000000001
  0
LINE
  8
_0-0_LAYER001
  6
CONTINUOUS
 62
    4
 10
1143.5803000000001
 20
1031.2683
 11
1149.9462000000001
 21
1029.3176000000001
  0
LINE
  8
_0-0_LAYER001
  6
CONTINUOUS
 62
    4
 10
1137.4155000000001
 20
1033.4731999999999
 11
1143.5803000000001
 21
1031.2683
  0
LINE
  8
_0-0_LAYER001
  6
CONTINUOUS
 62
    4
 10
1133.7289000000001
 20
1034.9449999999999
 11
1137.4155000000001
 21
1033.4731999999999
  0
LINE
  8
_0-0_LAYER001
  6
CONTINUOUS
 62
    4
 10
1129.3646000000001
 20
1036.8375000000001
 11
1133.7289000000001
 21
1034.9449999999999
  0
LINE
  8
_0-0_LAYER001
  6
CONTINUOUS
 62
    4
 10
1122.2954999999999
 20
1040.2525000000001
 11
1129.3646000000001
 21
1036.8375000000001
  0
LINE
  8
_0-0_LAYER001
  6
CONTINUOUS
 62
    4
 10
1115.4025999999999
 20
1043.9820999999999
 11
1122.2954999999999
 21
1040.2525000000001
  0
LINE
  8
_0-0_LAYER001
  6
CONTINUOUS
 62
    4
 10
1108.7655999999999
 20
1047.9158
 11
1115.4025999999999
 21
1043.9820999999999
  0
LINE
  8
_0-0_LAYER001
  6
CONTINUOUS
 62
    4
 10
1102.3562999999999
 20
1051.9982
 11
1108.7655999999999
 21
1047.9158
  0
LINE
  8
_0-0_LAYER001
  6
CONTINUOUS
 62
    4
 10
1096.1721
 20
1056.1603
 11
1102.3562999999999
 21
1051.9982
  0
LINE
  8
_0-0_LAYER001
  6
CONTINUOUS
 62
    4
 10
1092.6297999999999
 20
1058.6241
 11
1096.1721
 21
1056.1603
  0
LINE
  8
_0-0_LAYER001
  6
CONTINUOUS
 62
    4
 10
1090.3978
 20
1060.1975
 11
1092.6297999999999
 21
1058.6241
  0
LINE
  8
_0-0_LAYER001
  6
CONTINUOUS
 62
    4
 10
1086.7742000000001
 20
1062.7366999999999
 11
1090.3978
 21
1060.1975
  0
LINE
  8
_0-0_LAYER001
  6
CONTINUOUS
 62
    4
 10
1083.4045000000001
 20
1065.0021999999999
 11
1086.7742000000001
 21
1062.7366999999999
  0
LINE
  8
_0-0_LAYER001
  6
CONTINUOUS
 62
    4
 10
1080.2895000000001
 20
1066.9293
 11
1083.4045000000001
 21
1065.0021999999999
  0
LINE
  8
_0-0_LAYER001
  6
CONTINUOUS
 62
    4
 10
1077.4223
 20
1068.4849999999999
 11
1080.2895000000001
 21
1066.9293
  0
LINE
  8
_0-0_LAYER001
  6
CONTINUOUS
 62
    4
 10
1074.5912000000001
 20
1069.7535
 11
1077.4223
 21
1068.4849999999999
  0
LINE
  8
_0-0_LAYER001
  6
CONTINUOUS
 62
    4
 10
1073.1279999999999
 20
1070.2855999999999
 11
1074.5912000000001
 21
1069.7535
  0
LINE
  8
_0-0_LAYER001
  6
CONTINUOUS
 62
    4
 10
1072.9468999999999
 20
1070.3435999999999
 11
1073.1279999999999
 21
1070.2855999999999
  0
LINE
  8
_0-0_LAYER001
  6
CONTINUOUS
 62
    4
 10
1072.1586
 20
1070.5715
 11
1072.9468999999999
 21
1070.3435999999999
  0
LINE
  8
_0-0_LAYER001
  6
CONTINUOUS
 62
    4
 10
1071.5015000000001
 20
1070.7342000000001
 11
1072.1586
 21
1070.5715
  0
LINE
  8
_0-0_LAYER001
  6
CONTINUOUS
 62
    4
 10
1070.9196999999999
 20
1070.8522
 11
1071.5015000000001
 21
1070.7342000000001
  0
LINE
  8
_0-0_LAYER001
  6
CONTINUOUS
 62
    4
 10
1070.8796
 20
1070.8584000000001
 11
1070.9196999999999
 21
1070.8522
  0
LINE
  8
_0-0_LAYER001
  6
CONTINUOUS
 62
    4
 10
1274.8534999999999
 20
1015.6972000000001
 11
1276.4675999999999
 21
1015.9657
  0
LINE
  8
_0-0_LAYER001
  6
CONTINUOUS
 62
    4
 10
1270.6649
 20
1015.001
 11
1274.8534999999999
 21
1015.6972000000001
  0
LINE
  8
_0-0_LAYER001
  6
CONTINUOUS
 62
    4
 10
1266.472
 20
1014.3055999999999
 11
1270.6649
 21
1015.001
  0
LINE
  8
_0-0_LAYER001
  6
CONTINUOUS
 62
    4
 10
1262.2745
 20
1013.6119000000001
 11
1266.472
 21
1014.3055999999999
  0
LINE
  8
_0-0_LAYER001
  6
CONTINUOUS
 62
    4
 10
1258.0722000000001
 20
1012.9206999999999
 11
1262.2745
 21
1013.6119000000001
  0
LINE
  8
_0-0_LAYER001
  6
CONTINUOUS
 62
    4
 10
1253.8672999999999
 20
1012.2333000000001
 11
1258.0722000000001
 21
1012.9206999999999
  0
LINE
  8
_0-0_LAYER001
  6
CONTINUOUS
 62
    4
 10
1251.4173000000001
 20
1011.8352
 11
1253.8672999999999
 21
1012.2333000000001
  0
LINE
  8
_0-0_LAYER001
  6
CONTINUOUS
 62
    4
 10
1246.6903
 20
1011.0736999999999
 11
1251.4173000000001
 21
1011.8352
  0
LINE
  8
_0-0_LAYER001
  6
CONTINUOUS
 62
    4
 10
1238.4996000000001
 20
1009.7918999999999
 11
1246.6903
 21
1011.0736999999999
  0
LINE
  8
_0-0_LAYER001
  6
CONTINUOUS
 62
    4
 10
1230.2150999999999
 20
1008.5754999999999
 11
1238.4996000000001
 21
1009.7918999999999
  0
LINE
  8
_0-0_LAYER001
  6
CONTINUOUS
 62
    4
 10
1221.8385000000001
 20
1007.4632999999999
 11
1230.2150999999999
 21
1008.5754999999999
  0
LINE
  8
_0-0_LAYER001
  6
CONTINUOUS
 62
    4
 10
1213.3664000000001
 20
1006.4946
 11
1221.8385000000001
 21
1007.4632999999999
  0
LINE
  8
_0-0_LAYER001
  6
CONTINUOUS
 62
    4
 10
1204.8503000000001
 20
1005.7145
 11
1213.3664000000001
 21
1006.4946
  0
LINE
  8
_0-0_LAYER001
  6
CONTINUOUS
 62
    4
 10
1199.8224
 20
1005.3588999999999
 11
1204.8503000000001
 21
1005.7145
  0
LINE
  8
_0-0_LAYER001
  6
CONTINUOUS
 62
    4
 10
1197.0472
 20
1005.1989000000001
 11
1199.8224
 21
1005.3588999999999
  0
LINE
  8
_0-0_LAYER001
  6
CONTINUOUS
 62
    4
 10
1192.3619000000001
 20
1004.9964
 11
1197.0472
 21
1005.1989000000001
  0
LINE
  8
_0-0_LAYER001
  6
CONTINUOUS
 62
    4
 10
1187.579
 20
1004.8920000000001
 11
1192.3619000000001
 21
1004.9964
  0
LINE
  8
_0-0_LAYER001
  6
CONTINUOUS
 62
    4
 10
1182.7309
 20
1004.9072000000001
 11
1187.579
 21
1004.8920000000001
  0
LINE
  8
_0-0_LAYER001
  6
CONTINUOUS
 62
    4
 10
1177.8208
 20
1005.0632000000001
 11
1182.7309
 21
1004.9072000000001
  0
LINE
  8
_0-0_LAYER001
  6
CONTINUOUS
 62
    4
 10
1172.9235000000001
 20
1005.377
 11
1177.8208
 21
1005.0632000000001
  0
LINE
  8
_0-0_LAYER001
  6
CONTINUOUS
 62
    4
 10
1169.9247
 20
1005.6536000000001
 11
1172.9235000000001
 21
1005.377
  0
LINE
  8
_0-0_LAYER001
  6
CONTINUOUS
 62
    4
 10
1166.0591999999999
 20
1006.1084000000001
 11
1169.9247
 21
1005.6536000000001
  0
LINE
  8
_0-0_LAYER001
  6
CONTINUOUS
 62
    4
 10
1159.6306999999999
 20
1007.1175000000001
 11
1166.0591999999999
 21
1006.1084000000001
  0
LINE
  8
_0-0_LAYER001
  6
CONTINUOUS
 62
    4
 10
1153.1773000000001
 20
1008.4503999999999
 11
1159.6306999999999
 21
1007.1175000000001
  0
LINE
  8
_0-0_LAYER001
  6
CONTINUOUS
 62
    4
 10
1146.8051
 20
1010.0830000000001
 11
1153.1773000000001
 21
1008.4503999999999
  0
LINE
  8
_0-0_LAYER001
  6
CONTINUOUS
 62
    4
 10
1140.5278000000001
 20
1012.0065999999999
 11
1146.8051
 21
1010.0830000000001
  0
LINE
  8
_0-0_LAYER001
  6
CONTINUOUS
 62
    4
 10
1134.4407000000001
 20
1014.1838
 11
1140.5278000000001
 21
1012.0065999999999
  0
LINE
  8
_0-0_LAYER001
  6
CONTINUOUS
 62
    4
 10
1130.8150000000001
 20
1015.6312
 11
1134.4407000000001
 21
1014.1838
  0
LINE
  8
_0-0_LAYER001
  6
CONTINUOUS
 62
    4
 10
1126.5152
 20
1017.4957999999999
 11
1130.8150000000001
 21
1015.6312
  0
LINE
  8
_0-0_LAYER001
  6
CONTINUOUS
 62
    4
 10
1119.5243
 20
1020.873
 11
1126.5152
 21
1017.4957999999999
  0
LINE
  8
_0-0_LAYER001
  6
CONTINUOUS
 62
    4
 10
1112.7062000000001
 20
1024.5621000000001
 11
1119.5243
 21
1020.873
  0
LINE
  8
_0-0_LAYER001
  6
CONTINUOUS
 62
    4
 10
1106.1304
 20
1028.4594999999999
 11
1112.7062000000001
 21
1024.5621000000001
  0
LINE
  8
_0-0_LAYER001
  6
CONTINUOUS
 62
    4
 10
1099.7695000000001
 20
1032.5110999999999
 11
1106.1304
 21
1028.4594999999999
  0
LINE
  8
_0-0_LAYER001
  6
CONTINUOUS
 62
    4
 10
1093.6188999999999
 20
1036.6505999999999
 11
1099.7695000000001
 21
1032.5110999999999
  0
LINE
  8
_0-0_LAYER001
  6
CONTINUOUS
 62
    4
 10
1090.0944
 20
1039.1020000000001
 11
1093.6188999999999
 21
1036.6505999999999
  0
LINE
  8
_0-0_LAYER001
  6
CONTINUOUS
 62
    4
 10
1087.8652
 20
1040.6733999999999
 11
1090.0944
 21
1039.1020000000001
  0
LINE
  8
_0-0_LAYER001
  6
CONTINUOUS
 62
    4
 10
1084.2235000000001
 20
1043.2253000000001
 11
1087.8652
 21
1040.6733999999999
  0
LINE
  8
_0-0_LAYER001
  6
CONTINUOUS
 62
    4
 10
1080.8063999999999
 20
1045.5227
 11
1084.2235000000001
 21
1043.2253000000001
  0
LINE
  8
_0-0_LAYER001
  6
CONTINUOUS
 62
    4
 10
1077.6107999999999
 20
1047.4997000000001
 11
1080.8063999999999
 21
1045.5227
  0
LINE
  8
_0-0_LAYER001
  6
CONTINUOUS
 62
    4
 10
1074.6268
 20
1049.1188
 11
1077.6107999999999
 21
1047.4997000000001
  0
LINE
  8
_0-0_LAYER001
  6
CONTINUOUS
 62
    4
 10
1071.6603
 20
1050.4478999999999
 11
1074.6268
 21
1049.1188
  0
LINE
  8
_0-0_LAYER001
  6
CONTINUOUS
 62
    4
 10
1070.9103
 20
1050.7206000000001
 11
1071.6603
 21
1050.4478999999999
  0
LINE
  8
_0-0_LAYER001
  6
CONTINUOUS
 62
    4
 10
1071.2434000000001
 20
1070.7637999999999
 11
1071.0672999999999
 21
1050.5903000000001
  0
LINE
  8
_0-0_LAYER001
  6
CONTINUOUS
 62
    4
 10
1271.569
 20
1005.2760000000001
 11
1269.3235999999999
 21
1013.8494000000001
  0
ARC
  8
_0-0_LAYER001
  6
CONTINUOUS
 62
    4
 10
1274.4711
 20
1006.0361
 40
3
 50
194.67639000000003
 51
270.00000000000006
  0
LINE
  8
_0-0_LAYER001
  6
CONTINUOUS
 62
    4
 10
1277.9136000000001
 20
1003.0317
 11
1274.4957999999999
 21
1003.0317
  0
LINE
  8
_0-0_LAYER001
  6
CONTINUOUS
 62
    4
 10
1280.8728000000001
 20
1005.5386000000001
 11
1282.8068000000003
 21
1017.1427000000001
  0
ARC
  8
_0-0_LAYER001
  6
CONTINUOUS
 62
    4
 10
1277.9136000000001
 20
1006.0317
 40
3
 50
270
 51
350.53766999999999
  0
LINE
  8
_0-0_LAYER001
  6
CONTINUOUS
 62
    4
 10
1024.1472000000001
 20
1080.1539
 11
1024.9611
 21
1080.4606000000001
  0
LINE
  8
_0-0_LAYER001
  6
CONTINUOUS
 62
    4
 10
1024.9611
 20
1080.4606000000001
 11
1028.5103999999999
 21
1081.8001999999999
  0
LINE
  8
_0-0_LAYER001
  6
CONTINUOUS
 62
    4
 10
1028.5103999999999
 20
1081.8001999999999
 11
1032.067
 21
1083.1491000000001
  0
LINE
  8
_0-0_LAYER001
  6
CONTINUOUS
 62
    4
 10
1032.067
 20
1083.1491000000001
 11
1035.6357
 21
1084.5130999999999
  0
LINE
  8
_0-0_LAYER001
  6
CONTINUOUS
 62
    4
 10
1035.6357
 20
1084.5130999999999
 11
1039.221
 21
1085.8982000000001
  0
LINE
  8
_0-0_LAYER001
  6
CONTINUOUS
 62
    4
 10
1039.221
 20
1085.8982000000001
 11
1042.8277
 21
1087.3101999999999
  0
LINE
  8
_0-0_LAYER001
  6
CONTINUOUS
 62
    4
 10
1042.8277
 20
1087.3101999999999
 11
1044.9312
 21
1088.1437000000001
  0
LINE
  8
_0-0_LAYER001
  6
CONTINUOUS
 62
    4
 10
1044.9312
 20
1088.1437000000001
 11
1047.0106000000001
 21
1088.9726000000001
  0
LINE
  8
_0-0_LAYER001
  6
CONTINUOUS
 62
    4
 10
1047.0106000000001
 20
1088.9726000000001
 11
1050.6170999999999
 21
1090.3741
  0
LINE
  8
_0-0_LAYER001
  6
CONTINUOUS
 62
    4
 10
1050.6170999999999
 20
1090.3741
 11
1054.2499
 21
1091.6568
  0
LINE
  8
_0-0_LAYER001
  6
CONTINUOUS
 62
    4
 10
1054.2499
 20
1091.6568
 11
1057.9078
 21
1092.7234000000001
  0
LINE
  8
_0-0_LAYER001
  6
CONTINUOUS
 62
    4
 10
1057.9078
 20
1092.7234000000001
 11
1061.5898999999999
 21
1093.4766999999999
  0
LINE
  8
_0-0_LAYER001
  6
CONTINUOUS
 62
    4
 10
1061.5898999999999
 20
1093.4766999999999
 11
1065.2952
 21
1093.8191999999999
  0
LINE
  8
_0-0_LAYER001
  6
CONTINUOUS
 62
    4
 10
1065.2952
 20
1093.8191999999999
 11
1067.4545000000001
 21
1093.7913000000001
  0
LINE
  8
_0-0_LAYER001
  6
CONTINUOUS
 62
    4
 10
1067.4545000000001
 20
1093.7913000000001
 11
1068.3036999999999
 21
1093.7299
  0
LINE
  8
_0-0_LAYER001
  6
CONTINUOUS
 62
    4
 10
1068.3036999999999
 20
1093.7299
 11
1069.768
 21
1093.5592999999999
  0
LINE
  8
_0-0_LAYER001
  6
CONTINUOUS
 62
    4
 10
1069.768
 20
1093.5592999999999
 11
1071.2291
 21
1093.3126
  0
LINE
  8
_0-0_LAYER001
  6
CONTINUOUS
 62
    4
 10
1071.2291
 20
1093.3126
 11
1072.6828
 21
1092.9965999999999
  0
LINE
  8
_0-0_LAYER001
  6
CONTINUOUS
 62
    4
 10
1072.6828
 20
1092.9965999999999
 11
1074.1249
 21
1092.6180999999999
  0
LINE
  8
_0-0_LAYER001
  6
CONTINUOUS
 62
    4
 10
1074.1249
 20
1092.6180999999999
 11
1075.5513000000001
 21
1092.1839
  0
LINE
  8
_0-0_LAYER001
  6
CONTINUOUS
 62
    4
 10
1075.5513000000001
 20
1092.1839
 11
1076.3697999999999
 21
1091.9093
  0
LINE
  8
_0-0_LAYER001
  6
CONTINUOUS
 62
    4
 10
1076.3697999999999
 20
1091.9093
 11
1078.8680999999999
 21
1090.9611
  0
LINE
  8
_0-0_LAYER001
  6
CONTINUOUS
 62
    4
 10
1078.8680999999999
 20
1090.9611
 11
1083.027
 21
1089.0274999999999
  0
LINE
  8
_0-0_LAYER001
  6
CONTINUOUS
 62
    4
 10
1083.027
 20
1089.0274999999999
 11
1087.0308
 21
1086.7822000000001
  0
LINE
  8
_0-0_LAYER001
  6
CONTINUOUS
 62
    4
 10
1087.0308
 20
1086.7822000000001
 11
1090.9176
 21
1084.3018999999999
  0
LINE
  8
_0-0_LAYER001
  6
CONTINUOUS
 62
    4
 10
1090.9176
 20
1084.3018999999999
 11
1094.7256
 21
1081.6637000000001
  0
LINE
  8
_0-0_LAYER001
  6
CONTINUOUS
 62
    4
 10
1094.7256
 20
1081.6637000000001
 11
1098.4929
 21
1078.9447
  0
LINE
  8
_0-0_LAYER001
  6
CONTINUOUS
 62
    4
 10
1098.4929
 20
1078.9447
 11
1100.6741999999999
 21
1077.3608999999999
  0
LINE
  8
_0-0_LAYER001
  6
CONTINUOUS
 62
    4
 10
1100.6741999999999
 20
1077.3608999999999
 11
1104.0057999999999
 21
1074.9739999999999
  0
LINE
  8
_0-0_LAYER001
  6
CONTINUOUS
 62
    4
 10
1104.0057999999999
 20
1074.9739999999999
 11
1109.798
 21
1070.9571000000001
  0
LINE
  8
_0-0_LAYER001
  6
CONTINUOUS
 62
    4
 10
1109.798
 20
1070.9571000000001
 11
1115.6702
 21
1067.1005
  0
LINE
  8
_0-0_LAYER001
  6
CONTINUOUS
 62
    4
 10
1115.6702
 20
1067.1005
 11
1121.6443999999999
 21
1063.4459999999999
  0
LINE
  8
_0-0_LAYER001
  6
CONTINUOUS
 62
    4
 10
1121.6443999999999
 20
1063.4459999999999
 11
1127.7426
 21
1060.0355
  0
LINE
  8
_0-0_LAYER001
  6
CONTINUOUS
 62
    4
 10
1127.7426
 20
1060.0355
 11
1133.9867999999999
 21
1056.9106999999999
  0
LINE
  8
_0-0_LAYER001
  6
CONTINUOUS
 62
    4
 10
1133.9867999999999
 20
1056.9106999999999
 11
1137.6840999999999
 21
1055.2456999999999
  0
LINE
  8
_0-0_LAYER001
  6
CONTINUOUS
 62
    4
 10
1137.6840999999999
 20
1055.2456999999999
 11
1140.7434000000001
 21
1053.9746
  0
LINE
  8
_0-0_LAYER001
  6
CONTINUOUS
 62
    4
 10
1140.7434000000001
 20
1053.9746
 11
1146.1039000000001
 21
1051.9724000000001
  0
LINE
  8
_0-0_LAYER001
  6
CONTINUOUS
 62
    4
 10
1146.1039000000001
 20
1051.9724000000001
 11
1151.5596
 21
1050.2168999999999
  0
LINE
  8
_0-0_LAYER001
  6
CONTINUOUS
 62
    4
 10
1151.5596
 20
1050.2168999999999
 11
1157.0945999999999
 21
1048.7162000000001
  0
LINE
  8
_0-0_LAYER001
  6
CONTINUOUS
 62
    4
 10
1157.0945999999999
 20
1048.7162000000001
 11
1162.6929
 21
1047.4781
  0
LINE
  8
_0-0_LAYER001
  6
CONTINUOUS
 62
    4
 10
1162.6929
 20
1047.4781
 11
1168.3386
 21
1046.5109
  0
LINE
  8
_0-0_LAYER001
  6
CONTINUOUS
 62
    4
 10
1168.3386
 20
1046.5109
 11
1171.6286
 21
1046.0771999999999
  0
LINE
  8
_0-0_LAYER001
  6
CONTINUOUS
 62
    4
 10
1171.6286
 20
1046.0771999999999
 11
1174.1478999999999
 21
1045.8092999999999
  0
LINE
  8
_0-0_LAYER001
  6
CONTINUOUS
 62
    4
 10
1174.1478999999999
 20
1045.8092999999999
 11
1178.5
 21
1045.4693
  0
LINE
  8
_0-0_LAYER001
  6
CONTINUOUS
 62
    4
 10
1178.5
 20
1045.4693
 11
1182.8602000000001
 21
1045.2699
  0
LINE
  8
_0-0_LAYER001
  6
CONTINUOUS
 62
    4
 10
1182.8602000000001
 20
1045.2699
 11
1187.2254
 21
1045.1952000000001
  0
LINE
  8
_0-0_LAYER001
  6
CONTINUOUS
 62
    4
 10
1187.2254
 20
1045.1952000000001
 11
1191.5925
 21
1045.2295999999999
  0
LINE
  8
_0-0_LAYER001
  6
CONTINUOUS
 62
    4
 10
1191.5925
 20
1045.2295999999999
 11
1195.9584
 21
1045.3571999999999
  0
LINE
  8
_0-0_LAYER001
  6
CONTINUOUS
 62
    4
 10
1195.9584
 20
1045.3571999999999
 11
1198.4888000000001
 21
1045.4676999999999
  0
LINE
  8
_0-0_LAYER001
  6
CONTINUOUS
 62
    4
 10
1198.4888000000001
 20
1045.4676999999999
 11
1203.2179000000001
 21
1045.7357999999999
  0
LINE
  8
_0-0_LAYER001
  6
CONTINUOUS
 62
    4
 10
1203.2179000000001
 20
1045.7357999999999
 11
1211.3561
 21
1046.3668
  0
LINE
  8
_0-0_LAYER001
  6
CONTINUOUS
 62
    4
 10
1211.3561
 20
1046.3668
 11
1219.4768999999999
 21
1047.1806999999999
  0
LINE
  8
_0-0_LAYER001
  6
CONTINUOUS
 62
    4
 10
1219.4768999999999
 20
1047.1806999999999
 11
1227.5826999999999
 21
1048.1420000000001
  0
LINE
  8
_0-0_LAYER001
  6
CONTINUOUS
 62
    4
 10
1227.5826999999999
 20
1048.1420000000001
 11
1235.6762000000001
 21
1049.2152000000001
  0
LINE
  8
_0-0_LAYER001
  6
CONTINUOUS
 62
    4
 10
1235.6762000000001
 20
1049.2152000000001
 11
1243.7597000000001
 21
1050.3647000000001
  0
LINE
  8
_0-0_LAYER001
  6
CONTINUOUS
 62
    4
 10
1243.7597000000001
 20
1050.3647000000001
 11
1248.4446
 21
1051.0525
  0
LINE
  8
_0-0_LAYER001
  6
CONTINUOUS
 62
    4
 10
1248.4446
 20
1051.0525
 11
1250.8795
 21
1051.4133999999999
  0
LINE
  8
_0-0_LAYER001
  6
CONTINUOUS
 62
    4
 10
1250.8795
 20
1051.4133999999999
 11
1255.0764999999999
 21
1052.0393999999999
  0
LINE
  8
_0-0_LAYER001
  6
CONTINUOUS
 62
    4
 10
1255.0764999999999
 20
1052.0393999999999
 11
1259.2723000000001
 21
1052.6695
  0
LINE
  8
_0-0_LAYER001
  6
CONTINUOUS
 62
    4
 10
1259.2723000000001
 20
1052.6695
 11
1263.4671000000001
 21
1053.3027999999999
  0
LINE
  8
_0-0_LAYER001
  6
CONTINUOUS
 62
    4
 10
1263.4671000000001
 20
1053.3027999999999
 11
1267.6613
 21
1053.9383
  0
LINE
  8
_0-0_LAYER001
  6
CONTINUOUS
 62
    4
 10
1267.6613
 20
1053.9383
 11
1271.855
 21
1054.5753
  0
LINE
  8
_0-0_LAYER001
  6
CONTINUOUS
 62
    4
 10
1271.855
 20
1054.5753
 11
1274.2873
 21
1054.9450999999999
  0
LINE
  8
_0-0_LAYER001
  6
CONTINUOUS
 62
    4
 10
1029.2503999999999
 20
1062.8415
 11
1031.3123000000001
 21
1063.6183000000001
  0
LINE
  8
_0-0_LAYER001
  6
CONTINUOUS
 62
    4
 10
1031.3123000000001
 20
1063.6183000000001
 11
1034.8798999999999
 21
1064.9648
  0
LINE
  8
_0-0_LAYER001
  6
CONTINUOUS
 62
    4
 10
1034.8798999999999
 20
1064.9648
 11
1038.4718
 21
1066.3271
  0
LINE
  8
_0-0_LAYER001
  6
CONTINUOUS
 62
    4
 10
1038.4718
 20
1066.3271
 11
1042.0922
 21
1067.7109
  0
LINE
  8
_0-0_LAYER001
  6
CONTINUOUS
 62
    4
 10
1042.0922
 20
1067.7109
 11
1045.7452000000001
 21
1069.1221
  0
LINE
  8
_0-0_LAYER001
  6
CONTINUOUS
 62
    4
 10
1045.7452000000001
 20
1069.1221
 11
1049.4244000000001
 21
1070.5624
  0
LINE
  8
_0-0_LAYER001
  6
CONTINUOUS
 62
    4
 10
1049.4244000000001
 20
1070.5624
 11
1051.5796
 21
1071.4165
  0
LINE
  8
_0-0_LAYER001
  6
CONTINUOUS
 62
    4
 10
1051.5796
 20
1071.4165
 11
1053.6031
 21
1072.2231999999999
  0
LINE
  8
_0-0_LAYER001
  6
CONTINUOUS
 62
    4
 10
1053.6031
 20
1072.2231999999999
 11
1056.875
 21
1073.4946
  0
LINE
  8
_0-0_LAYER001
  6
CONTINUOUS
 62
    4
 10
1056.875
 20
1073.4946
 11
1059.7701
 21
1074.5168000000001
  0
LINE
  8
_0-0_LAYER001
  6
CONTINUOUS
 62
    4
 10
1059.7701
 20
1074.5168000000001
 11
1062.2383
 21
1075.2365
  0
LINE
  8
_0-0_LAYER001
  6
CONTINUOUS
 62
    4
 10
1062.2383
 20
1075.2365
 11
1064.23
 21
1075.644
  0
LINE
  8
_0-0_LAYER001
  6
CONTINUOUS
 62
    4
 10
1064.23
 20
1075.644
 11
1066.0092999999999
 21
1075.8083999999999
  0
LINE
  8
_0-0_LAYER001
  6
CONTINUOUS
 62
    4
 10
1066.0092999999999
 20
1075.8083999999999
 11
1066.6887999999999
 21
1075.7997
  0
LINE
  8
_0-0_LAYER001
  6
CONTINUOUS
 62
    4
 10
1066.6887999999999
 20
1075.7997
 11
1066.6126999999999
 21
1075.8052
  0
LINE
  8
_0-0_LAYER001
  6
CONTINUOUS
 62
    4
 10
1066.6126999999999
 20
1075.8052
 11
1067.2264
 21
1075.7337
  0
LINE
  8
_0-0_LAYER001
  6
CONTINUOUS
 62
    4
 10
1067.2264
 20
1075.7337
 11
1067.8168000000001
 21
1075.634
  0
LINE
  8
_0-0_LAYER001
  6
CONTINUOUS
 62
    4
 10
1067.8168000000001
 20
1075.634
 11
1068.4842000000001
 21
1075.4889000000001
  0
LINE
  8
_0-0_LAYER001
  6
CONTINUOUS
 62
    4
 10
1068.4842000000001
 20
1075.4889000000001
 11
1069.2177999999999
 21
1075.2963999999999
  0
LINE
  8
_0-0_LAYER001
  6
CONTINUOUS
 62
    4
 10
1069.2177999999999
 20
1075.2963999999999
 11
1070.0669
 21
1075.0379
  0
LINE
  8
_0-0_LAYER001
  6
CONTINUOUS
 62
    4
 10
1070.0669
 20
1075.0379
 11
1070.3109999999999
 21
1074.9559999999999
  0
LINE
  8
_0-0_LAYER001
  6
CONTINUOUS
 62
    4
 10
1070.3109999999999
 20
1074.9559999999999
 11
1071.8708999999999
 21
1074.3639000000001
  0
LINE
  8
_0-0_LAYER001
  6
CONTINUOUS
 62
    4
 10
1071.8708999999999
 20
1074.3639000000001
 11
1074.8186000000001
 21
1072.9935
  0
LINE
  8
_0-0_LAYER001
  6
CONTINUOUS
 62
    4
 10
1074.8186000000001
 20
1072.9935
 11
1077.7797
 21
1071.3329000000001
  0
LINE
  8
_0-0_LAYER001
  6
CONTINUOUS
 62
    4
 10
1077.7797
 20
1071.3329000000001
 11
1080.9474
 21
1069.3115
  0
LINE
  8
_0-0_LAYER001
  6
CONTINUOUS
 62
    4
 10
1080.9474
 20
1069.3115
 11
1084.3321000000001
 21
1066.9666
  0
LINE
  8
_0-0_LAYER001
  6
CONTINUOUS
 62
    4
 10
1084.3321000000001
 20
1066.9666
 11
1087.9377999999999
 21
1064.3641
  0
LINE
  8
_0-0_LAYER001
  6
CONTINUOUS
 62
    4
 10
1087.9377999999999
 20
1064.3641
 11
1090.1448
 21
1062.7617
  0
LINE
  8
_0-0_LAYER001
  6
CONTINUOUS
 62
    4
 10
1090.1448
 20
1062.7617
 11
1093.6348
 21
1060.2614000000001
  0
LINE
  8
_0-0_LAYER001
  6
CONTINUOUS
 62
    4
 10
1093.6348
 20
1060.2614000000001
 11
1099.7270000000001
 21
1056.0364999999999
  0
LINE
  8
_0-0_LAYER001
  6
CONTINUOUS
 62
    4
 10
1099.7270000000001
 20
1056.0364999999999
 11
1106.0307
 21
1051.8964000000001
  0
LINE
  8
_0-0_LAYER001
  6
CONTINUOUS
 62
    4
 10
1106.0307
 20
1051.8964000000001
 11
1112.5514000000001
 21
1047.9076
  0
LINE
  8
_0-0_LAYER001
  6
CONTINUOUS
 62
    4
 10
1112.5514000000001
 20
1047.9076
 11
1119.3173999999999
 21
1044.1235999999999
  0
LINE
  8
_0-0_LAYER001
  6
CONTINUOUS
 62
    4
 10
1119.3173999999999
 20
1044.1235999999999
 11
1126.2603999999999
 21
1040.6491000000001
  0
LINE
  8
_0-0_LAYER001
  6
CONTINUOUS
 62
    4
 10
1126.2603999999999
 20
1040.6491000000001
 11
1130.5337999999999
 21
1038.7247
  0
LINE
  8
_0-0_LAYER001
  6
CONTINUOUS
 62
    4
 10
1130.5337999999999
 20
1038.7247
 11
1134.1388999999999
 21
1037.2267999999999
  0
LINE
  8
_0-0_LAYER001
  6
CONTINUOUS
 62
    4
 10
1134.1388999999999
 20
1037.2267999999999
 11
1140.1949999999999
 21
1034.9648
  0
LINE
  8
_0-0_LAYER001
  6
CONTINUOUS
 62
    4
 10
1140.1949999999999
 20
1034.9648
 11
1146.4449
 21
1032.9538
  0
LINE
  8
_0-0_LAYER001
  6
CONTINUOUS
 62
    4
 10
1146.4449
 20
1032.9538
 11
1152.7936
 21
1031.2324000000001
  0
LINE
  8
_0-0_LAYER001
  6
CONTINUOUS
 62
    4
 10
1152.7936
 20
1031.2324000000001
 11
1159.2277999999999
 21
1029.8095000000001
  0
LINE
  8
_0-0_LAYER001
  6
CONTINUOUS
 62
    4
 10
1159.2277999999999
 20
1029.8095000000001
 11
1165.6415
 21
1028.7107000000001
  0
LINE
  8
_0-0_LAYER001
  6
CONTINUOUS
 62
    4
 10
1165.6415
 20
1028.7107000000001
 11
1169.5003999999999
 21
1028.202
  0
LINE
  8
_0-0_LAYER001
  6
CONTINUOUS
 62
    4
 10
1169.5003999999999
 20
1028.202
 11
1172.4949999999999
 21
1027.8835999999999
  0
LINE
  8
_0-0_LAYER001
  6
CONTINUOUS
 62
    4
 10
1172.4949999999999
 20
1027.8835999999999
 11
1177.3874000000001
 21
1027.5014000000001
  0
LINE
  8
_0-0_LAYER001
  6
CONTINUOUS
 62
    4
 10
1177.3874000000001
 20
1027.5014000000001
 11
1182.2949000000001
 21
1027.2769000000001
  0
LINE
  8
_0-0_LAYER001
  6
CONTINUOUS
 62
    4
 10
1182.2949000000001
 20
1027.2769000000001
 11
1187.1423
 21
1027.194
  0
LINE
  8
_0-0_LAYER001
  6
CONTINUOUS
 62
    4
 10
1187.1423
 20
1027.194
 11
1191.9262000000001
 21
1027.2317
  0
LINE
  8
_0-0_LAYER001
  6
CONTINUOUS
 62
    4
 10
1191.9262000000001
 20
1027.2317
 11
1196.6139000000001
 21
1027.3686
  0
LINE
  8
_0-0_LAYER001
  6
CONTINUOUS
 62
    4
 10
1196.6139000000001
 20
1027.3686
 11
1199.3910000000001
 21
1027.4899
  0
LINE
  8
_0-0_LAYER001
  6
CONTINUOUS
 62
    4
 10
1199.3910000000001
 20
1027.4899
 11
1204.4233999999999
 21
1027.7753
  0
LINE
  8
_0-0_LAYER001
  6
CONTINUOUS
 62
    4
 10
1204.4233999999999
 20
1027.7753
 11
1212.9494999999999
 21
1028.4364
  0
LINE
  8
_0-0_LAYER001
  6
CONTINUOUS
 62
    4
 10
1212.9494999999999
 20
1028.4364
 11
1221.4344000000001
 21
1029.2867000000001
  0
LINE
  8
_0-0_LAYER001
  6
CONTINUOUS
 62
    4
 10
1221.4344000000001
 20
1029.2867000000001
 11
1229.8257000000001
 21
1030.2819
  0
LINE
  8
_0-0_LAYER001
  6
CONTINUOUS
 62
    4
 10
1229.8257000000001
 20
1030.2819
 11
1238.1264000000001
 21
1031.3824999999999
  0
LINE
  8
_0-0_LAYER001
  6
CONTINUOUS
 62
    4
 10
1238.1264000000001
 20
1031.3824999999999
 11
1246.3342
 21
1032.5497
  0
LINE
  8
_0-0_LAYER001
  6
CONTINUOUS
 62
    4
 10
1246.3342
 20
1032.5497
 11
1251.0713000000001
 21
1033.2452000000001
  0
LINE
  8
_0-0_LAYER001
  6
CONTINUOUS
 62
    4
 10
1251.0713000000001
 20
1033.2452000000001
 11
1253.5265999999999
 21
1033.6090999999999
  0
LINE
  8
_0-0_LAYER001
  6
CONTINUOUS
 62
    4
 10
1253.5265999999999
 20
1033.6090999999999
 11
1257.7408
 21
1034.2375999999999
  0
LINE
  8
_0-0_LAYER001
  6
CONTINUOUS
 62
    4
 10
1257.7408
 20
1034.2375999999999
 11
1261.9522999999999
 21
1034.8701000000001
  0
LINE
  8
_0-0_LAYER001
  6
CONTINUOUS
 62
    4
 10
1261.9522999999999
 20
1034.8701000000001
 11
1266.1590000000001
 21
1035.5052000000001
  0
LINE
  8
_0-0_LAYER001
  6
CONTINUOUS
 62
    4
 10
1266.1590000000001
 20
1035.5052000000001
 11
1270.3612000000001
 21
1036.1420000000001
  0
LINE
  8
_0-0_LAYER001
  6
CONTINUOUS
 62
    4
 10
1270.3612000000001
 20
1036.1420000000001
 11
1274.5590999999999
 21
1036.7796000000001
  0
LINE
  8
_0-0_LAYER001
  6
CONTINUOUS
 62
    4
 10
1274.5590999999999
 20
1036.7796000000001
 11
1276.1768
 21
1037.0255
  0
LINE
  8
_0-0_LAYER001
  6
CONTINUOUS
 62
    4
 10
1023.7216000000001
 20
1079.9916000000001
 11
1024.1476
 21
1080.1547
  0
ARC
  8
_0-0_LAYER001
  6
CONTINUOUS
 62
    4
 10
1024.7942
 20
1077.1899000000001
 40
3
 50
110.94902000000002
 51
178.70000000000002
  0
LINE
  8
_0-0_LAYER001
  6
CONTINUOUS
 62
    4
 10
1021.6856
 20
1061.4188999999999
 11
1021.6856
 21
1077.1414
  0
LINE
  8
_0-0_LAYER001
  6
CONTINUOUS
 62
    4
 10
1023.0396000000001
 20
1060.4836
 11
1029.2145
 21
1062.8208
  0
ARC
  8
_0-0_LAYER001
  6
CONTINUOUS
 62
    4
 10
1022.6856
 20
1061.4188999999999
 40
1
 50
180
 51
290.73165999999998
  0
LINE
  8
_0-0_LAYER001
  6
CONTINUOUS
 62
    4
 10
1274.4122
 20
1054.9804999999999
 11
1318.8665000000001
 21
1064.6284000000001
  0
LINE
  8
_0-0_LAYER001
  6
CONTINUOUS
 62
    4
 10
1281.1574000000001
 20
1035.1468
 11
1319.8291999999997
 21
1044.1967
  0
LINE
  8
_0-0_LAYER001
  6
CONTINUOUS
 62
    4
 10
1319.8291999999997
 20
1045.1532
 11
1319.8291999999997
 21
1044.1967
  0
ARC
  8
_0-0_LAYER001
  6
CONTINUOUS
 62
    4
 10
1320.8292000000001
 20
1045.1532
 40
1
 50
102.72435
 51
180
  0
LINE
  8
_0-0_LAYER001
  6
CONTINUOUS
 62
    4
 10
1325.6461999999999
 20
1047.2661000000001
 11
1320.6089999999999
 21
1046.1286
  0
ARC
  8
_0-0_LAYER001
  6
CONTINUOUS
 62
    4
 10
1325.8665000000001
 20
1046.2906
 40
1
 50
0
 51
102.72435
  0
LINE
  8
_0-0_LAYER001
  6
CONTINUOUS
 62
    4
 10
1326.0786000000003
 20
1047.7746
 11
1275.9446
 21
1036.894
  0
ARC
  8
_0-0_LAYER001
  6
CONTINUOUS
 62
    4
 10
1325.8665000000001
 20
1048.7518
 40
1
 50
282.24497000000002
 51
0
  0
LINE
  8
_0-0_LAYER001
  6
CONTINUOUS
 62
    4
 10
1326.0843
 20
1027.0337999999999
 11
1276.5003999999999
 21
1015.9659999999999
  0
LINE
  8
_0-0_LAYER001
  6
CONTINUOUS
 62
    4
 10
1326.8665000000001
 20
1028.0098
 11
1326.8665000000001
 21
1046.2906
  0
ARC
  8
_0-0_LAYER001
  6
CONTINUOUS
 62
    4
 10
1325.8665000000001
 20
1028.0098
 40
1
 50
282.58296000000001
 51
0.0000000000000254
  0
LINE
  8
_0-0_LAYER001
  6
CONTINUOUS
 62
    4
 10
1318.8665000000001
 20
1066.0853999999999
 11
1318.8665000000001
 21
1064.6284000000001
  0
ARC
  8
_0-0_LAYER001
  6
CONTINUOUS
 62
    4
 10
1319.8665000000001
 20
1066.0853999999999
 40
1
 50
101.73308
 51
180
  0
LINE
  8
_0-0_LAYER001
  6
CONTINUOUS
 62
    4
 10
1325.6630999999998
 20
1068.3106
 11
1319.6631
 21
1067.0645
  0
LINE
  8
_0-0_LAYER001
  6
CONTINUOUS
 62
    4
 10
1326.8665000000001
 20
1067.3315
 11
1326.8665000000001
 21
1048.7518
  0
ARC
  8
_0-0_LAYER001
  6
CONTINUOUS
 62
    4
 10
1325.8665000000001
 20
1067.3315
 40
1
 50
0
 51
101.73308
  0
LINE
  8
_0-0_LAYER001
  6
CONTINUOUS
 62
    4
 10
882.13589999999999
 20
996.44160000000011
 11
873.60040000000004
 21
1010.9749999999999
  0
LINE
  8
_0-0_LAYER001
  6
CONTINUOUS
 62
    4
 10
890.30379999999991
 20
995.79130000000009
 11
898.6099999999999
 21
1005.8568
  0
ARC
  8
_0-0_LAYER001
  6
CONTINUOUS
 62
    4
 10
886.44730000000004
 20
998.97370000000001
 40
5
 50
210.42578
 51
320.47001
  0
LINE
  8
_0-0_LAYER001
  6
CONTINUOUS
 62
    4
 10
966.24939999999992
 20
995.32150000000001
 11
958.92399999999998
 21
1006.6275000000001
  0
LINE
  8
_0-0_LAYER001
  6
CONTINUOUS
 62
    4
 10
974.75890000000004
 20
995.51140000000009
 11
983.69740000000002
 21
1010.7571
  0
ARC
  8
_0-0_LAYER001
  6
CONTINUOUS
 62
    4
 10
970.44560000000001
 20
998.04029999999989
 40
5
 50
212.93986000000001
 51
329.61716000000001
  0
LINE
  8
_0-0_LAYER001
  6
CONTINUOUS
 62
    4
 10
1014.0409999999999
 20
1035.069
 11
1016.4691
 21
1035.4729
  0
LINE
  8
_0-0_LAYER001
  6
CONTINUOUS
 62
    4
 10
1009.8518999999999
 20
1034.3728000000001
 11
1014.0409999999999
 21
1035.069
  0
LINE
  8
_0-0_LAYER001
  6
CONTINUOUS
 62
    4
 10
1005.6581000000001
 20
1033.6772000000001
 11
1009.8518999999999
 21
1034.3728000000001
  0
LINE
  8
_0-0_LAYER001
  6
CONTINUOUS
 62
    4
 10
1001.4593
 20
1032.9831999999999
 11
1005.6581000000001
 21
1033.6772000000001
  0
LINE
  8
_0-0_LAYER001
  6
CONTINUOUS
 62
    4
 10
997.25530000000003
 20
1032.2918
 11
1001.4593
 21
1032.9831999999999
  0
LINE
  8
_0-0_LAYER001
  6
CONTINUOUS
 62
    4
 10
993.0485000000001
 20
1031.6041
 11
997.25530000000003
 21
1032.2918
  0
LINE
  8
_0-0_LAYER001
  6
CONTINUOUS
 62
    4
 10
990.59619999999995
 20
1031.2056
 11
993.0485000000001
 21
1031.6041
  0
LINE
  8
_0-0_LAYER001
  6
CONTINUOUS
 62
    4
 10
985.86339999999996
 20
1030.4431999999999
 11
990.59619999999995
 21
1031.2056
  0
LINE
  8
_0-0_LAYER001
  6
CONTINUOUS
 62
    4
 10
977.65900000000011
 20
1029.1593
 11
985.86339999999996
 21
1030.4431999999999
  0
LINE
  8
_0-0_LAYER001
  6
CONTINUOUS
 62
    4
 10
969.35149999999999
 20
1027.9395
 11
977.65900000000011
 21
1029.1593
  0
LINE
  8
_0-0_LAYER001
  6
CONTINUOUS
 62
    4
 10
960.94319999999993
 20
1026.8231000000001
 11
969.35149999999999
 21
1027.9395
  0
LINE
  8
_0-0_LAYER001
  6
CONTINUOUS
 62
    4
 10
952.43059999999991
 20
1025.8497
 11
960.94319999999993
 21
1026.8231000000001
  0
LINE
  8
_0-0_LAYER001
  6
CONTINUOUS
 62
    4
 10
943.87149999999997
 20
1025.0657000000001
 11
952.43059999999991
 21
1025.8497
  0
LINE
  8
_0-0_LAYER001
  6
CONTINUOUS
 62
    4
 10
938.80999999999995
 20
1024.7076999999999
 11
943.87149999999997
 21
1025.0657000000001
  0
LINE
  8
_0-0_LAYER001
  6
CONTINUOUS
 62
    4
 10
936.00739999999996
 20
1024.5461
 11
938.80999999999995
 21
1024.7076999999999
  0
LINE
  8
_0-0_LAYER001
  6
CONTINUOUS
 62
    4
 10
931.28639999999996
 20
1024.3421000000001
 11
936.00739999999996
 21
1024.5461
  0
LINE
  8
_0-0_LAYER001
  6
CONTINUOUS
 62
    4
 10
926.45710000000008
 20
1024.2366999999999
 11
931.28639999999996
 21
1024.3421000000001
  0
LINE
  8
_0-0_LAYER001
  6
CONTINUOUS
 62
    4
 10
921.55549999999994
 20
1024.2520999999999
 11
926.45710000000008
 21
1024.2366999999999
  0
LINE
  8
_0-0_LAYER001
  6
CONTINUOUS
 62
    4
 10
916.58449999999993
 20
1024.4099000000001
 11
921.55549999999994
 21
1024.2520999999999
  0
LINE
  8
_0-0_LAYER001
  6
CONTINUOUS
 62
    4
 10
911.62709999999993
 20
1024.7276999999999
 11
916.58449999999993
 21
1024.4099000000001
  0
LINE
  8
_0-0_LAYER001
  6
CONTINUOUS
 62
    4
 10
908.57539999999995
 20
1025.0091
 11
911.62709999999993
 21
1024.7276999999999
  0
LINE
  8
_0-0_LAYER001
  6
CONTINUOUS
 62
    4
 10
904.64660000000003
 20
1025.4712999999999
 11
908.57539999999995
 21
1025.0091
  0
LINE
  8
_0-0_LAYER001
  6
CONTINUOUS
 62
    4
 10
898.13259999999991
 20
1026.4938999999999
 11
904.64660000000003
 21
1025.4712999999999
  0
LINE
  8
_0-0_LAYER001
  6
CONTINUOUS
 62
    4
 10
891.58600000000001
 20
1027.846
 11
898.13259999999991
 21
1026.4938999999999
  0
LINE
  8
_0-0_LAYER001
  6
CONTINUOUS
 62
    4
 10
885.12310000000002
 20
1029.5019
 11
891.58600000000001
 21
1027.846
  0
LINE
  8
_0-0_LAYER001
  6
CONTINUOUS
 62
    4
 10
878.75710000000004
 20
1031.4526000000001
 11
885.12310000000002
 21
1029.5019
  0
LINE
  8
_0-0_LAYER001
  6
CONTINUOUS
 62
    4
 10
872.5924
 20
1033.6576
 11
878.75710000000004
 21
1031.4526000000001
  0
LINE
  8
_0-0_LAYER001
  6
CONTINUOUS
 62
    4
 10
868.90570000000002
 20
1035.1293000000001
 11
872.5924
 21
1033.6576
  0
LINE
  8
_0-0_LAYER001
  6
CONTINUOUS
 62
    4
 10
864.54140000000007
 20
1037.0219
 11
868.90570000000002
 21
1035.1293000000001
  0
LINE
  8
_0-0_LAYER001
  6
CONTINUOUS
 62
    4
 10
857.47240000000011
 20
1040.4367999999999
 11
864.54140000000007
 21
1037.0219
  0
LINE
  8
_0-0_LAYER001
  6
CONTINUOUS
 62
    4
 10
850.57950000000005
 20
1044.1664000000001
 11
857.47240000000011
 21
1040.4367999999999
  0
LINE
  8
_0-0_LAYER001
  6
CONTINUOUS
 62
    4
 10
843.94250000000011
 20
1048.1001000000001
 11
850.57950000000005
 21
1044.1664000000001
  0
LINE
  8
_0-0_LAYER001
  6
CONTINUOUS
 62
    4
 10
840.74279999999999
 20
1050.1382000000001
 11
843.94250000000011
 21
1048.1001000000001
  0
LINE
  8
_0-0_LAYER001
  6
CONTINUOUS
 62
    4
 10
1010.0302999999999
 20
1015.8815999999999
 11
1011.6443999999999
 21
1016.1500000000001
  0
LINE
  8
_0-0_LAYER001
  6
CONTINUOUS
 62
    4
 10
1005.8417999999999
 20
1015.1854000000001
 11
1010.0302999999999
 21
1015.8815999999999
  0
LINE
  8
_0-0_LAYER001
  6
CONTINUOUS
 62
    4
 10
1001.6488999999999
 20
1014.49
 11
1005.8417999999999
 21
1015.1854000000001
  0
LINE
  8
_0-0_LAYER001
  6
CONTINUOUS
 62
    4
 10
997.45139999999992
 20
1013.7962
 11
1001.6488999999999
 21
1014.49
  0
LINE
  8
_0-0_LAYER001
  6
CONTINUOUS
 62
    4
 10
993.2491
 20
1013.105
 11
997.45139999999992
 21
1013.7962
  0
LINE
  8
_0-0_LAYER001
  6
CONTINUOUS
 62
    4
 10
989.04420000000005
 20
1012.4177
 11
993.2491
 21
1013.105
  0
LINE
  8
_0-0_LAYER001
  6
CONTINUOUS
 62
    4
 10
986.59410000000003
 20
1012.0195000000001
 11
989.04420000000005
 21
1012.4177
  0
LINE
  8
_0-0_LAYER001
  6
CONTINUOUS
 62
    4
 10
981.86719999999991
 20
1011.258
 11
986.59410000000003
 21
1012.0195000000001
  0
LINE
  8
_0-0_LAYER001
  6
CONTINUOUS
 62
    4
 10
973.67650000000003
 20
1009.9763
 11
981.86719999999991
 21
1011.258
  0
LINE
  8
_0-0_LAYER001
  6
CONTINUOUS
 62
    4
 10
965.39200000000005
 20
1008.7598
 11
973.67650000000003
 21
1009.9763
  0
LINE
  8
_0-0_LAYER001
  6
CONTINUOUS
 62
    4
 10
957.0154
 20
1007.6477
 11
965.39200000000005
 21
1008.7598
  0
LINE
  8
_0-0_LAYER001
  6
CONTINUOUS
 62
    4
 10
948.54320000000007
 20
1006.6789000000001
 11
957.0154
 21
1007.6477
  0
LINE
  8
_0-0_LAYER001
  6
CONTINUOUS
 62
    4
 10
940.02710000000002
 20
1005.8988999999999
 11
948.54320000000007
 21
1006.6789000000001
  0
LINE
  8
_0-0_LAYER001
  6
CONTINUOUS
 62
    4
 10
934.99929999999995
 20
1005.5432000000001
 11
940.02710000000002
 21
1005.8988999999999
  0
LINE
  8
_0-0_LAYER001
  6
CONTINUOUS
 62
    4
 10
932.22409999999991
 20
1005.3832
 11
934.99929999999995
 21
1005.5432000000001
  0
LINE
  8
_0-0_LAYER001
  6
CONTINUOUS
 62
    4
 10
927.53880000000004
 20
1005.1808000000001
 11
932.22409999999991
 21
1005.3832
  0
LINE
  8
_0-0_LAYER001
  6
CONTINUOUS
 62
    4
 10
922.75579999999991
 20
1005.0763999999999
 11
927.53880000000004
 21
1005.1808000000001
  0
LINE
  8
_0-0_LAYER001
  6
CONTINUOUS
 62
    4
 10
917.90779999999995
 20
1005.0916
 11
922.75579999999991
 21
1005.0763999999999
  0
LINE
  8
_0-0_LAYER001
  6
CONTINUOUS
 62
    4
 10
912.99759999999992
 20
1005.2474999999999
 11
917.90779999999995
 21
1005.0916
  0
LINE
  8
_0-0_LAYER001
  6
CONTINUOUS
 62
    4
 10
908.10030000000006
 20
1005.5614
 11
912.99759999999992
 21
1005.2474999999999
  0
LINE
  8
_0-0_LAYER001
  6
CONTINUOUS
 62
    4
 10
905.10159999999996
 20
1005.8379
 11
908.10030000000006
 21
1005.5614
  0
LINE
  8
_0-0_LAYER001
  6
CONTINUOUS
 62
    4
 10
901.2360000000001
 20
1006.2927
 11
905.10159999999996
 21
1005.8379
  0
LINE
  8
_0-0_LAYER001
  6
CONTINUOUS
 62
    4
 10
894.80760000000009
 20
1007.3018999999999
 11
901.2360000000001
 21
1006.2927
  0
LINE
  8
_0-0_LAYER001
  6
CONTINUOUS
 62
    4
 10
888.35410000000002
 20
1008.6348
 11
894.80760000000009
 21
1007.3018999999999
  0
LINE
  8
_0-0_LAYER001
  6
CONTINUOUS
 62
    4
 10
881.98199999999997
 20
1010.2674
 11
888.35410000000002
 21
1008.6348
  0
LINE
  8
_0-0_LAYER001
  6
CONTINUOUS
 62
    4
 10
875.70460000000003
 20
1012.1909000000001
 11
881.98199999999997
 21
1010.2674
  0
LINE
  8
_0-0_LAYER001
  6
CONTINUOUS
 62
    4
 10
869.61760000000004
 20
1014.3680999999999
 11
875.70460000000003
 21
1012.1909000000001
  0
LINE
  8
_0-0_LAYER001
  6
CONTINUOUS
 62
    4
 10
865.99189999999999
 20
1015.8154999999999
 11
869.61760000000004
 21
1014.3680999999999
  0
LINE
  8
_0-0_LAYER001
  6
CONTINUOUS
 62
    4
 10
861.69200000000001
 20
1017.6801
 11
865.99189999999999
 21
1015.8154999999999
  0
LINE
  8
_0-0_LAYER001
  6
CONTINUOUS
 62
    4
 10
854.70119999999997
 20
1021.0572999999999
 11
861.69200000000001
 21
1017.6801
  0
LINE
  8
_0-0_LAYER001
  6
CONTINUOUS
 62
    4
 10
847.88300000000004
 20
1024.7465
 11
854.70119999999997
 21
1021.0572999999999
  0
LINE
  8
_0-0_LAYER001
  6
CONTINUOUS
 62
    4
 10
841.30729999999994
 20
1028.6438000000001
 11
847.88300000000004
 21
1024.7465
  0
LINE
  8
_0-0_LAYER001
  6
CONTINUOUS
 62
    4
 10
840.74279999999999
 20
1029.0034000000001
 11
841.30729999999994
 21
1028.6438000000001
  0
LINE
  8
_0-0_LAYER001
  6
CONTINUOUS
 62
    4
 10
1006.7458999999999
 20
1005.4603
 11
1004.5003999999999
 21
1014.0337
  0
ARC
  8
_0-0_LAYER001
  6
CONTINUOUS
 62
    4
 10
1009.6479999999999
 20
1006.2203999999999
 40
3
 50
194.67639000000003
 51
270.00000000000006
  0
LINE
  8
_0-0_LAYER001
  6
CONTINUOUS
 62
    4
 10
1013.0905
 20
1003.2161000000001
 11
1009.6726000000001
 21
1003.2161000000001
  0
LINE
  8
_0-0_LAYER001
  6
CONTINUOUS
 62
    4
 10
1016.0496000000001
 20
1005.7229
 11
1017.9837
 21
1017.327
  0
ARC
  8
_0-0_LAYER001
  6
CONTINUOUS
 62
    4
 10
1013.0905
 20
1006.2161000000001
 40
3
 50
270
 51
350.53766999999999
  0
LINE
  8
_0-0_LAYER001
  6
CONTINUOUS
 62
    4
 10
840.74279999999999
 20
1074.0763999999999
 11
844.97489999999993
 21
1071.1414
  0
LINE
  8
_0-0_LAYER001
  6
CONTINUOUS
 62
    4
 10
844.97489999999993
 20
1071.1414
 11
850.84709999999995
 21
1067.2847999999999
  0
LINE
  8
_0-0_LAYER001
  6
CONTINUOUS
 62
    4
 10
850.84709999999995
 20
1067.2847999999999
 11
856.82120000000009
 21
1063.6303
  0
LINE
  8
_0-0_LAYER001
  6
CONTINUOUS
 62
    4
 10
856.82120000000009
 20
1063.6303
 11
862.9194
 21
1060.2198000000001
  0
LINE
  8
_0-0_LAYER001
  6
CONTINUOUS
 62
    4
 10
862.9194
 20
1060.2198000000001
 11
869.16370000000006
 21
1057.095
  0
LINE
  8
_0-0_LAYER001
  6
CONTINUOUS
 62
    4
 10
869.16370000000006
 20
1057.095
 11
872.8610000000001
 21
1055.4300000000001
  0
LINE
  8
_0-0_LAYER001
  6
CONTINUOUS
 62
    4
 10
872.8610000000001
 20
1055.4300000000001
 11
875.92020000000002
 21
1054.1588999999999
  0
LINE
  8
_0-0_LAYER001
  6
CONTINUOUS
 62
    4
 10
875.92020000000002
 20
1054.1588999999999
 11
881.2808
 21
1052.1567
  0
LINE
  8
_0-0_LAYER001
  6
CONTINUOUS
 62
    4
 10
881.2808
 20
1052.1567
 11
886.73649999999998
 21
1050.4013
  0
LINE
  8
_0-0_LAYER001
  6
CONTINUOUS
 62
    4
 10
886.73649999999998
 20
1050.4013
 11
892.27140000000009
 21
1048.9005
  0
LINE
  8
_0-0_LAYER001
  6
CONTINUOUS
 62
    4
 10
892.27140000000009
 20
1048.9005
 11
897.86969999999997
 21
1047.6624999999999
  0
LINE
  8
_0-0_LAYER001
  6
CONTINUOUS
 62
    4
 10
897.86969999999997
 20
1047.6624999999999
 11
903.51549999999997
 21
1046.6953000000001
  0
LINE
  8
_0-0_LAYER001
  6
CONTINUOUS
 62
    4
 10
903.51549999999997
 20
1046.6953000000001
 11
906.80539999999996
 21
1046.2615000000001
  0
LINE
  8
_0-0_LAYER001
  6
CONTINUOUS
 62
    4
 10
906.80539999999996
 20
1046.2615000000001
 11
909.32469999999989
 21
1045.9937
  0
LINE
  8
_0-0_LAYER001
  6
CONTINUOUS
 62
    4
 10
909.32469999999989
 20
1045.9937
 11
913.67679999999996
 21
1045.6537000000001
  0
LINE
  8
_0-0_LAYER001
  6
CONTINUOUS
 62
    4
 10
913.67679999999996
 20
1045.6537000000001
 11
918.03700000000003
 21
1045.4541999999999
  0
LINE
  8
_0-0_LAYER001
  6
CONTINUOUS
 62
    4
 10
918.03700000000003
 20
1045.4541999999999
 11
922.40219999999999
 21
1045.3796
  0
LINE
  8
_0-0_LAYER001
  6
CONTINUOUS
 62
    4
 10
922.40219999999999
 20
1045.3796
 11
926.76929999999993
 21
1045.4139
  0
LINE
  8
_0-0_LAYER001
  6
CONTINUOUS
 62
    4
 10
926.76929999999993
 20
1045.4139
 11
931.13519999999994
 21
1045.5415
  0
LINE
  8
_0-0_LAYER001
  6
CONTINUOUS
 62
    4
 10
931.13519999999994
 20
1045.5415
 11
933.66570000000002
 21
1045.652
  0
LINE
  8
_0-0_LAYER001
  6
CONTINUOUS
 62
    4
 10
933.66570000000002
 20
1045.652
 11
938.39480000000003
 21
1045.9202
  0
LINE
  8
_0-0_LAYER001
  6
CONTINUOUS
 62
    4
 10
938.39480000000003
 20
1045.9202
 11
946.5329999999999
 21
1046.5512000000001
  0
LINE
  8
_0-0_LAYER001
  6
CONTINUOUS
 62
    4
 10
946.5329999999999
 20
1046.5512000000001
 11
954.65370000000007
 21
1047.3651
  0
LINE
  8
_0-0_LAYER001
  6
CONTINUOUS
 62
    4
 10
954.65370000000007
 20
1047.3651
 11
962.75960000000009
 21
1048.3262999999999
  0
LINE
  8
_0-0_LAYER001
  6
CONTINUOUS
 62
    4
 10
962.75960000000009
 20
1048.3262999999999
 11
970.85300000000007
 21
1049.3995
  0
LINE
  8
_0-0_LAYER001
  6
CONTINUOUS
 62
    4
 10
970.85300000000007
 20
1049.3995
 11
978.9366
 21
1050.5491
  0
LINE
  8
_0-0_LAYER001
  6
CONTINUOUS
 62
    4
 10
978.9366
 20
1050.5491
 11
983.62149999999997
 21
1051.2369000000001
  0
LINE
  8
_0-0_LAYER001
  6
CONTINUOUS
 62
    4
 10
983.62149999999997
 20
1051.2369000000001
 11
986.05639999999994
 21
1051.5977
  0
LINE
  8
_0-0_LAYER001
  6
CONTINUOUS
 62
    4
 10
986.05639999999994
 20
1051.5977
 11
990.25330000000008
 21
1052.2237
  0
LINE
  8
_0-0_LAYER001
  6
CONTINUOUS
 62
    4
 10
990.25330000000008
 20
1052.2237
 11
994.44910000000004
 21
1052.8538000000001
  0
LINE
  8
_0-0_LAYER001
  6
CONTINUOUS
 62
    4
 10
994.44910000000004
 20
1052.8538000000001
 11
998.64390000000003
 21
1053.4871000000001
  0
LINE
  8
_0-0_LAYER001
  6
CONTINUOUS
 62
    4
 10
998.64390000000003
 20
1053.4871000000001
 11
1002.8380999999999
 21
1054.1226999999999
  0
LINE
  8
_0-0_LAYER001
  6
CONTINUOUS
 62
    4
 10
1002.8380999999999
 20
1054.1226999999999
 11
1007.0319
 21
1054.7597000000001
  0
LINE
  8
_0-0_LAYER001
  6
CONTINUOUS
 62
    4
 10
1007.0319
 20
1054.7597000000001
 11
1009.4641999999999
 21
1055.1294
  0
LINE
  8
_0-0_LAYER001
  6
CONTINUOUS
 62
    4
 10
840.74279999999999
 20
1052.386
 11
841.20759999999996
 21
1052.0807
  0
LINE
  8
_0-0_LAYER001
  6
CONTINUOUS
 62
    4
 10
841.20759999999996
 20
1052.0807
 11
847.72829999999999
 21
1048.0918999999999
  0
LINE
  8
_0-0_LAYER001
  6
CONTINUOUS
 62
    4
 10
847.72829999999999
 20
1048.0918999999999
 11
854.49420000000009
 21
1044.308
  0
LINE
  8
_0-0_LAYER001
  6
CONTINUOUS
 62
    4
 10
854.49420000000009
 20
1044.308
 11
861.43730000000005
 21
1040.8335
  0
LINE
  8
_0-0_LAYER001
  6
CONTINUOUS
 62
    4
 10
861.43730000000005
 20
1040.8335
 11
865.71070000000009
 21
1038.9090000000001
  0
LINE
  8
_0-0_LAYER001
  6
CONTINUOUS
 62
    4
 10
865.71070000000009
 20
1038.9090000000001
 11
869.31580000000008
 21
1037.4111
  0
LINE
  8
_0-0_LAYER001
  6
CONTINUOUS
 62
    4
 10
869.31580000000008
 20
1037.4111
 11
875.3719000000001
 21
1035.1492000000001
  0
LINE
  8
_0-0_LAYER001
  6
CONTINUOUS
 62
    4
 10
875.3719000000001
 20
1035.1492000000001
 11
881.62169999999992
 21
1033.1382000000001
  0
LINE
  8
_0-0_LAYER001
  6
CONTINUOUS
 62
    4
 10
881.62169999999992
 20
1033.1382000000001
 11
887.9704999999999
 21
1031.4167
  0
LINE
  8
_0-0_LAYER001
  6
CONTINUOUS
 62
    4
 10
887.9704999999999
 20
1031.4167
 11
894.40470000000005
 21
1029.9938999999999
  0
LINE
  8
_0-0_LAYER001
  6
CONTINUOUS
 62
    4
 10
894.40470000000005
 20
1029.9938999999999
 11
900.81840000000011
 21
1028.8951
  0
LINE
  8
_0-0_LAYER001
  6
CONTINUOUS
 62
    4
 10
900.81840000000011
 20
1028.8951
 11
904.67720000000008
 21
1028.3864000000001
  0
LINE
  8
_0-0_LAYER001
  6
CONTINUOUS
 62
    4
 10
904.67720000000008
 20
1028.3864000000001
 11
907.67180000000008
 21
1028.068
  0
LINE
  8
_0-0_LAYER001
  6
CONTINUOUS
 62
    4
 10
907.67180000000008
 20
1028.068
 11
912.5643
 21
1027.6857
  0
LINE
  8
_0-0_LAYER001
  6
CONTINUOUS
 62
    4
 10
912.5643
 20
1027.6857
 11
917.47180000000003
 21
1027.4612
  0
LINE
  8
_0-0_LAYER001
  6
CONTINUOUS
 62
    4
 10
917.47180000000003
 20
1027.4612
 11
922.31919999999991
 21
1027.3784000000001
  0
LINE
  8
_0-0_LAYER001
  6
CONTINUOUS
 62
    4
 10
922.31919999999991
 20
1027.3784000000001
 11
927.10310000000004
 21
1027.4159999999999
  0
LINE
  8
_0-0_LAYER001
  6
CONTINUOUS
 62
    4
 10
927.10310000000004
 20
1027.4159999999999
 11
931.79070000000002
 21
1027.5530000000001
  0
LINE
  8
_0-0_LAYER001
  6
CONTINUOUS
 62
    4
 10
931.79070000000002
 20
1027.5530000000001
 11
934.56790000000001
 21
1027.6741999999999
  0
LINE
  8
_0-0_LAYER001
  6
CONTINUOUS
 62
    4
 10
934.56790000000001
 20
1027.6741999999999
 11
939.60020000000009
 21
1027.9595999999999
  0
LINE
  8
_0-0_LAYER001
  6
CONTINUOUS
 62
    4
 10
939.60020000000009
 20
1027.9595999999999
 11
948.1264000000001
 21
1028.6206999999999
  0
LINE
  8
_0-0_LAYER001
  6
CONTINUOUS
 62
    4
 10
948.1264000000001
 20
1028.6206999999999
 11
956.61130000000003
 21
1029.4711
  0
LINE
  8
_0-0_LAYER001
  6
CONTINUOUS
 62
    4
 10
956.61130000000003
 20
1029.4711
 11
965.00260000000003
 21
1030.4662000000001
  0
LINE
  8
_0-0_LAYER001
  6
CONTINUOUS
 62
    4
 10
965.00260000000003
 20
1030.4662000000001
 11
973.30330000000004
 21
1031.5668000000001
  0
LINE
  8
_0-0_LAYER001
  6
CONTINUOUS
 62
    4
 10
973.30330000000004
 20
1031.5668000000001
 11
981.51099999999997
 21
1032.7340999999999
  0
LINE
  8
_0-0_LAYER001
  6
CONTINUOUS
 62
    4
 10
981.51099999999997
 20
1032.7340999999999
 11
986.2482
 21
1033.4295
  0
LINE
  8
_0-0_LAYER001
  6
CONTINUOUS
 62
    4
 10
986.2482
 20
1033.4295
 11
988.70350000000008
 21
1033.7934
  0
LINE
  8
_0-0_LAYER001
  6
CONTINUOUS
 62
    4
 10
988.70350000000008
 20
1033.7934
 11
992.91759999999999
 21
1034.422
  0
LINE
  8
_0-0_LAYER001
  6
CONTINUOUS
 62
    4
 10
992.91759999999999
 20
1034.422
 11
997.12920000000008
 21
1035.0544
  0
LINE
  8
_0-0_LAYER001
  6
CONTINUOUS
 62
    4
 10
997.12920000000008
 20
1035.0544
 11
1001.3359
 21
1035.6895
  0
LINE
  8
_0-0_LAYER001
  6
CONTINUOUS
 62
    4
 10
1001.3359
 20
1035.6895
 11
1005.5381
 21
1036.3262999999999
  0
LINE
  8
_0-0_LAYER001
  6
CONTINUOUS
 62
    4
 10
1005.5381
 20
1036.3262999999999
 11
1009.7360000000001
 21
1036.9639999999999
  0
LINE
  8
_0-0_LAYER001
  6
CONTINUOUS
 62
    4
 10
1009.7360000000001
 20
1036.9639999999999
 11
1011.3536999999999
 21
1037.2099000000001
  0
LINE
  8
_0-0_LAYER001
  6
CONTINUOUS
 62
    4
 10
1021.8625
 20
1040.2809999999999
 11
1021.8625
 21
1057.4784
  0
LINE
  8
_0-0_LAYER001
  6
CONTINUOUS
 62
    4
 10
1009.5890999999999
 20
1055.1648
 11
1054.0434
 21
1064.8126999999999
  0
LINE
  8
_0-0_LAYER001
  6
CONTINUOUS
 62
    4
 10
1016.3343
 20
1035.3311000000001
 11
1055.0061000000001
 21
1044.3811000000001
  0
LINE
  8
_0-0_LAYER001
  6
CONTINUOUS
 62
    4
 10
1055.0061000000001
 20
1045.3375000000001
 11
1055.0061000000001
 21
1044.3811000000001
  0
ARC
  8
_0-0_LAYER001
  6
CONTINUOUS
 62
    4
 10
1056.0061000000001
 20
1045.3375000000001
 40
1
 50
102.72435
 51
180
  0
LINE
  8
_0-0_LAYER001
  6
CONTINUOUS
 62
    4
 10
1060.8231000000001
 20
1047.4503999999999
 11
1055.7858000000001
 21
1046.3130000000001
  0
ARC
  8
_0-0_LAYER001
  6
CONTINUOUS
 62
    4
 10
1061.0434
 20
1046.4749999999999
 40
1
 50
0
 51
102.72435
  0
LINE
  8
_0-0_LAYER001
  6
CONTINUOUS
 62
    4
 10
1061.2554
 20
1047.9589000000001
 11
1011.1215
 21
1037.0784000000001
  0
ARC
  8
_0-0_LAYER001
  6
CONTINUOUS
 62
    4
 10
1061.0434
 20
1048.9360999999999
 40
1
 50
282.24497000000002
 51
0
  0
LINE
  8
_0-0_LAYER001
  6
CONTINUOUS
 62
    4
 10
1061.2611999999999
 20
1027.2182
 11
1011.6772000000001
 21
1016.1503
  0
LINE
  8
_0-0_LAYER001
  6
CONTINUOUS
 62
    4
 10
1062.0434
 20
1028.1940999999999
 11
1062.0434
 21
1046.4749999999999
  0
ARC
  8
_0-0_LAYER001
  6
CONTINUOUS
 62
    4
 10
1061.0434
 20
1028.1940999999999
 40
1
 50
282.58296000000001
 51
0.0000000000000254
  0
LINE
  8
_0-0_LAYER001
  6
CONTINUOUS
 62
    4
 10
1054.0434
 20
1066.2697000000001
 11
1054.0434
 21
1064.8126999999999
  0
ARC
  8
_0-0_LAYER001
  6
CONTINUOUS
 62
    4
 10
1055.0434
 20
1066.2697000000001
 40
1
 50
101.73308
 51
180
  0
LINE
  8
_0-0_LAYER001
  6
CONTINUOUS
 62
    4
 10
1060.8399999999999
 20
1068.4949999999999
 11
1054.8399999999999
 21
1067.2488000000001
  0
LINE
  8
_0-0_LAYER001
  6
CONTINUOUS
 62
    4
 10
1062.0434
 20
1067.5159000000001
 11
1062.0434
 21
1048.9360999999999
  0
ARC
  8
_0-0_LAYER001
  6
CONTINUOUS
 62
    4
 10
1061.0434
 20
1067.5159000000001
 40
1
 50
0
 51
101.73308
  0
LINE
  8
_0-0_LAYER001
  6
DASHED1
 62
    2
 10
861.25420000000008
 20
1040.0341000000001
 11
877.25420000000008
 21
1040.0341000000001
  0
LINE
  8
_0-0_LAYER001
  6
DASHED1
 62
    2
 10
877.25420000000008
 20
1040.0341000000001
 11
877.25420000000008
 21
1037.0341000000001
  0
LINE
  8
_0-0_LAYER001
  6
DASHED1
 62
    2
 10
861.25420000000008
 20
1040.0341000000001
 11
861.25420000000008
 21
1037.0341000000001
  0
LINE
  8
_0-0_LAYER001
  6
DASHED1
 62
    2
 10
861.25420000000008
 20
1037.0341000000001
 11
877.25420000000008
 21
1037.0341000000001
  0
LINE
  8
_0-0_LAYER001
  6
DASHED1
 62
    2
 10
872.25420000000008
 20
982.13799999999992
 11
869.20409999999993
 21
967.62910000000011
  0
LINE
  8
_0-0_LAYER001
  6
DASHED1
 62
    2
 10
872.25420000000008
 20
1037.0341000000001
 11
872.25420000000008
 21
982.13799999999992
  0
LINE
  8
_0-0_LAYER001
  6
DASHED1
 62
    2
 10
869.20409999999993
 20
967.62910000000011
 11
866.25420000000008
 21
981.88660000000004
  0
LINE
  8
_0-0_LAYER001
  6
DASHED1
 62
    2
 10
866.25420000000008
 20
1037.0341000000001
 11
866.25420000000008
 21
981.88660000000004
  0
LINE
  8
_0-0_LAYER001
  6
DASHED1
 62
    2
 10
1126.2605000000001
 20
1037.3027999999999
 11
1142.2605000000001
 21
1037.3027999999999
  0
LINE
  8
_0-0_LAYER001
  6
DASHED1
 62
    2
 10
1142.2605000000001
 20
1037.3027999999999
 11
1142.2605000000001
 21
1034.3027999999999
  0
LINE
  8
_0-0_LAYER001
  6
DASHED1
 62
    2
 10
1126.2605000000001
 20
1037.3027999999999
 11
1126.2605000000001
 21
1034.3027999999999
  0
LINE
  8
_0-0_LAYER001
  6
DASHED1
 62
    2
 10
1126.2605000000001
 20
1034.3027999999999
 11
1142.2605000000001
 21
1034.3027999999999
  0
LINE
  8
_0-0_LAYER001
  6
DASHED1
 62
    2
 10
1137.2605000000001
 20
979.40679999999998
 11
1134.2103
 21
964.89779999999996
  0
LINE
  8
_0-0_LAYER001
  6
DASHED1
 62
    2
 10
1137.2605000000001
 20
1034.3027999999999
 11
1137.2605000000001
 21
979.40679999999998
  0
LINE
  8
_0-0_LAYER001
  6
DASHED1
 62
    2
 10
1134.2103
 20
964.89779999999996
 11
1131.2605000000001
 21
979.1552999999999
  0
LINE
  8
_0-0_LAYER001
  6
DASHED1
 62
    2
 10
1131.2605000000001
 20
1034.3027999999999
 11
1131.2605000000001
 21
979.1552999999999
  0
LINE
  8
_0-1_LAYER003
  6
CONTINUOUS
 62
    7
 10
840.74279999999999
 20
1002.4521
 11
1722.4767999999999
 21
1002.4521
  0
LINE
  8
_0-1_LAYER003
  6
CONTINUOUS
 62
    7
 10
1722.4767999999999
 20
1002.4521
 11
1722.4767999999999
 21
987.45209999999997
  0
LINE
  8
_0-1_LAYER003
  6
CONTINUOUS
 62
    7
 10
1722.4767999999999
 20
987.45209999999997
 11
840.74279999999999
 21
987.45209999999997
  0
LINE
  8
_0-1_LAYER003
  6
CONTINUOUS
 62
    7
 10
840.74279999999999
 20
982.98749999999995
 11
1867.3398000000002
 21
982.98749999999995
  0
LINE
  8
_0-1_LAYER003
  6
CONTINUOUS
 62
    7
 10
1869.6628000000001
 20
980.49050000000011
 11
840.74279999999999
 21
980.49050000000011
  0
LINE
  8
_0-1_LAYER003
  6
CONTINUOUS
 62
    7
 10
840.74279999999999
 20
940.49050000000011
 11
1869.6628000000001
 21
940.49050000000011
  0
LINE
  8
_0-1_LAYER003
  6
CONTINUOUS
 62
    7
 10
1869.6628000000001
 20
940.49050000000011
 11
1869.6628000000001
 21
1277.6425999999999
  0
LINE
  8
_0-1_LAYER003
  6
CONTINUOUS
 62
    7
 10
1867.3398000000002
 20
1230.4905000000001
 11
1867.3398000000002
 21
982.98749999999995
  0
LINE
  8
_0-1_LAYER003
  6
CONTINUOUS
 62
    7
 10
1863.6707999999999
 20
985.36249999999995
 11
1727.7518
 21
985.36249999999995
  0
LINE
  8
_0-1_LAYER003
  6
CONTINUOUS
 62
    7
 10
1727.7518
 20
985.36249999999995
 11
1727.7518
 21
1002.4521
  0
LINE
  8
_0-1_LAYER003
  6
CONTINUOUS
 62
    7
 10
1727.7518
 20
1002.4521
 11
1748.2957999999999
 21
1002.4521
  0
LINE
  8
_0-1_LAYER003
  6
CONTINUOUS
 62
    7
 10
1863.6707999999999
 20
985.36249999999995
 11
1863.6707999999999
 21
1102.3507
  0
LINE
  8
_0-1_LAYER003
  6
CONTINUOUS
 62
    7
 10
1863.6707999999999
 20
1102.3507
 11
1856.5635000000002
 21
1093.1893
  0
LINE
  8
_0-1_LAYER003
  6
CONTINUOUS
 62
    7
 10
1869.6628000000001
 20
1102.3507
 11
1839.6628000000001
 21
1102.3507
  0
LINE
  8
_0-1_LAYER003
  6
CONTINUOUS
 62
    7
 10
1839.6628000000001
 20
1102.3507
 11
1839.6628000000001
 21
1139.6185933749027
  0
LINE
  8
_0-1_LAYER003
  6
CONTINUOUS
 62
    7
 10
1839.6628000000001
 20
1139.6185933749027
 11
1854.5789395744678
 21
1142.3507
  0
LINE
  8
_0-1_LAYER003
  6
CONTINUOUS
 62
    7
 10
1854.5789395744678
 20
1142.3507
 11
1869.6628000000001
 21
1142.3507
  0
LINE
  8
_0-1_LAYER003
  6
CONTINUOUS
 62
    7
 10
1860.6549
 20
1143.4636
 11
1857.9529000000002
 21
1158.2185999999999
  0
LINE
  8
_0-1_LAYER003
  6
CONTINUOUS
 62
    7
 10
1857.9529000000002
 20
1158.2185999999999
 11
1769.4249
 21
1142.0026
  0
LINE
  8
_0-1_LAYER003
  6
CONTINUOUS
 62
    7
 10
1769.4249
 20
1142.0026
 11
1860.6549
 21
1143.4636
  0
LINE
  8
_0-1_LAYER003
  6
CONTINUOUS
 62
    7
 10
1860.6549
 20
1143.4636
 11
1772.1279
 21
1127.2485999999999
  0
LINE
  8
_0-1_LAYER003
  6
CONTINUOUS
 62
    7
 10
1772.1279
 20
1127.2485999999999
 11
1769.4249
 21
1142.0026
  0
LINE
  8
_0-1_LAYER003
  6
CONTINUOUS
 62
    7
 10
1758.4400000000001
 20
1129.5382999999999
 11
1754.1459
 21
1123.1677999999999
  0
LINE
  8
_0-1_LAYER003
  6
CONTINUOUS
 62
    7
 10
1754.1459
 20
1123.1677999999999
 11
1754.6939000000002
 21
1141.2467999999999
  0
LINE
  8
_0-1_LAYER003
  6
CONTINUOUS
 62
    7
 10
1754.6939000000002
 20
1141.2467999999999
 11
1844.2078000000001
 21
1157.6425999999999
  0
LINE
  8
_0-1_LAYER003
  6
CONTINUOUS
 62
    7
 10
1844.2078000000001
 20
1157.6425999999999
 11
1844.2078000000001
 21
1257.6425999999999
  0
LINE
  8
_0-1_LAYER003
  6
CONTINUOUS
 62
    7
 10
1844.2078000000001
 20
1257.6425999999999
 11
1869.2078000000001
 21
1257.6425999999999
  0
LINE
  8
_0-1_LAYER003
  6
CONTINUOUS
 62
    7
 10
1844.2078000000001
 20
1215.7771
 11
1755.9078000000002
 21
1215.7771
  0
LINE
  8
_0-1_LAYER003
  6
CONTINUOUS
 62
    7
 10
1754.2078000000001
 20
1215.7771
 11
1755.9078000000002
 21
1215.7771
  0
LINE
  8
_0-1_LAYER003
  6
CONTINUOUS
 62
    7
 10
1754.2078000000001
 20
1217.4771000000001
 11
1754.2078000000001
 21
1190.7771
  0
LINE
  8
_0-1_LAYER003
  6
CONTINUOUS
 62
    7
 10
1781.4250000000002
 20
1140.8012000000001
 11
1786.7283000000002
 21
1135.4979000000001
  0
LINE
  8
_0-1_LAYER003
  6
CONTINUOUS
 62
    7
 10
1786.7283000000002
 20
1135.4979000000001
 11
1784.9189140989699
 21
1142.2507284073067
  0
LINE
  8
_0-1_LAYER003
  6
CONTINUOUS
 62
    7
 10
1797.9638
 20
1156.1790000000001
 11
1803.2671
 21
1150.8757000000001
  0
LINE
  8
_0-1_LAYER003
  6
CONTINUOUS
 62
    7
 10
1803.2671
 20
1150.8757000000001
 11
1801.3258999999998
 21
1158.1202000000001
  0
LINE
  8
_0-1_LAYER003
  6
CONTINUOUS
 62
    7
 10
1854.8917000000001
 20
1132.4105
 11
1860.1950000000002
 21
1127.1071999999999
  0
LINE
  8
_0-1_LAYER003
  6
CONTINUOUS
 62
    7
 10
1860.1950000000002
 20
1127.1071999999999
 11
1858.2538
 21
1134.3516
  0
LINE
  8
_0-1_LAYER003
  6
CONTINUOUS
 62
    7
 10
1860.1950000000002
 20
1127.1071999999999
 11
1751.6325999999999
 21
1315.1427000000001
  0
LINE
  8
_0-1_LAYER003
  6
CONTINUOUS
 62
    7
 10
1751.6325999999999
 20
1315.1427000000001
 11
1612.3957999999998
 21
1315.1427000000001
  0
LINE
  8
_0-1_LAYER003
  6
CONTINUOUS
 62
    7
 10
1798.2372999999998
 20
1345.5579
 11
1717.2372999999998
 21
1345.5579
  0
LINE
  8
_0-1_LAYER003
  6
CONTINUOUS
 62
    2
 10
1728.9555511971728
 20
1279.5871
 11
1487.0781999999999
 21
1279.5871
  0
LINE
  8
_0-1_LAYER003
  6
CONTINUOUS
 62
    2
 10
1803.2671
 20
1150.8757000000001
 11
1728.9555511971728
 21
1279.5871
  0
LINE
  8
_0-1_LAYER003
  6
CONTINUOUS
 62
    2
 10
1726.7215495721812
 20
1239.4327000000001
 11
1570.1433000000002
 21
1239.4327000000001
  0
LINE
  8
_0-1_LAYER003
  6
CONTINUOUS
 62
    2
 10
1786.7283000000002
 20
1135.4979000000001
 11
1726.7215495721812
 21
1239.4327000000001
  0
LINE
  8
_0-1_LAYER003
  6
CONTINUOUS
 62
    7
 10
1487.0781999999999
 20
1279.5871
 11
1728.9555511971728
 21
1279.5871
  0
LINE
  8
_0-1_LAYER003
  6
CONTINUOUS
 62
    7
 10
1728.9555511971728
 20
1279.5871
 11
1803.2671
 21
1150.8757000000001
  0
LINE
  8
_0-1_LAYER003
  6
CONTINUOUS
 62
    7
 10
1786.7283000000002
 20
1135.4979000000001
 11
1726.7215495721812
 21
1239.4327000000001
  0
LINE
  8
_0-1_LAYER003
  6
CONTINUOUS
 62
    7
 10
1726.7215495721812
 20
1239.4327000000001
 11
1570.1433000000002
 21
1239.4327000000001
  0
LINE
  8
_0-1_LAYER003
  6
CONTINUOUS
 62
    7
 10
1557.5646000000002
 20
1197.5151000000001
 11
1693.6014
 21
1197.5151000000001
  0
LINE
  8
_0-1_LAYER003
  6
CONTINUOUS
 62
    7
 10
1693.6014
 20
1197.5151000000001
 11
1752.0787999999998
 21
1096.2293999999999
  0
LINE
  8
_0-1_LAYER003
  6
CONTINUOUS
 62
    7
 10
1746.7755000000002
 20
1101.5327
 11
1752.0787999999998
 21
1096.2293999999999
  0
LINE
  8
_0-1_LAYER003
  6
CONTINUOUS
 62
    7
 10
1752.0787999999998
 20
1096.2293999999999
 11
1750.1376
 21
1103.4739
  0
LINE
  8
_0-1_LAYER003
  6
CONTINUOUS
 62
    7
 10
1837.1727999999998
 20
1152.1454000000001
 11
1845.2435
 21
1155.9081000000001
  0
LINE
  8
_0-1_LAYER003
  6
CONTINUOUS
 62
    7
 10
1845.2303144720231
 20
1155.8881571240547
 11
1843.5610999999999
 21
1153.3634999999999
  0
LINE
  8
_0-1_LAYER003
  6
CONTINUOUS
 62
    7
 10
1843.5610999999999
 20
1153.3634999999999
 11
1854.9717000000001
 21
1128.8906999999999
  0
LINE
  8
_0-1_LAYER003
  6
CONTINUOUS
 62
    7
 10
1854.9717000000001
 20
1128.8906999999999
 11
1857.0688
 21
1120.2565
  0
LINE
  8
_0-1_LAYER003
  6
CONTINUOUS
 62
    7
 10
1857.0688
 20
1120.2565
 11
1851.6125000000002
 21
1127.3244
  0
LINE
  8
_0-1_LAYER003
  6
CONTINUOUS
 62
    7
 10
1851.6125000000002
 20
1127.3244
 11
1840.2015999999999
 21
1151.7987000000001
  0
LINE
  8
_0-1_LAYER003
  6
CONTINUOUS
 62
    7
 10
1840.2015999999999
 20
1151.7987000000001
 11
1837.1727999999998
 21
1152.1454000000001
  0
LINE
  8
_0-1_LAYER003
  6
CONTINUOUS
 62
    7
 10
1839.6628000000001
 20
1128.3507999999999
 11
1845.6626999999999
 21
1125.3507
  0
LINE
  8
_0-1_LAYER003
  6
CONTINUOUS
 62
    7
 10
1845.6626999999999
 20
1125.3507
 11
1845.6626999999999
 21
1119.3507999999999
  0
LINE
  8
_0-1_LAYER003
  6
CONTINUOUS
 62
    7
 10
1845.6626999999999
 20
1119.3507999999999
 11
1839.6628000000001
 21
1116.3507
  0
LINE
  8
_0-1_LAYER003
  6
CONTINUOUS
 62
    7
 10
1845.6626999999999
 20
1125.3507
 11
1869.1822000000002
 21
1125.3507
  0
LINE
  8
_0-1_LAYER003
  6
CONTINUOUS
 62
    7
 10
1845.6626999999999
 20
1119.3507999999999
 11
1869.6628000000001
 21
1119.3507999999999
  0
LINE
  8
_0-1_LAYER003
  6
CONTINUOUS
 62
    7
 10
1844.5825
 20
1129.5472
 11
1844.5825
 21
1110.0885000000001
  0
LINE
  8
_0-1_LAYER003
  6
CONTINUOUS
 62
    7
 10
1844.5825
 20
1110.0885000000001
 11
1827.0697
 21
1110.0885000000001
  0
LINE
  8
_0-1_LAYER003
  6
CONTINUOUS
 62
    7
 10
1827.0697
 20
1110.0885000000001
 11
1827.0697
 21
1129.5472
  0
LINE
  8
_0-1_LAYER003
  6
CONTINUOUS
 62
    7
 10
1827.0697
 20
1129.5472
 11
1844.5825
 21
1129.5472
  0
LINE
  8
_0-1_LAYER003
  6
CONTINUOUS
 62
    7
 10
1819.2862
 20
1097.4403
 11
1819.2862
 21
1079.7614000000001
  0
LINE
  8
_0-1_LAYER003
  6
CONTINUOUS
 62
    7
 10
1819.2862
 20
1079.7614000000001
 11
1824.058
 21
1079.6170999999999
  0
LINE
  8
_0-1_LAYER003
  6
CONTINUOUS
 62
    7
 10
1824.058
 20
1079.6170999999999
 11
1847.0149000000001
 21
1104.2509
  0
LINE
  8
_0-1_LAYER003
  6
CONTINUOUS
 62
    7
 10
1847.0149000000001
 20
1104.2509
 11
1844.5825
 21
1110.0885000000001
  0
LINE
  8
_0-1_LAYER003
  6
CONTINUOUS
 62
    7
 10
1844.5825
 20
1110.0885000000001
 11
1819.2862
 21
1097.4403
  0
LINE
  8
_0-1_LAYER003
  6
CONTINUOUS
 62
    7
 10
1844.6628000000001
 20
1277.6425999999999
 11
1869.6628000000001
 21
1277.6425999999999
  0
LINE
  8
_0-1_LAYER003
  6
CONTINUOUS
 62
    7
 10
1844.6811542749558
 20
1277.6425996653161
 11
1844.6628000000001
 21
1474.3454999999999
  0
LINE
  8
_0-1_LAYER003
  6
CONTINUOUS
 62
    7
 10
1844.6760842789545
 20
1331.9777842789542
 11
1988.0408000000002
 21
1475.3424999999997
  0
LINE
  8
_0-1_LAYER003
  6
CONTINUOUS
 62
    7
 10
1988.0408000000002
 20
1475.3424999999997
 11
1844.6760842789545
 21
1331.9777842789542
  0
LINE
  8
_0-1_LAYER003
  6
CONTINUOUS
 62
    7
 10
1844.677139885616
 20
1320.6648398856157
 11
1988.0408000000002
 21
1464.0284999999999
  0
LINE
  8
_0-1_LAYER003
  6
CONTINUOUS
 62
    7
 10
1844.6781953989766
 20
1309.3528953989767
 11
1988.0408000000002
 21
1452.7154999999998
  0
LINE
  8
_0-1_LAYER003
  6
CONTINUOUS
 62
    7
 10
1847.1014
 20
1260.9226000000001
 11
1845.1603
 21
1268.1670999999999
  0
LINE
  8
_0-1_LAYER003
  6
CONTINUOUS
 62
    7
 10
1847.1014
 20
1260.9226000000001
 11
1841.7981
 21
1266.2258999999999
  0
LINE
  8
_0-1_LAYER003
  6
CONTINUOUS
 62
    7
 10
1847.1014
 20
1260.9226000000001
 11
1798.2372999999998
 21
1345.5579
  0
ARC
  8
_0-1_LAYER003
  6
CONTINUOUS
 62
    7
 10
1827.4599063690662
 20
1266.264844630673
 40
20.625054339842897
 50
335.4359140104583
 51
33.48009762374285
  0
LINE
  8
_0-1_LAYER003
  6
CONTINUOUS
 62
    7
 10
1945.9845
 20
1277.6425999999999
 11
1997.6845000000001
 21
1277.6425999999999
  0
LINE
  8
_0-1_LAYER003
  6
CONTINUOUS
 62
    7
 10
1997.6845000000001
 20
1277.6425999999999
 11
1995.9845
 21
1277.6425999999999
  0
LINE
  8
_0-1_LAYER003
  6
CONTINUOUS
 62
    7
 10
1995.9845
 20
1277.6425999999999
 11
1995.9845
 21
1157.6425999999999
  0
LINE
  8
_0-1_LAYER003
  6
CONTINUOUS
 62
    7
 10
1997.6845000000001
 20
1157.6425999999999
 11
1945.9845
 21
1157.6425999999999
  0
LINE
  8
_0-1_LAYER003
  6
CONTINUOUS
 62
    7
 10
1945.9845
 20
1257.6425999999999
 11
1997.6845000000001
 21
1257.6425999999999
  0
LINE
  8
_0-1_LAYER003
  6
CONTINUOUS
 62
    7
 10
2040.5210999999999
 20
1230.4905000000001
 11
2093.0210999999999
 21
1230.4905000000001
  0
LINE
  8
_0-1_LAYER003
  6
CONTINUOUS
 62
    7
 10
2090.5210999999999
 20
1230.4905000000001
 11
2090.5210999999999
 21
980.49050000000011
  0
LINE
  8
_0-1_LAYER003
  6
CONTINUOUS
 62
    7
 10
2092.2210999999998
 20
980.49050000000011
 11
2040.5210999999999
 21
980.49050000000011
  0
LINE
  8
_0-1_LAYER003
  6
CONTINUOUS
 62
    7
 10
1945.9845
 20
980.49050000000011
 11
1997.6845000000001
 21
980.49050000000011
  0
LINE
  8
_0-1_LAYER003
  6
CONTINUOUS
 62
    7
 10
1995.9845
 20
980.49050000000011
 11
1995.9845
 21
1095.3507
  0
LINE
  8
_0-1_LAYER003
  6
CONTINUOUS
 62
    7
 10
1997.6845000000001
 20
1095.3507
 11
1945.9845
 21
1095.3507
  0
LINE
  8
_0-1_LAYER003
  6
CONTINUOUS
 62
    7
 10
1869.6628000000001
 20
1126.6007999999999
 11
1887.8627999999999
 21
1126.6007999999999
  0
LINE
  8
_0-1_LAYER003
  6
CONTINUOUS
 62
    7
 10
1887.8627999999999
 20
1126.6007999999999
 11
1896.9567000000002
 21
1128.2048
  0
LINE
  8
_0-1_LAYER003
  6
CONTINUOUS
 62
    7
 10
1896.9567000000002
 20
1128.2048
 11
1897.2528000000002
 21
1126.5317
  0
LINE
  8
_0-1_LAYER003
  6
CONTINUOUS
 62
    7
 10
1897.2528000000002
 20
1126.5317
 11
1898.9268000000002
 21
1126.8268
  0
LINE
  8
_0-1_LAYER003
  6
CONTINUOUS
 62
    7
 10
1898.9268000000002
 20
1126.8268
 11
1898.6307000000002
 21
1128.5007000000001
  0
LINE
  8
_0-1_LAYER003
  6
CONTINUOUS
 62
    7
 10
1898.6307000000002
 20
1128.5007000000001
 11
1901.2896999999998
 21
1128.9686999999999
  0
LINE
  8
_0-1_LAYER003
  6
CONTINUOUS
 62
    7
 10
1901.2896999999998
 20
1128.9686999999999
 11
1901.5857999999998
 21
1127.2958000000001
  0
LINE
  8
_0-1_LAYER003
  6
CONTINUOUS
 62
    7
 10
1901.5857999999998
 20
1127.2958000000001
 11
1903.2586999999999
 21
1127.5907999999999
  0
LINE
  8
_0-1_LAYER003
  6
CONTINUOUS
 62
    7
 10
1903.2586999999999
 20
1127.5907999999999
 11
1903.2599
 21
1127.5907999999999
  0
LINE
  8
_0-1_LAYER003
  6
CONTINUOUS
 62
    7
 10
1903.2586999999999
 20
1127.5907999999999
 11
1902.9638
 21
1129.2638999999999
  0
LINE
  8
_0-1_LAYER003
  6
CONTINUOUS
 62
    7
 10
1902.9638
 20
1129.2638999999999
 11
1905.6228000000001
 21
1129.7329
  0
LINE
  8
_0-1_LAYER003
  6
CONTINUOUS
 62
    7
 10
1905.6228000000001
 20
1129.7329
 11
1905.9187000000002
 21
1128.0598
  0
LINE
  8
_0-1_LAYER003
  6
CONTINUOUS
 62
    7
 10
1905.9187000000002
 20
1128.0598
 11
1907.5927999999999
 21
1128.3547000000001
  0
LINE
  8
_0-1_LAYER003
  6
CONTINUOUS
 62
    7
 10
1907.5927999999999
 20
1128.3547000000001
 11
1907.2968999999998
 21
1130.0277000000001
  0
LINE
  8
_0-1_LAYER003
  6
CONTINUOUS
 62
    7
 10
1907.2968999999998
 20
1130.0277000000001
 11
1908.774841138907
 21
1130.290559324256
  0
LINE
  8
_0-1_LAYER003
  6
CONTINUOUS
 62
    7
 10
1908.774841138907
 20
1130.290559324256
 11
1910.5068313622894
 21
1129.0798057996451
  0
LINE
  8
_0-1_LAYER003
  6
CONTINUOUS
 62
    7
 10
1910.5068313622894
 20
1129.0798057996451
 11
1910.9117999999999
 21
1126.8077000000001
  0
LINE
  8
_0-1_LAYER003
  6
CONTINUOUS
 62
    7
 10
1910.9117999999999
 20
1126.8077000000001
 11
1885.6388000000002
 21
1122.3517999999999
  0
LINE
  8
_0-1_LAYER003
  6
CONTINUOUS
 62
    7
 10
1885.6388000000002
 20
1122.3517999999999
 11
1910.7366999999999
 21
1117.9258
  0
LINE
  8
_0-1_LAYER003
  6
CONTINUOUS
 62
    7
 10
1910.7366999999999
 20
1117.9258
 11
1910.3388
 21
1115.6609000000001
  0
LINE
  8
_0-1_LAYER003
  6
CONTINUOUS
 62
    7
 10
1910.3388
 20
1115.6609000000001
 11
1908.5947068191865
 21
1114.4502791172679
  0
LINE
  8
_0-1_LAYER003
  6
CONTINUOUS
 62
    7
 10
1908.5947068191865
 20
1114.4502791172679
 11
1907.1228000000001
 21
1114.7048
  0
LINE
  8
_0-1_LAYER003
  6
CONTINUOUS
 62
    7
 10
1907.1228000000001
 20
1114.7048
 11
1907.4178000000002
 21
1116.3788
  0
LINE
  8
_0-1_LAYER003
  6
CONTINUOUS
 62
    7
 10
1907.4178000000002
 20
1116.3788
 11
1905.7438000000002
 21
1116.6737000000001
  0
LINE
  8
_0-1_LAYER003
  6
CONTINUOUS
 62
    7
 10
1905.7438000000002
 20
1116.6737000000001
 11
1905.4488000000001
 21
1115.0008
  0
LINE
  8
_0-1_LAYER003
  6
CONTINUOUS
 62
    7
 10
1905.4488000000001
 20
1115.0008
 11
1902.7896999999998
 21
1115.4698000000001
  0
LINE
  8
_0-1_LAYER003
  6
CONTINUOUS
 62
    7
 10
1902.7896999999998
 20
1115.4698000000001
 11
1903.0848000000001
 21
1117.1428000000001
  0
LINE
  8
_0-1_LAYER003
  6
CONTINUOUS
 62
    7
 10
1903.0848000000001
 20
1117.1428000000001
 11
1901.4108999999999
 21
1117.4377999999999
  0
LINE
  8
_0-1_LAYER003
  6
CONTINUOUS
 62
    7
 10
1901.4108999999999
 20
1117.4377999999999
 11
1901.1158
 21
1115.7647999999999
  0
LINE
  8
_0-1_LAYER003
  6
CONTINUOUS
 62
    7
 10
1901.1158
 20
1115.7647999999999
 11
1898.4567000000002
 21
1116.2338
  0
LINE
  8
_0-1_LAYER003
  6
CONTINUOUS
 62
    7
 10
1898.4567000000002
 20
1116.2338
 11
1898.7516999999998
 21
1117.9067
  0
LINE
  8
_0-1_LAYER003
  6
CONTINUOUS
 62
    7
 10
1898.7516999999998
 20
1117.9067
 11
1897.0787697421247
 21
1118.2016290394286
  0
LINE
  8
_0-1_LAYER003
  6
CONTINUOUS
 62
    7
 10
1897.0787697421247
 20
1118.2016290394286
 11
1896.7827000000002
 21
1116.5288
  0
LINE
  8
_0-1_LAYER003
  6
CONTINUOUS
 62
    7
 10
1896.7827000000002
 20
1116.5288
 11
1887.8627999999999
 21
1118.1007
  0
LINE
  8
_0-1_LAYER003
  6
CONTINUOUS
 62
    7
 10
1887.8627999999999
 20
1118.1007
 11
1869.6628000000001
 21
1118.1007
  0
LINE
  8
_0-1_LAYER003
  6
CONTINUOUS
 62
    7
 10
1814.2132999999999
 20
1065.8505
 11
1816.1545000000001
 21
1058.6061
  0
LINE
  8
_0-1_LAYER003
  6
CONTINUOUS
 62
    7
 10
1814.2132999999999
 20
1065.8505
 11
1819.192776947333
 21
1060.8710230526667
  0
LINE
  8
_0-1_LAYER003
  6
CONTINUOUS
 62
    7
 10
1814.2132999999999
 20
1065.8505
 11
1906.1961000000001
 21
906.5317
  0
LINE
  8
_0-1_LAYER003
  6
CONTINUOUS
 62
    7
 10
1906.1961000000001
 20
906.5317
 11
1979.7716999999998
 21
906.5317
  0
LINE
  8
_0-1_LAYER003
  6
CONTINUOUS
 62
    7
 10
1823.0857000000001
 20
985.24039999999991
 11
1824.966670728096
 21
978.22077072809634
  0
LINE
  8
_0-1_LAYER003
  6
CONTINUOUS
 62
    7
 10
1823.0857000000001
 20
985.24039999999991
 11
1828.3890000000001
 21
979.9371000000001
  0
LINE
  8
_0-1_LAYER003
  6
CONTINUOUS
 62
    7
 10
1823.0857000000001
 20
985.24039999999991
 11
1895.2570999999998
 21
860.2360000000001
  0
LINE
  8
_0-1_LAYER003
  6
CONTINUOUS
 62
    7
 10
1895.2570999999998
 20
860.2360000000001
 11
2129.2570999999998
 21
860.2360000000001
  0
LINE
  8
_0-1_LAYER003
  6
CONTINUOUS
 62
    7
 10
1869.6628000000001
 20
883.77659999999992
 11
1869.6628000000001
 21
832.07659999999987
  0
LINE
  8
_0-1_LAYER003
  6
CONTINUOUS
 62
    7
 10
1869.6628000000001
 20
833.77659999999992
 11
1719.6628000000001
 21
833.77659999999992
  0
LINE
  8
_0-1_LAYER003
  6
CONTINUOUS
 62
    7
 10
1719.6628000000001
 20
832.07659999999987
 11
1719.6628000000001
 21
883.77659999999992
  0
LINE
  8
_0-1_LAYER003
  6
CONTINUOUS
 62
    7
 10
1869.6628000000001
 20
810.49050000000011
 11
840.74279999999999
 21
810.49050000000011
  0
LINE
  8
_0-1_LAYER003
  6
CONTINUOUS
 62
    7
 10
936.67579999999998
 20
958.08539999999994
 11
946.67579999999998
 21
958.08539999999994
  0
LINE
  8
_0-1_LAYER003
  6
CONTINUOUS
 62
    7
 10
946.67579999999998
 20
958.08539999999994
 11
946.67579999999998
 21
904.06670000000008
  0
LINE
  8
_0-1_LAYER003
  6
CONTINUOUS
 62
    7
 10
946.67579999999998
 20
904.06670000000008
 11
968.0458000000001
 21
904.06670000000008
  0
LINE
  8
_0-1_LAYER003
  6
CONTINUOUS
 62
    7
 10
968.0458000000001
 20
904.06670000000008
 11
968.0458000000001
 21
894.06670000000008
  0
LINE
  8
_0-1_LAYER003
  6
CONTINUOUS
 62
    7
 10
968.0458000000001
 20
894.06670000000008
 11
936.67579999999998
 21
894.06670000000008
  0
LINE
  8
_0-1_LAYER003
  6
CONTINUOUS
 62
    7
 10
936.67579999999998
 20
894.06670000000008
 11
936.67579999999998
 21
958.08539999999994
  0
LINE
  8
_0-1_LAYER003
  6
CONTINUOUS
 62
    7
 10
948.10140000000001
 20
899.32369999999992
 11
950.04259999999999
 21
892.0791999999999
  0
LINE
  8
_0-1_LAYER003
  6
CONTINUOUS
 62
    7
 10
948.10140000000001
 20
899.32369999999992
 11
953.40470000000005
 21
894.02040000000011
  0
LINE
  8
_0-1_LAYER003
  6
CONTINUOUS
 62
    7
 10
948.10140000000001
 20
899.32369999999992
 11
972.72970000000009
 21
856.66619999999989
  0
LINE
  8
_0-1_LAYER003
  6
CONTINUOUS
 62
    7
 10
972.72970000000009
 20
856.66619999999989
 11
1043.2737666940554
 21
856.66619999999989
  0
LINE
  8
_0-1_LAYER003
  6
CONTINUOUS
 62
    7
 10
893.49279999999999
 20
810.49050000000011
 11
1023.4928
 21
940.49050000000011
  0
LINE
  8
_0-1_LAYER003
  6
CONTINUOUS
 62
    7
 10
1034.8068000000001
 20
940.49050000000011
 11
904.80680000000007
 21
810.49050000000011
  0
LINE
  8
_0-1_LAYER003
  6
CONTINUOUS
 62
    7
 10
916.12079999999992
 20
810.49050000000011
 11
1046.1207999999999
 21
940.49050000000011
  0
LINE
  8
_0-1_LAYER003
  6
CONTINUOUS
 62
    7
 10
1063.4983999999999
 20
989.54510000000005
 11
1063.4983999999999
 21
982.04510000000005
  0
LINE
  8
_0-1_LAYER003
  6
CONTINUOUS
 62
    7
 10
1063.4983999999999
 20
989.54510000000005
 11
1067.2483999999999
 21
983.04989999999998
  0
LINE
  8
_0-1_LAYER003
  6
CONTINUOUS
 62
    7
 10
1146.2411999999999
 20
684.82670000000007
 11
1351.0639000000001
 21
684.82670000000007
  0
LINE
  8
_0-1_LAYER003
  6
CONTINUOUS
 62
    7
 10
1021.4014
 20
734.59130000000016
 11
1021.4014
 21
786.29130000000009
  0
LINE
  8
_0-1_LAYER003
  6
CONTINUOUS
 62
    7
 10
1021.4014
 20
736.29130000000009
 11
1856.4014000000002
 21
736.29130000000009
  0
LINE
  8
_0-1_LAYER003
  6
CONTINUOUS
 62
    7
 10
1856.4014000000002
 20
734.59130000000016
 11
1856.4014000000002
 21
786.29130000000009
  0
LINE
  8
_0-1_LAYER003
  6
CONTINUOUS
 62
    7
 10
1551.4014000000002
 20
734.59130000000016
 11
1551.4014000000002
 21
786.29130000000009
  0
LINE
  8
_0-1_LAYER003
  6
CONTINUOUS
 62
    7
 10
1286.4014
 20
734.59130000000016
 11
1286.4014
 21
786.29130000000009
  0
LINE
  8
_0-0_LAYER001
  6
CONTINUOUS
 62
    2
 10
1161.2142273173363
 20
624.86480000000006
 11
1400.0667000000001
 21
624.86480000000006
  0
LINE
  8
_0-1_LAYER003
  6
CONTINUOUS
 62
    7
 10
1063.4983999999999
 20
989.54510000000005
 11
1161.2142273173363
 21
624.86480000000006
  0
LINE
  8
_0-1_LAYER003
  6
CONTINUOUS
 62
    7
 10
1161.2142273173363
 20
624.86480000000006
 11
1400.0667000000001
 21
624.86480000000006
  0
LINE
  8
_0-1_LAYER003
  6
CONTINUOUS
 62
    7
 10
1325.7508000000003
 20
810.49050000000011
 11
1455.7507999999998
 21
940.49050000000011
  0
LINE
  8
_0-1_LAYER003
  6
CONTINUOUS
 62
    7
 10
1337.0648000000001
 20
810.49050000000011
 11
1467.0648000000001
 21
940.49050000000011
  0
LINE
  8
_0-1_LAYER003
  6
CONTINUOUS
 62
    7
 10
1348.3778000000002
 20
810.49050000000011
 11
1478.3778000000002
 21
940.49050000000011
  0
LINE
  8
_0-1_LAYER003
  6
CONTINUOUS
 62
    7
 10
1536.6758
 20
958.08539999999994
 11
1546.6758
 21
958.08539999999994
  0
LINE
  8
_0-1_LAYER003
  6
CONTINUOUS
 62
    7
 10
1546.6758
 20
958.08539999999994
 11
1546.6758
 21
904.06670000000008
  0
LINE
  8
_0-1_LAYER003
  6
CONTINUOUS
 62
    7
 10
1546.6758
 20
904.06670000000008
 11
1568.0457999999999
 21
904.06670000000008
  0
LINE
  8
_0-1_LAYER003
  6
CONTINUOUS
 62
    7
 10
1568.0457999999999
 20
904.06670000000008
 11
1568.0457999999999
 21
894.06670000000008
  0
LINE
  8
_0-1_LAYER003
  6
CONTINUOUS
 62
    7
 10
1568.0457999999999
 20
894.06670000000008
 11
1536.6758
 21
894.06670000000008
  0
LINE
  8
_0-1_LAYER003
  6
CONTINUOUS
 62
    7
 10
1536.6758
 20
894.06670000000008
 11
1536.6758
 21
958.08539999999994
  0
LINE
  8
_0-1_LAYER003
  6
CONTINUOUS
 62
    7
 10
1292.1514
 20
888.23790000000008
 11
1232.1514
 21
888.23790000000008
  0
LINE
  8
_0-1_LAYER003
  6
CONTINUOUS
 62
    7
 10
1232.1514
 20
888.23790000000008
 11
1194.6887999999999
 21
953.12509999999997
  0
LINE
  8
_0-1_LAYER003
  6
CONTINUOUS
 62
    7
 10
1194.6887999999999
 20
953.12509999999997
 11
1196.6298999999999
 21
945.88059999999996
  0
LINE
  8
_0-1_LAYER003
  6
CONTINUOUS
 62
    7
 10
1194.6887999999999
 20
953.12509999999997
 11
1199.9920999999999
 21
947.82179999999994
  0
LINE
  8
_0-1_LAYER003
  6
CONTINUOUS
 62
    7
 10
1161.1007999999999
 20
1122.7277999999999
 11
1201.6007999999999
 21
1122.7277999999999
  0
LINE
  8
_0-1_LAYER003
  6
CONTINUOUS
 62
    7
 10
1201.6007999999999
 20
1122.7277999999999
 11
1262.6146000000001
 21
1017.0488
  0
LINE
  8
_0-1_LAYER003
  6
CONTINUOUS
 62
    7
 10
1262.6146000000001
 20
1017.0488
 11
1257.3113000000001
 21
1022.3521000000001
  0
LINE
  8
_0-1_LAYER003
  6
CONTINUOUS
 62
    7
 10
1262.6146000000001
 20
1017.0488
 11
1260.6735000000001
 21
1024.2932000000001
  0
ARC
  8
_0-1_LAYER003
  6
CONTINUOUS
 62
    7
 10
1760.1089884185344
 20
1095.1961638863067
 40
12.531396913679371
 50
336.44923072006907
 51
22.128134836720676
  0
ARC
  8
_0-1_LAYER003
  6
CONTINUOUS
 62
    7
 10
1688.9229786442302
 20
1065.7689108857733
 40
79.765079119912357
 50
333.55544877214425
 51
3.3351153596834893
  0
TEXT
  8
_0-1_LAYER003
 62
    7
 10
1138.6809314505444
 20
1132.197894105979
 40
20
 41
1
 50
0
  1
桟　瓦
  0
TEXT
  8
_0-2_LAYER004
 62
    7
 10
987.66820372853033
 20
855.81610940719884
 40
20
 41
1
 50
0
  1
アンカー
  0
TEXT
  8
_0-0_LAYER001
 62
    7
 10
1161.4753054463201
 20
746.11818455252831
 40
20
 41
1
 50
0
  1
265
  0
TEXT
  8
_0-0_LAYER001
 62
    7
 10
1979.8533560914702
 20
1257.3242606574001
 40
20
 41
1
 50
90
  1
20
  0
TEXT
  8
_0-2_LAYER004
 62
    7
 10
2026.9834661737632
 20
1122.2179450881601
 40
20
 41
1
 50
90
  1
水切り立上がり寸法
  0
TEXT
  8
_0-1_LAYER003
 62
    7
 10
2114.1741698260053
 20
991.82464052714931
 40
15.199999999999999
 41
1.3157894736842106
 50
90
  1
下葺き材立上がり寸法
  0
TEXT
  8
_0-2_LAYER004
 62
    7
 10
2080.397590933695
 20
1083.7283551876208
 40
20
 41
1
 50
90
  1
250
  0
TEXT
  8
_0-2_LAYER004
 62
    7
 10
1982.9953634302899
 20
1192.1276083768948
 40
20
 41
1
 50
90
  1
100
  0
TEXT
  8
_0-2_LAYER004
 62
    7
 10
1979.0678542567653
 20
1023.2447139153447
 40
20
 41
1
 50
90
  1
115
  0
TEXT
  8
_0-2_LAYER004
 62
    7
 10
1778.7648864070197
 20
841.79379009851641
 40
20
 41
1
 50
0
  1
150
  0
TEXT
  8
_0-2_LAYER004
 62
    7
 10
1914.6567038109649
 20
909.34694788313652
 40
20
 41
1
 50
0
  1
葺　土
  0
TEXT
  8
_0-2_LAYER004
 62
    7
 10
1694.7161900935973
 20
1346.0859679790519
 40
20
 41
1
 50
0
  1
シーリング
  0
TEXT
  8
_0-2_LAYER004
 62
    7
 10
1627.1630323089771
 20
1317.0224000949713
 40
20
 41
1
 50
0
  1
下地：40x30
  0
TEXT
  8
_0-2_LAYER004
 62
    7
 10
1389.9414782281021
 20
1284.0313230373661
 40
20
 41
1
 50
0
  1
雨押水切カラー鋼板0.35ｍｍ以上
  0
TEXT
  8
_0-2_LAYER004
 62
    7
 10
1598.8849662596017
 20
1241.6142239633023
 40
20
 41
1
 50
0
  1
笠木：15x90
  0
TEXT
  8
_0-1_LAYER003
 62
    7
 10
1537.6158231526206
 20
1200.7681285586484
 40
20
 41
1
 50
0
  1
熨斗瓦２段積み
  0
TEXT
  8
_0-2_LAYER004
 62
    7
 10
1906.8016854639159
 20
867.71535064377758
 40
20
 41
1
 50
0
  1
捨谷水切カラー鋼板0.35ｍｍ以上
  0
TEXT
  8
_0-2_LAYER004
 62
    7
 10
1234.4121149565353
 20
892.8514093543339
 40
20
 41
1
 50
0
  1
溶接金網
  0
TEXT
  8
_0-2_LAYER004
 62
    7
 10
1411.9355295998391
 20
749.89007543804507
 40
20
 41
1
 50
0
  1
265
  0
TEXT
  8
_0-2_LAYER004
 62
    7
 10
1693.1451864241876
 20
751.46107910745491
 40
20
 41
1
 50
0
  1
305
  0
TEXT
  8
_0-2_LAYER004
 62
    7
 10
1787.4054065887735
 20
1188.2000992033702
 40
20
 41
1
 50
0
  1
90
  0
TEXT
  8
_0-2_LAYER004
 62
    7
 10
1162.1459461636859
 20
627.35178922408306
 40
20
 41
1
 50
0
  1
　パーライト系モルタルｔ＝４０
  0
LINE
  8
_0-2_LAYER004
  6
CONTINUOUS
 62
    7
 10
1161.1007999999999
 20
1122.7277999999999
 11
1132.2968764449004
 21
1122.7277999999999
  0
LINE
  8
_0-2_LAYER004
  6
CONTINUOUS
 62
    7
 10
1043.2737666940554
 20
856.66619999999989
 11
1075.7407443461486
 21
856.66619999999989
  0
LINE
  8
_0-2_LAYER004
  6
CONTINUOUS
 62
    7
 10
1292.1514
 20
888.23790000000008
 11
1323.9593241128921
 21
888.23790000000008
  0
LINE
  8
_0-2_LAYER004
  6
CONTINUOUS
 62
    7
 10
1400.0667000000001
 20
624.86480000000006
 11
1495.1987240785568
 21
624.86480000000006
  0
LINE
  8
_0-2_LAYER004
  6
CONTINUOUS
 62
    7
 10
2129.2570999999998
 20
860.2360000000001
 11
2238.283459709377
 21
860.2360000000001
  0
LINE
  8
_0-2_LAYER004
  6
CONTINUOUS
 62
    7
 10
1557.5646000000002
 20
1197.5151000000001
 11
1539.1868268220305
 21
1197.5151000000001
  0
LINE
  8
_0-2_LAYER004
  6
CONTINUOUS
 62
    7
 10
1487.0781999999999
 20
1279.5871
 11
1393.0834855669218
 21
1279.5871
  0
LINE
  8
_0-2_LAYER004
  6
CONTINUOUS
 62
    7
 10
1717.2372999999998
 20
1345.5579
 11
1696.2871937630071
 21
1345.5579
  0
TEXT
  8
_0-2_LAYER004
 62
    7
 10
1145.352536543422
 20
692.47635425623389
 40
20
 41
1
 50
0
  1
瓦桟：15x30以上
  0
TEXT
  8
_0-2_LAYER004
 62
    7
 10
1155.8619314860468
 20
658.77186261227848
 40
20
 41
1
 50
0
  1
下葺材：ルーフィング
  0
LINE
  8
_0-0_LAYER001
  6
CONTINUOUS
 62
    2
 10
1152.5007000000001
 20
654.96010000000001
 11
1357.2141716984493
 21
654.96010000000001
  0
LINE
  8
_0-1_LAYER003
  6
CONTINUOUS
 62
    7
 10
1153.1502130619367
 20
654.96010000000001
 11
1400.3752377882388
 21
654.96010000000001
  0
LINE
  8
_0-1_LAYER003
  6
CONTINUOUS
 62
    7
 10
1415.5615388198312
 20
654.96010000000001
 11
1489.7375000000002
 21
654.96010000000001
  0
ENDSEC
  0
EOF
