  0
SECTION
  2
HEADER
  9
$ACADVER
  1
AC1009
  9
$INSBASE
 10
0
 20
0
 30
0
  9
$EXTMIN
 10
0
 20
0
  9
$EXTMAX
 10
2970
 20
2100
  9
$LIMMIN
 10
0
 20
0
  9
$LIMMAX
 10
2970
 20
2100
  9
$LTSCALE
 40
10
  0
ENDSEC
  0
SECTION
  2
TABLES
  0
TABLE
  2
LTYPE
 70
     9
  0
LTYPE
  2
CONTINUOUS
 70
    64
  3
実線
 72
    65
 73
     0
 40
0.0
  0
LTYPE
  2
DASHED1
 70
    64
  3
--  --  --  --  --  --  --  --  
 72
    65
 73
     2
 40
2.5
 49
1.25
 49
-1.25
  0
LTYPE
  2
DASHED2
 70
    64
  3
----    ----    ----    ----    
 72
    65
 73
     2
 40
5.0
 49
2.5
 49
-2.5
  0
LTYPE
  2
DASHED3
 70
    64
  3
------  ------  ------  ------  
 72
    65
 73
     2
 40
5.0
 49
3.75
 49
-1.25
  0
LTYPE
  2
CENTER1
 70
    64
  3
----- - ----- - ----- - ----- - 
 72
    65
 73
     4
 40
10.0
 49
6.25
 49
-1.25
 49
1.25
 49
-1.25
  0
LTYPE
  2
CENTER2
 70
    64
  3
----------  --  ----------  --  
 72
    65
 73
     4
 40
20.0
 49
12.5
 49
-2.5
 49
2.5
 49
-2.5
  0
LTYPE
  2
PHANTOM1
 70
    64
  3
--- - - --- - - --- - - --- - - 
 72
    65
 73
     6
 40
10.0
 49
3.25
 49
-1.25
 49
1.25
 49
-1.25
 49
1.25
 49
-1.25
  0
LTYPE
  2
PHANTOM2
 70
    64
  3
--------  -  -  --------  -  -  
 72
    65
 73
     6
 40
20.0
 49
10.0
 49
-2.5
 49
1.25
 49
-2.5
 49
1.25
 49
-2.5
  0
LTYPE
  2
DOT
 70
    64
  3
-   -   -   -   -   -   -   -   
 72
    65
 73
     2
 40
2.5
 49
0.625
 49
-1.875
  0
LTYPE
  2
DUMMY
 70
    64
  3
ダミー
 72
    65
 73
     0
 40
0.0
  0
LTYPE
  2
RAND1
 70
    64
  3
ランダム線1
 72
    65
 73
     4
 40
10.0
 49
1.0
 49
-2.0
 49
3.0
 49
-4.0
  0
LTYPE
  2
RAND2
 70
    64
  3
ランダム線2
 72
    65
 73
     4
 40
14.0
 49
2.0
 49
-3.0
 49
4.0
 49
-5.0
  0
LTYPE
  2
RAND3
 70
    64
  3
ランダム線3
 72
    65
 73
     4
 40
18.0
 49
3.0
 49
-4.0
 49
5.0
 49
-6.0
  0
LTYPE
  2
RAND4
 70
    64
  3
ランダム線4
 72
    65
 73
     4
 40
22.0
 49
4.0
 49
-5.0
 49
6.0
 49
-7.0
  0
LTYPE
  2
RAND5
 70
    64
  3
ランダム線5
 72
    65
 73
     4
 40
26.0
 49
5.0
 49
-6.0
 49
7.0
 49
-8.0
  0
LTYPE
  2
LONG1
 70
    64
  3
----------  --  ----------  --  
 72
    65
 73
     4
 40
40.0
 49
32.5
 49
-2.5
 49
2.5
 49
-2.5
  0
LTYPE
  2
LONG2
 70
    64
  3
--------  -  -  --------  -  -  
 72
    65
 73
     6
 40
40.0
 49
30.0
 49
-2.5
 49
1.25
 49
-2.5
 49
1.25
 49
-2.5
  0
LTYPE
  2
LONG3
 70
    64
  3
+++++++++++++++..+++++++++++++++
 72
    65
 73
     2
 40
40.0
 49
37.5
 49
-2.5
  0
LTYPE
  2
LONG4
 70
    64
  3
+++++++++++++++..+++++++++++++++
 72
    65
 73
     2
 40
80.0
 49
75.0
 49
-5.0
  0
LTYPE
  2
LONG5
 70
    64
  3
----------  --  ----------  --  
 72
    65
 73
     4
 40
60.0
 49
37.5
 49
-7.5
 49
7.5
 49
-7.5
  0
LTYPE
  2
dashed
 70
   64
  3
-------   -------------   ------
 72
   65
 73
    2
 40
7.5
 49
6
 49
-1.5
  0
LTYPE
  2
dashed_spaced
 70
   64
  3
----        --------        ----
 72
   65
 73
    2
 40
12
 49
6
 49
-6
  0
LTYPE
  2
long_dashed_dotted
 70
   64
  3
------------- --- --------------
 72
   65
 73
    4
 40
15.25
 49
12
 49
-1.5
 49
0.25
 49
-1.5
  0
LTYPE
  2
long_dashed_double-dotted
 70
   64
  3
----------- --- --- ------------
 72
   65
 73
    6
 40
17
 49
12
 49
-1.5
 49
0.25
 49
-1.5
 49
0.25
 49
-1.5
  0
LTYPE
  2
long_dashed_triplicate-dotted
 70
   64
  3
--------- --- --- --- ----------
 72
   65
 73
    8
 40
18.75
 49
12
 49
-1.5
 49
0.25
 49
-1.5
 49
0.25
 49
-1.5
 49
0.25
 49
-1.5
  0
LTYPE
  2
dotted
 70
   64
  3
   -       -       -       -    
 72
   65
 73
    2
 40
1.75
 49
0.25
 49
-1.5
  0
LTYPE
  2
chain
 70
   64
  3
-------------- -- --------------
 72
   65
 73
    4
 40
18.5
 49
12
 49
-1.5
 49
3.5
 49
-1.5
  0
LTYPE
  2
chain_double_dash
 70
   64
  3
------------ -- -- -------------
 72
   65
 73
    6
 40
23.5
 49
12
 49
-1.5
 49
3.5
 49
-1.5
 49
3.5
 49
-1.5
  0
LTYPE
  2
dashed_dotted
 70
   64
  3
-----------     -     ----------
 72
   65
 73
    4
 40
9.25
 49
6
 49
-1.5
 49
0.25
 49
-1.5
  0
LTYPE
  2
double-dashed_dotted
 70
   64
  3
------   -----------   -   -----
 72
   65
 73
    6
 40
16.75
 49
6
 49
-1.5
 49
6
 49
-1.5
 49
0.25
 49
-1.5
  0
LTYPE
  2
dashed_double-dotted
 70
   64
  3
---------    -    -    ---------
 72
   65
 73
    6
 40
11
 49
6
 49
-1.5
 49
0.25
 49
-1.5
 49
0.25
 49
-1.5
  0
LTYPE
  2
double-dashed_double-dotted
 70
   64
  3
-----   ---------   -   -   ----
 72
   65
 73
    8
 40
18.5
 49
6
 49
-1.5
 49
6
 49
-1.5
 49
0.25
 49
-1.5
 49
0.25
 49
-1.5
  0
LTYPE
  2
dashed_triplicate-dotted
 70
   64
  3
-------    -    -    -    ------
 72
   65
 73
    8
 40
12.75
 49
6
 49
-1.5
 49
0.25
 49
-1.5
 49
0.25
 49
-1.5
 49
0.25
 49
-1.5
  0
LTYPE
  2
double-dashed_triplicate-dotted
 70
   64
  3
-----  ---------  -  -  -  -----
 72
   65
 73
   10
 40
20.25
 49
6
 49
-1.5
 49
6
 49
-1.5
 49
0.25
 49
-1.5
 49
0.25
 49
-1.5
 49
0.25
 49
-1.5
  0
LTYPE
  2
undefined
 70
   64
  3
--------------------------------
 72
   65
 73
    0
 40
0
  0
ENDTAB
  0
TABLE
  2
STYLE
  5
3
100
AcDbSymbolTable
 70
     1
  0
STYLE
  5
10
100
AcDbSymbolTableRecord
100
AcDbTextStyleTableRecord
  2
STANDARD
 70
     0
 40
0.0
 41
1.0
 50
0.0
 71
     0
 42
0.2
  3
txt
  4
bigfont.shx
  0
STYLE
  5
26
100
AcDbSymbolTableRecord
100
AcDbTextStyleTableRecord
  2
TATEGAKI
 70
    68
 40
0.0
 41
1.0
 50
0.0
 71
     0
 42
1.0
  3
txt
  4
bigfont.shx
  0
ENDTAB
  0
TABLE
  2
LAYER
 70
    3
  0
LAYER
  2
_0-0_1
 70
   64
 62
    7
  6
CONTINUOUS
  0
LAYER
  2
_0-2_
 70
   64
 62
    7
  6
CONTINUOUS
  0
LAYER
  2
ADD_LINE
 70
   64
 62
    7
  6
CONTINUOUS
  0
ENDTAB
  0
ENDSEC
  0
SECTION
  2
BLOCKS
  0
ENDSEC
  0
SECTION
  2
ENTITIES
  0
LINE
  8
_0-0_1
  6
CONTINUOUS
 62
    2
 10
1251.1618000000001
 20
817.68079999999998
 11
1245.0824
 21
814.94500000000005
  0
LINE
  8
_0-0_1
  6
CONTINUOUS
 62
    2
 10
1251.1618000000001
 20
817.68079999999998
 11
1253.8976666666667
 21
811.60133333333329
  0
LINE
  8
_0-0_1
  6
CONTINUOUS
 62
    2
 10
1287.9743333333331
 20
834.26013333333344
 11
1293.4142666666667
 21
829.38380000000006
  0
LINE
  8
_0-0_1
  6
CONTINUOUS
 62
    2
 10
1281.5592000000001
 20
831.35966666666673
 11
1287.9743333333331
 21
834.26013333333344
  0
LINE
  8
_0-0_1
  6
CONTINUOUS
 62
    2
 10
1281.5592000000001
 20
831.35966666666673
 11
1284.2950666666666
 21
825.28019999999992
  0
LINE
  8
_0-0_1
  6
CONTINUOUS
 62
    2
 10
1245.0824
 20
814.94500000000005
 11
1214.9889333333335
 21
881.81920000000002
  0
LINE
  8
_0-0_1
  6
CONTINUOUS
 62
    3
 10
1205.8697333333334
 20
877.71559999999999
 11
1197.6623333333332
 21
895.9541999999999
  0
LINE
  8
_0-0_1
  6
CONTINUOUS
 62
    3
 10
1252.3776
 20
920.57613333333336
 11
1260.585
 21
902.33753333333334
  0
LINE
  8
_0-0_1
  6
CONTINUOUS
 62
    3
 10
1252.3777333333333
 20
920.5758666666668
 11
1197.6623333333332
 21
895.9541999999999
  0
LINE
  8
_0-0_1
  6
CONTINUOUS
 62
    3
 10
1205.8697333333334
 20
877.71559999999999
 11
1260.585
 21
902.33753333333334
  0
LINE
  8
_0-0_1
  6
DASHED1
 62
    2
 10
1245.0824
 20
814.94500000000005
 11
1947.1705333333332
 21
1130.8847333333333
  0
LINE
  8
_0-0_1
  6
CONTINUOUS
 62
    2
 10
1253.8976666666667
 20
811.60133333333329
 11
1284.2950666666666
 21
825.28013333333331
  0
LINE
  8
_0-0_1
  6
CONTINUOUS
 62
    2
 10
1293.4142666666667
 20
829.38380000000006
 11
1949.9062666666666
 21
1124.8052
  0
LINE
  8
_0-0_1
  6
CONTINUOUS
 62
    2
 10
1249.3376666666668
 20
919.20786666666663
 11
1908.8697999999999
 21
1215.9974
  0
LINE
  8
_0-0_1
  6
CONTINUOUS
 62
    2
 10
1250.8104000000001
 20
897.93886666666663
 11
1258.9166
 21
906.0450666666668
  0
LINE
  8
_0-0_1
  6
CONTINUOUS
 62
    2
 10
1237.9539333333335
 20
892.15346666666665
 11
1256.7221333333332
 21
910.92166666666662
  0
LINE
  8
_0-0_1
  6
CONTINUOUS
 62
    2
 10
1225.0973999999999
 20
886.36799999999994
 11
1254.5276666666668
 21
915.79826666666668
  0
LINE
  8
_0-0_1
  6
CONTINUOUS
 62
    2
 10
1212.2409333333335
 20
880.58260000000007
 11
1252.1168
 21
920.4584666666666
  0
LINE
  8
_0-0_1
  6
CONTINUOUS
 62
    2
 10
1204.7628
 20
880.17553333333342
 11
1239.2604000000001
 21
914.67313333333334
  0
LINE
  8
_0-0_1
  6
CONTINUOUS
 62
    2
 10
1202.5682666666667
 20
885.05213333333336
 11
1226.404
 21
908.88779999999997
  0
LINE
  8
_0-0_1
  6
CONTINUOUS
 62
    2
 10
1200.3738000000001
 20
889.92873333333341
 11
1213.5475999999999
 21
903.10253333333333
  0
LINE
  8
_0-0_1
  6
DASHED1
 62
    2
 10
1217.7247333333335
 20
875.73973333333333
 11
1269.4002666666668
 21
898.99386666666669
  0
LINE
  8
_0-0_1
  6
DASHED1
 62
    2
 10
1251.1618666666666
 20
817.68073333333336
 11
1223.8042
 21
878.47553333333326
  0
LINE
  8
_0-0_1
  6
CONTINUOUS
 62
    2
 10
1217.3630000000001
 20
890.13419999999996
 11
1219.8630000000001
 21
894.46433333333334
  0
LINE
  8
_0-0_1
  6
CONTINUOUS
 62
    2
 10
1219.8630000000001
 20
894.46433333333334
 11
1219.8630000000001
 21
889.46433333333334
  0
LINE
  8
_0-0_1
  6
CONTINUOUS
 62
    2
 10
1219.8630000000001
 20
894.46433333333334
 11
1184.0936666666666
 21
760.9713333333334
  0
LINE
  8
_0-0_1
  6
CONTINUOUS
 62
    2
 10
1184.0936666666666
 20
760.9713333333334
 11
1020.0936666666666
 21
760.9713333333334
  0
LINE
  8
_0-0_1
  6
CONTINUOUS
 62
    2
 10
1554.9572666666666
 20
1089.1177333333333
 11
1556.2514000000001
 21
1084.2881333333335
  0
LINE
  8
_0-0_1
  6
CONTINUOUS
 62
    2
 10
1556.2514000000001
 20
1084.2881333333335
 11
1552.7158666666669
 21
1087.8236666666667
  0
LINE
  8
_0-0_1
  6
CONTINUOUS
 62
    2
 10
1556.2514000000001
 20
1084.2881333333335
 11
1523.0564666666667
 21
1141.7833999999998
  0
LINE
  8
_0-0_1
  6
CONTINUOUS
 62
    2
 10
1523.0564666666667
 20
1141.7833999999998
 11
1496.0564666666667
 21
1141.7833999999998
  0
LINE
  8
_0-0_1
  6
CONTINUOUS
 62
    2
 10
1789.3595333333333
 20
1052.5592000000001
 11
1922.5026
 21
1185.7022666666667
  0
LINE
  8
_0-0_1
  6
CONTINUOUS
 62
    2
 10
1412.2358666666669
 20
882.85353333333319
 11
1611.6150666666667
 21
1082.2327333333333
  0
LINE
  8
_0-0_1
  6
CONTINUOUS
 62
    2
 10
1772.2175333333334
 20
1044.8452666666667
 11
1919.5766666666666
 21
1192.2044000000001
  0
LINE
  8
_0-0_1
  6
CONTINUOUS
 62
    2
 10
1395.0938666666664
 20
875.13959999999997
 11
1594.4731333333334
 21
1074.5188666666668
  0
LINE
  8
_0-0_1
  6
CONTINUOUS
 62
    2
 10
1755.0756000000001
 20
1037.1314000000002
 11
1916.6506666666667
 21
1198.7065333333335
  0
LINE
  8
_0-0_1
  6
CONTINUOUS
 62
    2
 10
1377.9518666666668
 20
867.42573333333326
 11
1577.3311333333334
 21
1066.8049333333333
  0
LINE
  8
_0-0_1
  6
CONTINUOUS
 62
    2
 10
1105.2114666666666
 20
996.14673333333326
 11
1119.5742
 21
964.22946666666667
  0
CIRCLE
  8
_0-0_1
  6
CONTINUOUS
 62
    2
 10
1105.8953999999999
 20
994.62686666666673
 40
1.1333333333333331
  0
LINE
  8
_0-0_1
  6
CONTINUOUS
 62
    2
 10
1105.8953999999999
 20
994.62686666666673
 11
1276.1208666666666
 21
1071.2281333333335
  0
CIRCLE
  8
_0-0_1
  6
CONTINUOUS
 62
    2
 10
1276.1208666666666
 20
1071.2281333333335
 40
1.1333333333333331
  0
LINE
  8
_0-0_1
  6
CONTINUOUS
 62
    2
 10
1275.4369333333334
 20
1072.748
 11
1289.7996666666666
 21
1040.8307333333332
  0
LINE
  8
_0-0_1
  6
CONTINUOUS
 62
    2
 10
1269.9654
 20
1084.9069333333334
 11
1284.3281333333334
 21
1052.9896666666668
  0
CIRCLE
  8
_0-0_1
  6
CONTINUOUS
 62
    2
 10
1270.6493333333333
 20
1083.3870666666667
 40
1.1333333333333331
  0
LINE
  8
_0-0_1
  6
CONTINUOUS
 62
    2
 10
1270.6493333333333
 20
1083.3870666666667
 11
1440.8747333333336
 21
1159.9883333333335
  0
CIRCLE
  8
_0-0_1
  6
CONTINUOUS
 62
    2
 10
1440.8747333333336
 20
1159.9883333333335
 40
1.1333333333333331
  0
LINE
  8
_0-0_1
  6
CONTINUOUS
 62
    2
 10
1440.1908000000001
 20
1161.5082000000002
 11
1454.5535333333332
 21
1129.5909333333334
  0
LINE
  8
_0-0_1
  6
CONTINUOUS
 62
    2
 10
1434.7192666666665
 20
1173.6671333333334
 11
1449.0819999999999
 21
1141.7498666666668
  0
CIRCLE
  8
_0-0_1
  6
CONTINUOUS
 62
    2
 10
1435.4032000000002
 20
1172.1472666666666
 40
1.1333333333333331
  0
LINE
  8
_0-0_1
  6
CONTINUOUS
 62
    2
 10
1435.4032000000002
 20
1172.1472666666666
 11
1605.6286666666667
 21
1248.7485333333334
  0
CIRCLE
  8
_0-0_1
  6
CONTINUOUS
 62
    2
 10
1605.6286666666667
 20
1248.7485333333334
 40
1.1333333333333331
  0
LINE
  8
_0-0_1
  6
CONTINUOUS
 62
    2
 10
1604.9447333333333
 20
1250.2683999999999
 11
1619.3074666666666
 21
1218.3511333333333
  0
LINE
  8
_0-0_1
  6
CONTINUOUS
 62
    2
 10
1599.4731999999999
 20
1262.4273333333333
 11
1613.8359333333335
 21
1230.5100666666667
  0
CIRCLE
  8
_0-0_1
  6
CONTINUOUS
 62
    2
 10
1600.1571333333334
 20
1260.9074666666666
 40
1.1333333333333331
  0
LINE
  8
_0-0_1
  6
CONTINUOUS
 62
    2
 10
1600.1571333333334
 20
1260.9074666666666
 11
1770.3825333333334
 21
1337.5087333333331
  0
CIRCLE
  8
_0-0_1
  6
CONTINUOUS
 62
    2
 10
1770.3825333333334
 20
1337.5087333333331
 40
1.1333333333333331
  0
LINE
  8
_0-0_1
  6
CONTINUOUS
 62
    2
 10
1769.6986000000002
 20
1339.0286000000001
 11
1784.0613333333336
 21
1307.1113333333333
  0
LINE
  8
_0-0_1
  6
CONTINUOUS
 62
    2
 10
1120.1632666666665
 20
962.9204666666667
 11
1127.6866
 21
946.20193333333327
  0
CIRCLE
  8
_0-0_1
  6
CONTINUOUS
 62
    2
 10
1120.8472000000002
 20
961.40059999999994
 40
1.1333333333333331
  0
LINE
  8
_0-0_1
  6
CONTINUOUS
 62
    2
 10
1120.8472000000002
 20
961.40059999999994
 11
1166.4435333333333
 21
981.91893333333337
  0
CIRCLE
  8
_0-0_1
  6
CONTINUOUS
 62
    2
 10
1166.4435333333333
 20
981.91893333333337
 40
1.1333333333333331
  0
LINE
  8
_0-0_1
  6
CONTINUOUS
 62
    2
 10
1165.7596000000001
 20
983.43880000000013
 11
1173.2829333333334
 21
966.7202666666667
  0
CIRCLE
  8
_0-0_1
  6
CONTINUOUS
 62
    2
 10
1166.4435333333333
 20
981.91893333333337
 40
1.1333333333333331
  0
LINE
  8
_0-0_1
  6
CONTINUOUS
 62
    2
 10
1166.4435333333333
 20
981.91893333333337
 11
1291.0726
 21
1038.0018666666665
  0
CIRCLE
  8
_0-0_1
  6
CONTINUOUS
 62
    2
 10
1291.0726
 20
1038.0018666666665
 40
1.1333333333333331
  0
LINE
  8
_0-0_1
  6
CONTINUOUS
 62
    2
 10
1290.3886666666667
 20
1039.5217333333333
 11
1297.912
 21
1022.8032000000001
  0
CIRCLE
  8
_0-0_1
  6
CONTINUOUS
 62
    2
 10
1291.0726
 20
1038.0018666666665
 40
1.1333333333333331
  0
LINE
  8
_0-0_1
  6
CONTINUOUS
 62
    2
 10
1291.0726
 20
1038.0018666666665
 11
1327.5494666666668
 21
1054.4164000000001
  0
CIRCLE
  8
_0-0_1
  6
CONTINUOUS
 62
    2
 10
1327.5494666666668
 20
1054.4164000000001
 40
1.1333333333333331
  0
LINE
  8
_0-0_1
  6
CONTINUOUS
 62
    2
 10
1326.8655333333334
 20
1055.9362666666666
 11
1334.3888666666667
 21
1039.2177333333334
  0
LINE
  8
_0-0_1
  6
CONTINUOUS
 62
    4
 10
1309.8457333333336
 20
999.97786666666661
 11
1313.5816666666665
 21
1001.1580666666667
  0
ARC
  8
_0-0_1
  6
CONTINUOUS
 62
    4
 10
1324.7715333333335
 20
1002.3003999999999
 40
11.248011333333332
 50
103.35714
 51
185.82902999999996
  0
LINE
  8
_0-0_1
  6
CONTINUOUS
 62
    4
 10
1325.8690000000001
 20
1002.1767333333333
 11
1529.9853333333335
 21
1066.6562666666666
  0
LINE
  8
_0-0_1
  6
CONTINUOUS
 62
    4
 10
1525.9326666666666
 20
1079.4853333333335
 11
1510.3426666666667
 21
1074.5605333333333
  0
LINE
  8
_0-0_1
  6
CONTINUOUS
 62
    4
 10
1322.173
 20
1013.2441333333333
 11
1508.7364666666665
 21
1072.1787999999999
  0
ARC
  8
_0-0_1
  6
CONTINUOUS
 62
    4
 10
1512.4902666666667
 20
1071.1921333333335
 40
3.8813426666666659
 50
113.70193000000002
 51
165.27368000000001
  0
LINE
  8
_0-0_1
  6
CONTINUOUS
 62
    4
 10
1309.8394666666668
 20
999.99766666666665
 11
1313.7615333333333
 21
987.58199999999999
  0
ARC
  8
_0-0_1
  6
CONTINUOUS
 62
    4
 10
1328.4674666666665
 20
991.23299999999995
 40
11.248011333333332
 50
103.35714
 51
192.69454999999999
  0
LINE
  8
_0-0_1
  6
CONTINUOUS
 62
    4
 10
1530.7559333333334
 20
1053.9155333333333
 11
1529.5816000000002
 21
1057.6330666666668
  0
LINE
  8
_0-0_1
  6
CONTINUOUS
 62
    4
 10
1525.9326666666666
 20
1079.4853333333335
 11
1533.7148
 21
1054.8502666666668
  0
LINE
  8
_0-0_1
  6
CONTINUOUS
 62
    4
 10
1530.7559333333334
 20
1053.9155333333333
 11
1533.7148
 21
1054.8502666666668
  0
LINE
  8
_0-0_1
  6
CONTINUOUS
 62
    4
 10
1317.4944666666668
 20
988.76120000000014
 11
1313.7615333333333
 21
987.58199999999999
  0
LINE
  8
_0-0_1
  6
CONTINUOUS
 62
    4
 10
1317.2474666666667
 20
990.55753333333325
 11
1529.5816000000002
 21
1057.6330666666668
  0
LINE
  8
_0-0_1
  6
CONTINUOUS
 62
    2
 10
1514.5162666666665
 20
1040.0075333333332
 11
1532.8965333333331
 21
1047.8919999999998
  0
LINE
  8
_0-0_1
  6
CONTINUOUS
 62
    2
 10
1532.8965333333331
 20
1047.8919999999998
 11
1528.9543333333334
 21
1057.0821333333333
  0
LINE
  8
_0-0_1
  6
CONTINUOUS
 62
    2
 10
1528.9543333333334
 20
1057.0821333333333
 11
1510.5740000000001
 21
1049.1977333333332
  0
LINE
  8
_0-0_1
  6
CONTINUOUS
 62
    2
 10
1510.5740000000001
 20
1049.1977333333332
 11
1514.5162666666665
 21
1040.0075333333332
  0
LINE
  8
_0-0_1
  6
CONTINUOUS
 62
    2
 10
1528.9543333333334
 20
1057.0821333333333
 11
1514.5162666666665
 21
1040.0075333333332
  0
LINE
  8
_0-0_1
  6
CONTINUOUS
 62
    4
 10
1479.5262
 20
1078.0506
 11
1483.2718000000002
 21
1079.1997999999999
  0
ARC
  8
_0-0_1
  6
CONTINUOUS
 62
    4
 10
1494.4707333333331
 20
1080.2493999999999
 40
11.248011333333332
 50
102.88244
 51
185.35433
  0
LINE
  8
_0-0_1
  6
CONTINUOUS
 62
    4
 10
1495.5671333333335
 20
1080.1166666666668
 11
1700.2106666666666
 21
1142.9028666666666
  0
LINE
  8
_0-0_1
  6
CONTINUOUS
 62
    4
 10
1696.2644666666665
 20
1155.7650666666666
 11
1680.6342
 21
1150.9696000000001
  0
LINE
  8
_0-0_1
  6
CONTINUOUS
 62
    4
 10
1491.9630000000002
 20
1091.2142666666666
 11
1679.0083333333332
 21
1148.6012666666668
  0
ARC
  8
_0-0_1
  6
CONTINUOUS
 62
    4
 10
1682.7538666666667
 20
1147.5835333333334
 40
3.8813426666666659
 50
113.22723000000001
 51
164.79898000000003
  0
LINE
  8
_0-0_1
  6
CONTINUOUS
 62
    4
 10
1479.5200666666667
 20
1078.0704666666666
 11
1483.3392000000001
 21
1065.6227333333331
  0
ARC
  8
_0-0_1
  6
CONTINUOUS
 62
    4
 10
1498.0748666666664
 20
1069.1517333333334
 40
11.248011333333332
 50
102.88244
 51
192.21985000000001
  0
LINE
  8
_0-0_1
  6
CONTINUOUS
 62
    4
 10
1700.8757333333333
 20
1130.1562000000001
 11
1699.7321999999999
 21
1133.8832666666667
  0
LINE
  8
_0-0_1
  6
CONTINUOUS
 62
    4
 10
1696.2644666666665
 20
1155.7650666666666
 11
1703.8422
 21
1131.0663333333334
  0
LINE
  8
_0-0_1
  6
CONTINUOUS
 62
    4
 10
1700.8757333333333
 20
1130.1562000000001
 11
1703.8422
 21
1131.0663333333334
  0
LINE
  8
_0-0_1
  6
CONTINUOUS
 62
    4
 10
1487.0817333333334
 20
1066.7709333333332
 11
1483.3392000000001
 21
1065.6227333333331
  0
LINE
  8
_0-0_1
  6
CONTINUOUS
 62
    4
 10
1486.8496
 20
1068.5692666666666
 11
1699.7321999999999
 21
1133.8832666666667
  0
LINE
  8
_0-0_1
  6
CONTINUOUS
 62
    2
 10
1684.5213333333334
 20
1116.3832
 11
1702.9663333333335
 21
1124.1150666666667
  0
LINE
  8
_0-0_1
  6
CONTINUOUS
 62
    2
 10
1702.9663333333335
 20
1124.1150666666667
 11
1699.1003999999998
 21
1133.3376000000001
  0
LINE
  8
_0-0_1
  6
CONTINUOUS
 62
    2
 10
1699.1003999999998
 20
1133.3376000000001
 11
1680.6554000000001
 21
1125.6057333333333
  0
LINE
  8
_0-0_1
  6
CONTINUOUS
 62
    2
 10
1680.6554000000001
 20
1125.6057333333333
 11
1684.5213333333334
 21
1116.3832
  0
LINE
  8
_0-0_1
  6
CONTINUOUS
 62
    2
 10
1699.1003999999998
 20
1133.3376000000001
 11
1684.5213333333334
 21
1116.3832
  0
LINE
  8
_0-0_1
  6
CONTINUOUS
 62
    4
 10
1649.7387333333334
 20
1154.6804666666667
 11
1653.4843999999998
 21
1155.8296
  0
ARC
  8
_0-0_1
  6
CONTINUOUS
 62
    4
 10
1664.6833333333334
 20
1156.8792000000001
 40
11.248011333333332
 50
102.88244
 51
185.35433
  0
LINE
  8
_0-0_1
  6
CONTINUOUS
 62
    4
 10
1665.7796666666668
 20
1156.7464666666665
 11
1870.4232
 21
1219.5326666666667
  0
LINE
  8
_0-0_1
  6
CONTINUOUS
 62
    4
 10
1866.4769999999999
 20
1232.3949333333333
 11
1850.8467333333333
 21
1227.5994000000001
  0
LINE
  8
_0-0_1
  6
CONTINUOUS
 62
    4
 10
1662.1755333333335
 20
1167.8441333333333
 11
1849.2208666666666
 21
1225.2310666666667
  0
ARC
  8
_0-0_1
  6
CONTINUOUS
 62
    4
 10
1852.9664
 20
1224.2133333333334
 40
3.8813426666666659
 50
113.22723000000001
 51
164.79898000000003
  0
LINE
  8
_0-0_1
  6
CONTINUOUS
 62
    4
 10
1649.7326666666668
 20
1154.7003333333332
 11
1653.5517333333335
 21
1142.2525333333333
  0
ARC
  8
_0-0_1
  6
CONTINUOUS
 62
    4
 10
1668.2874666666667
 20
1145.7816
 40
11.248011333333332
 50
102.88244
 51
192.21985000000001
  0
LINE
  8
_0-0_1
  6
CONTINUOUS
 62
    4
 10
1871.0882666666666
 20
1206.7860666666666
 11
1869.9447999999998
 21
1210.5131333333336
  0
LINE
  8
_0-0_1
  6
CONTINUOUS
 62
    4
 10
1866.4769999999999
 20
1232.3949333333333
 11
1874.0547333333334
 21
1207.6962000000001
  0
LINE
  8
_0-0_1
  6
CONTINUOUS
 62
    4
 10
1871.0882666666666
 20
1206.7860666666666
 11
1874.0547333333334
 21
1207.6962000000001
  0
LINE
  8
_0-0_1
  6
CONTINUOUS
 62
    4
 10
1657.2942666666668
 20
1143.4007999999999
 11
1653.5517333333335
 21
1142.2525333333333
  0
LINE
  8
_0-0_1
  6
CONTINUOUS
 62
    4
 10
1657.0622000000001
 20
1145.1991333333333
 11
1869.9447999999998
 21
1210.5131333333336
  0
LINE
  8
_0-0_1
  6
CONTINUOUS
 62
    2
 10
1854.7339333333332
 20
1193.0130666666669
 11
1873.1789333333334
 21
1200.7449333333334
  0
LINE
  8
_0-0_1
  6
CONTINUOUS
 62
    2
 10
1873.1789333333334
 20
1200.7449333333334
 11
1869.3130000000001
 21
1209.9674000000002
  0
LINE
  8
_0-0_1
  6
CONTINUOUS
 62
    2
 10
1869.3130000000001
 20
1209.9674000000002
 11
1850.8680000000002
 21
1202.2355333333333
  0
LINE
  8
_0-0_1
  6
CONTINUOUS
 62
    2
 10
1850.8680000000002
 20
1202.2355333333333
 11
1854.7339333333332
 21
1193.0130666666669
  0
LINE
  8
_0-0_1
  6
CONTINUOUS
 62
    2
 10
1869.3130000000001
 20
1209.9674000000002
 11
1854.7339333333332
 21
1193.0130666666669
  0
LINE
  8
_0-0_1
  6
CONTINUOUS
 62
    4
 10
1819.9513333333334
 20
1231.3102666666666
 11
1823.6969333333332
 21
1232.4594666666667
  0
ARC
  8
_0-0_1
  6
CONTINUOUS
 62
    4
 10
1834.8958666666667
 20
1233.5090666666667
 40
11.248011333333332
 50
102.88244
 51
185.35433
  0
LINE
  8
_0-0_1
  6
CONTINUOUS
 62
    4
 10
1835.9922666666669
 20
1233.3763333333334
 11
1889.0386666666666
 21
1249.6514
  0
LINE
  8
_0-0_1
  6
CONTINUOUS
 62
    4
 10
1832.3881333333334
 20
1244.4739333333334
 11
1883.9202666666665
 21
1260.2844000000002
  0
LINE
  8
_0-0_1
  6
CONTINUOUS
 62
    4
 10
1819.9452000000001
 20
1231.3301333333334
 11
1823.7642666666668
 21
1218.8824
  0
ARC
  8
_0-0_1
  6
CONTINUOUS
 62
    4
 10
1838.5
 20
1222.4114
 40
11.248011333333332
 50
102.88244
 51
192.21985000000001
  0
LINE
  8
_0-0_1
  6
CONTINUOUS
 62
    4
 10
1827.5068666666666
 20
1220.0306
 11
1823.7642666666668
 21
1218.8824
  0
LINE
  8
_0-0_1
  6
CONTINUOUS
 62
    4
 10
1827.2747333333334
 20
1221.8289333333332
 11
1892.7602000000002
 21
1241.9204
  0
LINE
  8
_0-0_1
  6
CONTINUOUS
 62
    4
 10
1141.0182666666667
 20
923.59713333333332
 11
1144.7542000000001
 21
924.77733333333333
  0
ARC
  8
_0-0_1
  6
CONTINUOUS
 62
    4
 10
1155.9440666666665
 20
925.91966666666667
 40
11.248011333333332
 50
103.35714
 51
185.82902999999996
  0
LINE
  8
_0-0_1
  6
CONTINUOUS
 62
    4
 10
1157.0415333333333
 20
925.79600000000005
 11
1361.1578666666665
 21
990.27553333333333
  0
LINE
  8
_0-0_1
  6
CONTINUOUS
 62
    4
 10
1357.1052
 20
1003.1045999999999
 11
1341.5152
 21
998.17980000000011
  0
LINE
  8
_0-0_1
  6
CONTINUOUS
 62
    4
 10
1153.3455333333334
 20
936.86339999999996
 11
1339.9090000000001
 21
995.79806666666673
  0
ARC
  8
_0-0_1
  6
CONTINUOUS
 62
    4
 10
1343.6628666666666
 20
994.81140000000005
 40
3.8813426666666659
 50
113.70193000000002
 51
165.27368000000001
  0
LINE
  8
_0-0_1
  6
CONTINUOUS
 62
    4
 10
1141.0120000000002
 20
923.61693333333335
 11
1144.9340666666667
 21
911.2012666666667
  0
ARC
  8
_0-0_1
  6
CONTINUOUS
 62
    4
 10
1159.6399999999999
 20
914.85226666666665
 40
11.248011333333332
 50
103.35714
 51
192.69454999999999
  0
LINE
  8
_0-0_1
  6
CONTINUOUS
 62
    4
 10
1361.9284666666667
 20
977.53480000000013
 11
1360.7541333333334
 21
981.25233333333335
  0
LINE
  8
_0-0_1
  6
CONTINUOUS
 62
    4
 10
1357.1052
 20
1003.1045999999999
 11
1364.8873333333331
 21
978.4695333333334
  0
LINE
  8
_0-0_1
  6
CONTINUOUS
 62
    4
 10
1361.9284666666667
 20
977.53480000000013
 11
1364.8873333333331
 21
978.4695333333334
  0
LINE
  8
_0-0_1
  6
CONTINUOUS
 62
    4
 10
1148.6670000000001
 20
912.38046666666662
 11
1144.9340666666667
 21
911.2012666666667
  0
LINE
  8
_0-0_1
  6
CONTINUOUS
 62
    4
 10
1148.4200000000001
 20
914.17680000000007
 11
1360.7541333333334
 21
981.25233333333335
  0
LINE
  8
_0-0_1
  6
CONTINUOUS
 62
    2
 10
1345.6888000000001
 20
963.6268
 11
1364.0690666666665
 21
971.51126666666664
  0
LINE
  8
_0-0_1
  6
CONTINUOUS
 62
    2
 10
1364.0690666666665
 20
971.51126666666664
 11
1360.1268666666665
 21
980.70140000000015
  0
LINE
  8
_0-0_1
  6
CONTINUOUS
 62
    2
 10
1360.1268666666665
 20
980.70140000000015
 11
1341.7465333333334
 21
972.81700000000001
  0
LINE
  8
_0-0_1
  6
CONTINUOUS
 62
    2
 10
1341.7465333333334
 20
972.81700000000001
 11
1345.6888000000001
 21
963.6268
  0
LINE
  8
_0-0_1
  6
CONTINUOUS
 62
    2
 10
1360.1268666666665
 20
980.70140000000015
 11
1345.6888000000001
 21
963.6268
  0
LINE
  8
_0-0_1
  6
DASHED3
 62
    2
 10
1200.5241333333333
 20
898.99900000000002
 11
1908.2121999999999
 21
1217.4586666666667
  0
LINE
  8
_0-0_1
  6
DASHED1
 62
    2
 10
1258.4572000000001
 20
923.31166666666661
 11
1269.4002666666668
 21
898.99386666666669
  0
LINE
  8
_0-0_1
  6
CONTINUOUS
 62
    2
 10
1210.2567333333334
 20
922.71900000000005
 11
1211.5508666666667
 21
917.88940000000002
  0
LINE
  8
_0-0_1
  6
CONTINUOUS
 62
    2
 10
1211.5508666666667
 20
917.88940000000002
 11
1208.0152666666665
 21
921.42493333333334
  0
LINE
  8
_0-0_1
  6
CONTINUOUS
 62
    2
 10
1211.5508666666667
 20
917.88940000000002
 11
1143.2500666666667
 21
1036.1897999999999
  0
LINE
  8
_0-0_1
  6
CONTINUOUS
 62
    2
 10
1143.2500666666667
 20
1036.1897999999999
 11
1063.2500666666667
 21
1036.1897999999999
  0
LINE
  8
_0-0_1
  6
CONTINUOUS
 62
    2
 10
1575.2467999999999
 20
857.95646666666676
 11
1735.4769999999999
 21
857.95646666666676
  0
LINE
  8
_0-0_1
  6
CONTINUOUS
 62
    2
 10
1524.0738000000001
 20
1043.9366666666665
 11
1524.0738000000001
 21
1048.9366666666665
  0
LINE
  8
_0-0_1
  6
CONTINUOUS
 62
    2
 10
1524.0738000000001
 20
1048.9366666666665
 11
1526.5738000000001
 21
1044.6065333333333
  0
LINE
  8
_0-0_1
  6
CONTINUOUS
 62
    2
 10
1524.0738000000001
 20
1048.9366666666665
 11
1575.2467999999999
 21
857.95646666666676
  0
LINE
  8
_0-2_
  6
CONTINUOUS
 62
    7
 10
1020.0936666666666
 20
760.9713333333334
 11
1184.0936666666666
 21
760.9713333333334
  0
LINE
  8
_0-2_
  6
CONTINUOUS
 62
    7
 10
1184.0936666666666
 20
760.9713333333334
 11
1219.8630000000001
 21
894.46433333333334
  0
LINE
  8
_0-2_
  6
CONTINUOUS
 62
    7
 10
1219.8630000000001
 20
894.46433333333334
 11
1217.3630000000001
 21
890.13419999999996
  0
LINE
  8
_0-2_
  6
CONTINUOUS
 62
    7
 10
1219.8630000000001
 20
894.46433333333334
 11
1219.8630000000001
 21
889.46433333333334
  0
LINE
  8
_0-2_
  6
CONTINUOUS
 62
    7
 10
1200.5241333333333
 20
898.99900000000002
 11
1908.2121999999999
 21
1217.4586666666667
  0
LINE
  8
_0-2_
  6
CONTINUOUS
 62
    7
 10
1908.8697999999999
 20
1215.9974
 11
1252.1167659199627
 21
920.45843258662944
  0
LINE
  8
_0-2_
  6
CONTINUOUS
 62
    7
 10
1214.9889333333335
 20
881.81920000000002
 11
1245.0824
 21
814.94500000000005
  0
LINE
  8
_0-2_
  6
CONTINUOUS
 62
    7
 10
1245.0824
 20
814.94500000000005
 11
1251.161856449824
 21
817.68075603742216
  0
LINE
  8
_0-2_
  6
CONTINUOUS
 62
    7
 10
1251.161856449824
 20
817.68075603742216
 11
1287.9845523583037
 21
834.25097304238056
  0
LINE
  8
_0-2_
  6
CONTINUOUS
 62
    7
 10
1287.9845523583037
 20
834.25097304238056
 11
1293.4142666666667
 21
829.38380000000006
  0
LINE
  8
_0-2_
  6
CONTINUOUS
 62
    7
 10
1281.5592384923016
 20
831.35958113155357
 11
1284.2950666666666
 21
825.28019999999992
  0
LINE
  8
_0-2_
  6
CONTINUOUS
 62
    7
 10
1284.2950666666666
 20
825.28019999999992
 11
1253.8976666666667
 21
811.60133333333329
  0
LINE
  8
_0-2_
  6
CONTINUOUS
 62
    7
 10
1253.8976666666667
 20
811.60133333333329
 11
1223.8042086584333
 21
878.47551409237553
  0
LINE
  8
_0-2_
  6
CONTINUOUS
 62
    7
 10
1217.7247333333335
 20
875.73973333333333
 11
1269.4002666666668
 21
898.99386666666669
  0
LINE
  8
_0-2_
  6
CONTINUOUS
 62
    7
 10
1269.4002666666668
 20
898.99386666666669
 11
1258.4572000000001
 21
923.31166666666661
  0
LINE
  8
_0-0_1
  6
CONTINUOUS
 62
    2
 10
1230.4512139325439
 20
912.44826565923768
 11
1192.1744805992105
 21
924.401798992571
  0
LINE
  8
_0-0_1
  6
CONTINUOUS
 62
    2
 10
1219.532147265877
 20
936.71273232590443
 11
1192.1744805992105
 21
924.401798992571
  0
LINE
  8
_0-0_1
  6
CONTINUOUS
 62
    2
 10
1192.1744805992105
 20
924.401798992571
 11
1203.0935472658771
 21
900.13733232590425
  0
LINE
  8
_0-0_1
  6
CONTINUOUS
 62
    2
 10
1219.532147265877
 20
936.71273232590443
 11
1230.4512139325439
 21
912.44826565923768
  0
LINE
  8
_0-0_1
  6
CONTINUOUS
 62
    2
 10
1219.532147265877
 20
936.71273232590443
 11
1203.0935472658771
 21
900.13733232590425
  0
LINE
  8
_0-2_
  6
CONTINUOUS
 62
    7
 10
1203.0935472658771
 20
900.13733232590425
 11
1230.4512139325439
 21
912.44826565923768
  0
LINE
  8
_0-2_
  6
CONTINUOUS
 62
    7
 10
1192.1744805992105
 20
924.401798992571
 11
1219.5604673593898
 21
936.64979911137084
  0
LINE
  8
_0-2_
  6
CONTINUOUS
 62
    7
 10
1219.5604673593898
 20
936.64979911137084
 11
1230.4445070659376
 21
912.46316972990348
  0
LINE
  8
_0-2_
  6
CONTINUOUS
 62
    7
 10
1230.4445070659376
 20
912.46316972990348
 11
1192.1744805992105
 21
924.401798992571
  0
LINE
  8
_0-2_
  6
CONTINUOUS
 62
    7
 10
1192.1744805992105
 20
924.401798992571
 11
1203.0935472658771
 21
900.13733232590425
  0
LINE
  8
_0-2_
  6
CONTINUOUS
 62
    7
 10
1219.4896218030046
 20
936.61811442567273
 11
1203.0935472658771
 21
900.13733232590425
  0
LINE
  8
_0-2_
  6
CONTINUOUS
 62
    7
 10
1211.5508666666667
 20
917.88940000000002
 11
1210.2567333333334
 21
922.71900000000005
  0
LINE
  8
_0-2_
  6
CONTINUOUS
 62
    7
 10
1208.0152666666665
 20
921.42493333333334
 11
1211.5508666666667
 21
917.88940000000002
  0
LINE
  8
_0-2_
  6
CONTINUOUS
 62
    7
 10
1211.5508666666667
 20
917.88940000000002
 11
1143.2500666666667
 21
1036.1897999999999
  0
LINE
  8
_0-2_
  6
CONTINUOUS
 62
    7
 10
1143.2500666666667
 20
1036.1897999999999
 11
1063.2500666666667
 21
1036.1897999999999
  0
LINE
  8
_0-2_
  6
CONTINUOUS
 62
    7
 10
1127.6866
 20
946.20193333333327
 11
1105.2114666666666
 21
996.14673333333326
  0
LINE
  8
_0-2_
  6
CONTINUOUS
 62
    7
 10
1105.2114666666666
 20
996.14673333333326
 11
1106.3604843779146
 21
993.59335761210332
  0
LINE
  8
_0-2_
  6
CONTINUOUS
 62
    7
 10
1105.8953999999999
 20
994.62686666666673
 11
1276.1208666666666
 21
1071.2281333333335
  0
LINE
  8
_0-2_
  6
CONTINUOUS
 62
    7
 10
1120.8472000000002
 20
961.40059999999994
 11
1327.5494666666668
 21
1054.4164000000001
  0
LINE
  8
_0-2_
  6
CONTINUOUS
 62
    7
 10
1327.0843920817604
 20
1055.4499134614114
 11
1334.3888666666667
 21
1039.2177333333334
  0
LINE
  8
_0-2_
  6
CONTINUOUS
 62
    7
 10
1297.912
 20
1022.8032000000001
 11
1270.1842584450694
 21
1084.4205799915692
  0
LINE
  8
_0-2_
  6
CONTINUOUS
 62
    7
 10
1270.6493333333333
 20
1083.3870666666667
 11
1440.8747333333336
 21
1159.9883333333335
  0
LINE
  8
_0-2_
  6
CONTINUOUS
 62
    7
 10
1454.5535333333332
 20
1129.5909333333334
 11
1434.9381251117361
 21
1173.1807799915691
  0
LINE
  8
_0-2_
  6
CONTINUOUS
 62
    7
 10
1173.2829333333334
 20
966.7202666666667
 11
1166.4435383733414
 21
981.9189356013311
  0
LINE
  8
_0-2_
  6
CONTINUOUS
 62
    7
 10
1166.4435383733414
 20
981.9189356013311
 11
1165.7596000000001
 21
983.43880000000013
  0
LINE
  8
_0-2_
  6
CONTINUOUS
 62
    7
 10
1435.4032046303209
 20
1172.1472687503058
 11
1605.6286666666667
 21
1248.7485333333334
  0
LINE
  8
_0-2_
  6
CONTINUOUS
 62
    7
 10
1619.3074666666666
 20
1218.3511333333333
 11
1599.4731999999999
 21
1262.4273333333333
  0
LINE
  8
_0-2_
  6
CONTINUOUS
 62
    7
 10
1600.1571333333334
 20
1260.9074666666666
 11
1770.3825333333334
 21
1337.5087333333331
  0
LINE
  8
_0-2_
  6
CONTINUOUS
 62
    7
 10
1784.0613333333336
 20
1307.1113333333333
 11
1769.6986000000002
 21
1339.0286000000001
  0
LINE
  8
_0-2_
  6
CONTINUOUS
 62
    7
 10
1496.0564666666667
 20
1141.7833999999998
 11
1523.0564666666667
 21
1141.7833999999998
  0
LINE
  8
_0-2_
  6
CONTINUOUS
 62
    7
 10
1556.2514000000001
 20
1084.2881333333335
 11
1523.0564666666667
 21
1141.7833999999998
  0
LINE
  8
_0-2_
  6
CONTINUOUS
 62
    7
 10
1556.2514000000001
 20
1084.2881333333335
 11
1554.9572666666666
 21
1089.1177333333333
  0
LINE
  8
_0-2_
  6
CONTINUOUS
 62
    7
 10
1556.2514000000001
 20
1084.2881333333335
 11
1552.7158666666669
 21
1087.8236666666667
  0
LINE
  8
_0-2_
  6
CONTINUOUS
 62
    7
 10
1293.4142666666667
 20
829.38380000000006
 11
1949.9062666666666
 21
1124.8052
  0
LINE
  8
_0-2_
  6
CONTINUOUS
 62
    7
 10
1287.9845523583037
 20
834.25097304238056
 11
1947.1705333333332
 21
1130.8847333333333
  0
LINE
  8
_0-2_
  6
CONTINUOUS
 62
    7
 10
1524.0738000000001
 20
1048.9366666666665
 11
1524.0738000000001
 21
1044.1073679194594
  0
LINE
  8
_0-2_
  6
CONTINUOUS
 62
    7
 10
1524.0738000000001
 20
1048.9366666666665
 11
1526.5738000000001
 21
1044.6065333333333
  0
LINE
  8
_0-2_
  6
CONTINUOUS
 62
    7
 10
1524.0738000000001
 20
1048.9366666666665
 11
1575.2467999999999
 21
857.95646666666676
  0
LINE
  8
_0-2_
  6
CONTINUOUS
 62
    7
 10
1575.2467999999999
 20
857.95646666666676
 11
1735.4769999999999
 21
857.95646666666676
  0
LINE
  8
_0-2_
  6
CONTINUOUS
 62
    7
 10
1341.7465333333334
 20
972.81700000000001
 11
1360.1268666666665
 21
980.70140000000015
  0
LINE
  8
_0-2_
  6
CONTINUOUS
 62
    7
 10
1360.1268666666665
 20
980.70140000000015
 11
1364.0690666666665
 21
971.51126666666664
  0
LINE
  8
_0-2_
  6
CONTINUOUS
 62
    7
 10
1364.0690666666665
 20
971.51126666666664
 11
1345.6888000000001
 21
963.6268
  0
LINE
  8
_0-2_
  6
CONTINUOUS
 62
    7
 10
1345.6888000000001
 20
963.6268
 11
1341.7465333333334
 21
972.81700000000001
  0
LINE
  8
_0-2_
  6
CONTINUOUS
 62
    7
 10
1345.6888000000001
 20
963.6268
 11
1360.1268666666665
 21
980.70140000000015
  0
LINE
  8
_0-2_
  6
CONTINUOUS
 62
    7
 10
1684.5213333333334
 20
1116.3832
 11
1702.9663333333335
 21
1124.1150666666667
  0
LINE
  8
_0-2_
  6
CONTINUOUS
 62
    7
 10
1702.9663333333335
 20
1124.1150666666667
 11
1699.1003999999998
 21
1133.3376000000001
  0
LINE
  8
_0-2_
  6
CONTINUOUS
 62
    7
 10
1699.1003999999998
 20
1133.3376000000001
 11
1680.6554000000001
 21
1125.6057333333333
  0
LINE
  8
_0-2_
  6
CONTINUOUS
 62
    7
 10
1684.3751327136874
 20
1116.7319747904014
 11
1680.6554000000001
 21
1125.6057333333333
  0
LINE
  8
_0-2_
  6
CONTINUOUS
 62
    7
 10
1684.5213333333334
 20
1116.3832
 11
1699.1003999999998
 21
1133.3376000000001
  0
LINE
  8
_0-2_
  6
CONTINUOUS
 62
    7
 10
1873.1789333333334
 20
1200.7449333333334
 11
1869.3130000000001
 21
1209.9674000000002
  0
LINE
  8
_0-2_
  6
CONTINUOUS
 62
    7
 10
1869.3130000000001
 20
1209.9674000000002
 11
1850.8680000000002
 21
1202.2355333333333
  0
LINE
  8
_0-2_
  6
CONTINUOUS
 62
    7
 10
1850.8680000000002
 20
1202.2355333333333
 11
1854.7339333333332
 21
1193.0130666666669
  0
LINE
  8
_0-2_
  6
CONTINUOUS
 62
    7
 10
1854.7339333333332
 20
1193.0130666666669
 11
1873.1789333333334
 21
1200.7449333333334
  0
LINE
  8
_0-2_
  6
CONTINUOUS
 62
    7
 10
1869.3130000000001
 20
1209.9674000000002
 11
1854.7339333333332
 21
1193.0130666666669
  0
LINE
  8
_0-2_
  6
CONTINUOUS
 62
    7
 10
1916.6506666666667
 20
1198.7065333333335
 11
1755.0756000000001
 21
1037.1314000000002
  0
LINE
  8
_0-2_
  6
CONTINUOUS
 62
    7
 10
1919.5766666666666
 20
1192.2044000000001
 11
1772.2175393939397
 21
1044.8452727272727
  0
LINE
  8
_0-2_
  6
CONTINUOUS
 62
    7
 10
1789.3595333333333
 20
1052.5592000000001
 11
1922.5026
 21
1185.7022666666667
  0
LINE
  8
_0-2_
  6
CONTINUOUS
 62
    7
 10
1510.5740000000001
 20
1049.1977333333332
 11
1514.5162666666665
 21
1040.0075333333332
  0
LINE
  8
_0-2_
  6
CONTINUOUS
 62
    7
 10
1532.8965333333331
 20
1047.8919999999998
 11
1514.5162666666665
 21
1040.0075333333332
  0
LINE
  8
_0-2_
  6
CONTINUOUS
 62
    7
 10
1528.9543333333334
 20
1057.0821333333333
 11
1514.5162666666665
 21
1040.0075333333332
  0
LINE
  8
_0-2_
  6
CONTINUOUS
 62
    7
 10
1510.5740000000001
 20
1049.1977333333332
 11
1528.9543333333334
 21
1057.0821333333333
  0
LINE
  8
_0-2_
  6
CONTINUOUS
 62
    7
 10
1532.8965333333331
 20
1047.8919999999998
 11
1528.9543333333334
 21
1057.0821333333333
  0
LINE
  8
_0-2_
  6
CONTINUOUS
 62
    7
 10
1577.3311333333334
 20
1066.8049333333333
 11
1377.9518666666668
 21
867.42573333333326
  0
LINE
  8
_0-2_
  6
CONTINUOUS
 62
    7
 10
1395.093903030303
 20
875.13963636363633
 11
1594.4731333333334
 21
1074.5188666666668
  0
LINE
  8
_0-2_
  6
CONTINUOUS
 62
    7
 10
1611.6150493305975
 20
1082.2327159972642
 11
1412.2358666666669
 21
882.85353333333319
  0
TEXT
  8
_0-0_1
 62
    7
 10
1132.5839255963642
 20
970.33629677049544
 40
20
 41
1
 50
24.227693000000013
  1
75
  0
TEXT
  8
_0-0_1
 62
    7
 10
1209.6244095715065
 20
1005.893443220561
 40
20
 41
1
 50
24.227692999999988
  1
205
  0
TEXT
  8
_0-0_1
 62
    7
 10
1301.4803712341759
 20
1045.4013837206342
 40
20
 41
1
 50
24.227693000000013
  1
60
  0
TEXT
  8
_0-0_1
 62
    7
 10
1178.0180571714482
 20
1046.3890822331359
 40
20
 41
1
 50
24.227693000000013
  1
208
  0
TEXT
  8
_0-0_1
 62
    7
 10
1344.9391057842563
 20
1125.4049632332817
 40
20
 41
1
 50
24.227692999999988
  1
208
  0
TEXT
  8
_0-0_1
 62
    7
 10
1503.9585662970499
 20
1212.3224323334423
 40
20
 41
1
 50
24.227693000000016
  1
208
  0
TEXT
  8
_0-0_1
 62
    7
 10
1666.9288208598507
 20
1301.2152984586064
 40
20
 41
1
 50
24.227693000000027
  1
208
  0
TEXT
  8
_0-0_1
 62
    7
 10
912.32715730845769
 20
768.84580022012358
 40
20
 41
1
 50
0
  1
広小舞：30x90（防腐処理）
  0
TEXT
  8
_0-0_1
 62
    7
 10
1013.0724055836436
 20
1039.4751926456231
 40
20
 41
1
 50
0
  1
瓦座：40x40
  0
LINE
  8
_0-0_1
  6
CONTINUOUS
 62
    7
 10
1567.7372280533677
 20
885.79499298013388
 11
1755.6140779917832
 21
885.79499298013388
  0
LINE
  8
_0-0_1
  6
CONTINUOUS
 62
    7
 10
1735.4769999999999
 20
857.95646666666676
 11
1851.0307900492046
 21
857.95646666666676
  0
TEXT
  8
_0-0_1
 62
    7
 10
1573.3815969356376
 20
889.55790556831391
 40
20
 41
1
 50
0
  1
瓦桟：15x30以上
  0
LINE
  8
_0-0_1
  6
CONTINUOUS
 62
    7
 10
1063.2500666666667
 20
1036.1897999999999
 11
1011.0949444733131
 21
1036.1897999999999
  0
LINE
  8
_0-0_1
  6
CONTINUOUS
 62
    7
 10
1496.0564666666667
 20
1141.7833999999998
 11
1484.1468127016551
 21
1141.7833999999998
  0
TEXT
  8
_0-0_1
 62
    7
 10
1461.5693371725752
 20
1147.0486383880593
 40
20
 41
1
 50
0
  1
桟　瓦
  0
LINE
  8
_0-0_1
  6
CONTINUOUS
 62
    7
 10
1484.1468127016551
 20
1141.7833999999998
 11
1456.1937477608894
 21
1141.7833999999998
  0
TEXT
  8
_0-0_1
 62
    7
 10
1564.5118744063564
 20
860.52972274521107
 40
20
 41
1
 50
0
  1
　下葺材：ルーフィング
  0
ENDSEC
  0
EOF
