  0
SECTION
  2
HEADER
  9
$ACADVER
  1
AC1009
  9
$INSBASE
 10
0
 20
0
 30
0
  9
$EXTMIN
 10
0
 20
0
  9
$EXTMAX
 10
2970
 20
2100
  9
$LIMMIN
 10
0
 20
0
  9
$LIMMAX
 10
2970
 20
2100
  9
$LTSCALE
 40
10
  0
ENDSEC
  0
SECTION
  2
TABLES
  0
TABLE
  2
LTYPE
 70
     9
  0
LTYPE
  2
CONTINUOUS
 70
    64
  3
実線
 72
    65
 73
     0
 40
0.0
  0
LTYPE
  2
DASHED1
 70
    64
  3
--  --  --  --  --  --  --  --  
 72
    65
 73
     2
 40
2.5
 49
1.25
 49
-1.25
  0
LTYPE
  2
DASHED2
 70
    64
  3
----    ----    ----    ----    
 72
    65
 73
     2
 40
5.0
 49
2.5
 49
-2.5
  0
LTYPE
  2
DASHED3
 70
    64
  3
------  ------  ------  ------  
 72
    65
 73
     2
 40
5.0
 49
3.75
 49
-1.25
  0
LTYPE
  2
CENTER1
 70
    64
  3
----- - ----- - ----- - ----- - 
 72
    65
 73
     4
 40
10.0
 49
6.25
 49
-1.25
 49
1.25
 49
-1.25
  0
LTYPE
  2
CENTER2
 70
    64
  3
----------  --  ----------  --  
 72
    65
 73
     4
 40
20.0
 49
12.5
 49
-2.5
 49
2.5
 49
-2.5
  0
LTYPE
  2
PHANTOM1
 70
    64
  3
--- - - --- - - --- - - --- - - 
 72
    65
 73
     6
 40
10.0
 49
3.25
 49
-1.25
 49
1.25
 49
-1.25
 49
1.25
 49
-1.25
  0
LTYPE
  2
PHANTOM2
 70
    64
  3
--------  -  -  --------  -  -  
 72
    65
 73
     6
 40
20.0
 49
10.0
 49
-2.5
 49
1.25
 49
-2.5
 49
1.25
 49
-2.5
  0
LTYPE
  2
DOT
 70
    64
  3
-   -   -   -   -   -   -   -   
 72
    65
 73
     2
 40
2.5
 49
0.625
 49
-1.875
  0
LTYPE
  2
DUMMY
 70
    64
  3
ダミー
 72
    65
 73
     0
 40
0.0
  0
LTYPE
  2
RAND1
 70
    64
  3
ランダム線1
 72
    65
 73
     4
 40
10.0
 49
1.0
 49
-2.0
 49
3.0
 49
-4.0
  0
LTYPE
  2
RAND2
 70
    64
  3
ランダム線2
 72
    65
 73
     4
 40
14.0
 49
2.0
 49
-3.0
 49
4.0
 49
-5.0
  0
LTYPE
  2
RAND3
 70
    64
  3
ランダム線3
 72
    65
 73
     4
 40
18.0
 49
3.0
 49
-4.0
 49
5.0
 49
-6.0
  0
LTYPE
  2
RAND4
 70
    64
  3
ランダム線4
 72
    65
 73
     4
 40
22.0
 49
4.0
 49
-5.0
 49
6.0
 49
-7.0
  0
LTYPE
  2
RAND5
 70
    64
  3
ランダム線5
 72
    65
 73
     4
 40
26.0
 49
5.0
 49
-6.0
 49
7.0
 49
-8.0
  0
LTYPE
  2
LONG1
 70
    64
  3
----------  --  ----------  --  
 72
    65
 73
     4
 40
40.0
 49
32.5
 49
-2.5
 49
2.5
 49
-2.5
  0
LTYPE
  2
LONG2
 70
    64
  3
--------  -  -  --------  -  -  
 72
    65
 73
     6
 40
40.0
 49
30.0
 49
-2.5
 49
1.25
 49
-2.5
 49
1.25
 49
-2.5
  0
LTYPE
  2
LONG3
 70
    64
  3
+++++++++++++++..+++++++++++++++
 72
    65
 73
     2
 40
40.0
 49
37.5
 49
-2.5
  0
LTYPE
  2
LONG4
 70
    64
  3
+++++++++++++++..+++++++++++++++
 72
    65
 73
     2
 40
80.0
 49
75.0
 49
-5.0
  0
LTYPE
  2
LONG5
 70
    64
  3
----------  --  ----------  --  
 72
    65
 73
     4
 40
60.0
 49
37.5
 49
-7.5
 49
7.5
 49
-7.5
  0
LTYPE
  2
dashed
 70
   64
  3
-------   -------------   ------
 72
   65
 73
    2
 40
7.5
 49
6
 49
-1.5
  0
LTYPE
  2
dashed_spaced
 70
   64
  3
----        --------        ----
 72
   65
 73
    2
 40
12
 49
6
 49
-6
  0
LTYPE
  2
long_dashed_dotted
 70
   64
  3
------------- --- --------------
 72
   65
 73
    4
 40
15.25
 49
12
 49
-1.5
 49
0.25
 49
-1.5
  0
LTYPE
  2
long_dashed_double-dotted
 70
   64
  3
----------- --- --- ------------
 72
   65
 73
    6
 40
17
 49
12
 49
-1.5
 49
0.25
 49
-1.5
 49
0.25
 49
-1.5
  0
LTYPE
  2
long_dashed_triplicate-dotted
 70
   64
  3
--------- --- --- --- ----------
 72
   65
 73
    8
 40
18.75
 49
12
 49
-1.5
 49
0.25
 49
-1.5
 49
0.25
 49
-1.5
 49
0.25
 49
-1.5
  0
LTYPE
  2
dotted
 70
   64
  3
   -       -       -       -    
 72
   65
 73
    2
 40
1.75
 49
0.25
 49
-1.5
  0
LTYPE
  2
chain
 70
   64
  3
-------------- -- --------------
 72
   65
 73
    4
 40
18.5
 49
12
 49
-1.5
 49
3.5
 49
-1.5
  0
LTYPE
  2
chain_double_dash
 70
   64
  3
------------ -- -- -------------
 72
   65
 73
    6
 40
23.5
 49
12
 49
-1.5
 49
3.5
 49
-1.5
 49
3.5
 49
-1.5
  0
LTYPE
  2
dashed_dotted
 70
   64
  3
-----------     -     ----------
 72
   65
 73
    4
 40
9.25
 49
6
 49
-1.5
 49
0.25
 49
-1.5
  0
LTYPE
  2
double-dashed_dotted
 70
   64
  3
------   -----------   -   -----
 72
   65
 73
    6
 40
16.75
 49
6
 49
-1.5
 49
6
 49
-1.5
 49
0.25
 49
-1.5
  0
LTYPE
  2
dashed_double-dotted
 70
   64
  3
---------    -    -    ---------
 72
   65
 73
    6
 40
11
 49
6
 49
-1.5
 49
0.25
 49
-1.5
 49
0.25
 49
-1.5
  0
LTYPE
  2
double-dashed_double-dotted
 70
   64
  3
-----   ---------   -   -   ----
 72
   65
 73
    8
 40
18.5
 49
6
 49
-1.5
 49
6
 49
-1.5
 49
0.25
 49
-1.5
 49
0.25
 49
-1.5
  0
LTYPE
  2
dashed_triplicate-dotted
 70
   64
  3
-------    -    -    -    ------
 72
   65
 73
    8
 40
12.75
 49
6
 49
-1.5
 49
0.25
 49
-1.5
 49
0.25
 49
-1.5
 49
0.25
 49
-1.5
  0
LTYPE
  2
double-dashed_triplicate-dotted
 70
   64
  3
-----  ---------  -  -  -  -----
 72
   65
 73
   10
 40
20.25
 49
6
 49
-1.5
 49
6
 49
-1.5
 49
0.25
 49
-1.5
 49
0.25
 49
-1.5
 49
0.25
 49
-1.5
  0
LTYPE
  2
undefined
 70
   64
  3
--------------------------------
 72
   65
 73
    0
 40
0
  0
ENDTAB
  0
TABLE
  2
STYLE
  5
3
100
AcDbSymbolTable
 70
     1
  0
STYLE
  5
10
100
AcDbSymbolTableRecord
100
AcDbTextStyleTableRecord
  2
STANDARD
 70
     0
 40
0.0
 41
1.0
 50
0.0
 71
     0
 42
0.2
  3
txt
  4
bigfont.shx
  0
STYLE
  5
26
100
AcDbSymbolTableRecord
100
AcDbTextStyleTableRecord
  2
TATEGAKI
 70
    68
 40
0.0
 41
1.0
 50
0.0
 71
     0
 42
1.0
  3
txt
  4
bigfont.shx
  0
ENDTAB
  0
TABLE
  2
LAYER
 70
    4
  0
LAYER
  2
_0-0_1
 70
   64
 62
    7
  6
CONTINUOUS
  0
LAYER
  2
_0-1_2
 70
   64
 62
    7
  6
CONTINUOUS
  0
LAYER
  2
_0-2_ADD_LINE
 70
   64
 62
    7
  6
CONTINUOUS
  0
LAYER
  2
ADD_LINE
 70
   64
 62
    7
  6
CONTINUOUS
  0
ENDTAB
  0
ENDSEC
  0
SECTION
  2
BLOCKS
  0
ENDSEC
  0
SECTION
  2
ENTITIES
  0
LINE
  8
_0-0_1
  6
CONTINUOUS
 62
    2
 10
1264.4751333333334
 20
809.01713333333328
 11
1258.3957333333333
 21
806.28126666666674
  0
LINE
  8
_0-0_1
  6
CONTINUOUS
 62
    2
 10
1264.4751333333334
 20
809.01713333333328
 11
1267.211
 21
802.9376666666667
  0
LINE
  8
_0-0_1
  6
CONTINUOUS
 62
    2
 10
1301.2876666666666
 20
825.59646666666686
 11
1306.7276000000002
 21
820.72013333333348
  0
LINE
  8
_0-0_1
  6
CONTINUOUS
 62
    2
 10
1294.8725333333334
 20
822.6959333333333
 11
1301.2876666666666
 21
825.59646666666686
  0
LINE
  8
_0-0_1
  6
CONTINUOUS
 62
    2
 10
1294.8725333333334
 20
822.6959333333333
 11
1297.6083333333331
 21
816.61646666666672
  0
LINE
  8
_0-0_1
  6
CONTINUOUS
 62
    2
 10
1213.2544
 20
906.59253333333322
 11
1258.3957333333333
 21
806.28126666666674
  0
LINE
  8
_0-0_1
  6
DASHED1
 62
    2
 10
1226.1733999999999
 20
894.12973333333343
 11
1264.4751333333334
 21
809.01713333333328
  0
LINE
  8
_0-0_1
  6
CONTINUOUS
 62
    3
 10
1258.8506000000002
 20
927.11046666666675
 11
1204.1351333333334
 21
902.48913333333337
  0
LINE
  8
_0-0_1
  6
CONTINUOUS
 62
    2
 10
1220.0939333333336
 20
891.39406666666673
 11
1915.8990666666664
 21
1204.5058666666666
  0
LINE
  8
_0-0_1
  6
DASHED1
 62
    2
 10
1264.4751333333334
 20
809.01713333333328
 11
1954.1998000000001
 21
1119.3931333333333
  0
LINE
  8
_0-0_1
  6
CONTINUOUS
 62
    2
 10
1267.211
 20
802.9376666666667
 11
1297.6083333333331
 21
816.61646666666672
  0
LINE
  8
_0-0_1
  6
CONTINUOUS
 62
    2
 10
1254.7459333333334
 20
936.22926666666672
 11
1904.9560666666666
 21
1228.8236666666669
  0
LINE
  8
_0-0_1
  6
CONTINUOUS
 62
    1
 10
1903.7563999999998
 20
1199.0416666666667
 11
1913.8263999999999
 21
1209.1117333333334
  0
LINE
  8
_0-0_1
  6
CONTINUOUS
 62
    1
 10
1890.8998666666666
 20
1193.2562666666668
 11
1911.6319333333333
 21
1213.9883333333332
  0
LINE
  8
_0-0_1
  6
CONTINUOUS
 62
    1
 10
1878.0433999999996
 20
1187.4708666666668
 11
1909.4374666666663
 21
1218.8649333333333
  0
LINE
  8
_0-0_1
  6
CONTINUOUS
 62
    1
 10
1865.1869333333334
 20
1181.6854666666666
 11
1907.2429999999999
 21
1223.7415333333333
  0
LINE
  8
_0-0_1
  6
CONTINUOUS
 62
    1
 10
1852.3304666666668
 20
1175.9000666666668
 11
1905.0485333333334
 21
1228.6181333333334
  0
LINE
  8
_0-0_1
  6
CONTINUOUS
 62
    1
 10
1839.4739999999999
 20
1170.1146666666666
 11
1892.6415333333334
 21
1223.2821999999999
  0
LINE
  8
_0-0_1
  6
CONTINUOUS
 62
    1
 10
1826.6175333333333
 20
1164.3291999999999
 11
1879.7850666666664
 21
1217.4967333333334
  0
LINE
  8
_0-0_1
  6
CONTINUOUS
 62
    1
 10
1813.7610666666665
 20
1158.5438000000001
 11
1866.9286
 21
1211.7113333333332
  0
LINE
  8
_0-0_1
  6
CONTINUOUS
 62
    1
 10
1800.9046000000001
 20
1152.7583999999999
 11
1854.0721333333336
 21
1205.9259333333332
  0
LINE
  8
_0-0_1
  6
CONTINUOUS
 62
    1
 10
1788.0481333333332
 20
1146.973
 11
1841.2156000000002
 21
1200.1405333333335
  0
LINE
  8
_0-0_1
  6
CONTINUOUS
 62
    1
 10
1775.1916666666666
 20
1141.1876000000002
 11
1828.3591333333334
 21
1194.3550666666667
  0
LINE
  8
_0-0_1
  6
CONTINUOUS
 62
    1
 10
1762.3352
 20
1135.4022
 11
1815.5026666666665
 21
1188.5696666666668
  0
LINE
  8
_0-0_1
  6
CONTINUOUS
 62
    1
 10
1749.4787333333334
 20
1129.6168
 11
1802.6462000000001
 21
1182.7842666666668
  0
LINE
  8
_0-0_1
  6
CONTINUOUS
 62
    1
 10
1736.6222666666667
 20
1123.8314
 11
1789.7896666666666
 21
1176.9988666666666
  0
LINE
  8
_0-0_1
  6
CONTINUOUS
 62
    1
 10
1723.7658000000001
 20
1118.0459999999998
 11
1776.9331999999999
 21
1171.2133999999999
  0
LINE
  8
_0-0_1
  6
CONTINUOUS
 62
    1
 10
1710.9093333333335
 20
1112.2606000000001
 11
1764.0767333333333
 21
1165.4279999999999
  0
LINE
  8
_0-0_1
  6
CONTINUOUS
 62
    1
 10
1698.0528666666667
 20
1106.4752000000001
 11
1751.2202666666667
 21
1159.6425999999999
  0
LINE
  8
_0-0_1
  6
CONTINUOUS
 62
    1
 10
1685.1964
 20
1100.6897999999999
 11
1738.3637333333331
 21
1153.8572000000001
  0
LINE
  8
_0-0_1
  6
CONTINUOUS
 62
    1
 10
1672.3399333333332
 20
1094.9044000000001
 11
1725.507266666667
 21
1148.0717999999999
  0
LINE
  8
_0-0_1
  6
CONTINUOUS
 62
    1
 10
1659.4834666666666
 20
1089.1190000000001
 11
1712.6508000000001
 21
1142.2863333333335
  0
LINE
  8
_0-0_1
  6
CONTINUOUS
 62
    1
 10
1646.6269333333332
 20
1083.3335999999999
 11
1699.7942666666668
 21
1136.5009333333335
  0
LINE
  8
_0-0_1
  6
CONTINUOUS
 62
    1
 10
1633.7704666666664
 20
1077.5482000000002
 11
1686.9378000000002
 21
1130.7155333333333
  0
LINE
  8
_0-0_1
  6
CONTINUOUS
 62
    1
 10
1620.9140000000002
 20
1071.7628
 11
1674.0813333333333
 21
1124.9301333333333
  0
LINE
  8
_0-0_1
  6
CONTINUOUS
 62
    1
 10
1608.0575333333331
 20
1065.9774
 11
1661.2248666666667
 21
1119.1446666666666
  0
LINE
  8
_0-0_1
  6
CONTINUOUS
 62
    1
 10
1595.2010666666665
 20
1060.192
 11
1648.3683333333331
 21
1113.3592666666666
  0
LINE
  8
_0-0_1
  6
CONTINUOUS
 62
    1
 10
1582.3446000000001
 20
1054.4066
 11
1635.5118666666667
 21
1107.5738666666666
  0
LINE
  8
_0-0_1
  6
CONTINUOUS
 62
    1
 10
1569.4881333333333
 20
1048.6212
 11
1622.6553999999999
 21
1101.7884666666666
  0
LINE
  8
_0-0_1
  6
CONTINUOUS
 62
    1
 10
1556.6316666666669
 20
1042.8358000000001
 11
1609.7989333333335
 21
1096.0030000000002
  0
LINE
  8
_0-0_1
  6
CONTINUOUS
 62
    1
 10
1543.7752
 20
1037.0504000000001
 11
1596.9423999999999
 21
1090.2175999999999
  0
LINE
  8
_0-0_1
  6
CONTINUOUS
 62
    1
 10
1530.9187333333332
 20
1031.2650000000001
 11
1584.0859333333333
 21
1084.4322000000002
  0
LINE
  8
_0-0_1
  6
CONTINUOUS
 62
    1
 10
1518.0622666666668
 20
1025.4796000000001
 11
1571.2294666666667
 21
1078.6468
  0
LINE
  8
_0-0_1
  6
CONTINUOUS
 62
    1
 10
1505.2058
 20
1019.6942
 11
1558.373
 21
1072.8613333333333
  0
LINE
  8
_0-0_1
  6
CONTINUOUS
 62
    1
 10
1492.3493333333331
 20
1013.9087999999999
 11
1545.5164666666667
 21
1067.0759333333333
  0
LINE
  8
_0-0_1
  6
CONTINUOUS
 62
    1
 10
1479.4928666666667
 20
1008.1233999999999
 11
1532.6599999999999
 21
1061.2905333333333
  0
LINE
  8
_0-0_1
  6
CONTINUOUS
 62
    1
 10
1466.6364000000001
 20
1002.338
 11
1519.8035333333335
 21
1055.5051333333333
  0
LINE
  8
_0-0_1
  6
CONTINUOUS
 62
    1
 10
1453.7799333333332
 20
996.55259999999998
 11
1506.9470666666666
 21
1049.7196666666669
  0
LINE
  8
_0-0_1
  6
CONTINUOUS
 62
    1
 10
1440.9234666666666
 20
990.76713333333328
 11
1494.0905333333333
 21
1043.9342666666666
  0
LINE
  8
_0-0_1
  6
CONTINUOUS
 62
    1
 10
1428.067
 20
984.98173333333341
 11
1481.2340666666664
 21
1038.1488666666669
  0
LINE
  8
_0-0_1
  6
CONTINUOUS
 62
    1
 10
1415.2105333333336
 20
979.19633333333331
 11
1468.3776
 21
1032.3634666666667
  0
LINE
  8
_0-0_1
  6
CONTINUOUS
 62
    1
 10
1402.3540666666668
 20
973.41093333333333
 11
1455.5211333333332
 21
1026.578
  0
LINE
  8
_0-0_1
  6
CONTINUOUS
 62
    1
 10
1389.4975333333334
 20
967.62553333333335
 11
1442.6646000000001
 21
1020.7926
  0
LINE
  8
_0-0_1
  6
CONTINUOUS
 62
    1
 10
1376.6410666666666
 20
961.84013333333326
 11
1429.8081333333332
 21
1015.0072
  0
LINE
  8
_0-0_1
  6
CONTINUOUS
 62
    1
 10
1363.7846
 20
956.05473333333339
 11
1416.9516666666668
 21
1009.2218
  0
LINE
  8
_0-0_1
  6
CONTINUOUS
 62
    1
 10
1350.9281333333333
 20
950.26933333333329
 11
1404.0952000000002
 21
1003.4363333333334
  0
LINE
  8
_0-0_1
  6
CONTINUOUS
 62
    1
 10
1338.0716666666667
 20
944.48393333333331
 11
1391.2386666666666
 21
997.65093333333334
  0
LINE
  8
_0-0_1
  6
CONTINUOUS
 62
    1
 10
1325.2152000000001
 20
938.69853333333344
 11
1378.3822
 21
991.86553333333336
  0
LINE
  8
_0-0_1
  6
CONTINUOUS
 62
    1
 10
1312.3587333333332
 20
932.91313333333335
 11
1365.5257333333336
 21
986.08013333333338
  0
LINE
  8
_0-0_1
  6
CONTINUOUS
 62
    1
 10
1299.5022666666669
 20
927.12773333333348
 11
1352.6692
 21
980.29466666666667
  0
LINE
  8
_0-0_1
  6
CONTINUOUS
 62
    1
 10
1286.6458
 20
921.34233333333327
 11
1339.8127333333332
 21
974.50926666666658
  0
LINE
  8
_0-0_1
  6
CONTINUOUS
 62
    1
 10
1273.7893333333334
 20
915.55693333333329
 11
1326.9562666666666
 21
968.72386666666671
  0
LINE
  8
_0-0_1
  6
CONTINUOUS
 62
    1
 10
1260.9328666666668
 20
909.77153333333331
 11
1314.0998
 21
962.93846666666673
  0
LINE
  8
_0-0_1
  6
CONTINUOUS
 62
    1
 10
1248.0764000000001
 20
903.98613333333333
 11
1301.2432666666666
 21
957.15306666666663
  0
LINE
  8
_0-0_1
  6
CONTINUOUS
 62
    1
 10
1235.2199333333333
 20
898.20073333333323
 11
1288.3868000000002
 21
951.36760000000004
  0
LINE
  8
_0-0_1
  6
CONTINUOUS
 62
    1
 10
1222.3634666666667
 20
892.41533333333336
 11
1255.5924666666667
 21
925.64433333333341
  0
LINE
  8
_0-0_1
  6
CONTINUOUS
 62
    1
 10
1258.2934666666667
 20
928.34533333333343
 11
1275.5303333333334
 21
945.58220000000006
  0
LINE
  8
_0-0_1
  6
CONTINUOUS
 62
    1
 10
1218.2855333333332
 20
895.40846666666653
 11
1242.7361999999998
 21
919.85913333333338
  0
LINE
  8
_0-0_1
  6
CONTINUOUS
 62
    1
 10
1256.0991333333334
 20
933.22206666666671
 11
1262.6738666666668
 21
939.79680000000008
  0
LINE
  8
_0-0_1
  6
CONTINUOUS
 62
    1
 10
1216.0910666666668
 20
900.28506666666658
 11
1229.8799333333334
 21
914.07393333333334
  0
LINE
  8
_0-0_1
  6
CONTINUOUS
 62
    1
 10
1213.8966
 20
905.16166666666663
 11
1217.0236666666667
 21
908.28873333333331
  0
LINE
  8
_0-0_1
  6
CONTINUOUS
 62
    1
 10
1217.7364
 20
896.62879999999996
 11
1222.0781999999999
 21
892.28700000000003
  0
LINE
  8
_0-0_1
  6
CONTINUOUS
 62
    1
 10
1214.3504666666668
 20
907.08579999999995
 11
1226.9548
 21
894.48146666666662
  0
LINE
  8
_0-0_1
  6
CONTINUOUS
 62
    1
 10
1219.2270666666668
 20
909.28026666666665
 11
1231.8314
 21
896.67593333333332
  0
LINE
  8
_0-0_1
  6
CONTINUOUS
 62
    1
 10
1224.1037333333334
 20
911.47466666666674
 11
1236.7080000000001
 21
898.87040000000002
  0
LINE
  8
_0-0_1
  6
CONTINUOUS
 62
    1
 10
1228.9803333333334
 20
913.66913333333332
 11
1241.5846000000001
 21
901.0648666666666
  0
LINE
  8
_0-0_1
  6
CONTINUOUS
 62
    1
 10
1233.8569333333335
 20
915.86353333333341
 11
1246.4612000000002
 21
903.25933333333319
  0
LINE
  8
_0-0_1
  6
CONTINUOUS
 62
    1
 10
1238.7336
 20
918.05799999999999
 11
1251.3378
 21
905.4538
  0
LINE
  8
_0-0_1
  6
CONTINUOUS
 62
    1
 10
1243.6102000000001
 20
920.25246666666658
 11
1256.2144000000001
 21
907.64826666666681
  0
LINE
  8
_0-0_1
  6
CONTINUOUS
 62
    1
 10
1248.4868666666666
 20
922.44686666666666
 11
1261.0910000000001
 21
909.8427333333334
  0
LINE
  8
_0-0_1
  6
CONTINUOUS
 62
    1
 10
1253.3634666666667
 20
924.64133333333336
 11
1265.9675999999999
 21
912.03719999999998
  0
LINE
  8
_0-0_1
  6
CONTINUOUS
 62
    1
 10
1258.2401333333335
 20
926.83573333333334
 11
1270.8442
 21
914.2316666666668
  0
LINE
  8
_0-0_1
  6
CONTINUOUS
 62
    1
 10
1255.5540666666666
 20
936.59286666666674
 11
1275.7208000000001
 21
916.42613333333338
  0
LINE
  8
_0-0_1
  6
CONTINUOUS
 62
    1
 10
1260.4306666666666
 20
938.78733333333344
 11
1280.5974000000001
 21
918.62059999999997
  0
LINE
  8
_0-0_1
  6
CONTINUOUS
 62
    1
 10
1265.3072666666667
 20
940.98180000000002
 11
1285.4740000000002
 21
920.81506666666667
  0
LINE
  8
_0-0_1
  6
CONTINUOUS
 62
    1
 10
1270.1838666666665
 20
943.17626666666672
 11
1290.3506000000002
 21
923.00953333333337
  0
LINE
  8
_0-0_1
  6
CONTINUOUS
 62
    1
 10
1275.0604666666666
 20
945.37073333333342
 11
1295.2271999999998
 21
925.20399999999995
  0
LINE
  8
_0-0_1
  6
CONTINUOUS
 62
    1
 10
1279.9370666666666
 20
947.5652
 11
1300.1037999999999
 21
927.39846666666665
  0
LINE
  8
_0-0_1
  6
CONTINUOUS
 62
    1
 10
1284.8136666666664
 20
949.75966666666659
 11
1304.9803999999999
 21
929.59293333333335
  0
LINE
  8
_0-0_1
  6
CONTINUOUS
 62
    1
 10
1289.6902666666665
 20
951.9541333333334
 11
1309.857
 21
931.78740000000005
  0
LINE
  8
_0-0_1
  6
CONTINUOUS
 62
    1
 10
1294.5668666666666
 20
954.14859999999999
 11
1314.7336
 21
933.98186666666675
  0
LINE
  8
_0-0_1
  6
CONTINUOUS
 62
    1
 10
1299.4434666666666
 20
956.34306666666657
 11
1319.6101999999998
 21
936.17633333333333
  0
LINE
  8
_0-0_1
  6
CONTINUOUS
 62
    1
 10
1304.3200666666667
 20
958.53759999999988
 11
1324.4868666666666
 21
938.37080000000003
  0
LINE
  8
_0-0_1
  6
CONTINUOUS
 62
    1
 10
1309.1966666666667
 20
960.7320666666667
 11
1329.3634666666667
 21
940.56526666666673
  0
LINE
  8
_0-0_1
  6
CONTINUOUS
 62
    1
 10
1314.0732666666668
 20
962.92653333333328
 11
1334.2400666666667
 21
942.75973333333332
  0
LINE
  8
_0-0_1
  6
CONTINUOUS
 62
    1
 10
1318.9498666666668
 20
965.12099999999987
 11
1339.1166666666666
 21
944.9541999999999
  0
LINE
  8
_0-0_1
  6
CONTINUOUS
 62
    1
 10
1323.8264666666669
 20
967.31546666666657
 11
1343.9932666666666
 21
947.14866666666671
  0
LINE
  8
_0-0_1
  6
CONTINUOUS
 62
    1
 10
1328.7030666666667
 20
969.50993333333327
 11
1348.8698666666664
 21
949.3431333333333
  0
LINE
  8
_0-0_1
  6
CONTINUOUS
 62
    1
 10
1333.5796
 20
971.70439999999985
 11
1353.7464666666665
 21
951.53759999999988
  0
LINE
  8
_0-0_1
  6
CONTINUOUS
 62
    1
 10
1338.4562000000001
 20
973.89886666666666
 11
1358.6230666666665
 21
953.73206666666658
  0
LINE
  8
_0-0_1
  6
CONTINUOUS
 62
    1
 10
1343.3328000000001
 20
976.09333333333336
 11
1363.4996666666666
 21
955.92653333333328
  0
LINE
  8
_0-0_1
  6
CONTINUOUS
 62
    1
 10
1348.2094000000002
 20
978.28780000000006
 11
1368.3762666666667
 21
958.12099999999987
  0
LINE
  8
_0-0_1
  6
CONTINUOUS
 62
    1
 10
1353.0859999999998
 20
980.48226666666665
 11
1373.2528666666667
 21
960.31546666666657
  0
LINE
  8
_0-0_1
  6
CONTINUOUS
 62
    1
 10
1357.9625999999998
 20
982.67673333333335
 11
1378.1294666666668
 21
962.50993333333327
  0
LINE
  8
_0-0_1
  6
CONTINUOUS
 62
    1
 10
1362.8391999999999
 20
984.87120000000004
 11
1383.0060666666668
 21
964.70439999999996
  0
LINE
  8
_0-0_1
  6
CONTINUOUS
 62
    1
 10
1367.7157999999999
 20
987.06566666666674
 11
1387.8826666666669
 21
966.89886666666666
  0
LINE
  8
_0-0_1
  6
CONTINUOUS
 62
    1
 10
1372.5924
 20
989.26013333333344
 11
1392.7592666666667
 21
969.09333333333336
  0
LINE
  8
_0-0_1
  6
CONTINUOUS
 62
    1
 10
1377.4690000000001
 20
991.45460000000003
 11
1397.6358666666665
 21
971.28780000000006
  0
LINE
  8
_0-0_1
  6
CONTINUOUS
 62
    1
 10
1382.3455999999999
 20
993.64906666666673
 11
1402.5124666666668
 21
973.48226666666676
  0
LINE
  8
_0-0_1
  6
CONTINUOUS
 62
    1
 10
1387.2221999999999
 20
995.84353333333343
 11
1407.3890666666666
 21
975.67673333333346
  0
LINE
  8
_0-0_1
  6
CONTINUOUS
 62
    1
 10
1392.0988
 20
998.03800000000001
 11
1412.2656666666669
 21
977.87120000000004
  0
LINE
  8
_0-0_1
  6
CONTINUOUS
 62
    1
 10
1396.9754
 20
1000.2324666666666
 11
1417.1422666666667
 21
980.06566666666674
  0
LINE
  8
_0-0_1
  6
CONTINUOUS
 62
    1
 10
1401.8520000000001
 20
1002.4269333333334
 11
1422.0188666666668
 21
982.26013333333344
  0
LINE
  8
_0-0_1
  6
CONTINUOUS
 62
    1
 10
1406.7286000000001
 20
1004.6214
 11
1426.8954666666668
 21
984.45460000000003
  0
LINE
  8
_0-0_1
  6
CONTINUOUS
 62
    1
 10
1411.6052
 20
1006.8158666666666
 11
1431.7720666666669
 21
986.64906666666661
  0
LINE
  8
_0-0_1
  6
CONTINUOUS
 62
    1
 10
1416.4818
 20
1009.0103333333333
 11
1436.6486666666665
 21
988.84353333333343
  0
LINE
  8
_0-0_1
  6
CONTINUOUS
 62
    1
 10
1421.3584000000001
 20
1011.2048
 11
1441.5252666666665
 21
991.03800000000001
  0
LINE
  8
_0-0_1
  6
CONTINUOUS
 62
    1
 10
1426.2350000000001
 20
1013.3992666666667
 11
1446.4018666666666
 21
993.2324666666666
  0
LINE
  8
_0-0_1
  6
CONTINUOUS
 62
    1
 10
1431.1116000000002
 20
1015.5937333333333
 11
1451.2784666666666
 21
995.4269333333333
  0
LINE
  8
_0-0_1
  6
CONTINUOUS
 62
    1
 10
1435.9881999999998
 20
1017.7882
 11
1456.1550666666665
 21
997.62139999999999
  0
LINE
  8
_0-0_1
  6
CONTINUOUS
 62
    1
 10
1440.8647999999998
 20
1019.9826666666667
 11
1461.0316666666668
 21
999.81586666666669
  0
LINE
  8
_0-0_1
  6
CONTINUOUS
 62
    1
 10
1445.7413999999999
 20
1022.1771333333332
 11
1465.9082666666666
 21
1002.0103333333333
  0
LINE
  8
_0-0_1
  6
CONTINUOUS
 62
    1
 10
1450.6179999999999
 20
1024.3716666666664
 11
1470.7848666666666
 21
1004.2048
  0
LINE
  8
_0-0_1
  6
CONTINUOUS
 62
    1
 10
1455.4946
 20
1026.5661333333335
 11
1475.6614666666667
 21
1006.3992666666667
  0
LINE
  8
_0-0_1
  6
CONTINUOUS
 62
    1
 10
1460.3711999999998
 20
1028.7606000000001
 11
1480.5380666666667
 21
1008.5937333333334
  0
LINE
  8
_0-0_1
  6
CONTINUOUS
 62
    1
 10
1465.2478000000001
 20
1030.9550666666669
 11
1485.4146666666666
 21
1010.7882
  0
LINE
  8
_0-0_1
  6
CONTINUOUS
 62
    1
 10
1470.1243999999999
 20
1033.1495333333332
 11
1490.2912666666668
 21
1012.9826666666667
  0
LINE
  8
_0-0_1
  6
CONTINUOUS
 62
    1
 10
1475.001
 20
1035.3440000000001
 11
1495.1678666666667
 21
1015.1771333333334
  0
LINE
  8
_0-0_1
  6
CONTINUOUS
 62
    1
 10
1479.8776
 20
1037.5384666666669
 11
1500.0444666666667
 21
1017.3715999999999
  0
LINE
  8
_0-0_1
  6
CONTINUOUS
 62
    1
 10
1484.7542000000001
 20
1039.7329333333332
 11
1504.9210666666668
 21
1019.5660666666665
  0
LINE
  8
_0-0_1
  6
CONTINUOUS
 62
    1
 10
1489.6307999999999
 20
1041.9274
 11
1509.7976666666668
 21
1021.7605333333333
  0
LINE
  8
_0-0_1
  6
CONTINUOUS
 62
    1
 10
1494.5074000000002
 20
1044.1218666666666
 11
1514.6742666666664
 21
1023.9549999999999
  0
LINE
  8
_0-0_1
  6
CONTINUOUS
 62
    1
 10
1499.384
 20
1046.3163333333334
 11
1519.5508666666669
 21
1026.1494666666667
  0
LINE
  8
_0-0_1
  6
CONTINUOUS
 62
    1
 10
1504.2605999999998
 20
1048.5108
 11
1524.4274666666665
 21
1028.3439333333333
  0
LINE
  8
_0-0_1
  6
CONTINUOUS
 62
    1
 10
1509.1372000000001
 20
1050.7052666666666
 11
1529.3040666666666
 21
1030.5384000000001
  0
LINE
  8
_0-0_1
  6
CONTINUOUS
 62
    1
 10
1514.0137999999999
 20
1052.8997333333334
 11
1534.1806666666666
 21
1032.7328666666667
  0
LINE
  8
_0-0_1
  6
CONTINUOUS
 62
    1
 10
1518.8904
 20
1055.0942
 11
1539.0572666666667
 21
1034.9273333333333
  0
LINE
  8
_0-0_1
  6
CONTINUOUS
 62
    1
 10
1523.7670000000001
 20
1057.2886666666666
 11
1543.9338666666665
 21
1037.1218000000001
  0
LINE
  8
_0-0_1
  6
CONTINUOUS
 62
    1
 10
1528.6436000000001
 20
1059.4831333333334
 11
1548.8104666666668
 21
1039.3162666666667
  0
LINE
  8
_0-0_1
  6
CONTINUOUS
 62
    1
 10
1533.5201999999999
 20
1061.6776
 11
1553.6870666666666
 21
1041.5107333333335
  0
LINE
  8
_0-0_1
  6
CONTINUOUS
 62
    1
 10
1538.3968000000002
 20
1063.8720666666668
 11
1558.5636666666667
 21
1043.7051999999999
  0
LINE
  8
_0-0_1
  6
CONTINUOUS
 62
    1
 10
1543.2734
 20
1066.0665333333332
 11
1563.4402666666667
 21
1045.8996666666667
  0
LINE
  8
_0-0_1
  6
CONTINUOUS
 62
    1
 10
1548.1500000000001
 20
1068.261
 11
1568.3168666666666
 21
1048.0941333333335
  0
LINE
  8
_0-0_1
  6
CONTINUOUS
 62
    1
 10
1553.0266000000001
 20
1070.4554666666668
 11
1573.1934666666666
 21
1050.2885999999999
  0
LINE
  8
_0-0_1
  6
CONTINUOUS
 62
    1
 10
1557.9032000000002
 20
1072.6499333333331
 11
1578.0700666666667
 21
1052.4830666666667
  0
LINE
  8
_0-0_1
  6
CONTINUOUS
 62
    1
 10
1562.7797999999998
 20
1074.8444
 11
1582.9466666666667
 21
1054.6775333333333
  0
LINE
  8
_0-0_1
  6
CONTINUOUS
 62
    1
 10
1567.6563999999998
 20
1077.0388666666665
 11
1587.8232666666665
 21
1056.8720000000001
  0
LINE
  8
_0-0_1
  6
CONTINUOUS
 62
    1
 10
1572.5329999999999
 20
1079.2333333333333
 11
1592.6998666666666
 21
1059.0664666666667
  0
LINE
  8
_0-0_1
  6
CONTINUOUS
 62
    1
 10
1577.4096
 20
1081.4277999999999
 11
1597.5764666666669
 21
1061.2609333333332
  0
LINE
  8
_0-0_1
  6
CONTINUOUS
 62
    1
 10
1582.2861999999998
 20
1083.6222666666665
 11
1602.4530666666667
 21
1063.4554000000001
  0
LINE
  8
_0-0_1
  6
CONTINUOUS
 62
    1
 10
1587.1628000000001
 20
1085.8167333333333
 11
1607.3296666666665
 21
1065.6498666666666
  0
LINE
  8
_0-0_1
  6
CONTINUOUS
 62
    1
 10
1592.0393999999999
 20
1088.0112000000001
 11
1612.2062666666668
 21
1067.8443333333332
  0
LINE
  8
_0-0_1
  6
CONTINUOUS
 62
    1
 10
1596.9159999999999
 20
1090.2057333333332
 11
1617.0828666666666
 21
1070.0388
  0
LINE
  8
_0-0_1
  6
CONTINUOUS
 62
    1
 10
1601.7926
 20
1092.4002
 11
1621.9594666666667
 21
1072.2332666666666
  0
LINE
  8
_0-0_1
  6
CONTINUOUS
 62
    1
 10
1606.6692
 20
1094.5946666666666
 11
1626.8360666666667
 21
1074.4277333333334
  0
LINE
  8
_0-0_1
  6
CONTINUOUS
 62
    1
 10
1611.5457999999999
 20
1096.7891333333334
 11
1631.7126666666668
 21
1076.6221999999998
  0
LINE
  8
_0-0_1
  6
CONTINUOUS
 62
    1
 10
1616.4224000000002
 20
1098.9836
 11
1636.5892666666664
 21
1078.8166666666666
  0
LINE
  8
_0-0_1
  6
CONTINUOUS
 62
    1
 10
1621.299
 20
1101.1780666666666
 11
1641.4658666666669
 21
1081.0111333333334
  0
LINE
  8
_0-0_1
  6
CONTINUOUS
 62
    1
 10
1626.1756
 20
1103.3725333333334
 11
1646.3424666666665
 21
1083.2055999999998
  0
LINE
  8
_0-0_1
  6
CONTINUOUS
 62
    1
 10
1631.0522000000001
 20
1105.567
 11
1651.2190666666665
 21
1085.4000666666666
  0
LINE
  8
_0-0_1
  6
CONTINUOUS
 62
    1
 10
1635.9287333333332
 20
1107.7614666666666
 11
1656.0956666666666
 21
1087.5945333333334
  0
LINE
  8
_0-0_1
  6
CONTINUOUS
 62
    1
 10
1640.8053333333332
 20
1109.9559333333334
 11
1660.9722666666667
 21
1089.7890000000002
  0
LINE
  8
_0-0_1
  6
CONTINUOUS
 62
    1
 10
1645.6819333333333
 20
1112.1504
 11
1665.8488666666665
 21
1091.9834666666666
  0
LINE
  8
_0-0_1
  6
CONTINUOUS
 62
    1
 10
1650.5585333333331
 20
1114.3448666666666
 11
1670.7254666666668
 21
1094.1779333333334
  0
LINE
  8
_0-0_1
  6
CONTINUOUS
 62
    1
 10
1655.4351333333334
 20
1116.5393333333332
 11
1675.6020666666666
 21
1096.3724
  0
LINE
  8
_0-0_1
  6
CONTINUOUS
 62
    1
 10
1660.3117333333332
 20
1118.7338
 11
1680.4787333333334
 21
1098.5668666666668
  0
LINE
  8
_0-0_1
  6
CONTINUOUS
 62
    1
 10
1665.188333333333
 20
1120.9282666666668
 11
1685.3553333333332
 21
1100.7613333333334
  0
LINE
  8
_0-0_1
  6
CONTINUOUS
 62
    1
 10
1670.0649333333333
 20
1123.1227333333334
 11
1690.2319333333335
 21
1102.9558
  0
LINE
  8
_0-0_1
  6
CONTINUOUS
 62
    1
 10
1674.9415333333332
 20
1125.3172
 11
1695.1085333333333
 21
1105.1502666666668
  0
LINE
  8
_0-0_1
  6
CONTINUOUS
 62
    1
 10
1679.8181333333332
 20
1127.5116666666665
 11
1699.9851333333334
 21
1107.3447333333334
  0
LINE
  8
_0-0_1
  6
CONTINUOUS
 62
    1
 10
1684.6947333333333
 20
1129.7061333333334
 11
1704.8617333333334
 21
1109.5391999999999
  0
LINE
  8
_0-0_1
  6
CONTINUOUS
 62
    1
 10
1689.5713333333333
 20
1131.9005999999999
 11
1709.7383333333335
 21
1111.7336666666667
  0
LINE
  8
_0-0_1
  6
CONTINUOUS
 62
    1
 10
1694.4479333333334
 20
1134.0950666666665
 11
1714.6149333333333
 21
1113.9281333333333
  0
LINE
  8
_0-0_1
  6
CONTINUOUS
 62
    1
 10
1699.3245333333334
 20
1136.2895333333333
 11
1719.4915333333333
 21
1116.1225999999999
  0
LINE
  8
_0-0_1
  6
CONTINUOUS
 62
    1
 10
1704.2011333333335
 20
1138.4840000000002
 11
1724.3681333333334
 21
1118.3170666666665
  0
LINE
  8
_0-0_1
  6
CONTINUOUS
 62
    1
 10
1709.0777333333333
 20
1140.6784666666667
 11
1729.2447333333334
 21
1120.5115333333333
  0
LINE
  8
_0-0_1
  6
CONTINUOUS
 62
    1
 10
1713.9543333333336
 20
1142.8729333333333
 11
1734.121333333333
 21
1122.7060000000001
  0
LINE
  8
_0-0_1
  6
CONTINUOUS
 62
    1
 10
1718.8309333333334
 20
1145.0674000000001
 11
1738.9979333333335
 21
1124.9004666666667
  0
LINE
  8
_0-0_1
  6
CONTINUOUS
 62
    1
 10
1723.7075333333332
 20
1147.2618666666667
 11
1743.8745333333331
 21
1127.0949333333333
  0
LINE
  8
_0-0_1
  6
CONTINUOUS
 62
    1
 10
1728.5841333333335
 20
1149.4563333333333
 11
1748.7511333333332
 21
1129.2893999999999
  0
LINE
  8
_0-0_1
  6
CONTINUOUS
 62
    1
 10
1733.4607333333333
 20
1151.6508000000001
 11
1753.6277333333333
 21
1131.4838666666667
  0
LINE
  8
_0-0_1
  6
CONTINUOUS
 62
    1
 10
1738.3373333333334
 20
1153.8452666666667
 11
1758.5043333333333
 21
1133.6783333333333
  0
LINE
  8
_0-0_1
  6
CONTINUOUS
 62
    1
 10
1743.2139333333334
 20
1156.0398
 11
1763.3809333333331
 21
1135.8727999999999
  0
LINE
  8
_0-0_1
  6
CONTINUOUS
 62
    1
 10
1748.0905333333335
 20
1158.2342666666666
 11
1768.2575333333334
 21
1138.0672666666667
  0
LINE
  8
_0-0_1
  6
CONTINUOUS
 62
    1
 10
1752.9671333333331
 20
1160.4287333333334
 11
1773.1341333333332
 21
1140.2617333333333
  0
LINE
  8
_0-0_1
  6
CONTINUOUS
 62
    1
 10
1757.8437333333336
 20
1162.6232
 11
1778.0107333333331
 21
1142.4561999999999
  0
LINE
  8
_0-0_1
  6
CONTINUOUS
 62
    1
 10
1762.7203333333332
 20
1164.8176666666666
 11
1782.8873333333333
 21
1144.6506666666667
  0
LINE
  8
_0-0_1
  6
CONTINUOUS
 62
    1
 10
1767.5969333333333
 20
1167.0121333333332
 11
1787.7639333333332
 21
1146.8451333333335
  0
LINE
  8
_0-0_1
  6
CONTINUOUS
 62
    1
 10
1772.4735333333333
 20
1169.2066
 11
1792.6405333333332
 21
1149.0396000000001
  0
LINE
  8
_0-0_1
  6
CONTINUOUS
 62
    1
 10
1777.3501333333334
 20
1171.4010666666668
 11
1797.5171333333333
 21
1151.2340666666666
  0
LINE
  8
_0-0_1
  6
CONTINUOUS
 62
    1
 10
1782.2267333333332
 20
1173.5955333333334
 11
1802.3937333333333
 21
1153.4285333333335
  0
LINE
  8
_0-0_1
  6
CONTINUOUS
 62
    1
 10
1787.1033333333335
 20
1175.79
 11
1807.2703333333334
 21
1155.623
  0
LINE
  8
_0-0_1
  6
CONTINUOUS
 62
    1
 10
1791.9799333333333
 20
1177.9844666666665
 11
1812.1469333333334
 21
1157.8174666666666
  0
LINE
  8
_0-0_1
  6
CONTINUOUS
 62
    1
 10
1796.8565333333333
 20
1180.1789333333334
 11
1817.0235333333335
 21
1160.0119333333332
  0
LINE
  8
_0-0_1
  6
CONTINUOUS
 62
    1
 10
1801.7331333333334
 20
1182.3733999999999
 11
1821.9001333333333
 21
1162.2064
  0
LINE
  8
_0-0_1
  6
CONTINUOUS
 62
    1
 10
1806.6097333333335
 20
1184.5678666666665
 11
1826.7767333333336
 21
1164.4008666666668
  0
LINE
  8
_0-0_1
  6
CONTINUOUS
 62
    1
 10
1811.4863333333333
 20
1186.7623333333333
 11
1831.6533333333334
 21
1166.5953333333334
  0
LINE
  8
_0-0_1
  6
CONTINUOUS
 62
    1
 10
1816.3629333333336
 20
1188.9567999999999
 11
1836.5299333333332
 21
1168.7898
  0
LINE
  8
_0-0_1
  6
CONTINUOUS
 62
    1
 10
1821.2395333333334
 20
1191.1512666666665
 11
1841.4065333333335
 21
1170.9842666666666
  0
LINE
  8
_0-0_1
  6
CONTINUOUS
 62
    1
 10
1826.116133333333
 20
1193.3457333333333
 11
1846.2831333333334
 21
1173.1787333333334
  0
LINE
  8
_0-0_1
  6
CONTINUOUS
 62
    1
 10
1830.992733333333
 20
1195.5402000000001
 11
1851.1597333333334
 21
1175.3732
  0
LINE
  8
_0-0_1
  6
CONTINUOUS
 62
    1
 10
1835.8693333333331
 20
1197.7346666666667
 11
1856.0363333333335
 21
1177.5676666666666
  0
LINE
  8
_0-0_1
  6
CONTINUOUS
 62
    1
 10
1840.7459333333331
 20
1199.9291333333333
 11
1860.9129333333335
 21
1179.7621333333334
  0
LINE
  8
_0-0_1
  6
CONTINUOUS
 62
    1
 10
1845.6225333333332
 20
1202.1236000000001
 11
1865.7895333333331
 21
1181.9566
  0
LINE
  8
_0-0_1
  6
CONTINUOUS
 62
    1
 10
1850.4991333333332
 20
1204.3180666666667
 11
1870.6661333333336
 21
1184.1510666666666
  0
LINE
  8
_0-0_1
  6
CONTINUOUS
 62
    1
 10
1855.3757333333333
 20
1206.5125333333333
 11
1875.5427333333332
 21
1186.3455333333334
  0
LINE
  8
_0-0_1
  6
CONTINUOUS
 62
    1
 10
1860.2523333333331
 20
1208.7069999999999
 11
1880.4193333333333
 21
1188.54
  0
LINE
  8
_0-0_1
  6
CONTINUOUS
 62
    1
 10
1865.1289333333334
 20
1210.9014666666667
 11
1885.2959333333333
 21
1190.7344666666665
  0
LINE
  8
_0-0_1
  6
CONTINUOUS
 62
    1
 10
1870.0055333333332
 20
1213.0959333333335
 11
1890.1725333333334
 21
1192.9289333333331
  0
LINE
  8
_0-0_1
  6
CONTINUOUS
 62
    1
 10
1874.8821333333331
 20
1215.2904000000001
 11
1895.0491333333332
 21
1195.1233999999999
  0
LINE
  8
_0-0_1
  6
CONTINUOUS
 62
    1
 10
1879.7587333333333
 20
1217.4848666666667
 11
1899.9257333333335
 21
1197.3178666666668
  0
LINE
  8
_0-0_1
  6
CONTINUOUS
 62
    1
 10
1884.6353333333332
 20
1219.6793333333333
 11
1904.8023333333333
 21
1199.5123333333333
  0
LINE
  8
_0-0_1
  6
CONTINUOUS
 62
    1
 10
1889.5119333333332
 20
1221.8738666666668
 11
1909.6789333333334
 21
1201.7067999999999
  0
LINE
  8
_0-0_1
  6
CONTINUOUS
 62
    1
 10
1894.3885333333333
 20
1224.0683333333334
 11
1914.5555333333332
 21
1203.9012666666665
  0
LINE
  8
_0-0_1
  6
CONTINUOUS
 62
    1
 10
1899.2651333333333
 20
1226.2627999999997
 11
1911.7075333333332
 21
1213.8203333333333
  0
LINE
  8
_0-0_1
  6
CONTINUOUS
 62
    1
 10
1904.1417333333334
 20
1228.4572666666666
 11
1905.9221333333335
 21
1226.6768
  0
LINE
  8
_0-0_1
  6
CONTINUOUS
 62
    2
 10
1583.7685333333332
 20
1113.9620666666667
 11
1585.0626
 21
1109.1324
  0
LINE
  8
_0-0_1
  6
CONTINUOUS
 62
    2
 10
1585.0626
 20
1109.1324
 11
1581.5270666666665
 21
1112.6679333333334
  0
LINE
  8
_0-0_1
  6
CONTINUOUS
 62
    2
 10
1585.0626
 20
1109.1324
 11
1551.8676666666668
 21
1166.6277333333335
  0
LINE
  8
_0-0_1
  6
CONTINUOUS
 62
    2
 10
1551.8676666666668
 20
1166.6277333333335
 11
1524.8676666666668
 21
1166.6277333333335
  0
LINE
  8
_0-0_1
  6
CONTINUOUS
 62
    2
 10
1234.5910666666666
 20
834.80520000000001
 11
1227.0675333333334
 21
851.52366666666671
  0
CIRCLE
  8
_0-0_1
  6
CONTINUOUS
 62
    2
 10
1233.9071333333334
 20
836.32499999999993
 40
1.1333333333333331
  0
LINE
  8
_0-0_1
  6
CONTINUOUS
 62
    2
 10
1233.9071333333334
 20
836.32499999999993
 11
1243.0284666666666
 21
840.42973333333339
  0
CIRCLE
  8
_0-0_1
  6
CONTINUOUS
 62
    2
 10
1243.0284666666666
 20
840.42973333333339
 40
1.1333333333333331
  0
LINE
  8
_0-0_1
  6
CONTINUOUS
 62
    2
 10
1243.7123999999999
 20
838.90986666666663
 11
1236.1889333333334
 21
855.62840000000006
  0
LINE
  8
_0-0_1
  6
CONTINUOUS
 62
    2
 10
1762.662
 20
1025.8905333333335
 11
1923.7750666666668
 21
1187.0036
  0
LINE
  8
_0-0_1
  6
CONTINUOUS
 62
    2
 10
1385.5384666666669
 20
856.18499999999995
 11
1584.9180666666666
 21
1055.5645999999999
  0
LINE
  8
_0-0_1
  6
CONTINUOUS
 62
    2
 10
1745.5200000000002
 20
1018.1766666666667
 11
1920.8491333333334
 21
1193.5057333333334
  0
LINE
  8
_0-0_1
  6
CONTINUOUS
 62
    2
 10
1368.3964666666668
 20
848.47113333333346
 11
1567.7760666666666
 21
1047.8507333333332
  0
LINE
  8
_0-0_1
  6
CONTINUOUS
 62
    2
 10
1728.3780000000002
 20
1010.4628
 11
1917.9231333333335
 21
1200.0078666666668
  0
LINE
  8
_0-0_1
  6
CONTINUOUS
 62
    2
 10
1351.2544666666668
 20
840.75720000000001
 11
1550.6341333333332
 21
1040.1368666666667
  0
LINE
  8
_0-0_1
  6
CONTINUOUS
 62
    2
 10
1101.2678000000001
 20
1009.5785999999999
 11
1115.6305333333332
 21
977.66133333333323
  0
CIRCLE
  8
_0-0_1
  6
CONTINUOUS
 62
    2
 10
1101.9517333333333
 20
1008.0587333333333
 40
1.1333333333333331
  0
LINE
  8
_0-0_1
  6
CONTINUOUS
 62
    2
 10
1101.9517333333333
 20
1008.0587333333333
 11
1272.1771333333334
 21
1084.6599333333334
  0
CIRCLE
  8
_0-0_1
  6
CONTINUOUS
 62
    2
 10
1272.1771333333334
 20
1084.6599333333334
 40
1.1333333333333331
  0
LINE
  8
_0-0_1
  6
CONTINUOUS
 62
    2
 10
1271.4932000000001
 20
1086.1798000000001
 11
1285.8559333333333
 21
1054.2626
  0
LINE
  8
_0-0_1
  6
CONTINUOUS
 62
    2
 10
1266.0216666666668
 20
1098.3388
 11
1280.3844000000001
 21
1066.4215333333332
  0
CIRCLE
  8
_0-0_1
  6
CONTINUOUS
 62
    2
 10
1266.7056666666667
 20
1096.8189333333335
 40
1.1333333333333331
  0
LINE
  8
_0-0_1
  6
CONTINUOUS
 62
    2
 10
1266.7056666666667
 20
1096.8189333333335
 11
1436.9310666666665
 21
1173.4202
  0
CIRCLE
  8
_0-0_1
  6
CONTINUOUS
 62
    2
 10
1436.9310666666665
 20
1173.4202
 40
1.1333333333333331
  0
LINE
  8
_0-0_1
  6
CONTINUOUS
 62
    2
 10
1436.2471333333333
 20
1174.9400666666668
 11
1450.6098666666667
 21
1143.0228
  0
LINE
  8
_0-0_1
  6
CONTINUOUS
 62
    2
 10
1430.7755999999999
 20
1187.0990000000002
 11
1445.1383333333333
 21
1155.1817333333333
  0
CIRCLE
  8
_0-0_1
  6
CONTINUOUS
 62
    2
 10
1431.4595333333332
 20
1185.5791333333334
 40
1.1333333333333331
  0
LINE
  8
_0-0_1
  6
CONTINUOUS
 62
    2
 10
1431.4595333333332
 20
1185.5791333333334
 11
1601.6849333333334
 21
1262.1804000000002
  0
CIRCLE
  8
_0-0_1
  6
CONTINUOUS
 62
    2
 10
1601.6849333333334
 20
1262.1804000000002
 40
1.1333333333333331
  0
LINE
  8
_0-0_1
  6
CONTINUOUS
 62
    2
 10
1601.001
 20
1263.7002666666667
 11
1615.3637333333334
 21
1231.7830000000001
  0
LINE
  8
_0-0_1
  6
CONTINUOUS
 62
    2
 10
1595.5294666666666
 20
1275.8592000000001
 11
1609.8921999999998
 21
1243.9419333333335
  0
CIRCLE
  8
_0-0_1
  6
CONTINUOUS
 62
    2
 10
1596.2134666666668
 20
1274.3393333333333
 40
1.1333333333333331
  0
LINE
  8
_0-0_1
  6
CONTINUOUS
 62
    2
 10
1596.2134666666668
 20
1274.3393333333333
 11
1766.4388666666669
 21
1350.9406000000001
  0
CIRCLE
  8
_0-0_1
  6
CONTINUOUS
 62
    2
 10
1766.4388666666669
 20
1350.9406000000001
 40
1.1333333333333331
  0
LINE
  8
_0-0_1
  6
CONTINUOUS
 62
    2
 10
1765.7549333333332
 20
1352.4604666666667
 11
1780.1176666666665
 21
1320.5432000000001
  0
LINE
  8
_0-0_1
  6
CONTINUOUS
 62
    2
 10
1116.2195999999999
 20
976.35233333333326
 11
1123.7429333333332
 21
959.63380000000006
  0
CIRCLE
  8
_0-0_1
  6
CONTINUOUS
 62
    2
 10
1116.9035333333334
 20
974.83246666666673
 40
1.1333333333333331
  0
LINE
  8
_0-0_1
  6
CONTINUOUS
 62
    2
 10
1116.9035333333334
 20
974.83246666666673
 11
1162.4998666666668
 21
995.35079999999994
  0
CIRCLE
  8
_0-0_1
  6
CONTINUOUS
 62
    2
 10
1162.4998666666668
 20
995.35079999999994
 40
1.1333333333333331
  0
LINE
  8
_0-0_1
  6
CONTINUOUS
 62
    2
 10
1161.8159333333333
 20
996.87066666666669
 11
1169.3392666666668
 21
980.15206666666677
  0
CIRCLE
  8
_0-0_1
  6
CONTINUOUS
 62
    2
 10
1162.4998666666668
 20
995.35079999999994
 40
1.1333333333333331
  0
LINE
  8
_0-0_1
  6
CONTINUOUS
 62
    2
 10
1162.4998666666668
 20
995.35079999999994
 11
1287.1289333333334
 21
1051.4337333333333
  0
CIRCLE
  8
_0-0_1
  6
CONTINUOUS
 62
    2
 10
1287.1289333333334
 20
1051.4337333333333
 40
1.1333333333333331
  0
LINE
  8
_0-0_1
  6
CONTINUOUS
 62
    2
 10
1286.4449999999999
 20
1052.9536000000001
 11
1293.9683333333335
 21
1036.2349999999999
  0
CIRCLE
  8
_0-0_1
  6
CONTINUOUS
 62
    2
 10
1287.1289333333334
 20
1051.4337333333333
 40
1.1333333333333331
  0
LINE
  8
_0-0_1
  6
CONTINUOUS
 62
    2
 10
1287.1289333333334
 20
1051.4337333333333
 11
1323.6058
 21
1067.8482666666669
  0
CIRCLE
  8
_0-0_1
  6
CONTINUOUS
 62
    2
 10
1323.6058
 20
1067.8482666666669
 40
1.1333333333333331
  0
LINE
  8
_0-0_1
  6
CONTINUOUS
 62
    2
 10
1322.9218666666668
 20
1069.3681333333334
 11
1330.4452000000001
 21
1052.6496
  0
LINE
  8
_0-0_1
  6
CONTINUOUS
 62
    4
 10
1305.902
 20
1013.4097333333334
 11
1309.6379999999999
 21
1014.5898666666667
  0
ARC
  8
_0-0_1
  6
CONTINUOUS
 62
    4
 10
1320.8278666666665
 20
1015.7322666666666
 40
11.248011333333332
 50
103.35714
 51
185.82902999999996
  0
LINE
  8
_0-0_1
  6
CONTINUOUS
 62
    4
 10
1321.9252666666666
 20
1015.6086
 11
1526.0415999999998
 21
1080.0881333333334
  0
LINE
  8
_0-0_1
  6
CONTINUOUS
 62
    4
 10
1521.9889333333333
 20
1092.9171999999999
 11
1506.3990000000001
 21
1087.9923333333334
  0
LINE
  8
_0-0_1
  6
CONTINUOUS
 62
    4
 10
1318.2293333333334
 20
1026.6759999999999
 11
1504.7927333333334
 21
1085.6106
  0
ARC
  8
_0-0_1
  6
CONTINUOUS
 62
    4
 10
1508.5465999999999
 20
1084.6239999999998
 40
3.8813426666666659
 50
113.70193000000002
 51
165.27368000000001
  0
LINE
  8
_0-0_1
  6
CONTINUOUS
 62
    4
 10
1305.8957333333333
 20
1013.4295333333332
 11
1309.8177999999998
 21
1001.0138000000001
  0
ARC
  8
_0-0_1
  6
CONTINUOUS
 62
    4
 10
1324.5237999999999
 20
1004.6648666666667
 40
11.248011333333332
 50
103.35714
 51
192.69454999999999
  0
LINE
  8
_0-0_1
  6
CONTINUOUS
 62
    4
 10
1526.8122666666668
 20
1067.3474000000001
 11
1525.6379333333334
 21
1071.0648666666666
  0
LINE
  8
_0-0_1
  6
CONTINUOUS
 62
    4
 10
1521.9889333333333
 20
1092.9171999999999
 11
1529.7710666666667
 21
1068.2820666666667
  0
LINE
  8
_0-0_1
  6
CONTINUOUS
 62
    4
 10
1526.8122666666668
 20
1067.3474000000001
 11
1529.7710666666667
 21
1068.2820666666667
  0
LINE
  8
_0-0_1
  6
CONTINUOUS
 62
    4
 10
1313.5507333333335
 20
1002.1930666666667
 11
1309.8177999999998
 21
1001.0138000000001
  0
LINE
  8
_0-0_1
  6
CONTINUOUS
 62
    4
 10
1313.3037333333334
 20
1003.9893999999999
 11
1525.6379333333334
 21
1071.0648666666666
  0
LINE
  8
_0-0_1
  6
CONTINUOUS
 62
    2
 10
1510.5725333333335
 20
1053.4394
 11
1528.9528666666665
 21
1061.3237999999999
  0
LINE
  8
_0-0_1
  6
CONTINUOUS
 62
    2
 10
1528.9528666666665
 20
1061.3237999999999
 11
1525.0106666666668
 21
1070.5140000000001
  0
LINE
  8
_0-0_1
  6
CONTINUOUS
 62
    2
 10
1525.0106666666668
 20
1070.5140000000001
 11
1506.6303333333331
 21
1062.6295333333335
  0
LINE
  8
_0-0_1
  6
CONTINUOUS
 62
    2
 10
1506.6303333333331
 20
1062.6295333333335
 11
1510.5725333333335
 21
1053.4394
  0
LINE
  8
_0-0_1
  6
CONTINUOUS
 62
    2
 10
1525.0106666666668
 20
1070.5140000000001
 11
1510.5725333333335
 21
1053.4394
  0
LINE
  8
_0-0_1
  6
CONTINUOUS
 62
    4
 10
1475.5825333333332
 20
1091.4824666666666
 11
1479.3281333333334
 21
1092.6316666666667
  0
ARC
  8
_0-0_1
  6
CONTINUOUS
 62
    4
 10
1490.5270666666665
 20
1093.6812666666667
 40
11.248011333333332
 50
102.88244
 51
185.35433
  0
LINE
  8
_0-0_1
  6
CONTINUOUS
 62
    4
 10
1491.6234666666664
 20
1093.5484666666666
 11
1696.2670000000003
 21
1156.3347333333334
  0
LINE
  8
_0-0_1
  6
CONTINUOUS
 62
    4
 10
1692.3207333333335
 20
1169.1969333333332
 11
1676.6904666666665
 21
1164.4014
  0
LINE
  8
_0-0_1
  6
CONTINUOUS
 62
    4
 10
1488.0192666666665
 20
1104.6461333333334
 11
1675.0646000000002
 21
1162.0330666666666
  0
ARC
  8
_0-0_1
  6
CONTINUOUS
 62
    4
 10
1678.8101333333334
 20
1161.0154
 40
3.8813426666666659
 50
113.22723000000001
 51
164.79898000000003
  0
LINE
  8
_0-0_1
  6
CONTINUOUS
 62
    4
 10
1475.5763999999999
 20
1091.5023333333334
 11
1479.3954666666664
 21
1079.0545333333332
  0
ARC
  8
_0-0_1
  6
CONTINUOUS
 62
    4
 10
1494.1312000000003
 20
1082.5835999999999
 40
11.248011333333332
 50
102.88244
 51
192.21985000000001
  0
LINE
  8
_0-0_1
  6
CONTINUOUS
 62
    4
 10
1696.9320000000002
 20
1143.5880666666667
 11
1695.7885333333334
 21
1147.3151333333335
  0
LINE
  8
_0-0_1
  6
CONTINUOUS
 62
    4
 10
1692.3207333333335
 20
1169.1969333333332
 11
1699.8985333333335
 21
1144.4982
  0
LINE
  8
_0-0_1
  6
CONTINUOUS
 62
    4
 10
1696.9320000000002
 20
1143.5880666666667
 11
1699.8985333333335
 21
1144.4982
  0
LINE
  8
_0-0_1
  6
CONTINUOUS
 62
    4
 10
1483.1380666666666
 20
1080.2028
 11
1479.3954666666664
 21
1079.0545333333332
  0
LINE
  8
_0-0_1
  6
CONTINUOUS
 62
    4
 10
1482.9059333333335
 20
1082.0011333333334
 11
1695.7885333333334
 21
1147.3151333333335
  0
LINE
  8
_0-0_1
  6
CONTINUOUS
 62
    2
 10
1680.5776666666668
 20
1129.8150666666668
 11
1699.0226666666667
 21
1137.5469333333333
  0
LINE
  8
_0-0_1
  6
CONTINUOUS
 62
    2
 10
1699.0226666666667
 20
1137.5469333333333
 11
1695.1567333333332
 21
1146.7694666666666
  0
LINE
  8
_0-0_1
  6
CONTINUOUS
 62
    2
 10
1695.1567333333332
 20
1146.7694666666666
 11
1676.7117333333331
 21
1139.0375999999999
  0
LINE
  8
_0-0_1
  6
CONTINUOUS
 62
    2
 10
1676.7117333333331
 20
1139.0375999999999
 11
1680.5776666666668
 21
1129.8150666666668
  0
LINE
  8
_0-0_1
  6
CONTINUOUS
 62
    2
 10
1695.1567333333332
 20
1146.7694666666666
 11
1680.5776666666668
 21
1129.8150666666668
  0
LINE
  8
_0-0_1
  6
CONTINUOUS
 62
    4
 10
1645.7950666666666
 20
1168.1122666666668
 11
1649.5406666666668
 21
1169.2614666666666
  0
ARC
  8
_0-0_1
  6
CONTINUOUS
 62
    4
 10
1660.7395999999999
 20
1170.3110666666666
 40
11.248011333333332
 50
102.88244
 51
185.35433
  0
LINE
  8
_0-0_1
  6
CONTINUOUS
 62
    4
 10
1661.8359999999998
 20
1170.1783333333333
 11
1866.4795333333336
 21
1232.9645333333335
  0
LINE
  8
_0-0_1
  6
CONTINUOUS
 62
    4
 10
1862.5333333333333
 20
1245.8267333333333
 11
1846.9030666666667
 21
1241.0312666666669
  0
LINE
  8
_0-0_1
  6
CONTINUOUS
 62
    4
 10
1658.2318666666665
 20
1181.2760000000001
 11
1845.2771333333335
 21
1238.6629333333333
  0
ARC
  8
_0-0_1
  6
CONTINUOUS
 62
    4
 10
1849.0227333333332
 20
1237.6451999999999
 40
3.8813426666666659
 50
113.22723000000001
 51
164.79898000000003
  0
LINE
  8
_0-0_1
  6
CONTINUOUS
 62
    4
 10
1645.7889333333333
 20
1168.1321333333333
 11
1649.6079999999997
 21
1155.6843999999999
  0
ARC
  8
_0-0_1
  6
CONTINUOUS
 62
    4
 10
1664.3437333333336
 20
1159.2134666666668
 40
11.248011333333332
 50
102.88244
 51
192.21985000000001
  0
LINE
  8
_0-0_1
  6
CONTINUOUS
 62
    4
 10
1867.1445999999996
 20
1220.2178666666666
 11
1866.0010666666667
 21
1223.9449999999999
  0
LINE
  8
_0-0_1
  6
CONTINUOUS
 62
    4
 10
1862.5333333333333
 20
1245.8267333333333
 11
1870.1110666666664
 21
1221.1279999999999
  0
LINE
  8
_0-0_1
  6
CONTINUOUS
 62
    4
 10
1867.1445999999996
 20
1220.2178666666666
 11
1870.1110666666664
 21
1221.1279999999999
  0
LINE
  8
_0-0_1
  6
CONTINUOUS
 62
    4
 10
1653.3506
 20
1156.8326666666667
 11
1649.6079999999997
 21
1155.6843999999999
  0
LINE
  8
_0-0_1
  6
CONTINUOUS
 62
    4
 10
1653.1184666666668
 20
1158.6309333333334
 11
1866.0010666666667
 21
1223.9449999999999
  0
LINE
  8
_0-0_1
  6
CONTINUOUS
 62
    2
 10
1850.7902000000001
 20
1206.4449333333334
 11
1869.2352000000001
 21
1214.1768
  0
LINE
  8
_0-0_1
  6
CONTINUOUS
 62
    2
 10
1869.2352000000001
 20
1214.1768
 11
1865.3692666666666
 21
1223.3992666666666
  0
LINE
  8
_0-0_1
  6
CONTINUOUS
 62
    2
 10
1865.3692666666666
 20
1223.3992666666666
 11
1846.9242666666664
 21
1215.6674
  0
LINE
  8
_0-0_1
  6
CONTINUOUS
 62
    2
 10
1846.9242666666664
 20
1215.6674
 11
1850.7902000000001
 21
1206.4449333333334
  0
LINE
  8
_0-0_1
  6
CONTINUOUS
 62
    2
 10
1865.3692666666666
 20
1223.3992666666666
 11
1850.7902000000001
 21
1206.4449333333334
  0
LINE
  8
_0-0_1
  6
CONTINUOUS
 62
    4
 10
1816.0075999999999
 20
1244.7421333333332
 11
1819.7532666666666
 21
1245.8913333333335
  0
ARC
  8
_0-0_1
  6
CONTINUOUS
 62
    4
 10
1830.9521999999997
 20
1246.9409333333333
 40
11.248011333333332
 50
102.88244
 51
185.35433
  0
LINE
  8
_0-0_1
  6
CONTINUOUS
 62
    4
 10
1832.0485333333331
 20
1246.8081333333334
 11
1885.095
 21
1263.0832
  0
LINE
  8
_0-0_1
  6
CONTINUOUS
 62
    4
 10
1828.4443999999999
 20
1257.9058
 11
1879.9765333333335
 21
1273.7162666666666
  0
LINE
  8
_0-0_1
  6
CONTINUOUS
 62
    4
 10
1816.0015333333333
 20
1244.7620000000002
 11
1819.8206
 21
1232.3141999999998
  0
ARC
  8
_0-0_1
  6
CONTINUOUS
 62
    4
 10
1834.556333333333
 20
1235.8432666666665
 40
11.248011333333332
 50
102.88244
 51
192.21985000000001
  0
LINE
  8
_0-0_1
  6
CONTINUOUS
 62
    4
 10
1823.5631333333333
 20
1233.4624666666668
 11
1819.8206
 21
1232.3141999999998
  0
LINE
  8
_0-0_1
  6
CONTINUOUS
 62
    4
 10
1823.3310666666666
 20
1235.2608
 11
1888.8164666666669
 21
1255.3522
  0
LINE
  8
_0-0_1
  6
CONTINUOUS
 62
    4
 10
1137.0745333333334
 20
937.029
 11
1140.8105333333333
 21
938.20913333333328
  0
ARC
  8
_0-0_1
  6
CONTINUOUS
 62
    4
 10
1152.0003999999999
 20
939.35153333333335
 40
11.248011333333332
 50
103.35714
 51
185.82902999999996
  0
LINE
  8
_0-0_1
  6
CONTINUOUS
 62
    4
 10
1153.0978
 20
939.22786666666661
 11
1357.2141333333334
 21
1003.7074
  0
LINE
  8
_0-0_1
  6
CONTINUOUS
 62
    4
 10
1353.1614666666667
 20
1016.5364666666666
 11
1337.5715333333333
 21
1011.6116666666667
  0
LINE
  8
_0-0_1
  6
CONTINUOUS
 62
    4
 10
1149.4018666666666
 20
950.29526666666675
 11
1335.9652666666666
 21
1009.2298666666668
  0
ARC
  8
_0-0_1
  6
CONTINUOUS
 62
    4
 10
1339.7191333333333
 20
1008.2432666666666
 40
3.8813426666666659
 50
113.70193000000002
 51
165.27368000000001
  0
LINE
  8
_0-0_1
  6
CONTINUOUS
 62
    4
 10
1137.0682666666667
 20
937.04880000000003
 11
1140.9903333333334
 21
924.63313333333326
  0
ARC
  8
_0-0_1
  6
CONTINUOUS
 62
    4
 10
1155.6963333333333
 20
928.28413333333344
 40
11.248011333333332
 50
103.35714
 51
192.69454999999999
  0
LINE
  8
_0-0_1
  6
CONTINUOUS
 62
    4
 10
1357.9848000000002
 20
990.9666666666667
 11
1356.8104666666668
 21
994.68413333333331
  0
LINE
  8
_0-0_1
  6
CONTINUOUS
 62
    4
 10
1353.1614666666667
 20
1016.5364666666666
 11
1360.9436000000003
 21
991.90133333333335
  0
LINE
  8
_0-0_1
  6
CONTINUOUS
 62
    4
 10
1357.9848000000002
 20
990.9666666666667
 11
1360.9436000000003
 21
991.90133333333335
  0
LINE
  8
_0-0_1
  6
CONTINUOUS
 62
    4
 10
1144.7232666666669
 20
925.8123333333333
 11
1140.9903333333334
 21
924.63313333333326
  0
LINE
  8
_0-0_1
  6
CONTINUOUS
 62
    4
 10
1144.4762666666668
 20
927.60866666666675
 11
1356.8104666666668
 21
994.68413333333331
  0
LINE
  8
_0-0_1
  6
CONTINUOUS
 62
    2
 10
1341.7450666666668
 20
977.05866666666668
 11
1360.1253999999999
 21
984.94306666666671
  0
LINE
  8
_0-0_1
  6
CONTINUOUS
 62
    2
 10
1360.1253999999999
 20
984.94306666666671
 11
1356.1832000000002
 21
994.13326666666671
  0
LINE
  8
_0-0_1
  6
CONTINUOUS
 62
    2
 10
1356.1832000000002
 20
994.13326666666671
 11
1337.8028666666669
 21
986.24880000000007
  0
LINE
  8
_0-0_1
  6
CONTINUOUS
 62
    2
 10
1337.8028666666669
 20
986.24880000000007
 11
1341.7450666666668
 21
977.05866666666668
  0
LINE
  8
_0-0_1
  6
CONTINUOUS
 62
    2
 10
1356.1832000000002
 20
994.13326666666671
 11
1341.7450666666668
 21
977.05866666666668
  0
LINE
  8
_0-0_1
  6
CONTINUOUS
 62
    3
 10
1258.8506000000002
 20
927.11046666666675
 11
1253.6388000000002
 21
938.69200000000001
  0
LINE
  8
_0-0_1
  6
CONTINUOUS
 62
    3
 10
1188.0661333333335
 20
938.19900000000007
 11
1204.1351333333334
 21
902.48913333333337
  0
LINE
  8
_0-0_1
  6
CONTINUOUS
 62
    3
 10
1188.0661333333335
 20
938.19900000000007
 11
1253.6388000000002
 21
938.69200000000001
  0
LINE
  8
_0-0_1
  6
DASHED3
 62
    2
 10
1261.6190666666666
 20
940.41873333333331
 11
1904.5456666666666
 21
1229.7356
  0
LINE
  8
_0-0_1
  6
DASHED3
 62
    2
 10
1191.5962666666667
 20
939.89219999999989
 11
1261.6190666666666
 21
940.41873333333331
  0
LINE
  8
_0-0_1
  6
CONTINUOUS
 62
    2
 10
1249.4820666666667
 20
922.89473333333331
 11
1257.2505333333334
 21
930.66319999999996
  0
LINE
  8
_0-0_1
  6
CONTINUOUS
 62
    2
 10
1236.6258666666668
 20
917.1096
 11
1255.0561333333335
 21
935.53986666666674
  0
LINE
  8
_0-0_1
  6
CONTINUOUS
 62
    2
 10
1223.7696000000001
 20
911.32439999999997
 11
1251.1182666666668
 21
938.67306666666673
  0
LINE
  8
_0-0_1
  6
CONTINUOUS
 62
    2
 10
1210.9133999999999
 20
905.53926666666666
 11
1243.9936
 21
938.61946666666665
  0
LINE
  8
_0-0_1
  6
CONTINUOUS
 62
    2
 10
1203.0977333333335
 20
904.79460000000006
 11
1236.8690000000001
 21
938.56593333333331
  0
LINE
  8
_0-0_1
  6
CONTINUOUS
 62
    2
 10
1200.9032666666667
 20
909.67126666666672
 11
1229.7443333333333
 21
938.51233333333323
  0
LINE
  8
_0-0_1
  6
CONTINUOUS
 62
    2
 10
1198.7088666666668
 20
914.54786666666666
 11
1222.6197333333332
 21
938.45880000000011
  0
LINE
  8
_0-0_1
  6
CONTINUOUS
 62
    2
 10
1196.5144
 20
919.42453333333333
 11
1215.4950666666668
 21
938.40519999999992
  0
LINE
  8
_0-0_1
  6
CONTINUOUS
 62
    2
 10
1194.3199999999999
 20
924.30119999999999
 11
1208.3704666666667
 21
938.35166666666669
  0
LINE
  8
_0-0_1
  6
CONTINUOUS
 62
    2
 10
1192.1255333333334
 20
929.17779999999993
 11
1201.2458000000001
 21
938.29806666666673
  0
LINE
  8
_0-0_1
  6
CONTINUOUS
 62
    2
 10
1221.4561333333334
 20
918.21186666666677
 11
1223.9561333333334
 21
922.54200000000014
  0
LINE
  8
_0-0_1
  6
CONTINUOUS
 62
    2
 10
1223.9561333333334
 20
922.54200000000014
 11
1223.9561333333334
 21
917.54200000000014
  0
LINE
  8
_0-0_1
  6
CONTINUOUS
 62
    2
 10
1223.9561333333334
 20
922.54200000000014
 11
1177.0644000000002
 21
747.53946666666661
  0
LINE
  8
_0-0_1
  6
CONTINUOUS
 62
    2
 10
1177.0644000000002
 20
747.53946666666661
 11
1013.0644000000001
 21
747.53946666666661
  0
CIRCLE
  8
_0-1_2
  6
CONTINUOUS
 62
    3
 10
1913.9706666666666
 20
1215.4730666666665
 40
0.8699479999999999
  0
LINE
  8
_0-1_2
  6
DASHED1
 62
    2
 10
1371.6683333333333
 20
918.12513333333322
 11
1368.9863333333333
 21
924.22853333333319
  0
LINE
  8
_0-1_2
  6
DASHED1
 62
    2
 10
1338.9274666666665
 20
959.53800000000001
 11
1356.7972
 21
918.87226666666663
  0
LINE
  8
_0-1_2
  6
DASHED1
 62
    2
 10
1332.8240666666668
 20
956.85600000000011
 11
1353.3758666666665
 21
910.08686666666677
  0
LINE
  8
_0-1_2
  6
DASHED1
 62
    2
 10
1356.7972
 20
918.87226666666663
 11
1368.9863333333333
 21
924.22853333333319
  0
LINE
  8
_0-1_2
  6
DASHED1
 62
    2
 10
1353.3758666666665
 20
910.08686666666677
 11
1371.6683333333333
 21
918.12513333333322
  0
LINE
  8
_0-1_2
  6
CONTINUOUS
 62
    3
 10
1268.1186
 20
924.02833333333331
 11
1917.4644666666666
 21
1216.2342666666666
  0
CIRCLE
  8
_0-1_2
  6
CONTINUOUS
 62
    3
 10
1275.6257333333333
 20
928.21753333333334
 40
0.8699479999999999
  0
CIRCLE
  8
_0-1_2
  6
CONTINUOUS
 62
    3
 10
1366.8178666666665
 20
969.25400000000013
 40
0.8699479999999999
  0
CIRCLE
  8
_0-1_2
  6
CONTINUOUS
 62
    3
 10
1458.0099999999998
 20
1010.2905333333333
 40
0.8699479999999999
  0
CIRCLE
  8
_0-1_2
  6
CONTINUOUS
 62
    3
 10
1549.2021333333332
 20
1051.3270000000002
 40
0.8699479999999999
  0
CIRCLE
  8
_0-1_2
  6
CONTINUOUS
 62
    3
 10
1640.3942666666667
 20
1092.3635333333332
 40
0.8699479999999999
  0
CIRCLE
  8
_0-1_2
  6
CONTINUOUS
 62
    3
 10
1731.5864000000001
 20
1133.4000666666668
 40
0.8699479999999999
  0
CIRCLE
  8
_0-1_2
  6
CONTINUOUS
 62
    3
 10
1822.7785333333331
 20
1174.4365333333333
 40
0.8699479999999999
  0
LINE
  8
_0-1_2
  6
DASHED1
 62
    2
 10
1736.4510666666665
 20
1082.2775333333334
 11
1733.7690666666667
 21
1088.3809333333334
  0
LINE
  8
_0-1_2
  6
DASHED1
 62
    2
 10
1703.7102000000002
 20
1123.6904
 11
1721.5799333333334
 21
1083.0246666666667
  0
LINE
  8
_0-1_2
  6
DASHED1
 62
    2
 10
1697.6067999999998
 20
1121.0084000000002
 11
1718.1586000000002
 21
1074.2392666666665
  0
LINE
  8
_0-1_2
  6
DASHED1
 62
    2
 10
1721.5799333333334
 20
1083.0246666666667
 11
1733.7690666666667
 21
1088.3809333333334
  0
LINE
  8
_0-1_2
  6
DASHED1
 62
    2
 10
1718.1586000000002
 20
1074.2392666666665
 11
1736.4510666666665
 21
1082.2775333333334
  0
LINE
  8
_0-1_2
  6
DASHED1
 62
    2
 10
1703.7102000000002
 20
1123.6904
 11
1697.6067999999998
 21
1121.0084000000002
  0
LINE
  8
_0-1_2
  6
DASHED1
 62
    2
 10
1338.9274666666665
 20
959.53800000000001
 11
1332.8240666666668
 21
956.85600000000011
  0
LINE
  8
_0-1_2
  6
CONTINUOUS
 62
    2
 10
1712.5069333333336
 20
1083.1514
 11
1716.0424666666668
 21
1086.6869333333334
  0
LINE
  8
_0-1_2
  6
CONTINUOUS
 62
    2
 10
1716.0424666666668
 20
1086.6869333333334
 11
1714.7483999999999
 21
1081.8572666666666
  0
LINE
  8
_0-1_2
  6
CONTINUOUS
 62
    2
 10
1760.7124666666664
 20
1140.2838666666667
 11
1759.4183999999998
 21
1145.1134666666667
  0
LINE
  8
_0-1_2
  6
CONTINUOUS
 62
    2
 10
1759.4183999999998
 20
1145.1134666666667
 11
1762.9539333333332
 21
1141.5779333333332
  0
LINE
  8
_0-1_2
  6
CONTINUOUS
 62
    2
 10
1759.4183999999998
 20
1145.1134666666667
 11
1777.3402666666666
 21
1114.0718666666667
  0
LINE
  8
_0-1_2
  6
CONTINUOUS
 62
    2
 10
1777.3402666666666
 20
1114.0718666666667
 11
1817.3402666666666
 21
1114.0718666666667
  0
LINE
  8
_0-0_1
  6
CONTINUOUS
 62
    2
 10
1577.2477333333334
 20
838.99380000000008
 11
1746.0249333333334
 21
838.99380000000008
  0
LINE
  8
_0-0_1
  6
CONTINUOUS
 62
    2
 10
1518.3382000000001
 20
1053.8470000000002
 11
1518.3382000000001
 21
1058.8470000000002
  0
LINE
  8
_0-0_1
  6
CONTINUOUS
 62
    2
 10
1518.3382000000001
 20
1058.8470000000002
 11
1520.8382000000001
 21
1054.5168666666668
  0
LINE
  8
_0-2_ADD_LINE
  6
CONTINUOUS
 62
    7
 10
1013.0644000000001
 20
747.53946666666661
 11
1177.0644000000002
 21
747.53946666666661
  0
LINE
  8
_0-2_ADD_LINE
  6
CONTINUOUS
 62
    7
 10
1177.0644000000002
 20
747.53946666666661
 11
1223.9561333333334
 21
922.54200000000014
  0
LINE
  8
_0-2_ADD_LINE
  6
CONTINUOUS
 62
    7
 10
1223.9561333333334
 20
922.54200000000014
 11
1221.4561333333334
 21
918.21186666666677
  0
LINE
  8
_0-2_ADD_LINE
  6
CONTINUOUS
 62
    7
 10
1223.9561333333334
 20
922.54200000000014
 11
1223.9561333333334
 21
917.54200000000014
  0
LINE
  8
_0-2_ADD_LINE
  6
CONTINUOUS
 62
    7
 10
1213.2544
 20
906.59253333333322
 11
1258.3957333333333
 21
806.28126666666674
  0
LINE
  8
_0-2_ADD_LINE
  6
CONTINUOUS
 62
    7
 10
1258.3957333333333
 20
806.28126666666674
 11
1301.2876666666666
 21
825.59646666666686
  0
LINE
  8
_0-2_ADD_LINE
  6
CONTINUOUS
 62
    7
 10
1301.2876666666666
 20
825.59646666666686
 11
1306.7276000000002
 21
820.72013333333348
  0
LINE
  8
_0-2_ADD_LINE
  6
CONTINUOUS
 62
    7
 10
1294.8725333333334
 20
822.6959333333333
 11
1297.6083333333331
 21
816.61646666666672
  0
LINE
  8
_0-2_ADD_LINE
  6
CONTINUOUS
 62
    7
 10
1297.6083333333331
 20
816.61646666666672
 11
1267.211
 21
802.9376666666667
  0
LINE
  8
_0-2_ADD_LINE
  6
CONTINUOUS
 62
    7
 10
1267.211
 20
802.9376666666667
 11
1264.4751333333334
 21
809.01713333333328
  0
LINE
  8
_0-2_ADD_LINE
  6
CONTINUOUS
 62
    7
 10
1220.0939333333336
 20
891.39406666666673
 11
1915.8990666666664
 21
1204.5058666666666
  0
LINE
  8
_0-2_ADD_LINE
  6
CONTINUOUS
 62
    7
 10
1917.9231333333335
 20
1200.0078666666668
 11
1728.3780000000002
 21
1010.4628
  0
LINE
  8
_0-2_ADD_LINE
  6
CONTINUOUS
 62
    7
 10
1745.5200000000002
 20
1018.1766666666667
 11
1920.8491333333334
 21
1193.5057333333334
  0
LINE
  8
_0-2_ADD_LINE
  6
CONTINUOUS
 62
    7
 10
1923.7750666666668
 20
1187.0036
 11
1762.6620137114512
 21
1025.8905470447844
  0
LINE
  8
_0-2_ADD_LINE
  6
CONTINUOUS
 62
    7
 10
1956.9355333333333
 20
1113.3136
 11
1306.7276000000002
 21
820.72013333333348
  0
LINE
  8
_0-2_ADD_LINE
  6
CONTINUOUS
 62
    7
 10
1301.2978409944524
 20
825.58734644208221
 11
1954.1998000000001
 21
1119.3931333333333
  0
LINE
  8
_0-2_ADD_LINE
  6
CONTINUOUS
 62
    7
 10
1577.2477333333334
 20
838.99380000000008
 11
1746.0249333333334
 21
838.99380000000008
  0
LINE
  8
_0-2_ADD_LINE
  6
CONTINUOUS
 62
    7
 10
1584.9180666666666
 20
1055.5645999999999
 11
1385.5384863183576
 21
856.18501965169094
  0
LINE
  8
_0-2_ADD_LINE
  6
CONTINUOUS
 62
    7
 10
1368.3964666666668
 20
848.47113333333346
 11
1567.7760666666666
 21
1047.8507333333332
  0
LINE
  8
_0-2_ADD_LINE
  6
CONTINUOUS
 62
    7
 10
1550.6341333333332
 20
1040.1368666666667
 11
1351.2544962247798
 21
840.75722955811329
  0
LINE
  8
_0-2_ADD_LINE
  6
CONTINUOUS
 62
    7
 10
1676.7117333333331
 20
1139.0375999999999
 11
1680.5776666666668
 21
1129.8150666666668
  0
LINE
  8
_0-2_ADD_LINE
  6
CONTINUOUS
 62
    7
 10
1680.5776666666668
 20
1129.8150666666668
 11
1699.0226666666667
 21
1137.5469333333333
  0
LINE
  8
_0-2_ADD_LINE
  6
CONTINUOUS
 62
    7
 10
1699.0226666666667
 20
1137.5469333333333
 11
1695.1567333333332
 21
1146.7694666666666
  0
LINE
  8
_0-2_ADD_LINE
  6
CONTINUOUS
 62
    7
 10
1695.1567333333332
 20
1146.7694666666666
 11
1676.7117333333331
 21
1139.0375999999999
  0
LINE
  8
_0-2_ADD_LINE
  6
CONTINUOUS
 62
    7
 10
1680.5776666666668
 20
1129.8150666666668
 11
1695.1567333333332
 21
1146.7694666666666
  0
LINE
  8
_0-2_ADD_LINE
  6
CONTINUOUS
 62
    7
 10
1697.6067999999998
 20
1121.0084000000002
 11
1703.7102000000002
 21
1123.6904
  0
LINE
  8
_0-2_ADD_LINE
  6
CONTINUOUS
 62
    7
 10
1703.7102000000002
 20
1123.6904
 11
1721.5799333333334
 21
1083.0246666666667
  0
LINE
  8
_0-2_ADD_LINE
  6
CONTINUOUS
 62
    7
 10
1721.5799333333334
 20
1083.0246666666667
 11
1733.7690666666667
 21
1088.3809333333334
  0
LINE
  8
_0-2_ADD_LINE
  6
CONTINUOUS
 62
    7
 10
1733.7690666666667
 20
1088.3809333333334
 11
1736.4510666666665
 21
1082.2775333333334
  0
LINE
  8
_0-2_ADD_LINE
  6
CONTINUOUS
 62
    7
 10
1736.4510666666665
 20
1082.2775333333334
 11
1718.1586000000002
 21
1074.2392666666665
  0
LINE
  8
_0-2_ADD_LINE
  6
CONTINUOUS
 62
    7
 10
1718.1586000000002
 20
1074.2392666666665
 11
1697.6067999999998
 21
1121.0084000000002
  0
LINE
  8
_0-2_ADD_LINE
  6
CONTINUOUS
 62
    7
 10
1716.0424666666668
 20
1086.6869333333334
 11
1712.5069333333336
 21
1083.1514
  0
LINE
  8
_0-2_ADD_LINE
  6
CONTINUOUS
 62
    7
 10
1716.0424666666668
 20
1086.6869333333334
 11
1714.7483999999999
 21
1081.8572666666666
  0
LINE
  8
_0-2_ADD_LINE
  6
CONTINUOUS
 62
    7
 10
1759.4183999999998
 20
1145.1134666666667
 11
1760.5927174242013
 21
1140.7307840908677
  0
LINE
  8
_0-2_ADD_LINE
  6
CONTINUOUS
 62
    7
 10
1759.4183999999998
 20
1145.1134666666667
 11
1762.9539333333332
 21
1141.5779333333332
  0
LINE
  8
_0-2_ADD_LINE
  6
CONTINUOUS
 62
    7
 10
1759.4184009622084
 20
1145.1134657044583
 11
1777.3402666666666
 21
1114.0718666666667
  0
LINE
  8
_0-2_ADD_LINE
  6
CONTINUOUS
 62
    7
 10
1777.3402666666666
 20
1114.0718666666667
 11
1817.3402666666666
 21
1114.0718666666667
  0
LINE
  8
_0-2_ADD_LINE
  6
CONTINUOUS
 62
    7
 10
1777.3402666666666
 20
1114.0718666666667
 11
1824.4440772384728
 21
1114.0718666666667
  0
LINE
  8
_0-2_ADD_LINE
  6
CONTINUOUS
 62
    7
 10
1904.9560666666666
 20
1228.8236666666669
 11
1254.7459333333334
 21
936.22926666666672
  0
LINE
  8
_0-2_ADD_LINE
  6
CONTINUOUS
 62
    7
 10
1191.5962666666667
 20
939.89219999999989
 11
1261.6190666666666
 21
940.41873333333331
  0
LINE
  8
_0-2_ADD_LINE
  6
CONTINUOUS
 62
    7
 10
1261.6190666666666
 20
940.41873333333331
 11
1904.5456666666666
 21
1229.7356
  0
LINE
  8
_0-2_ADD_LINE
  6
CONTINUOUS
 62
    7
 10
1846.9242666666664
 20
1215.6674
 11
1865.3692666666666
 21
1223.3992666666666
  0
LINE
  8
_0-2_ADD_LINE
  6
CONTINUOUS
 62
    7
 10
1865.3692666666666
 20
1223.3992666666666
 11
1869.2352000000001
 21
1214.1768
  0
LINE
  8
_0-2_ADD_LINE
  6
CONTINUOUS
 62
    7
 10
1869.2352000000001
 20
1214.1768
 11
1850.7902000000001
 21
1206.4449333333334
  0
LINE
  8
_0-2_ADD_LINE
  6
CONTINUOUS
 62
    7
 10
1850.7902000000001
 20
1206.4449333333334
 11
1846.9242666666664
 21
1215.6674
  0
LINE
  8
_0-2_ADD_LINE
  6
CONTINUOUS
 62
    7
 10
1850.7902000000001
 20
1206.4449333333334
 11
1865.3692666666666
 21
1223.3992666666666
  0
LINE
  8
_0-2_ADD_LINE
  6
CONTINUOUS
 62
    7
 10
1865.3692666666666
 20
1223.3992666666666
 11
1846.9242666666664
 21
1215.6674
  0
LINE
  8
_0-2_ADD_LINE
  6
CONTINUOUS
 62
    7
 10
1506.6303333333331
 20
1062.6295333333335
 11
1525.0106666666668
 21
1070.5140000000001
  0
LINE
  8
_0-2_ADD_LINE
  6
CONTINUOUS
 62
    7
 10
1525.0106666666668
 20
1070.5140000000001
 11
1528.9528666666665
 21
1061.3237999999999
  0
LINE
  8
_0-2_ADD_LINE
  6
CONTINUOUS
 62
    7
 10
1528.9528666666665
 20
1061.3237999999999
 11
1510.5725333333335
 21
1053.4394
  0
LINE
  8
_0-2_ADD_LINE
  6
CONTINUOUS
 62
    7
 10
1510.5725333333335
 20
1053.4394
 11
1506.6303333333331
 21
1062.6295333333335
  0
LINE
  8
_0-2_ADD_LINE
  6
CONTINUOUS
 62
    7
 10
1510.5725333333335
 20
1053.4394
 11
1525.0106666666668
 21
1070.5140000000001
  0
LINE
  8
_0-2_ADD_LINE
  6
CONTINUOUS
 62
    7
 10
1518.3382000000001
 20
1054.0398000000002
 11
1518.3382000000001
 21
1058.8470000000002
  0
LINE
  8
_0-2_ADD_LINE
  6
CONTINUOUS
 62
    7
 10
1518.3382000000001
 20
1058.8470000000002
 11
1520.8382000000001
 21
1054.5168666666668
  0
LINE
  8
_0-2_ADD_LINE
  6
CONTINUOUS
 62
    7
 10
1337.8028666666669
 20
986.24880000000007
 11
1356.1832000000002
 21
994.13326666666671
  0
LINE
  8
_0-2_ADD_LINE
  6
CONTINUOUS
 62
    7
 10
1356.1832000000002
 20
994.13326666666671
 11
1360.1253999999999
 21
984.94306666666671
  0
LINE
  8
_0-2_ADD_LINE
  6
CONTINUOUS
 62
    7
 10
1360.1253999999999
 20
984.94306666666671
 11
1341.7450666666668
 21
977.05866666666668
  0
LINE
  8
_0-2_ADD_LINE
  6
CONTINUOUS
 62
    7
 10
1341.7450666666668
 20
977.05866666666668
 11
1337.8028666666669
 21
986.24880000000007
  0
LINE
  8
_0-2_ADD_LINE
  6
CONTINUOUS
 62
    7
 10
1341.7450666666668
 20
977.05866666666668
 11
1356.1832000000002
 21
994.13326666666671
  0
LINE
  8
_0-2_ADD_LINE
  6
CONTINUOUS
 62
    7
 10
1123.7429333333332
 20
959.63380000000006
 11
1101.2678000000001
 21
1009.5785999999999
  0
LINE
  8
_0-2_ADD_LINE
  6
CONTINUOUS
 62
    7
 10
1116.9035333333334
 20
974.83246666666673
 11
1162.4998694386841
 21
995.35080124740443
  0
LINE
  8
_0-2_ADD_LINE
  6
CONTINUOUS
 62
    7
 10
1162.0347913560072
 20
996.3843131348267
 11
1169.3392666666668
 21
980.15206666666677
  0
LINE
  8
_0-2_ADD_LINE
  6
CONTINUOUS
 62
    7
 10
1101.9517382025053
 20
1008.0587355244541
 11
1272.1771333333334
 21
1084.6599333333334
  0
LINE
  8
_0-2_ADD_LINE
  6
CONTINUOUS
 62
    7
 10
1163.533378161015
 20
995.81587895619396
 11
1162.4998666666668
 21
995.35079999999994
  0
LINE
  8
_0-2_ADD_LINE
  6
CONTINUOUS
 62
    7
 10
1163.533378161015
 20
995.81587895619396
 11
1323.6058
 21
1067.8482666666669
  0
LINE
  8
_0-2_ADD_LINE
  6
CONTINUOUS
 62
    7
 10
1322.9218666666668
 20
1069.3681333333334
 11
1330.4452000000001
 21
1052.6496
  0
LINE
  8
_0-2_ADD_LINE
  6
CONTINUOUS
 62
    7
 10
1293.9683333333335
 20
1036.2349999999999
 11
1266.2405363388702
 21
1097.8524217089855
  0
LINE
  8
_0-2_ADD_LINE
  6
CONTINUOUS
 62
    7
 10
1266.7056666666667
 20
1096.8189333333335
 11
1436.9310666666665
 21
1173.4202
  0
LINE
  8
_0-2_ADD_LINE
  6
CONTINUOUS
 62
    7
 10
1430.9944584450695
 20
1186.6126466582359
 11
1450.6098666666667
 21
1143.0228
  0
LINE
  8
_0-2_ADD_LINE
  6
CONTINUOUS
 62
    7
 10
1431.4595333333332
 20
1185.5791333333334
 11
1601.6849333333334
 21
1262.1804000000002
  0
LINE
  8
_0-2_ADD_LINE
  6
CONTINUOUS
 62
    7
 10
1615.3637333333334
 20
1231.7830000000001
 11
1595.7483363388701
 21
1275.3728217089856
  0
LINE
  8
_0-2_ADD_LINE
  6
CONTINUOUS
 62
    7
 10
1596.2134666666668
 20
1274.3393333333333
 11
1766.4388666666669
 21
1350.9406000000001
  0
LINE
  8
_0-2_ADD_LINE
  6
CONTINUOUS
 62
    7
 10
1765.9737917784028
 20
1351.9741133249022
 11
1780.1176666666665
 21
1320.5432000000001
  0
LINE
  8
_0-2_ADD_LINE
  6
CONTINUOUS
 62
    7
 10
1524.8676666666668
 20
1166.6277333333335
 11
1551.8676666666668
 21
1166.6277333333335
  0
LINE
  8
_0-2_ADD_LINE
  6
CONTINUOUS
 62
    7
 10
1551.8676666666668
 20
1166.6277333333335
 11
1585.0626
 21
1109.1324
  0
LINE
  8
_0-2_ADD_LINE
  6
CONTINUOUS
 62
    7
 10
1583.7685333333332
 20
1113.9620666666667
 11
1585.0626
 21
1109.1324
  0
LINE
  8
_0-2_ADD_LINE
  6
CONTINUOUS
 62
    7
 10
1585.0626
 20
1109.1324
 11
1581.8401093679313
 21
1112.3548906320686
  0
LINE
  8
_0-2_ADD_LINE
  6
CONTINUOUS
 62
    7
 10
1332.8240666666668
 20
956.85600000000011
 11
1338.9274666666665
 21
959.53800000000001
  0
LINE
  8
_0-2_ADD_LINE
  6
CONTINUOUS
 62
    7
 10
1338.9274666666665
 20
959.53800000000001
 11
1356.7972
 21
918.87226666666663
  0
LINE
  8
_0-2_ADD_LINE
  6
CONTINUOUS
 62
    7
 10
1356.7972
 20
918.87226666666663
 11
1368.9863333333333
 21
924.22853333333319
  0
LINE
  8
_0-2_ADD_LINE
  6
CONTINUOUS
 62
    7
 10
1368.9863333333333
 20
924.22853333333319
 11
1371.6683333333333
 21
918.12513333333322
  0
LINE
  8
_0-2_ADD_LINE
  6
CONTINUOUS
 62
    7
 10
1371.6683333333333
 20
918.12513333333322
 11
1353.3758666666665
 21
910.08686666666677
  0
LINE
  8
_0-2_ADD_LINE
  6
CONTINUOUS
 62
    7
 10
1353.3758666666665
 20
910.08686666666677
 11
1332.8240666666668
 21
956.85600000000011
  0
LINE
  8
_0-2_ADD_LINE
  6
CONTINUOUS
 62
    7
 10
1227.0675333333334
 20
851.52366666666671
 11
1234.5910666666666
 21
834.80520000000001
  0
LINE
  8
_0-2_ADD_LINE
  6
CONTINUOUS
 62
    7
 10
1233.9071333333334
 20
836.32499999999993
 11
1243.0284515467772
 21
840.42972652916205
  0
LINE
  8
_0-0_1
  6
CONTINUOUS
 62
    7
 10
1306.7276000000002
 20
820.72013333333348
 11
1956.9355333333333
 21
1113.3136
  0
TEXT
  8
_0-0_1
 62
    7
 10
1344.9635011757971
 20
1141.4429705088269
 40
20
 41
1
 50
24.227692999999988
  1
280
  0
TEXT
  8
_0-0_1
 62
    7
 10
1500.717769770298
 20
1221.7386493494703
 40
20
 41
1
 50
24.227693000000013
  1
280
  0
TEXT
  8
_0-0_1
 62
    7
 10
1646.7978601912273
 20
1306.8714172768996
 40
20
 41
1
 50
24.227693000000002
  1
280
  0
TEXT
  8
_0-0_1
 62
    7
 10
1131.1641635398669
 20
986.65611973168313
 40
20
 41
1
 50
24.227693000000013
  1
75
  0
TEXT
  8
_0-0_1
 62
    7
 10
1488.141338144655
 20
1172.4003406642557
 40
20
 41
1
 50
0
  1
桟　瓦
  0
TEXT
  8
_0-0_1
 62
    7
 10
1578.8019360690469
 20
812.41106566951566
 40
20
 41
1
 50
0
  1
　パーライト系モルタルｔ＝４０
  0
LINE
  8
_0-0_1
  6
CONTINUOUS
 62
    7
 10
1570.1440373182584
 20
867.50678499271487
 11
1814.926447454186
 21
867.50678499271487
  0
LINE
  8
_0-0_1
  6
CONTINUOUS
 62
    7
 10
1746.0249333333334
 20
838.99380000000008
 11
1877.1059021189394
 21
838.99380000000008
  0
LINE
  8
_0-0_1
  6
CONTINUOUS
 62
    2
 10
1518.3382000000001
 20
1058.8470000000002
 11
1585.2141533708382
 21
809.26273885104717
  0
LINE
  8
_0-2_ADD_LINE
  6
CONTINUOUS
 62
    7
 10
1518.3382000000001
 20
1058.8470000000002
 11
1585.2141533708382
 21
809.26273885104717
  0
LINE
  8
_0-0_1
  6
CONTINUOUS
 62
    7
 10
1585.2141533708382
 20
809.26273885104717
 11
1905.4408434851562
 21
809.26273885104717
  0
TEXT
  8
_0-1_2
 62
    7
 10
1599.2660603890922
 20
1039.8776783038666
 40
20
 41
1
 50
0
  1
アンカー
  0
LINE
  8
_0-0_1
  6
CONTINUOUS
 62
    7
 10
1824.4440772384728
 20
1114.0718666666667
 11
1879.4671472327909
 21
1114.0718666666667
  0
LINE
  8
_0-2_ADD_LINE
  6
CONTINUOUS
 62
    7
 10
1716.0424666666668
 20
1086.6869333333334
 11
1687.6538777301187
 21
1037.5164331900151
  0
LINE
  8
_0-0_1
  6
CONTINUOUS
 62
    7
 10
1602.414387207561
 20
1037.5164331900151
 11
1687.6538777301187
 21
1037.5164331900151
  0
LINE
  8
_0-1_2
  6
CONTINUOUS
 62
    2
 10
1716.0424666666668
 20
1086.6869333333334
 11
1687.6538777301187
 21
1037.5164331900151
  0
LINE
  8
_0-0_1
  6
CONTINUOUS
 62
    7
 10
1524.8676666666668
 20
1166.6277333333335
 11
1485.9262949242257
 21
1166.6277333333335
  0
TEXT
  8
_0-0_1
 62
    7
 10
1301.749176043817
 20
1062.7030477377632
 40
20
 41
1
 50
24.227692999999999
  1
60
  0
TEXT
  8
_0-0_1
 62
    7
 10
1213.5960251266984
 20
1023.3489625069068
 40
20
 41
1
 50
24.227692999999988
  1
205
  0
TEXT
  8
_0-0_1
 62
    7
 10
1230.0317068236498
 20
816.41145188414271
 40
10
 41
2
 50
24.228329999999964
  1
15
  0
TEXT
  8
_0-0_1
 62
    7
 10
1166.4541814355644
 20
1053.1829257432194
 40
20
 41
1
 50
24.227692999999988
  1
280
  0
LINE
  8
_0-0_1
  6
CONTINUOUS
 62
    7
 10
1687.6538777301187
 20
1037.5164331900151
 11
1716.0424666666668
 21
1086.6869333333334
  0
TEXT
  8
_0-0_1
 62
    7
 10
909.2951450166313
 20
754.50391809955715
 40
20
 41
1
 50
0
  1
広小舞：56x90（防腐処理）
  0
TEXT
  8
_0-1_2
 62
    7
 10
1793.2647835341486
 20
1116.9198539963581
 40
20
 41
1
 50
0
  1
溶接金網
  0
TEXT
  8
_0-0_1
 62
    7
 10
1571.8271711092004
 20
876.34565778159924
 40
20
 41
1
 50
0
  1
瓦桟：１５ｘ３０以上
  0
TEXT
  8
_0-0_1
 62
    7
 10
1579.5890177736642
 20
841.53308874034963
 40
20
 41
1
 50
0
  1
下葺材：ルーフィング
  0
ENDSEC
  0
EOF
