  0
SECTION
  2
HEADER
  9
$ACADVER
  1
AC1009
  9
$INSBASE
 10
0
 20
0
 30
0
  9
$EXTMIN
 10
0
 20
0
  9
$EXTMAX
 10
2970
 20
2100
  9
$LIMMIN
 10
0
 20
0
  9
$LIMMAX
 10
2970
 20
2100
  9
$LTSCALE
 40
10
  0
ENDSEC
  0
SECTION
  2
TABLES
  0
TABLE
  2
LTYPE
 70
     9
  0
LTYPE
  2
CONTINUOUS
 70
    64
  3
実線
 72
    65
 73
     0
 40
0.0
  0
LTYPE
  2
DASHED1
 70
    64
  3
--  --  --  --  --  --  --  --  
 72
    65
 73
     2
 40
2.5
 49
1.25
 49
-1.25
  0
LTYPE
  2
DASHED2
 70
    64
  3
----    ----    ----    ----    
 72
    65
 73
     2
 40
5.0
 49
2.5
 49
-2.5
  0
LTYPE
  2
DASHED3
 70
    64
  3
------  ------  ------  ------  
 72
    65
 73
     2
 40
5.0
 49
3.75
 49
-1.25
  0
LTYPE
  2
CENTER1
 70
    64
  3
----- - ----- - ----- - ----- - 
 72
    65
 73
     4
 40
10.0
 49
6.25
 49
-1.25
 49
1.25
 49
-1.25
  0
LTYPE
  2
CENTER2
 70
    64
  3
----------  --  ----------  --  
 72
    65
 73
     4
 40
20.0
 49
12.5
 49
-2.5
 49
2.5
 49
-2.5
  0
LTYPE
  2
PHANTOM1
 70
    64
  3
--- - - --- - - --- - - --- - - 
 72
    65
 73
     6
 40
10.0
 49
3.25
 49
-1.25
 49
1.25
 49
-1.25
 49
1.25
 49
-1.25
  0
LTYPE
  2
PHANTOM2
 70
    64
  3
--------  -  -  --------  -  -  
 72
    65
 73
     6
 40
20.0
 49
10.0
 49
-2.5
 49
1.25
 49
-2.5
 49
1.25
 49
-2.5
  0
LTYPE
  2
DOT
 70
    64
  3
-   -   -   -   -   -   -   -   
 72
    65
 73
     2
 40
2.5
 49
0.625
 49
-1.875
  0
LTYPE
  2
DUMMY
 70
    64
  3
ダミー
 72
    65
 73
     0
 40
0.0
  0
LTYPE
  2
RAND1
 70
    64
  3
ランダム線1
 72
    65
 73
     4
 40
10.0
 49
1.0
 49
-2.0
 49
3.0
 49
-4.0
  0
LTYPE
  2
RAND2
 70
    64
  3
ランダム線2
 72
    65
 73
     4
 40
14.0
 49
2.0
 49
-3.0
 49
4.0
 49
-5.0
  0
LTYPE
  2
RAND3
 70
    64
  3
ランダム線3
 72
    65
 73
     4
 40
18.0
 49
3.0
 49
-4.0
 49
5.0
 49
-6.0
  0
LTYPE
  2
RAND4
 70
    64
  3
ランダム線4
 72
    65
 73
     4
 40
22.0
 49
4.0
 49
-5.0
 49
6.0
 49
-7.0
  0
LTYPE
  2
RAND5
 70
    64
  3
ランダム線5
 72
    65
 73
     4
 40
26.0
 49
5.0
 49
-6.0
 49
7.0
 49
-8.0
  0
LTYPE
  2
LONG1
 70
    64
  3
----------  --  ----------  --  
 72
    65
 73
     4
 40
40.0
 49
32.5
 49
-2.5
 49
2.5
 49
-2.5
  0
LTYPE
  2
LONG2
 70
    64
  3
--------  -  -  --------  -  -  
 72
    65
 73
     6
 40
40.0
 49
30.0
 49
-2.5
 49
1.25
 49
-2.5
 49
1.25
 49
-2.5
  0
LTYPE
  2
LONG3
 70
    64
  3
+++++++++++++++..+++++++++++++++
 72
    65
 73
     2
 40
40.0
 49
37.5
 49
-2.5
  0
LTYPE
  2
LONG4
 70
    64
  3
+++++++++++++++..+++++++++++++++
 72
    65
 73
     2
 40
80.0
 49
75.0
 49
-5.0
  0
LTYPE
  2
LONG5
 70
    64
  3
----------  --  ----------  --  
 72
    65
 73
     4
 40
60.0
 49
37.5
 49
-7.5
 49
7.5
 49
-7.5
  0
LTYPE
  2
dashed
 70
   64
  3
-------   -------------   ------
 72
   65
 73
    2
 40
7.5
 49
6
 49
-1.5
  0
LTYPE
  2
dashed_spaced
 70
   64
  3
----        --------        ----
 72
   65
 73
    2
 40
12
 49
6
 49
-6
  0
LTYPE
  2
long_dashed_dotted
 70
   64
  3
------------- --- --------------
 72
   65
 73
    4
 40
15.25
 49
12
 49
-1.5
 49
0.25
 49
-1.5
  0
LTYPE
  2
long_dashed_double-dotted
 70
   64
  3
----------- --- --- ------------
 72
   65
 73
    6
 40
17
 49
12
 49
-1.5
 49
0.25
 49
-1.5
 49
0.25
 49
-1.5
  0
LTYPE
  2
long_dashed_triplicate-dotted
 70
   64
  3
--------- --- --- --- ----------
 72
   65
 73
    8
 40
18.75
 49
12
 49
-1.5
 49
0.25
 49
-1.5
 49
0.25
 49
-1.5
 49
0.25
 49
-1.5
  0
LTYPE
  2
dotted
 70
   64
  3
   -       -       -       -    
 72
   65
 73
    2
 40
1.75
 49
0.25
 49
-1.5
  0
LTYPE
  2
chain
 70
   64
  3
-------------- -- --------------
 72
   65
 73
    4
 40
18.5
 49
12
 49
-1.5
 49
3.5
 49
-1.5
  0
LTYPE
  2
chain_double_dash
 70
   64
  3
------------ -- -- -------------
 72
   65
 73
    6
 40
23.5
 49
12
 49
-1.5
 49
3.5
 49
-1.5
 49
3.5
 49
-1.5
  0
LTYPE
  2
dashed_dotted
 70
   64
  3
-----------     -     ----------
 72
   65
 73
    4
 40
9.25
 49
6
 49
-1.5
 49
0.25
 49
-1.5
  0
LTYPE
  2
double-dashed_dotted
 70
   64
  3
------   -----------   -   -----
 72
   65
 73
    6
 40
16.75
 49
6
 49
-1.5
 49
6
 49
-1.5
 49
0.25
 49
-1.5
  0
LTYPE
  2
dashed_double-dotted
 70
   64
  3
---------    -    -    ---------
 72
   65
 73
    6
 40
11
 49
6
 49
-1.5
 49
0.25
 49
-1.5
 49
0.25
 49
-1.5
  0
LTYPE
  2
double-dashed_double-dotted
 70
   64
  3
-----   ---------   -   -   ----
 72
   65
 73
    8
 40
18.5
 49
6
 49
-1.5
 49
6
 49
-1.5
 49
0.25
 49
-1.5
 49
0.25
 49
-1.5
  0
LTYPE
  2
dashed_triplicate-dotted
 70
   64
  3
-------    -    -    -    ------
 72
   65
 73
    8
 40
12.75
 49
6
 49
-1.5
 49
0.25
 49
-1.5
 49
0.25
 49
-1.5
 49
0.25
 49
-1.5
  0
LTYPE
  2
double-dashed_triplicate-dotted
 70
   64
  3
-----  ---------  -  -  -  -----
 72
   65
 73
   10
 40
20.25
 49
6
 49
-1.5
 49
6
 49
-1.5
 49
0.25
 49
-1.5
 49
0.25
 49
-1.5
 49
0.25
 49
-1.5
  0
LTYPE
  2
undefined
 70
   64
  3
--------------------------------
 72
   65
 73
    0
 40
0
  0
ENDTAB
  0
TABLE
  2
STYLE
  5
3
100
AcDbSymbolTable
 70
     1
  0
STYLE
  5
10
100
AcDbSymbolTableRecord
100
AcDbTextStyleTableRecord
  2
STANDARD
 70
     0
 40
0.0
 41
1.0
 50
0.0
 71
     0
 42
0.2
  3
txt
  4
bigfont.shx
  0
STYLE
  5
26
100
AcDbSymbolTableRecord
100
AcDbTextStyleTableRecord
  2
TATEGAKI
 70
    68
 40
0.0
 41
1.0
 50
0.0
 71
     0
 42
1.0
  3
txt
  4
bigfont.shx
  0
ENDTAB
  0
TABLE
  2
LAYER
 70
    3
  0
LAYER
  2
_0-0_LAYER001
 70
   64
 62
    7
  6
CONTINUOUS
  0
LAYER
  2
_0-1_ADD_LINE
 70
   64
 62
    7
  6
CONTINUOUS
  0
LAYER
  2
ADD_LINE
 70
   64
 62
    7
  6
CONTINUOUS
  0
ENDTAB
  0
ENDSEC
  0
SECTION
  2
BLOCKS
  0
ENDSEC
  0
SECTION
  2
ENTITIES
  0
LINE
  8
_0-0_LAYER001
  6
CONTINUOUS
 62
    2
 10
1506.1364666666666
 20
1142.2909333333334
 11
2080.0174666666662
 21
884.04433333333327
  0
LINE
  8
_0-0_LAYER001
  6
CONTINUOUS
 62
    2
 10
1506.1364666666666
 20
1142.2909333333334
 11
934.5841999999999
 21
885.09226666666677
  0
LINE
  8
_0-0_LAYER001
  6
CONTINUOUS
 62
    2
 10
1776.5161333333333
 20
1055.5549333333333
 11
1772.9805999999999
 21
1052.0193333333332
  0
LINE
  8
_0-0_LAYER001
  6
CONTINUOUS
 62
    2
 10
1772.9805999999999
 20
1052.0193333333332
 11
1774.2747333333332
 21
1056.8489999999999
  0
LINE
  8
_0-0_LAYER001
  6
CONTINUOUS
 62
    2
 10
1772.9805999999999
 20
1052.0193333333332
 11
1814.0299333333332
 21
1123.1188666666667
  0
LINE
  8
_0-0_LAYER001
  6
CONTINUOUS
 62
    2
 10
1814.0299333333332
 20
1123.1188666666667
 11
1841.0299333333332
 21
1123.1188666666667
  0
LINE
  8
_0-0_LAYER001
  6
CONTINUOUS
 62
    2
 10
1559.442
 20
1169.5784666666666
 11
1555.9064666666666
 21
1166.0429333333334
  0
LINE
  8
_0-0_LAYER001
  6
CONTINUOUS
 62
    2
 10
1555.9064666666666
 20
1166.0429333333334
 11
1557.2005333333334
 21
1170.8725333333334
  0
LINE
  8
_0-0_LAYER001
  6
CONTINUOUS
 62
    2
 10
1555.9064666666666
 20
1166.0429333333334
 11
1584.2944
 21
1215.2122666666669
  0
LINE
  8
_0-0_LAYER001
  6
CONTINUOUS
 62
    2
 10
1584.2944
 20
1215.2122666666669
 11
1649.2944
 21
1215.2122666666669
  0
LINE
  8
_0-0_LAYER001
  6
CONTINUOUS
 62
    2
 10
1486.7320666666669
 20
1125.3774000000001
 11
1485.0916000000002
 21
1127.2344666666665
  0
LINE
  8
_0-0_LAYER001
  6
CONTINUOUS
 62
    2
 10
1486.7320666666669
 20
1125.3774000000001
 11
1486.6390666666666
 21
1127.8531333333333
  0
LINE
  8
_0-0_LAYER001
  6
CONTINUOUS
 62
    2
 10
1483.7932666666666
 20
1129.0923333333333
 11
1486.2012000000002
 21
1130.5299333333335
  0
LINE
  8
_0-0_LAYER001
  6
CONTINUOUS
 62
    2
 10
1484.3725333333332
 20
1127.6448666666668
 11
1486.7802666666666
 21
1129.0824
  0
LINE
  8
_0-0_LAYER001
  6
CONTINUOUS
 62
    2
 10
1465.8452
 20
1183.2066
 11
1461.9760666666666
 21
1181.6589999999999
  0
LINE
  8
_0-0_LAYER001
  6
CONTINUOUS
 62
    2
 10
1466.3089333333335
 20
1182.0457333333334
 11
1462.4405999999999
 21
1180.4986000000001
  0
LINE
  8
_0-0_LAYER001
  6
CONTINUOUS
 62
    2
 10
1461.9760666666666
 20
1181.6589999999999
 11
1462.4405999999999
 21
1180.4986000000001
  0
LINE
  8
_0-0_LAYER001
  6
CONTINUOUS
 62
    2
 10
1465.8452
 20
1183.2066
 11
1466.3089333333335
 21
1182.0457333333334
  0
LINE
  8
_0-0_LAYER001
  6
CONTINUOUS
 62
    2
 10
1463.9106666666667
 20
1182.4328
 11
1464.3747333333336
 21
1181.2719333333332
  0
LINE
  8
_0-0_LAYER001
  6
CONTINUOUS
 62
    2
 10
1465.6139333333335
 20
1174.5420000000001
 11
1468.0219333333334
 21
1175.9794666666667
  0
LINE
  8
_0-0_LAYER001
  6
CONTINUOUS
 62
    2
 10
1466.3877333333332
 20
1172.6078000000002
 11
1468.7961333333333
 21
1174.0448666666666
  0
LINE
  8
_0-0_LAYER001
  6
CONTINUOUS
 62
    2
 10
1467.1619333333333
 20
1170.6732
 11
1469.5697999999998
 21
1172.1107333333334
  0
LINE
  8
_0-0_LAYER001
  6
CONTINUOUS
 62
    2
 10
1467.9352666666668
 20
1168.7385999999999
 11
1470.3432
 21
1170.1765333333333
  0
LINE
  8
_0-0_LAYER001
  6
CONTINUOUS
 62
    2
 10
1468.7090666666666
 20
1166.8048666666666
 11
1471.1169333333332
 21
1168.2423999999999
  0
LINE
  8
_0-0_LAYER001
  6
CONTINUOUS
 62
    2
 10
1469.4828000000002
 20
1164.8702666666666
 11
1471.8911333333333
 21
1166.3078666666665
  0
LINE
  8
_0-0_LAYER001
  6
CONTINUOUS
 62
    2
 10
1470.2569333333336
 20
1162.9361333333331
 11
1472.6644666666666
 21
1164.3732
  0
LINE
  8
_0-0_LAYER001
  6
CONTINUOUS
 62
    2
 10
1471.0303333333334
 20
1161.0015333333333
 11
1473.4382666666668
 21
1162.4391333333333
  0
LINE
  8
_0-0_LAYER001
  6
CONTINUOUS
 62
    2
 10
1471.6095333333333
 20
1159.5540666666668
 11
1474.0173333333332
 21
1160.9916000000001
  0
LINE
  8
_0-0_LAYER001
  6
CONTINUOUS
 62
    2
 10
1465.6127333333334
 20
1180.4219333333333
 11
1486.6390666666666
 21
1127.8531333333333
  0
LINE
  8
_0-0_LAYER001
  6
CONTINUOUS
 62
    2
 10
1466.3089333333335
 20
1182.0457333333334
 11
1465.6127333333334
 21
1180.4219333333333
  0
LINE
  8
_0-0_LAYER001
  6
CONTINUOUS
 62
    2
 10
1464.0656666666666
 20
1179.8019333333334
 11
1485.0918666666666
 21
1127.2342666666666
  0
LINE
  8
_0-0_LAYER001
  6
CONTINUOUS
 62
    2
 10
1462.4405999999999
 20
1180.4986000000001
 11
1464.0656666666666
 21
1179.8019333333334
  0
LINE
  8
_0-0_LAYER001
  6
CONTINUOUS
 62
    2
 10
1472.383
 20
1157.6193333333333
 11
1474.7913333333331
 21
1159.0569333333333
  0
LINE
  8
_0-0_LAYER001
  6
CONTINUOUS
 62
    2
 10
1473.1571333333336
 20
1155.6852000000001
 11
1475.5646666666669
 21
1157.1223333333335
  0
LINE
  8
_0-0_LAYER001
  6
CONTINUOUS
 62
    2
 10
1473.9305333333332
 20
1153.7506000000001
 11
1476.3384666666666
 21
1155.1882000000001
  0
LINE
  8
_0-0_LAYER001
  6
CONTINUOUS
 62
    2
 10
1474.5097333333333
 20
1152.3031333333333
 11
1476.9175333333333
 21
1153.7406666666668
  0
LINE
  8
_0-0_LAYER001
  6
CONTINUOUS
 62
    2
 10
1475.2831999999999
 20
1150.3684000000001
 11
1477.6915333333332
 21
1151.806
  0
LINE
  8
_0-0_LAYER001
  6
CONTINUOUS
 62
    2
 10
1476.0573333333332
 20
1148.4343333333334
 11
1478.4648666666667
 21
1149.8714
  0
LINE
  8
_0-0_LAYER001
  6
CONTINUOUS
 62
    2
 10
1476.8307333333332
 20
1146.4997333333333
 11
1479.2386666666666
 21
1147.9372666666666
  0
LINE
  8
_0-0_LAYER001
  6
CONTINUOUS
 62
    2
 10
1477.4099333333334
 20
1145.0521999999999
 11
1479.8177333333333
 21
1146.4897333333333
  0
LINE
  8
_0-0_LAYER001
  6
CONTINUOUS
 62
    2
 10
1478.1833999999999
 20
1143.1175333333335
 11
1480.5917333333334
 21
1144.5551333333333
  0
LINE
  8
_0-0_LAYER001
  6
CONTINUOUS
 62
    2
 10
1478.9575333333332
 20
1141.1834000000001
 11
1481.3650666666667
 21
1142.6204666666667
  0
LINE
  8
_0-0_LAYER001
  6
CONTINUOUS
 62
    2
 10
1479.7309333333333
 20
1139.2488000000001
 11
1482.1388666666664
 21
1140.6864
  0
LINE
  8
_0-0_LAYER001
  6
CONTINUOUS
 62
    2
 10
1480.3101333333334
 20
1137.8013333333333
 11
1482.7179333333333
 21
1139.2388666666668
  0
LINE
  8
_0-0_LAYER001
  6
CONTINUOUS
 62
    2
 10
1481.0835999999999
 20
1135.8665999999998
 11
1483.4919333333335
 21
1137.3042
  0
LINE
  8
_0-0_LAYER001
  6
CONTINUOUS
 62
    2
 10
1481.8577333333333
 20
1133.9324666666666
 11
1484.2652666666665
 21
1135.3696
  0
LINE
  8
_0-0_LAYER001
  6
CONTINUOUS
 62
    2
 10
1482.6311333333333
 20
1131.9978666666666
 11
1485.0390666666667
 21
1133.4354666666668
  0
LINE
  8
_0-0_LAYER001
  6
CONTINUOUS
 62
    2
 10
1483.2103333333334
 20
1130.5503999999999
 11
1485.6181333333334
 21
1131.9879333333333
  0
LINE
  8
_0-0_LAYER001
  6
CONTINUOUS
 62
    2
 10
1466.7668666666666
 20
1163.9668666666666
 11
1506.1364666666666
 21
1181.6831333333332
  0
LINE
  8
_0-0_LAYER001
  6
CONTINUOUS
 62
    2
 10
1506.1364666666666
 20
1181.6831333333332
 11
1502.8535333333332
 21
1188.9784666666667
  0
LINE
  8
_0-0_LAYER001
  6
CONTINUOUS
 62
    2
 10
1466.7668666666666
 20
1163.9668666666666
 11
1463.4839999999999
 21
1171.2622666666666
  0
LINE
  8
_0-0_LAYER001
  6
CONTINUOUS
 62
    2
 10
1502.8535333333332
 20
1188.9784666666667
 11
1466.7668666666666
 21
1163.9668666666666
  0
LINE
  8
_0-0_LAYER001
  6
CONTINUOUS
 62
    2
 10
1545.5060000000001
 20
1163.9668666666666
 11
1506.1364666666666
 21
1181.6831333333332
  0
LINE
  8
_0-0_LAYER001
  6
CONTINUOUS
 62
    2
 10
1509.4193333333333
 20
1188.9784666666667
 11
1545.5060000000001
 21
1163.9668666666666
  0
LINE
  8
_0-0_LAYER001
  6
CONTINUOUS
 62
    2
 10
1545.5060000000001
 20
1163.9668666666666
 11
1548.7888666666668
 21
1171.2622666666666
  0
LINE
  8
_0-0_LAYER001
  6
CONTINUOUS
 62
    2
 10
1506.1364666666666
 20
1181.6831333333332
 11
1509.4193333333333
 21
1188.9784666666667
  0
LINE
  8
_0-0_LAYER001
  6
CONTINUOUS
 62
    2
 10
1546.4277333333334
 20
1183.2066
 11
1550.2968666666666
 21
1181.6589999999999
  0
LINE
  8
_0-0_LAYER001
  6
CONTINUOUS
 62
    2
 10
1545.9639333333334
 20
1182.0457333333334
 11
1549.8322666666668
 21
1180.4986000000001
  0
LINE
  8
_0-0_LAYER001
  6
CONTINUOUS
 62
    2
 10
1550.2968666666666
 20
1181.6589999999999
 11
1549.8322666666668
 21
1180.4986000000001
  0
LINE
  8
_0-0_LAYER001
  6
CONTINUOUS
 62
    2
 10
1546.4277333333334
 20
1183.2066
 11
1545.9639333333334
 21
1182.0457333333334
  0
LINE
  8
_0-0_LAYER001
  6
CONTINUOUS
 62
    2
 10
1548.3622666666668
 20
1182.4328
 11
1547.8981333333334
 21
1181.2719333333332
  0
LINE
  8
_0-0_LAYER001
  6
CONTINUOUS
 62
    2
 10
1546.6589333333334
 20
1174.5420000000001
 11
1544.2509999999997
 21
1175.9794666666667
  0
LINE
  8
_0-0_LAYER001
  6
CONTINUOUS
 62
    2
 10
1545.8851333333332
 20
1172.6078000000002
 11
1543.4767333333332
 21
1174.0448666666666
  0
LINE
  8
_0-0_LAYER001
  6
CONTINUOUS
 62
    2
 10
1545.1109333333334
 20
1170.6732
 11
1542.7031333333334
 21
1172.1107333333334
  0
LINE
  8
_0-0_LAYER001
  6
CONTINUOUS
 62
    2
 10
1544.3376000000001
 20
1168.7385999999999
 11
1541.9297333333334
 21
1170.1765333333333
  0
LINE
  8
_0-0_LAYER001
  6
CONTINUOUS
 62
    2
 10
1543.5637999999999
 20
1166.8048666666666
 11
1541.1559333333335
 21
1168.2423999999999
  0
LINE
  8
_0-0_LAYER001
  6
CONTINUOUS
 62
    2
 10
1542.7900666666667
 20
1164.8702666666666
 11
1540.3817333333334
 21
1166.3078666666665
  0
LINE
  8
_0-0_LAYER001
  6
CONTINUOUS
 62
    2
 10
1542.0159333333334
 20
1162.9361333333331
 11
1539.6084000000001
 21
1164.3732
  0
LINE
  8
_0-0_LAYER001
  6
CONTINUOUS
 62
    2
 10
1541.2425333333335
 20
1161.0015333333333
 11
1538.8346666666666
 21
1162.4391333333333
  0
LINE
  8
_0-0_LAYER001
  6
CONTINUOUS
 62
    2
 10
1540.6633333333332
 20
1159.5540666666668
 11
1538.2555333333332
 21
1160.9916000000001
  0
LINE
  8
_0-0_LAYER001
  6
CONTINUOUS
 62
    2
 10
1546.6601333333335
 20
1180.4219333333333
 11
1525.6338000000001
 21
1127.8531333333333
  0
LINE
  8
_0-0_LAYER001
  6
CONTINUOUS
 62
    2
 10
1545.9639333333334
 20
1182.0457333333334
 11
1546.6601333333335
 21
1180.4219333333333
  0
LINE
  8
_0-0_LAYER001
  6
CONTINUOUS
 62
    2
 10
1548.2072666666668
 20
1179.8019333333334
 11
1527.181
 21
1127.2342666666666
  0
LINE
  8
_0-0_LAYER001
  6
CONTINUOUS
 62
    2
 10
1549.8322666666668
 20
1180.4986000000001
 11
1548.2072666666668
 21
1179.8019333333334
  0
LINE
  8
_0-0_LAYER001
  6
CONTINUOUS
 62
    2
 10
1525.5408666666665
 20
1125.3774000000001
 11
1527.1812666666667
 21
1127.2344666666665
  0
LINE
  8
_0-0_LAYER001
  6
CONTINUOUS
 62
    2
 10
1525.5408666666665
 20
1125.3774000000001
 11
1525.6338000000001
 21
1127.8531333333333
  0
LINE
  8
_0-0_LAYER001
  6
CONTINUOUS
 62
    2
 10
1528.4796000000001
 20
1129.0923333333333
 11
1526.0716666666667
 21
1130.5299333333335
  0
LINE
  8
_0-0_LAYER001
  6
CONTINUOUS
 62
    2
 10
1527.9004
 20
1127.6448666666668
 11
1525.4925999999998
 21
1129.0824
  0
LINE
  8
_0-0_LAYER001
  6
CONTINUOUS
 62
    2
 10
1539.8898666666669
 20
1157.6193333333333
 11
1537.4815333333333
 21
1159.0569333333333
  0
LINE
  8
_0-0_LAYER001
  6
CONTINUOUS
 62
    2
 10
1539.1157333333333
 20
1155.6852000000001
 11
1536.7082
 21
1157.1223333333335
  0
LINE
  8
_0-0_LAYER001
  6
CONTINUOUS
 62
    2
 10
1538.3423333333335
 20
1153.7506000000001
 11
1535.9344666666666
 21
1155.1882000000001
  0
LINE
  8
_0-0_LAYER001
  6
CONTINUOUS
 62
    2
 10
1537.7631333333331
 20
1152.3031333333333
 11
1535.3553333333332
 21
1153.7406666666668
  0
LINE
  8
_0-0_LAYER001
  6
CONTINUOUS
 62
    2
 10
1536.9896666666668
 20
1150.3684000000001
 11
1534.5813333333333
 21
1151.806
  0
LINE
  8
_0-0_LAYER001
  6
CONTINUOUS
 62
    2
 10
1536.2155333333335
 20
1148.4343333333334
 11
1533.808
 21
1149.8714
  0
LINE
  8
_0-0_LAYER001
  6
CONTINUOUS
 62
    2
 10
1535.4421333333332
 20
1146.4997333333333
 11
1533.0342666666666
 21
1147.9372666666666
  0
LINE
  8
_0-0_LAYER001
  6
CONTINUOUS
 62
    2
 10
1534.8629333333336
 20
1145.0521999999999
 11
1532.4551333333332
 21
1146.4897333333333
  0
LINE
  8
_0-0_LAYER001
  6
CONTINUOUS
 62
    2
 10
1534.0894666666666
 20
1143.1175333333335
 11
1531.681133333333
 21
1144.5551333333333
  0
LINE
  8
_0-0_LAYER001
  6
CONTINUOUS
 62
    2
 10
1533.3153333333335
 20
1141.1834000000001
 11
1530.9078
 21
1142.6204666666667
  0
LINE
  8
_0-0_LAYER001
  6
CONTINUOUS
 62
    2
 10
1532.5419333333332
 20
1139.2488000000001
 11
1530.1340666666667
 21
1140.6864
  0
LINE
  8
_0-0_LAYER001
  6
CONTINUOUS
 62
    2
 10
1531.9627333333335
 20
1137.8013333333333
 11
1529.5549333333333
 21
1139.2388666666668
  0
LINE
  8
_0-0_LAYER001
  6
CONTINUOUS
 62
    2
 10
1531.1892666666665
 20
1135.8665999999998
 11
1528.7809333333335
 21
1137.3042
  0
LINE
  8
_0-0_LAYER001
  6
CONTINUOUS
 62
    2
 10
1530.4151333333332
 20
1133.9324666666666
 11
1528.0075999999999
 21
1135.3696
  0
LINE
  8
_0-0_LAYER001
  6
CONTINUOUS
 62
    2
 10
1529.6417333333331
 20
1131.9978666666666
 11
1527.2338666666667
 21
1133.4354666666668
  0
LINE
  8
_0-0_LAYER001
  6
CONTINUOUS
 62
    2
 10
1529.0625333333335
 20
1130.5503999999999
 11
1526.6547333333335
 21
1131.9879333333333
  0
LINE
  8
_0-0_LAYER001
  6
CONTINUOUS
 62
    2
 10
1444.2786666666666
 20
1175.7788666666668
 11
1449.7501999999999
 21
1163.6199333333334
  0
LINE
  8
_0-0_LAYER001
  6
CONTINUOUS
 62
    2
 10
1568.0902666666668
 20
1175.7356666666667
 11
1562.6187333333335
 21
1163.5767333333333
  0
LINE
  8
_0-0_LAYER001
  6
CONTINUOUS
 62
    2
 10
1447.0740666666668
 20
1169.9692
 11
1446.4234666666666
 21
1170.4289999999999
  0
LINE
  8
_0-0_LAYER001
  6
CONTINUOUS
 62
    2
 10
1447.4517333333333
 20
1168.0319333333334
 11
1446.4234666666666
 21
1170.4289999999999
  0
LINE
  8
_0-0_LAYER001
  6
CONTINUOUS
 62
    2
 10
1447.5668666666666
 20
1168.8204666666666
 11
1447.4517333333333
 21
1168.0319333333334
  0
LINE
  8
_0-0_LAYER001
  6
CONTINUOUS
 62
    2
 10
1452.2882
 20
1170.8458666666666
 11
1454.5959333333335
 21
1172.5157999999999
  0
LINE
  8
_0-0_LAYER001
  6
CONTINUOUS
 62
    2
 10
1447.5668666666666
 20
1168.8204666666666
 11
1452.2882
 21
1170.8458666666666
  0
LINE
  8
_0-0_LAYER001
  6
CONTINUOUS
 62
    2
 10
1454.5959333333335
 20
1172.5157999999999
 11
1451.4856
 21
1171.8617999999999
  0
LINE
  8
_0-0_LAYER001
  6
CONTINUOUS
 62
    2
 10
1447.0740666666668
 20
1169.9692
 11
1451.4856
 21
1171.8617999999999
  0
LINE
  8
_0-0_LAYER001
  6
CONTINUOUS
 62
    2
 10
1565.1988666666666
 20
1169.9692
 11
1565.8494666666666
 21
1170.4289999999999
  0
LINE
  8
_0-0_LAYER001
  6
CONTINUOUS
 62
    2
 10
1564.8212000000001
 20
1168.0319333333334
 11
1565.8494666666666
 21
1170.4289999999999
  0
LINE
  8
_0-0_LAYER001
  6
CONTINUOUS
 62
    2
 10
1564.7060666666666
 20
1168.8204666666666
 11
1564.8212000000001
 21
1168.0319333333334
  0
LINE
  8
_0-0_LAYER001
  6
CONTINUOUS
 62
    2
 10
1559.9847333333335
 20
1170.8458666666666
 11
1557.6769333333334
 21
1172.5157999999999
  0
LINE
  8
_0-0_LAYER001
  6
CONTINUOUS
 62
    2
 10
1564.7060666666666
 20
1168.8204666666666
 11
1559.9847333333335
 21
1170.8458666666666
  0
LINE
  8
_0-0_LAYER001
  6
CONTINUOUS
 62
    2
 10
1557.6769333333334
 20
1172.5157999999999
 11
1560.7872666666665
 21
1171.8617999999999
  0
LINE
  8
_0-0_LAYER001
  6
CONTINUOUS
 62
    2
 10
1565.1988666666666
 20
1169.9692
 11
1560.7872666666665
 21
1171.8617999999999
  0
LINE
  8
_0-0_LAYER001
  6
CONTINUOUS
 62
    2
 10
1518.4003333333335
 20
1203.0567333333333
 11
1514.8648000000001
 21
1199.5211999999999
  0
LINE
  8
_0-0_LAYER001
  6
CONTINUOUS
 62
    2
 10
1514.8648000000001
 20
1199.5211999999999
 11
1516.1588666666667
 21
1204.3508666666667
  0
LINE
  8
_0-0_LAYER001
  6
CONTINUOUS
 62
    2
 10
1514.8648000000001
 20
1199.5211999999999
 11
1570.2671999999998
 21
1295.4810666666665
  0
LINE
  8
_0-0_LAYER001
  6
CONTINUOUS
 62
    2
 10
1570.2671999999998
 20
1295.4810666666665
 11
1726.2671999999998
 21
1295.4810666666665
  0
LINE
  8
_0-0_LAYER001
  6
CONTINUOUS
 62
    2
 10
1506.1364666666666
 20
1032.6324
 11
975.62073333333331
 21
793.90013333333343
  0
LINE
  8
_0-0_LAYER001
  6
CONTINUOUS
 62
    2
 10
1506.1364666666666
 20
1032.6324
 11
2038.9809333333333
 21
792.85219999999993
  0
LINE
  8
_0-0_LAYER001
  6
CONTINUOUS
 62
    2
 10
1270.9753333333333
 20
926.8098
 11
1470.3546666666668
 21
1126.1891333333333
  0
LINE
  8
_0-0_LAYER001
  6
CONTINUOUS
 62
    2
 10
961.66353333333348
 20
824.91600000000005
 11
1093.2308666666668
 21
956.48333333333323
  0
LINE
  8
_0-0_LAYER001
  6
CONTINUOUS
 62
    2
 10
1253.8333333333335
 20
919.09593333333328
 11
1453.2126666666668
 21
1118.4752666666666
  0
LINE
  8
_0-0_LAYER001
  6
CONTINUOUS
 62
    2
 10
958.73760000000004
 20
831.41813333333334
 11
1076.0888666666667
 21
948.76939999999991
  0
LINE
  8
_0-0_LAYER001
  6
CONTINUOUS
 62
    2
 10
1236.6913333333334
 20
911.38200000000006
 11
1436.0706666666665
 21
1110.7613333333334
  0
LINE
  8
_0-0_LAYER001
  6
CONTINUOUS
 62
    2
 10
955.81166666666661
 20
837.92026666666675
 11
1058.9468666666667
 21
941.0555333333333
  0
LINE
  8
_0-0_LAYER001
  6
CONTINUOUS
 62
    4
 10
923.21699999999987
 20
910.35273333333339
 11
979.79853333333324
 21
928.22659999999996
  0
LINE
  8
_0-0_LAYER001
  6
CONTINUOUS
 62
    4
 10
975.74586666666676
 20
941.05566666666664
 11
960.15586666666672
 21
936.13086666666675
  0
LINE
  8
_0-0_LAYER001
  6
CONTINUOUS
 62
    4
 10
918.39653333333342
 20
921.0648666666666
 11
958.54966666666667
 21
933.74913333333336
  0
ARC
  8
_0-0_LAYER001
  6
CONTINUOUS
 62
    4
 10
962.30353333333346
 20
932.7624666666668
 40
3.8813426666666659
 50
113.70193000000002
 51
165.27368000000001
  0
LINE
  8
_0-0_LAYER001
  6
CONTINUOUS
 62
    4
 10
980.56920000000014
 20
915.48586666666665
 11
979.39480000000003
 21
919.2034000000001
  0
LINE
  8
_0-0_LAYER001
  6
CONTINUOUS
 62
    4
 10
975.74586666666676
 20
941.05566666666664
 11
983.52800000000002
 21
916.42060000000015
  0
LINE
  8
_0-0_LAYER001
  6
CONTINUOUS
 62
    4
 10
980.56920000000014
 20
915.48586666666665
 11
983.52800000000002
 21
916.42060000000015
  0
LINE
  8
_0-0_LAYER001
  6
CONTINUOUS
 62
    4
 10
926.72186666666664
 20
902.56419999999991
 11
979.39480000000003
 21
919.2034000000001
  0
LINE
  8
_0-0_LAYER001
  6
CONTINUOUS
 62
    2
 10
964.3294666666668
 20
901.57786666666664
 11
982.70979999999997
 21
909.46233333333339
  0
LINE
  8
_0-0_LAYER001
  6
CONTINUOUS
 62
    2
 10
982.70979999999997
 20
909.46233333333339
 11
978.7675333333334
 21
918.65246666666667
  0
LINE
  8
_0-0_LAYER001
  6
CONTINUOUS
 62
    2
 10
978.7675333333334
 20
918.65246666666667
 11
960.38726666666662
 21
910.76806666666675
  0
LINE
  8
_0-0_LAYER001
  6
CONTINUOUS
 62
    2
 10
960.38726666666662
 20
910.76806666666675
 11
964.3294666666668
 21
901.57786666666664
  0
LINE
  8
_0-0_LAYER001
  6
CONTINUOUS
 62
    2
 10
978.7675333333334
 20
918.65246666666667
 11
964.3294666666668
 21
901.57786666666664
  0
LINE
  8
_0-0_LAYER001
  6
CONTINUOUS
 62
    4
 10
929.33940000000007
 20
939.62093333333326
 11
933.08506666666676
 21
940.77013333333321
  0
ARC
  8
_0-0_LAYER001
  6
CONTINUOUS
 62
    4
 10
944.28399999999999
 20
941.81973333333326
 40
11.248011333333332
 50
102.88244
 51
185.35433
  0
LINE
  8
_0-0_LAYER001
  6
CONTINUOUS
 62
    4
 10
945.38033333333351
 20
941.68700000000001
 11
1150.0238666666669
 21
1004.4732
  0
LINE
  8
_0-0_LAYER001
  6
CONTINUOUS
 62
    4
 10
1146.0776666666668
 20
1017.3353999999999
 11
1130.4474
 21
1012.5399333333332
  0
LINE
  8
_0-0_LAYER001
  6
CONTINUOUS
 62
    4
 10
941.7761999999999
 20
952.78459999999995
 11
1128.8215333333333
 21
1010.1716
  0
ARC
  8
_0-0_LAYER001
  6
CONTINUOUS
 62
    4
 10
1132.5670666666667
 20
1009.1538666666668
 40
3.8813426666666659
 50
113.22723000000001
 51
164.79898000000003
  0
LINE
  8
_0-0_LAYER001
  6
CONTINUOUS
 62
    4
 10
929.33333333333337
 20
939.6407999999999
 11
933.15240000000006
 21
927.19306666666671
  0
ARC
  8
_0-0_LAYER001
  6
CONTINUOUS
 62
    4
 10
947.88813333333337
 20
930.72206666666671
 40
11.248011333333332
 50
102.88244
 51
192.21985000000001
  0
LINE
  8
_0-0_LAYER001
  6
CONTINUOUS
 62
    4
 10
1150.6889333333334
 20
991.72653333333324
 11
1149.5454666666665
 21
995.45360000000005
  0
LINE
  8
_0-0_LAYER001
  6
CONTINUOUS
 62
    4
 10
1146.0776666666668
 20
1017.3353999999999
 11
1153.6553999999999
 21
992.63666666666666
  0
LINE
  8
_0-0_LAYER001
  6
CONTINUOUS
 62
    4
 10
1150.6889333333334
 20
991.72653333333324
 11
1153.6553999999999
 21
992.63666666666666
  0
LINE
  8
_0-0_LAYER001
  6
CONTINUOUS
 62
    4
 10
936.89493333333326
 20
928.34126666666657
 11
933.15240000000006
 21
927.19306666666671
  0
LINE
  8
_0-0_LAYER001
  6
CONTINUOUS
 62
    4
 10
936.66286666666679
 20
930.13959999999997
 11
1149.5454666666665
 21
995.45360000000005
  0
LINE
  8
_0-0_LAYER001
  6
CONTINUOUS
 62
    2
 10
1134.3345999999999
 20
977.95353333333333
 11
1152.7796000000001
 21
985.68539999999996
  0
LINE
  8
_0-0_LAYER001
  6
CONTINUOUS
 62
    2
 10
1152.7796000000001
 20
985.68539999999996
 11
1148.9136666666668
 21
994.9079333333334
  0
LINE
  8
_0-0_LAYER001
  6
CONTINUOUS
 62
    2
 10
1148.9136666666668
 20
994.9079333333334
 11
1130.4686666666666
 21
987.17606666666666
  0
LINE
  8
_0-0_LAYER001
  6
CONTINUOUS
 62
    2
 10
1130.4686666666666
 20
987.17606666666666
 11
1134.3345999999999
 21
977.95353333333333
  0
LINE
  8
_0-0_LAYER001
  6
CONTINUOUS
 62
    2
 10
1148.9136666666668
 20
994.9079333333334
 11
1134.3345999999999
 21
977.95353333333333
  0
LINE
  8
_0-0_LAYER001
  6
CONTINUOUS
 62
    4
 10
1099.5520000000001
 20
1016.2508
 11
1103.2976000000001
 21
1017.3999333333334
  0
ARC
  8
_0-0_LAYER001
  6
CONTINUOUS
 62
    4
 10
1114.4965333333332
 20
1018.4495333333332
 40
11.248011333333332
 50
102.88244
 51
185.35433
  0
LINE
  8
_0-0_LAYER001
  6
CONTINUOUS
 62
    4
 10
1115.5929333333333
 20
1018.3168000000001
 11
1320.2364666666667
 21
1081.1030000000001
  0
LINE
  8
_0-0_LAYER001
  6
CONTINUOUS
 62
    4
 10
1316.2901999999999
 20
1093.9652666666666
 11
1300.6600000000001
 21
1089.1697333333334
  0
LINE
  8
_0-0_LAYER001
  6
CONTINUOUS
 62
    4
 10
1111.9888000000001
 20
1029.4144666666666
 11
1299.0340666666666
 21
1086.8013999999998
  0
ARC
  8
_0-0_LAYER001
  6
CONTINUOUS
 62
    4
 10
1302.7796000000001
 20
1085.7836666666667
 40
3.8813426666666659
 50
113.22723000000001
 51
164.79898000000003
  0
LINE
  8
_0-0_LAYER001
  6
CONTINUOUS
 62
    4
 10
1099.5458666666668
 20
1016.2706666666667
 11
1103.3649333333333
 21
1003.8228666666668
  0
ARC
  8
_0-0_LAYER001
  6
CONTINUOUS
 62
    4
 10
1118.1006666666667
 20
1007.3519333333334
 40
11.248011333333332
 50
102.88244
 51
192.21985000000001
  0
LINE
  8
_0-0_LAYER001
  6
CONTINUOUS
 62
    4
 10
1320.9015333333332
 20
1068.3563999999999
 11
1319.7579999999998
 21
1072.0834666666665
  0
LINE
  8
_0-0_LAYER001
  6
CONTINUOUS
 62
    4
 10
1316.2901999999999
 20
1093.9652666666666
 11
1323.8679999999999
 21
1069.2665333333334
  0
LINE
  8
_0-0_LAYER001
  6
CONTINUOUS
 62
    4
 10
1320.9015333333332
 20
1068.3563999999999
 11
1323.8679999999999
 21
1069.2665333333334
  0
LINE
  8
_0-0_LAYER001
  6
CONTINUOUS
 62
    4
 10
1107.1075333333333
 20
1004.9711333333333
 11
1103.3649333333333
 21
1003.8228666666668
  0
LINE
  8
_0-0_LAYER001
  6
CONTINUOUS
 62
    4
 10
1106.8754000000001
 20
1006.7694666666666
 11
1319.7579999999998
 21
1072.0834666666665
  0
LINE
  8
_0-0_LAYER001
  6
CONTINUOUS
 62
    2
 10
1304.5471333333332
 20
1054.5834
 11
1322.9921333333334
 21
1062.3152666666667
  0
LINE
  8
_0-0_LAYER001
  6
CONTINUOUS
 62
    2
 10
1322.9921333333334
 20
1062.3152666666667
 11
1319.1262000000002
 21
1071.5377333333331
  0
LINE
  8
_0-0_LAYER001
  6
CONTINUOUS
 62
    2
 10
1319.1262000000002
 20
1071.5377333333331
 11
1300.6812
 21
1063.8058666666668
  0
LINE
  8
_0-0_LAYER001
  6
CONTINUOUS
 62
    2
 10
1300.6812
 20
1063.8058666666668
 11
1304.5471333333332
 21
1054.5834
  0
LINE
  8
_0-0_LAYER001
  6
CONTINUOUS
 62
    2
 10
1319.1262000000002
 20
1071.5377333333331
 11
1304.5471333333332
 21
1054.5834
  0
LINE
  8
_0-0_LAYER001
  6
CONTINUOUS
 62
    4
 10
1269.7645333333335
 20
1092.8806
 11
1273.5101333333334
 21
1094.0298
  0
ARC
  8
_0-0_LAYER001
  6
CONTINUOUS
 62
    4
 10
1284.7090666666668
 20
1095.0793999999999
 40
11.248011333333332
 50
102.88244
 51
185.35433
  0
LINE
  8
_0-0_LAYER001
  6
CONTINUOUS
 62
    4
 10
1285.8054666666667
 20
1094.9466666666667
 11
1490.4489999999998
 21
1157.7328666666667
  0
LINE
  8
_0-0_LAYER001
  6
CONTINUOUS
 62
    4
 10
1486.5027999999998
 20
1170.5950666666668
 11
1470.8725333333332
 21
1165.7996000000001
  0
LINE
  8
_0-0_LAYER001
  6
CONTINUOUS
 62
    4
 10
1282.2013333333334
 20
1106.0442666666665
 11
1469.2466666666667
 21
1163.4312
  0
ARC
  8
_0-0_LAYER001
  6
CONTINUOUS
 62
    4
 10
1472.9921999999999
 20
1162.4135333333334
 40
3.8813426666666659
 50
113.22723000000001
 51
164.79898000000003
  0
LINE
  8
_0-0_LAYER001
  6
CONTINUOUS
 62
    4
 10
1269.7584666666667
 20
1092.9004666666667
 11
1273.5775333333333
 21
1080.4527333333335
  0
ARC
  8
_0-0_LAYER001
  6
CONTINUOUS
 62
    4
 10
1288.3132000000001
 20
1083.9817333333333
 40
11.248011333333332
 50
102.88244
 51
192.21985000000001
  0
LINE
  8
_0-0_LAYER001
  6
CONTINUOUS
 62
    4
 10
1491.1140666666668
 20
1144.9862000000001
 11
1489.9705333333336
 21
1148.7132666666666
  0
LINE
  8
_0-0_LAYER001
  6
CONTINUOUS
 62
    4
 10
1486.5027999999998
 20
1170.5950666666668
 11
1494.0805333333335
 21
1145.8963333333331
  0
LINE
  8
_0-0_LAYER001
  6
CONTINUOUS
 62
    4
 10
1491.1140666666668
 20
1144.9862000000001
 11
1494.0805333333335
 21
1145.8963333333331
  0
LINE
  8
_0-0_LAYER001
  6
CONTINUOUS
 62
    4
 10
1277.3200666666667
 20
1081.6009333333334
 11
1273.5775333333333
 21
1080.4527333333335
  0
LINE
  8
_0-0_LAYER001
  6
CONTINUOUS
 62
    4
 10
1277.0879333333335
 20
1083.3992666666668
 11
1489.9705333333336
 21
1148.7132666666666
  0
LINE
  8
_0-0_LAYER001
  6
CONTINUOUS
 62
    2
 10
1474.7596666666668
 20
1131.2131999999999
 11
1493.2046666666665
 21
1138.9450666666667
  0
LINE
  8
_0-0_LAYER001
  6
CONTINUOUS
 62
    2
 10
1493.2046666666665
 20
1138.9450666666667
 11
1489.3387333333335
 21
1148.1676
  0
LINE
  8
_0-0_LAYER001
  6
CONTINUOUS
 62
    2
 10
1489.3387333333335
 20
1148.1676
 11
1470.8937333333333
 21
1140.4357333333335
  0
LINE
  8
_0-0_LAYER001
  6
CONTINUOUS
 62
    2
 10
1470.8937333333333
 20
1140.4357333333335
 11
1474.7596666666668
 21
1131.2131999999999
  0
LINE
  8
_0-0_LAYER001
  6
CONTINUOUS
 62
    2
 10
1489.3387333333335
 20
1148.1676
 11
1474.7596666666668
 21
1131.2131999999999
  0
LINE
  8
_0-0_LAYER001
  6
CONTINUOUS
 62
    2
 10
876.12360000000012
 20
1015.0047333333333
 11
890.68799999999999
 21
1021.5586666666667
  0
CIRCLE
  8
_0-0_LAYER001
  6
CONTINUOUS
 62
    2
 10
890.68799999999999
 20
1021.5586666666667
 40
1.1333333333333331
  0
LINE
  8
_0-0_LAYER001
  6
CONTINUOUS
 62
    2
 10
890.00406666666674
 20
1023.0785333333333
 11
904.36680000000001
 21
991.16126666666673
  0
LINE
  8
_0-0_LAYER001
  6
CONTINUOUS
 62
    2
 10
884.53253333333339
 20
1035.2374666666667
 11
898.89526666666688
 21
1003.3202
  0
CIRCLE
  8
_0-0_LAYER001
  6
CONTINUOUS
 62
    2
 10
885.21646666666675
 20
1033.7175999999999
 40
1.1333333333333331
  0
LINE
  8
_0-0_LAYER001
  6
CONTINUOUS
 62
    2
 10
885.21646666666675
 20
1033.7175999999999
 11
1055.4418666666668
 21
1110.3188666666667
  0
CIRCLE
  8
_0-0_LAYER001
  6
CONTINUOUS
 62
    2
 10
1055.4418666666668
 20
1110.3188666666667
 40
1.1333333333333331
  0
LINE
  8
_0-0_LAYER001
  6
CONTINUOUS
 62
    2
 10
1054.7579333333333
 20
1111.8387333333335
 11
1069.1206666666667
 21
1079.9214666666667
  0
LINE
  8
_0-0_LAYER001
  6
CONTINUOUS
 62
    2
 10
1049.2864
 20
1123.9976666666666
 11
1063.6491333333333
 21
1092.0804000000001
  0
CIRCLE
  8
_0-0_LAYER001
  6
CONTINUOUS
 62
    2
 10
1049.9703333333334
 20
1122.4777999999999
 40
1.1333333333333331
  0
LINE
  8
_0-0_LAYER001
  6
CONTINUOUS
 62
    2
 10
1049.9703333333334
 20
1122.4777999999999
 11
1220.1958
 21
1199.0790666666667
  0
CIRCLE
  8
_0-0_LAYER001
  6
CONTINUOUS
 62
    2
 10
1220.1958
 20
1199.0790666666667
 40
1.1333333333333331
  0
LINE
  8
_0-0_LAYER001
  6
CONTINUOUS
 62
    2
 10
1219.5118
 20
1200.5989333333334
 11
1233.8746000000001
 21
1168.6816666666666
  0
LINE
  8
_0-0_LAYER001
  6
CONTINUOUS
 62
    2
 10
1214.0403333333334
 20
1212.7579333333333
 11
1228.4030666666667
 21
1180.8406666666667
  0
CIRCLE
  8
_0-0_LAYER001
  6
CONTINUOUS
 62
    2
 10
1214.7242666666666
 20
1211.2380666666668
 40
1.1333333333333331
  0
LINE
  8
_0-0_LAYER001
  6
CONTINUOUS
 62
    2
 10
1214.7242666666666
 20
1211.2380666666668
 11
1384.9496666666666
 21
1287.8392666666668
  0
CIRCLE
  8
_0-0_LAYER001
  6
CONTINUOUS
 62
    2
 10
1384.9496666666666
 20
1287.8392666666668
 40
1.1333333333333331
  0
LINE
  8
_0-0_LAYER001
  6
CONTINUOUS
 62
    2
 10
1384.2657333333332
 20
1289.3591333333334
 11
1398.6284666666668
 21
1257.4418666666668
  0
LINE
  8
_0-0_LAYER001
  6
CONTINUOUS
 62
    4
 10
2089.0558666666666
 20
910.35273333333339
 11
2032.4743333333333
 21
928.22659999999996
  0
LINE
  8
_0-0_LAYER001
  6
CONTINUOUS
 62
    4
 10
2036.5269999999998
 20
941.05566666666664
 11
2052.1169999999997
 21
936.13086666666675
  0
LINE
  8
_0-0_LAYER001
  6
CONTINUOUS
 62
    4
 10
2093.8763333333332
 20
921.0648666666666
 11
2053.7231999999999
 21
933.74913333333336
  0
ARC
  8
_0-0_LAYER001
  6
CONTINUOUS
 62
    4
 10
2049.9693333333335
 20
932.7624666666668
 40
3.8813426666666659
 50
14.726318000000001
 51
66.298061999999987
  0
LINE
  8
_0-0_LAYER001
  6
CONTINUOUS
 62
    4
 10
2031.7037333333335
 20
915.48586666666665
 11
2032.8780666666669
 21
919.2034000000001
  0
LINE
  8
_0-0_LAYER001
  6
CONTINUOUS
 62
    4
 10
2036.5269999999998
 20
941.05566666666664
 11
2028.7448666666664
 21
916.42060000000015
  0
LINE
  8
_0-0_LAYER001
  6
CONTINUOUS
 62
    4
 10
2031.7037333333335
 20
915.48586666666665
 11
2028.7448666666664
 21
916.42060000000015
  0
LINE
  8
_0-0_LAYER001
  6
CONTINUOUS
 62
    4
 10
2085.5509999999999
 20
902.56419999999991
 11
2032.8780666666669
 21
919.2034000000001
  0
LINE
  8
_0-0_LAYER001
  6
CONTINUOUS
 62
    2
 10
2047.9434000000001
 20
901.57786666666664
 11
2029.5631333333333
 21
909.46233333333339
  0
LINE
  8
_0-0_LAYER001
  6
CONTINUOUS
 62
    2
 10
2029.5631333333333
 20
909.46233333333339
 11
2033.5053333333331
 21
918.65246666666667
  0
LINE
  8
_0-0_LAYER001
  6
CONTINUOUS
 62
    2
 10
2033.5053333333331
 20
918.65246666666667
 11
2051.8856000000001
 21
910.76806666666675
  0
LINE
  8
_0-0_LAYER001
  6
CONTINUOUS
 62
    2
 10
2051.8856000000001
 20
910.76806666666675
 11
2047.9434000000001
 21
901.57786666666664
  0
LINE
  8
_0-0_LAYER001
  6
CONTINUOUS
 62
    2
 10
2033.5053333333331
 20
918.65246666666667
 11
2047.9434000000001
 21
901.57786666666664
  0
LINE
  8
_0-0_LAYER001
  6
CONTINUOUS
 62
    4
 10
2082.9334666666664
 20
939.62093333333326
 11
2079.1878000000002
 21
940.77013333333321
  0
ARC
  8
_0-0_LAYER001
  6
CONTINUOUS
 62
    4
 10
2067.9889333333331
 20
941.81973333333326
 40
11.248011333333332
 50
354.64566000000013
 51
77.1175530000001
  0
LINE
  8
_0-0_LAYER001
  6
CONTINUOUS
 62
    4
 10
2066.8925333333336
 20
941.68700000000001
 11
1862.2489999999998
 21
1004.4732
  0
LINE
  8
_0-0_LAYER001
  6
CONTINUOUS
 62
    4
 10
1866.1952000000001
 20
1017.3353999999999
 11
1881.8254666666667
 21
1012.5399333333332
  0
LINE
  8
_0-0_LAYER001
  6
CONTINUOUS
 62
    4
 10
2070.4966666666669
 20
952.78459999999995
 11
1883.4513333333334
 21
1010.1716
  0
ARC
  8
_0-0_LAYER001
  6
CONTINUOUS
 62
    4
 10
1879.7057999999997
 20
1009.1538666666668
 40
3.8813426666666659
 50
15.201020000000003
 51
66.772764000000009
  0
LINE
  8
_0-0_LAYER001
  6
CONTINUOUS
 62
    4
 10
2082.9395333333332
 20
939.6407999999999
 11
2079.1204666666663
 21
927.19306666666671
  0
ARC
  8
_0-0_LAYER001
  6
CONTINUOUS
 62
    4
 10
2064.3847333333333
 20
930.72206666666671
 40
11.248011333333332
 50
347.78015000000011
 51
77.117553000000086
  0
LINE
  8
_0-0_LAYER001
  6
CONTINUOUS
 62
    4
 10
1861.5839333333333
 20
991.72653333333324
 11
1862.7274
 21
995.45360000000005
  0
LINE
  8
_0-0_LAYER001
  6
CONTINUOUS
 62
    4
 10
1866.1952000000001
 20
1017.3353999999999
 11
1858.6174666666666
 21
992.63666666666666
  0
LINE
  8
_0-0_LAYER001
  6
CONTINUOUS
 62
    4
 10
1861.5839333333333
 20
991.72653333333324
 11
1858.6174666666666
 21
992.63666666666666
  0
LINE
  8
_0-0_LAYER001
  6
CONTINUOUS
 62
    4
 10
2075.3779333333332
 20
928.34126666666657
 11
2079.1204666666663
 21
927.19306666666671
  0
LINE
  8
_0-0_LAYER001
  6
CONTINUOUS
 62
    4
 10
2075.6099999999997
 20
930.13959999999997
 11
1862.7274
 21
995.45360000000005
  0
LINE
  8
_0-0_LAYER001
  6
CONTINUOUS
 62
    2
 10
1877.938333333333
 20
977.95353333333333
 11
1859.4933333333329
 21
985.68539999999996
  0
LINE
  8
_0-0_LAYER001
  6
CONTINUOUS
 62
    2
 10
1859.4933333333329
 20
985.68539999999996
 11
1863.3592666666666
 21
994.9079333333334
  0
LINE
  8
_0-0_LAYER001
  6
CONTINUOUS
 62
    2
 10
1863.3592666666666
 20
994.9079333333334
 11
1881.8042666666668
 21
987.17606666666666
  0
LINE
  8
_0-0_LAYER001
  6
CONTINUOUS
 62
    2
 10
1881.8042666666668
 20
987.17606666666666
 11
1877.938333333333
 21
977.95353333333333
  0
LINE
  8
_0-0_LAYER001
  6
CONTINUOUS
 62
    2
 10
1863.3592666666666
 20
994.9079333333334
 11
1877.938333333333
 21
977.95353333333333
  0
LINE
  8
_0-0_LAYER001
  6
CONTINUOUS
 62
    4
 10
1912.7209333333331
 20
1016.2508
 11
1908.9752666666666
 21
1017.3999333333334
  0
ARC
  8
_0-0_LAYER001
  6
CONTINUOUS
 62
    4
 10
1897.7763333333332
 20
1018.4495333333332
 40
11.248011333333332
 50
354.64566000000013
 51
77.1175530000001
  0
LINE
  8
_0-0_LAYER001
  6
CONTINUOUS
 62
    4
 10
1896.6800000000001
 20
1018.3168000000001
 11
1692.0364
 21
1081.1030000000001
  0
LINE
  8
_0-0_LAYER001
  6
CONTINUOUS
 62
    4
 10
1695.9826666666668
 20
1093.9652666666666
 11
1711.6129333333333
 21
1089.1697333333334
  0
LINE
  8
_0-0_LAYER001
  6
CONTINUOUS
 62
    4
 10
1900.2841333333333
 20
1029.4144666666666
 11
1713.2388000000001
 21
1086.8013999999998
  0
ARC
  8
_0-0_LAYER001
  6
CONTINUOUS
 62
    4
 10
1709.4932666666668
 20
1085.7836666666667
 40
3.8813426666666659
 50
15.201020000000003
 51
66.772764000000009
  0
LINE
  8
_0-0_LAYER001
  6
CONTINUOUS
 62
    4
 10
1912.7269999999999
 20
1016.2706666666667
 11
1908.9079333333329
 21
1003.8228666666668
  0
ARC
  8
_0-0_LAYER001
  6
CONTINUOUS
 62
    4
 10
1894.1722
 20
1007.3519333333334
 40
11.248011333333332
 50
347.78015000000011
 51
77.117553000000086
  0
LINE
  8
_0-0_LAYER001
  6
CONTINUOUS
 62
    4
 10
1691.3714
 20
1068.3563999999999
 11
1692.5148666666666
 21
1072.0834666666665
  0
LINE
  8
_0-0_LAYER001
  6
CONTINUOUS
 62
    4
 10
1695.9826666666668
 20
1093.9652666666666
 11
1688.4048666666667
 21
1069.2665333333334
  0
LINE
  8
_0-0_LAYER001
  6
CONTINUOUS
 62
    4
 10
1691.3714
 20
1068.3563999999999
 11
1688.4048666666667
 21
1069.2665333333334
  0
LINE
  8
_0-0_LAYER001
  6
CONTINUOUS
 62
    4
 10
1905.1653999999999
 20
1004.9711333333333
 11
1908.9079333333329
 21
1003.8228666666668
  0
LINE
  8
_0-0_LAYER001
  6
CONTINUOUS
 62
    4
 10
1905.3974666666663
 20
1006.7694666666666
 11
1692.5148666666666
 21
1072.0834666666665
  0
LINE
  8
_0-0_LAYER001
  6
CONTINUOUS
 62
    2
 10
1707.7257333333332
 20
1054.5834
 11
1689.2807333333335
 21
1062.3152666666667
  0
LINE
  8
_0-0_LAYER001
  6
CONTINUOUS
 62
    2
 10
1689.2807333333335
 20
1062.3152666666667
 11
1693.1466666666665
 21
1071.5377333333331
  0
LINE
  8
_0-0_LAYER001
  6
CONTINUOUS
 62
    2
 10
1693.1466666666665
 20
1071.5377333333331
 11
1711.5916666666667
 21
1063.8058666666668
  0
LINE
  8
_0-0_LAYER001
  6
CONTINUOUS
 62
    2
 10
1711.5916666666667
 20
1063.8058666666668
 11
1707.7257333333332
 21
1054.5834
  0
LINE
  8
_0-0_LAYER001
  6
CONTINUOUS
 62
    2
 10
1693.1466666666665
 20
1071.5377333333331
 11
1707.7257333333332
 21
1054.5834
  0
LINE
  8
_0-0_LAYER001
  6
CONTINUOUS
 62
    4
 10
1742.5083333333332
 20
1092.8806
 11
1738.7627333333332
 21
1094.0298
  0
ARC
  8
_0-0_LAYER001
  6
CONTINUOUS
 62
    4
 10
1727.5637999999999
 20
1095.0793999999999
 40
11.248011333333332
 50
354.64566000000013
 51
77.1175530000001
  0
LINE
  8
_0-0_LAYER001
  6
CONTINUOUS
 62
    4
 10
1726.4674000000002
 20
1094.9466666666667
 11
1521.8238666666666
 21
1157.7328666666667
  0
LINE
  8
_0-0_LAYER001
  6
CONTINUOUS
 62
    4
 10
1525.7700666666667
 20
1170.5950666666668
 11
1541.4003333333333
 21
1165.7996000000001
  0
LINE
  8
_0-0_LAYER001
  6
CONTINUOUS
 62
    4
 10
1730.0715333333335
 20
1106.0442666666665
 11
1543.0262666666667
 21
1163.4312
  0
ARC
  8
_0-0_LAYER001
  6
CONTINUOUS
 62
    4
 10
1539.2806666666665
 20
1162.4135333333334
 40
3.8813426666666659
 50
15.201020000000003
 51
66.772764000000009
  0
LINE
  8
_0-0_LAYER001
  6
CONTINUOUS
 62
    4
 10
1742.5144666666665
 20
1092.9004666666667
 11
1738.6954000000001
 21
1080.4527333333335
  0
ARC
  8
_0-0_LAYER001
  6
CONTINUOUS
 62
    4
 10
1723.9596666666666
 20
1083.9817333333333
 40
11.248011333333332
 50
347.78015000000011
 51
77.117553000000086
  0
LINE
  8
_0-0_LAYER001
  6
CONTINUOUS
 62
    4
 10
1521.1587999999997
 20
1144.9862000000001
 11
1522.3023333333333
 21
1148.7132666666666
  0
LINE
  8
_0-0_LAYER001
  6
CONTINUOUS
 62
    4
 10
1525.7700666666667
 20
1170.5950666666668
 11
1518.1923333333334
 21
1145.8963333333331
  0
LINE
  8
_0-0_LAYER001
  6
CONTINUOUS
 62
    4
 10
1521.1587999999997
 20
1144.9862000000001
 11
1518.1923333333334
 21
1145.8963333333331
  0
LINE
  8
_0-0_LAYER001
  6
CONTINUOUS
 62
    4
 10
1734.9528
 20
1081.6009333333334
 11
1738.6954000000001
 21
1080.4527333333335
  0
LINE
  8
_0-0_LAYER001
  6
CONTINUOUS
 62
    4
 10
1735.1849333333334
 20
1083.3992666666668
 11
1522.3023333333333
 21
1148.7132666666666
  0
LINE
  8
_0-0_LAYER001
  6
CONTINUOUS
 62
    2
 10
1537.5131999999999
 20
1131.2131999999999
 11
1519.0682000000002
 21
1138.9450666666667
  0
LINE
  8
_0-0_LAYER001
  6
CONTINUOUS
 62
    2
 10
1519.0682000000002
 20
1138.9450666666667
 11
1522.9341333333332
 21
1148.1676
  0
LINE
  8
_0-0_LAYER001
  6
CONTINUOUS
 62
    2
 10
1522.9341333333332
 20
1148.1676
 11
1541.3791333333334
 21
1140.4357333333335
  0
LINE
  8
_0-0_LAYER001
  6
CONTINUOUS
 62
    2
 10
1541.3791333333334
 20
1140.4357333333335
 11
1537.5131999999999
 21
1131.2131999999999
  0
LINE
  8
_0-0_LAYER001
  6
CONTINUOUS
 62
    2
 10
1522.9341333333332
 20
1148.1676
 11
1537.5131999999999
 21
1131.2131999999999
  0
LINE
  8
_0-0_LAYER001
  6
DASHED3
 62
    2
 10
934.17386666666675
 20
886.00419999999997
 11
1506.1364666666666
 21
1143.3875333333333
  0
LINE
  8
_0-0_LAYER001
  6
DASHED3
 62
    2
 10
2080.3762000000002
 20
884.97920000000011
 11
1506.1364666666666
 21
1143.3875333333333
  0
ARC
  8
_0-0_LAYER001
  6
CONTINUOUS
 62
    2
 10
1439.3389999999999
 20
1158.1117333333332
 40
16.790778
 50
4.3726130000000003
 51
31.357462000000005
  0
LINE
  8
_0-0_LAYER001
  6
CONTINUOUS
 62
    1
 10
1460.2648666666666
 20
1160.6755333333333
 11
1461.7842000000001
 21
1162.1948666666667
  0
LINE
  8
_0-0_LAYER001
  6
CONTINUOUS
 62
    1
 10
1456.8645999999999
 20
1159.6323333333335
 11
1461.130466666667
 21
1163.8981333333334
  0
LINE
  8
_0-0_LAYER001
  6
CONTINUOUS
 62
    1
 10
1455.8599333333334
 20
1160.9846666666667
 11
1460.4767333333334
 21
1165.6014666666667
  0
LINE
  8
_0-0_LAYER001
  6
CONTINUOUS
 62
    1
 10
1455.3953333333332
 20
1162.8770666666667
 11
1459.8230000000001
 21
1167.3047333333334
  0
LINE
  8
_0-0_LAYER001
  6
CONTINUOUS
 62
    1
 10
1454.7588666666666
 20
1164.5976000000001
 11
1459.1692666666668
 21
1169.008
  0
LINE
  8
_0-0_LAYER001
  6
CONTINUOUS
 62
    1
 10
1454.0170000000001
 20
1166.2127333333333
 11
1455.4520666666667
 21
1167.6478666666667
  0
LINE
  8
_0-0_LAYER001
  6
CONTINUOUS
 62
    1
 10
1461.6338666666666
 20
1170.4296666666667
 11
1462.6016
 21
1161.3924666666667
  0
LINE
  8
_0-0_LAYER001
  6
CONTINUOUS
 62
    1
 10
1464.4097999999999
 20
1161.9472666666666
 11
1459.0669333333333
 21
1169.2746
  0
ARC
  8
_0-0_LAYER001
  6
CONTINUOUS
 62
    2
 10
1572.9338666666667
 20
1158.1117333333332
 40
16.790778
 50
148.64252999999999
 51
175.62737999999999
  0
LINE
  8
_0-0_LAYER001
  6
CONTINUOUS
 62
    1
 10
1552.0080000000003
 20
1160.6755333333333
 11
1550.4887333333331
 21
1162.1948666666667
  0
LINE
  8
_0-0_LAYER001
  6
CONTINUOUS
 62
    1
 10
1555.4082666666668
 20
1159.6323333333335
 11
1551.1424666666665
 21
1163.8981333333334
  0
LINE
  8
_0-0_LAYER001
  6
CONTINUOUS
 62
    1
 10
1556.4129999999998
 20
1160.9846666666667
 11
1551.7962
 21
1165.6014666666667
  0
LINE
  8
_0-0_LAYER001
  6
CONTINUOUS
 62
    1
 10
1556.8775333333333
 20
1162.8770666666667
 11
1552.4499333333333
 21
1167.3047333333334
  0
LINE
  8
_0-0_LAYER001
  6
CONTINUOUS
 62
    1
 10
1557.5140000000001
 20
1164.5976000000001
 11
1553.1035999999999
 21
1169.008
  0
LINE
  8
_0-0_LAYER001
  6
CONTINUOUS
 62
    1
 10
1558.2559333333334
 20
1166.2127333333333
 11
1556.8208000000002
 21
1167.6478666666667
  0
LINE
  8
_0-0_LAYER001
  6
CONTINUOUS
 62
    1
 10
1550.6390000000001
 20
1170.4296666666667
 11
1549.6712666666665
 21
1161.3924666666667
  0
LINE
  8
_0-0_LAYER001
  6
CONTINUOUS
 62
    1
 10
1547.8630666666668
 20
1161.9472666666666
 11
1553.2059333333334
 21
1169.2746
  0
LINE
  8
_0-0_LAYER001
  6
CONTINUOUS
 62
    2
 10
1450.4871333333333
 20
1165.4136666666666
 11
1505.2024666666666
 21
1190.0355333333334
  0
LINE
  8
_0-0_LAYER001
  6
CONTINUOUS
 62
    2
 10
1505.2024666666666
 20
1190.0355333333334
 11
1501.0988
 21
1199.1547333333333
  0
LINE
  8
_0-0_LAYER001
  6
CONTINUOUS
 62
    2
 10
1501.0988
 20
1199.1547333333333
 11
1446.3835333333332
 21
1174.5328666666665
  0
LINE
  8
_0-0_LAYER001
  6
CONTINUOUS
 62
    2
 10
1446.3835333333332
 20
1174.5328666666665
 11
1450.4871333333333
 21
1165.4136666666666
  0
LINE
  8
_0-0_LAYER001
  6
CONTINUOUS
 62
    2
 10
1450.4871333333333
 20
1165.4136666666666
 11
1501.0988
 21
1199.1547333333333
  0
LINE
  8
_0-0_LAYER001
  6
CONTINUOUS
 62
    2
 10
1561.8520666666666
 20
1165.3838666666666
 11
1507.1367333333333
 21
1190.0056666666665
  0
LINE
  8
_0-0_LAYER001
  6
CONTINUOUS
 62
    2
 10
1507.1367333333333
 20
1190.0056666666665
 11
1511.2403333333332
 21
1199.1248666666665
  0
LINE
  8
_0-0_LAYER001
  6
CONTINUOUS
 62
    2
 10
1511.2403333333332
 20
1199.1248666666665
 11
1565.9556666666667
 21
1174.5030666666667
  0
LINE
  8
_0-0_LAYER001
  6
CONTINUOUS
 62
    2
 10
1565.9556666666667
 20
1174.5030666666667
 11
1561.8520666666666
 21
1165.3838666666666
  0
LINE
  8
_0-0_LAYER001
  6
CONTINUOUS
 62
    2
 10
1561.8520666666666
 20
1165.3838666666666
 11
1511.2403333333332
 21
1199.1248666666665
  0
LINE
  8
_0-0_LAYER001
  6
CONTINUOUS
 62
    1
 10
1459.0669333333333
 20
1169.2746
 11
1462.1457999999998
 21
1161.2526666666665
  0
LINE
  8
_0-0_LAYER001
  6
CONTINUOUS
 62
    2
 10
1461.6338666666666
 20
1170.4296666666667
 11
1464.8389333333334
 21
1162.0789333333335
  0
LINE
  8
_0-0_LAYER001
  6
CONTINUOUS
 62
    1
 10
1553.2059333333334
 20
1169.2746
 11
1550.1270666666667
 21
1161.2526666666665
  0
LINE
  8
_0-0_LAYER001
  6
CONTINUOUS
 62
    2
 10
1550.6390000000001
 20
1170.4296666666667
 11
1547.4339333333332
 21
1162.0789333333335
  0
LINE
  8
_0-0_LAYER001
  6
CONTINUOUS
 62
    2
 10
1432.7958666666666
 20
1155.9904666666666
 11
1439.2665333333332
 21
1155.5530666666666
  0
LINE
  8
_0-0_LAYER001
  6
CONTINUOUS
 62
    2
 10
1449.7501999999999
 20
1163.6199333333334
 11
1432.7958666666666
 21
1155.9904666666666
  0
LINE
  8
_0-0_LAYER001
  6
CONTINUOUS
 62
    2
 10
1579.4769999999999
 20
1155.9904666666666
 11
1573.0063333333333
 21
1155.5530666666666
  0
LINE
  8
_0-0_LAYER001
  6
CONTINUOUS
 62
    2
 10
1562.6187333333335
 20
1163.5767333333333
 11
1579.4769999999999
 21
1155.9904666666666
  0
LINE
  8
_0-0_LAYER001
  6
CONTINUOUS
 62
    2
 10
1506.1364666666666
 20
1203.6148000000001
 11
1444.2786666666666
 21
1175.7788666666668
  0
LINE
  8
_0-0_LAYER001
  6
CONTINUOUS
 62
    2
 10
1506.1364666666666
 20
1203.6148000000001
 11
1568.0902666666668
 21
1175.7356666666667
  0
LINE
  8
_0-0_LAYER001
  6
CONTINUOUS
 62
    2
 10
1542.7912000000001
 20
1184.4142666666667
 11
1539.2556666666667
 21
1180.8787333333335
  0
LINE
  8
_0-0_LAYER001
  6
CONTINUOUS
 62
    2
 10
1539.2556666666667
 20
1180.8787333333335
 11
1540.5497333333333
 21
1185.7083333333333
  0
LINE
  8
_0-0_LAYER001
  6
CONTINUOUS
 62
    2
 10
1539.2556666666667
 20
1180.8787333333335
 11
1580.2080666666666
 21
1251.8103333333331
  0
LINE
  8
_0-0_LAYER001
  6
CONTINUOUS
 62
    2
 10
1580.2080666666666
 20
1251.8103333333331
 11
1678.2080666666666
 21
1251.8103333333331
  0
LINE
  8
_0-0_LAYER001
  6
CONTINUOUS
 62
    2
 10
1142.6474666666668
 20
980.82799999999997
 11
1142.6474666666668
 21
985.82799999999997
  0
LINE
  8
_0-0_LAYER001
  6
CONTINUOUS
 62
    2
 10
1142.6474666666668
 20
985.82799999999997
 11
1145.1474666666668
 21
981.4978666666666
  0
LINE
  8
_0-0_LAYER001
  6
CONTINUOUS
 62
    2
 10
1188.4648666666667
 20
814.83513333333337
 11
1325.0133333333333
 21
814.83513333333337
  0
LINE
  8
_0-1_ADD_LINE
  6
CONTINUOUS
 62
   18
 10
1439.2665333333332
 20
1155.5530666666666
 11
1432.7958666666666
 21
1155.9904666666666
  0
LINE
  8
_0-1_ADD_LINE
  6
CONTINUOUS
 62
   18
 10
1432.7958666666666
 20
1155.9904666666666
 11
1449.7501999999999
 21
1163.6199333333334
  0
LINE
  8
_0-1_ADD_LINE
  6
CONTINUOUS
 62
   18
 10
1449.7501999999999
 20
1163.6199333333334
 11
1444.2786666666666
 21
1175.7788666666668
  0
LINE
  8
_0-1_ADD_LINE
  6
CONTINUOUS
 62
   18
 10
1444.2786666666666
 20
1175.7788666666668
 11
1506.1364666666666
 21
1203.6148000000001
  0
LINE
  8
_0-1_ADD_LINE
  6
CONTINUOUS
 62
   18
 10
1506.1364666666666
 20
1203.6148000000001
 11
1568.0902666666668
 21
1175.7356666666667
  0
LINE
  8
_0-1_ADD_LINE
  6
CONTINUOUS
 62
   18
 10
1568.0902666666668
 20
1175.7356666666667
 11
1562.6187333333335
 21
1163.5767333333333
  0
LINE
  8
_0-1_ADD_LINE
  6
CONTINUOUS
 62
   18
 10
1562.6187333333335
 20
1163.5767333333333
 11
1579.4769999999999
 21
1155.9904666666666
  0
LINE
  8
_0-1_ADD_LINE
  6
CONTINUOUS
 62
   18
 10
1579.4769999999999
 20
1155.9904666666666
 11
1573.0063333333333
 21
1155.5530666666666
  0
LINE
  8
_0-1_ADD_LINE
  6
CONTINUOUS
 62
   18
 10
1511.2403333333332
 20
1199.1248666666665
 11
1507.1367333333333
 21
1190.0056666666665
  0
LINE
  8
_0-1_ADD_LINE
  6
CONTINUOUS
 62
   18
 10
1507.1367333333333
 20
1190.0056666666665
 11
1561.8520666666666
 21
1165.3838666666666
  0
LINE
  8
_0-1_ADD_LINE
  6
CONTINUOUS
 62
   18
 10
1561.8520666666666
 20
1165.3838666666666
 11
1565.9556666666667
 21
1174.5030666666667
  0
LINE
  8
_0-1_ADD_LINE
  6
CONTINUOUS
 62
   18
 10
1565.9556666666667
 20
1174.5030666666667
 11
1511.2403333333332
 21
1199.1248666666665
  0
LINE
  8
_0-1_ADD_LINE
  6
CONTINUOUS
 62
   18
 10
1511.2403333333332
 20
1199.1248666666665
 11
1561.8520666666666
 21
1165.3838666666666
  0
LINE
  8
_0-1_ADD_LINE
  6
CONTINUOUS
 62
   18
 10
1501.0988
 20
1199.1547333333333
 11
1505.2024666666666
 21
1190.0355333333334
  0
LINE
  8
_0-1_ADD_LINE
  6
CONTINUOUS
 62
   18
 10
1505.2024666666666
 20
1190.0355333333334
 11
1450.4871333333333
 21
1165.4136666666666
  0
LINE
  8
_0-1_ADD_LINE
  6
CONTINUOUS
 62
   18
 10
1450.4871333333333
 20
1165.4136666666666
 11
1446.3835333333332
 21
1174.5328666666665
  0
LINE
  8
_0-1_ADD_LINE
  6
CONTINUOUS
 62
   18
 10
1446.3835333333332
 20
1174.5328666666665
 11
1501.0988
 21
1199.1547333333333
  0
LINE
  8
_0-1_ADD_LINE
  6
CONTINUOUS
 62
   18
 10
1446.4234666666666
 20
1170.4289999999999
 11
1447.4517333333333
 21
1168.0319333333334
  0
LINE
  8
_0-1_ADD_LINE
  6
CONTINUOUS
 62
   18
 10
1447.4517333333333
 20
1168.0319333333334
 11
1447.5668666666666
 21
1168.8204666666666
  0
LINE
  8
_0-1_ADD_LINE
  6
CONTINUOUS
 62
   18
 10
1447.5668666666666
 20
1168.8204666666666
 11
1452.2882
 21
1170.8458666666666
  0
LINE
  8
_0-1_ADD_LINE
  6
CONTINUOUS
 62
   18
 10
1452.2882
 20
1170.8458666666666
 11
1454.5959333333335
 21
1172.5157999999999
  0
LINE
  8
_0-1_ADD_LINE
  6
CONTINUOUS
 62
   18
 10
1454.5959333333335
 20
1172.5157999999999
 11
1451.4856
 21
1171.8617999999999
  0
LINE
  8
_0-1_ADD_LINE
  6
CONTINUOUS
 62
   18
 10
1451.4856
 20
1171.8617999999999
 11
1447.0740666666668
 21
1169.9692
  0
LINE
  8
_0-1_ADD_LINE
  6
CONTINUOUS
 62
   18
 10
1447.0740666666668
 20
1169.9692
 11
1446.4234666666666
 21
1170.4289999999999
  0
LINE
  8
_0-1_ADD_LINE
  6
CONTINUOUS
 62
   18
 10
1450.4871333333333
 20
1165.4136666666666
 11
1501.0988
 21
1199.1547333333333
  0
LINE
  8
_0-1_ADD_LINE
  6
CONTINUOUS
 62
   18
 10
1464.8389333333334
 20
1162.0789333333335
 11
1461.6338666666666
 21
1170.4296666666667
  0
LINE
  8
_0-1_ADD_LINE
  6
CONTINUOUS
 62
   18
 10
1463.4839999999999
 20
1171.2622666666666
 11
1466.7668666666666
 21
1163.9668666666666
  0
LINE
  8
_0-1_ADD_LINE
  6
CONTINUOUS
 62
   18
 10
1466.7668666666666
 20
1163.9668666666666
 11
1506.1364666666666
 21
1181.6831333333332
  0
LINE
  8
_0-1_ADD_LINE
  6
CONTINUOUS
 62
   18
 10
1506.1364666666666
 20
1181.6831333333332
 11
1502.8535333333332
 21
1188.9784666666667
  0
LINE
  8
_0-1_ADD_LINE
  6
CONTINUOUS
 62
   18
 10
1502.8535333333332
 20
1188.9784666666667
 11
1466.7668666666666
 21
1163.9668666666666
  0
LINE
  8
_0-1_ADD_LINE
  6
CONTINUOUS
 62
   18
 10
1548.7888666666668
 20
1171.2622666666666
 11
1545.5060000000001
 21
1163.9668666666666
  0
LINE
  8
_0-1_ADD_LINE
  6
CONTINUOUS
 62
   18
 10
1545.5060000000001
 20
1163.9668666666666
 11
1509.4193333333333
 21
1188.9784666666667
  0
LINE
  8
_0-1_ADD_LINE
  6
CONTINUOUS
 62
   18
 10
1509.4193333333333
 20
1188.9784666666667
 11
1506.1364666666666
 21
1181.6831333333332
  0
LINE
  8
_0-1_ADD_LINE
  6
CONTINUOUS
 62
   18
 10
1506.1364666666666
 20
1181.6831333333332
 11
1545.5060000000001
 21
1163.9668666666666
  0
LINE
  8
_0-1_ADD_LINE
  6
CONTINUOUS
 62
   18
 10
1547.4339333333332
 20
1162.0789333333335
 11
1550.6390000000001
 21
1170.4296666666667
  0
LINE
  8
_0-1_ADD_LINE
  6
CONTINUOUS
 62
   18
 10
1557.2005333333334
 20
1170.8725333333334
 11
1555.9064666666666
 21
1166.0429333333334
  0
LINE
  8
_0-1_ADD_LINE
  6
CONTINUOUS
 62
   18
 10
1555.9064666666666
 20
1166.0429333333334
 11
1559.442
 21
1169.5784666666666
  0
LINE
  8
_0-1_ADD_LINE
  6
CONTINUOUS
 62
   18
 10
1559.9847333333335
 20
1170.8458666666666
 11
1557.6769333333334
 21
1172.5157999999999
  0
LINE
  8
_0-1_ADD_LINE
  6
CONTINUOUS
 62
   18
 10
1557.6769333333334
 20
1172.5157999999999
 11
1560.7872666666665
 21
1171.8617999999999
  0
LINE
  8
_0-1_ADD_LINE
  6
CONTINUOUS
 62
   18
 10
1560.7872666666665
 20
1171.8617999999999
 11
1565.1988666666666
 21
1169.9692
  0
LINE
  8
_0-1_ADD_LINE
  6
CONTINUOUS
 62
   18
 10
1565.1988666666666
 20
1169.9692
 11
1565.8494666666666
 21
1170.4289999999999
  0
LINE
  8
_0-1_ADD_LINE
  6
CONTINUOUS
 62
   18
 10
1565.8494666666666
 20
1170.4289999999999
 11
1564.8212000000001
 21
1168.0319333333334
  0
LINE
  8
_0-1_ADD_LINE
  6
CONTINUOUS
 62
   18
 10
1564.8212000000001
 20
1168.0319333333334
 11
1564.7060666666666
 21
1168.8204666666666
  0
LINE
  8
_0-1_ADD_LINE
  6
CONTINUOUS
 62
   18
 10
1564.7060666666666
 20
1168.8204666666666
 11
1559.9847333333335
 21
1170.8458666666666
  0
LINE
  8
_0-1_ADD_LINE
  6
CONTINUOUS
 62
   18
 10
1555.9658359944492
 20
1166.1457640055507
 11
1584.2944
 21
1215.2122666666669
  0
LINE
  8
_0-1_ADD_LINE
  6
CONTINUOUS
 62
   18
 10
1584.2944
 20
1215.2122666666669
 11
1649.2944
 21
1215.2122666666669
  0
LINE
  8
_0-1_ADD_LINE
  6
CONTINUOUS
 62
   18
 10
1580.2080666666666
 20
1251.8103333333331
 11
1678.2080666666666
 21
1251.8103333333331
  0
LINE
  8
_0-1_ADD_LINE
  6
CONTINUOUS
 62
   18
 10
1580.2080666666666
 20
1251.8103333333331
 11
1539.2556666666667
 21
1180.8787333333335
  0
LINE
  8
_0-1_ADD_LINE
  6
CONTINUOUS
 62
   18
 10
1539.2556666666667
 20
1180.8787333333335
 11
1542.7912000000001
 21
1184.4142666666667
  0
LINE
  8
_0-1_ADD_LINE
  6
CONTINUOUS
 62
   18
 10
1539.2556666666667
 20
1180.8787333333335
 11
1540.5497333333333
 21
1185.7083333333333
  0
LINE
  8
_0-1_ADD_LINE
  6
CONTINUOUS
 62
   18
 10
1514.8648000000001
 20
1199.5211999999999
 11
1516.1588666666667
 21
1204.3508666666667
  0
LINE
  8
_0-1_ADD_LINE
  6
CONTINUOUS
 62
   18
 10
1514.8648000000001
 20
1199.5211999999999
 11
1518.4003333333335
 21
1203.0567333333333
  0
LINE
  8
_0-1_ADD_LINE
  6
CONTINUOUS
 62
   18
 10
1514.9791868570346
 20
1199.6355868570347
 11
1570.2671999999998
 21
1295.4810666666665
  0
LINE
  8
_0-1_ADD_LINE
  6
CONTINUOUS
 62
   18
 10
1570.2671999999998
 20
1295.4810666666665
 11
1726.2671999999998
 21
1295.4810666666665
  0
LINE
  8
_0-1_ADD_LINE
  6
CONTINUOUS
 62
   18
 10
1398.6284666666668
 20
1257.4418666666668
 11
1384.2657333333332
 21
1289.3591333333334
  0
LINE
  8
_0-1_ADD_LINE
  6
CONTINUOUS
 62
   18
 10
1384.9496666666666
 20
1287.8392666666668
 11
1214.7242666666666
 21
1211.2380666666668
  0
LINE
  8
_0-1_ADD_LINE
  6
CONTINUOUS
 62
   18
 10
1214.259191778403
 20
1212.2715799915691
 11
1233.8746000000001
 21
1168.6816666666666
  0
LINE
  8
_0-1_ADD_LINE
  6
CONTINUOUS
 62
   18
 10
1219.1622885215386
 20
1198.6139876751683
 11
1220.1958
 21
1199.0790666666667
  0
LINE
  8
_0-1_ADD_LINE
  6
CONTINUOUS
 62
   18
 10
1219.1622885215386
 20
1198.6139876751683
 11
1049.9703333333334
 21
1122.4777999999999
  0
LINE
  8
_0-1_ADD_LINE
  6
CONTINUOUS
 62
   18
 10
1049.5052584450696
 20
1123.5113133249022
 11
1069.1206666666667
 21
1079.9214666666667
  0
LINE
  8
_0-1_ADD_LINE
  6
CONTINUOUS
 62
   18
 10
1055.4418666666668
 20
1110.3188666666667
 11
885.21647075867702
 21
1033.7176018414007
  0
LINE
  8
_0-1_ADD_LINE
  6
CONTINUOUS
 62
   18
 10
884.53253333333339
 20
1035.2374666666667
 11
904.36680000000001
 21
991.16126666666673
  0
LINE
  8
_0-1_ADD_LINE
  6
CONTINUOUS
 62
   18
 10
890.68798138797831
 20
1021.5586582913165
 11
876.12360000000012
 21
1015.0047333333333
  0
LINE
  8
_0-1_ADD_LINE
  6
CONTINUOUS
 62
   18
 10
876.12360000000012
 20
1015.0047333333333
 11
890.68798138797831
 21
1021.5586582913165
  0
LINE
  8
_0-1_ADD_LINE
  6
CONTINUOUS
 62
   18
 10
960.38726666666662
 20
910.76806666666675
 11
964.3294666666668
 21
901.57786666666664
  0
LINE
  8
_0-1_ADD_LINE
  6
CONTINUOUS
 62
   18
 10
964.3294666666668
 20
901.57786666666664
 11
982.70979999999997
 21
909.46233333333339
  0
LINE
  8
_0-1_ADD_LINE
  6
CONTINUOUS
 62
   18
 10
982.70979999999997
 20
909.46233333333339
 11
978.7675333333334
 21
918.65246666666667
  0
LINE
  8
_0-1_ADD_LINE
  6
CONTINUOUS
 62
   18
 10
978.7675333333334
 20
918.65246666666667
 11
960.38726666666662
 21
910.76806666666675
  0
LINE
  8
_0-1_ADD_LINE
  6
CONTINUOUS
 62
   18
 10
978.7675333333334
 20
918.65246666666667
 11
964.3294666666668
 21
901.57786666666664
  0
LINE
  8
_0-1_ADD_LINE
  6
CONTINUOUS
 62
   18
 10
934.17386666666675
 20
886.00419999999997
 11
1506.1364666666666
 21
1143.3875333333333
  0
LINE
  8
_0-1_ADD_LINE
  6
CONTINUOUS
 62
   18
 10
1506.1364666666666
 20
1142.2909333333334
 11
934.5841999999999
 21
885.09226666666677
  0
LINE
  8
_0-1_ADD_LINE
  6
CONTINUOUS
 62
   18
 10
955.81166666666661
 20
837.92026666666675
 11
1058.9468034779416
 21
941.05547014456715
  0
LINE
  8
_0-1_ADD_LINE
  6
CONTINUOUS
 62
   18
 10
1076.0888666666667
 20
948.76939999999991
 11
958.73760000000004
 21
831.41813333333334
  0
LINE
  8
_0-1_ADD_LINE
  6
CONTINUOUS
 62
   18
 10
961.66353333333348
 20
824.91600000000005
 11
1093.2308666666668
 21
956.48333333333323
  0
LINE
  8
_0-1_ADD_LINE
  6
CONTINUOUS
 62
   18
 10
1130.4686666666666
 20
987.17606666666666
 11
1134.3345999999999
 21
977.95353333333333
  0
LINE
  8
_0-1_ADD_LINE
  6
CONTINUOUS
 62
   18
 10
1134.3345999999999
 20
977.95353333333333
 11
1152.7796000000001
 21
985.68539999999996
  0
LINE
  8
_0-1_ADD_LINE
  6
CONTINUOUS
 62
   18
 10
1152.7796000000001
 20
985.68539999999996
 11
1148.9136666666668
 21
994.9079333333334
  0
LINE
  8
_0-1_ADD_LINE
  6
CONTINUOUS
 62
   18
 10
1148.9136666666668
 20
994.9079333333334
 11
1130.4686666666666
 21
987.17606666666666
  0
LINE
  8
_0-1_ADD_LINE
  6
CONTINUOUS
 62
   18
 10
1134.3345999999999
 20
977.95353333333333
 11
1148.9136666666668
 21
994.9079333333334
  0
LINE
  8
_0-1_ADD_LINE
  6
CONTINUOUS
 62
   18
 10
1142.6474666666668
 20
985.82799999999997
 11
1145.1474666666668
 21
981.4978666666666
  0
LINE
  8
_0-1_ADD_LINE
  6
CONTINUOUS
 62
   18
 10
1145.1474666666668
 20
981.4978666666666
 11
1142.6474666666668
 21
985.82799999999997
  0
LINE
  8
_0-1_ADD_LINE
  6
CONTINUOUS
 62
   18
 10
1142.6474666666668
 20
985.82799999999997
 11
1142.6474666666668
 21
980.82799999999997
  0
LINE
  8
_0-1_ADD_LINE
  6
CONTINUOUS
 62
   18
 10
1188.464875832294
 20
814.83513333333337
 11
1325.0133333333333
 21
814.83513333333337
  0
LINE
  8
_0-1_ADD_LINE
  6
CONTINUOUS
 62
   18
 10
1325.0133333333333
 20
814.83513333333337
 11
1188.464875832294
 21
814.83513333333337
  0
LINE
  8
_0-1_ADD_LINE
  6
CONTINUOUS
 62
   18
 10
1506.1364666666666
 20
1032.6324
 11
2038.9809333333333
 21
792.85219999999993
  0
LINE
  8
_0-1_ADD_LINE
  6
CONTINUOUS
 62
   18
 10
1506.1364666666666
 20
1032.6324
 11
975.62073333333331
 21
793.90013333333343
  0
LINE
  8
_0-1_ADD_LINE
  6
CONTINUOUS
 62
   18
 10
1453.2126666666668
 20
1118.4752666666666
 11
1253.8333333333335
 21
919.09593333333328
  0
LINE
  8
_0-1_ADD_LINE
  6
CONTINUOUS
 62
   18
 10
1236.6913333333334
 20
911.38200000000006
 11
1436.0706157945278
 21
1110.7612824611945
  0
LINE
  8
_0-1_ADD_LINE
  6
CONTINUOUS
 62
   18
 10
1436.0706157945278
 20
1110.7612824611945
 11
1236.6913333333334
 21
911.38200000000006
  0
LINE
  8
_0-1_ADD_LINE
  6
CONTINUOUS
 62
   18
 10
1270.9753465269223
 20
926.80981319358898
 11
1470.3546317902733
 21
1126.1890984569395
  0
LINE
  8
_0-1_ADD_LINE
  6
CONTINUOUS
 62
   18
 10
1506.1364666666666
 20
1032.6324
 11
1506.1364666666666
 21
1143.3875333333333
  0
LINE
  8
_0-1_ADD_LINE
  6
CONTINUOUS
 62
   18
 10
1270.9753465269223
 20
926.80981319358898
 11
1470.3546317902733
 21
1126.1890984569395
  0
LINE
  8
_0-0_LAYER001
  6
CONTINUOUS
 62
    2
 10
2050.6093999999994
 20
824.91600000000005
 11
1919.0420666666662
 21
956.48333333333323
  0
LINE
  8
_0-0_LAYER001
  6
CONTINUOUS
 62
    2
 10
2056.4612666666662
 20
837.92026666666675
 11
1953.3260666666665
 21
941.0555333333333
  0
LINE
  8
_0-0_LAYER001
  6
CONTINUOUS
 62
    2
 10
2053.5353333333333
 20
831.41813333333334
 11
1936.1840666666662
 21
948.76939999999991
  0
LINE
  8
_0-0_LAYER001
  6
CONTINUOUS
 62
    2
 10
1758.4395999999997
 20
919.09593333333328
 11
1559.0602666666664
 21
1118.4752666666666
  0
LINE
  8
_0-0_LAYER001
  6
CONTINUOUS
 62
    2
 10
1775.5815999999995
 20
911.38200000000006
 11
1576.2022666666662
 21
1110.7613333333334
  0
LINE
  8
_0-0_LAYER001
  6
CONTINUOUS
 62
    2
 10
1741.2975999999999
 20
926.8098
 11
1541.9182666666663
 21
1126.1891333333333
  0
LINE
  8
_0-0_LAYER001
  6
CONTINUOUS
 62
    2
 10
2050.6093999999994
 20
824.91600000000005
 11
1919.0420666666662
 21
956.48333333333323
  0
LINE
  8
_0-0_LAYER001
  6
CONTINUOUS
 62
    2
 10
2056.4612666666662
 20
837.92026666666675
 11
1953.3260666666665
 21
941.0555333333333
  0
LINE
  8
_0-0_LAYER001
  6
CONTINUOUS
 62
    2
 10
2053.5353333333333
 20
831.41813333333334
 11
1936.1840666666662
 21
948.76939999999991
  0
LINE
  8
_0-0_LAYER001
  6
CONTINUOUS
 62
    2
 10
1758.4395999999997
 20
919.09593333333328
 11
1559.0602666666664
 21
1118.4752666666666
  0
LINE
  8
_0-0_LAYER001
  6
CONTINUOUS
 62
    2
 10
1775.5815999999995
 20
911.38200000000006
 11
1576.2022666666662
 21
1110.7613333333334
  0
LINE
  8
_0-0_LAYER001
  6
CONTINUOUS
 62
    2
 10
1741.2975999999999
 20
926.8098
 11
1541.9182666666663
 21
1126.1891333333333
  0
LINE
  8
_0-0_LAYER001
  6
CONTINUOUS
 62
    2
 10
2050.6093999999994
 20
824.91600000000005
 11
1919.0420666666662
 21
956.48333333333323
  0
LINE
  8
_0-0_LAYER001
  6
CONTINUOUS
 62
    2
 10
2056.4612666666662
 20
837.92026666666675
 11
1953.3260666666665
 21
941.0555333333333
  0
LINE
  8
_0-0_LAYER001
  6
CONTINUOUS
 62
    2
 10
2053.5353333333333
 20
831.41813333333334
 11
1936.1840666666662
 21
948.76939999999991
  0
LINE
  8
_0-0_LAYER001
  6
CONTINUOUS
 62
    2
 10
1758.4395999999997
 20
919.09593333333328
 11
1559.0602666666664
 21
1118.4752666666666
  0
LINE
  8
_0-0_LAYER001
  6
CONTINUOUS
 62
    2
 10
1775.5815999999995
 20
911.38200000000006
 11
1576.2022666666662
 21
1110.7613333333334
  0
LINE
  8
_0-0_LAYER001
  6
CONTINUOUS
 62
    2
 10
1741.2975999999999
 20
926.8098
 11
1541.9182666666663
 21
1126.1891333333333
  0
LINE
  8
_0-1_ADD_LINE
  6
CONTINUOUS
 62
   18
 10
2050.6093999999994
 20
824.91600000000005
 11
1919.0420666666662
 21
956.48333333333323
  0
LINE
  8
_0-1_ADD_LINE
  6
CONTINUOUS
 62
   18
 10
1936.1840666666662
 20
948.76939999999991
 11
2053.5353333333333
 21
831.41813333333334
  0
LINE
  8
_0-1_ADD_LINE
  6
CONTINUOUS
 62
   18
 10
2056.4612666666662
 20
837.92026666666675
 11
1953.3261298553916
 21
941.05547014456715
  0
LINE
  8
_0-1_ADD_LINE
  6
CONTINUOUS
 62
   18
 10
1559.0602666666664
 20
1118.4752666666666
 11
1758.4395999999997
 21
919.09593333333328
  0
LINE
  8
_0-1_ADD_LINE
  6
CONTINUOUS
 62
   18
 10
1741.2975868064109
 20
926.80981319358898
 11
1541.9183015430599
 21
1126.1890984569395
  0
LINE
  8
_0-1_ADD_LINE
  6
CONTINUOUS
 62
   18
 10
1775.5815999999995
 20
911.38200000000006
 11
1576.2023175388051
 21
1110.7612824611945
  0
LINE
  8
_0-0_LAYER001
  6
CONTINUOUS
 62
   18
 10
1506.1364666666666
 20
1143.3875333333333
 11
2080.3762000000002
 21
884.97920000000011
  0
LINE
  8
_0-0_LAYER001
  6
CONTINUOUS
 62
   18
 10
2080.0174666666662
 20
884.04433333333327
 11
1506.1364666666666
 21
1142.2909333333334
  0
LINE
  8
_0-0_LAYER001
  6
CONTINUOUS
 62
   18
 10
1522.9341333333332
 20
1148.1676
 11
1519.0682000000002
 21
1138.9450666666667
  0
LINE
  8
_0-0_LAYER001
  6
CONTINUOUS
 62
   18
 10
1519.0682000000002
 20
1138.9450666666667
 11
1537.5131999999999
 21
1131.2131999999999
  0
LINE
  8
_0-0_LAYER001
  6
CONTINUOUS
 62
   18
 10
1537.5131999999999
 20
1131.2131999999999
 11
1541.3791333333334
 21
1140.4357333333335
  0
LINE
  8
_0-0_LAYER001
  6
CONTINUOUS
 62
   18
 10
1541.3791333333334
 20
1140.4357333333335
 11
1522.9341333333332
 21
1148.1676
  0
LINE
  8
_0-0_LAYER001
  6
CONTINUOUS
 62
   18
 10
1522.9341333333332
 20
1148.1676
 11
1537.5131999999999
 21
1131.2131999999999
  0
LINE
  8
_0-0_LAYER001
  6
CONTINUOUS
 62
   18
 10
1693.1466666666665
 20
1071.5377333333331
 11
1689.2807333333335
 21
1062.3152666666667
  0
LINE
  8
_0-0_LAYER001
  6
CONTINUOUS
 62
   18
 10
1689.2807333333335
 20
1062.3152666666667
 11
1707.7257333333332
 21
1054.5834
  0
LINE
  8
_0-0_LAYER001
  6
CONTINUOUS
 62
   18
 10
1707.7257333333332
 20
1054.5834
 11
1711.5916666666667
 21
1063.8058666666668
  0
LINE
  8
_0-0_LAYER001
  6
CONTINUOUS
 62
   18
 10
1711.5916666666667
 20
1063.8058666666668
 11
1693.1466666666665
 21
1071.5377333333331
  0
LINE
  8
_0-0_LAYER001
  6
CONTINUOUS
 62
   18
 10
1693.1466666666665
 20
1071.5377333333331
 11
1707.7257333333332
 21
1054.5834
  0
LINE
  8
_0-0_LAYER001
  6
CONTINUOUS
 62
   18
 10
1772.9805999999999
 20
1052.0193333333332
 11
1814.0299333333332
 21
1123.1188666666667
  0
LINE
  8
_0-0_LAYER001
  6
CONTINUOUS
 62
   18
 10
1814.0299333333332
 20
1123.1188666666667
 11
1841.0299333333332
 21
1123.1188666666667
  0
LINE
  8
_0-0_LAYER001
  6
CONTINUOUS
 62
   18
 10
1772.9805999999999
 20
1052.0193333333332
 11
1774.2747333333332
 21
1056.8489999999999
  0
LINE
  8
_0-0_LAYER001
  6
CONTINUOUS
 62
   18
 10
1772.9805999999999
 20
1052.0193333333332
 11
1776.5161333333333
 21
1055.5549333333333
  0
LINE
  8
_0-0_LAYER001
  6
CONTINUOUS
 62
   18
 10
1863.3592666666666
 20
994.9079333333334
 11
1859.4933333333329
 21
985.68539999999996
  0
LINE
  8
_0-0_LAYER001
  6
CONTINUOUS
 62
   18
 10
1859.4933333333329
 20
985.68539999999996
 11
1877.938333333333
 21
977.95353333333333
  0
LINE
  8
_0-0_LAYER001
  6
CONTINUOUS
 62
   18
 10
1877.938333333333
 20
977.95353333333333
 11
1881.8042666666668
 21
987.17606666666666
  0
LINE
  8
_0-0_LAYER001
  6
CONTINUOUS
 62
   18
 10
1881.8042666666668
 20
987.17606666666666
 11
1863.3592666666666
 21
994.9079333333334
  0
LINE
  8
_0-0_LAYER001
  6
CONTINUOUS
 62
   18
 10
1863.3592666666666
 20
994.9079333333334
 11
1877.938333333333
 21
977.95353333333333
  0
LINE
  8
_0-0_LAYER001
  6
CONTINUOUS
 62
   18
 10
2033.5053333333331
 20
918.65246666666667
 11
2029.5631333333333
 21
909.46233333333339
  0
LINE
  8
_0-0_LAYER001
  6
CONTINUOUS
 62
   18
 10
2029.5631333333333
 20
909.46233333333339
 11
2047.9434000000001
 21
901.57786666666664
  0
LINE
  8
_0-0_LAYER001
  6
CONTINUOUS
 62
   18
 10
2047.9434000000001
 20
901.57786666666664
 11
2051.8856000000001
 21
910.76806666666675
  0
LINE
  8
_0-0_LAYER001
  6
CONTINUOUS
 62
   18
 10
2051.8856000000001
 20
910.76806666666675
 11
2033.5053333333331
 21
918.65246666666667
  0
LINE
  8
_0-0_LAYER001
  6
CONTINUOUS
 62
   18
 10
2033.5053333333331
 20
918.65246666666667
 11
2047.9434000000001
 21
901.57786666666664
  0
LINE
  8
_0-0_LAYER001
  6
CONTINUOUS
 62
   18
 10
1300.6812
 20
1063.8058666666668
 11
1304.5471333333332
 21
1054.5834
  0
LINE
  8
_0-0_LAYER001
  6
CONTINUOUS
 62
   18
 10
1304.5471333333332
 20
1054.5834
 11
1322.9921333333334
 21
1062.3152666666667
  0
LINE
  8
_0-0_LAYER001
  6
CONTINUOUS
 62
   18
 10
1322.9921333333334
 20
1062.3152666666667
 11
1319.1262000000002
 21
1071.5377333333331
  0
LINE
  8
_0-0_LAYER001
  6
CONTINUOUS
 62
   18
 10
1319.1262000000002
 20
1071.5377333333331
 11
1300.6812
 21
1063.8058666666668
  0
LINE
  8
_0-0_LAYER001
  6
CONTINUOUS
 62
   18
 10
1304.5471333333332
 20
1054.5834
 11
1319.1262000000002
 21
1071.5377333333331
  0
LINE
  8
_0-0_LAYER001
  6
CONTINUOUS
 62
   18
 10
1470.8937333333333
 20
1140.4357333333335
 11
1474.7596666666668
 21
1131.2131999999999
  0
LINE
  8
_0-0_LAYER001
  6
CONTINUOUS
 62
   18
 10
1474.7596666666668
 20
1131.2131999999999
 11
1493.2046666666665
 21
1138.9450666666667
  0
LINE
  8
_0-0_LAYER001
  6
CONTINUOUS
 62
   18
 10
1493.2046666666665
 20
1138.9450666666667
 11
1489.3387333333335
 21
1148.1676
  0
LINE
  8
_0-0_LAYER001
  6
CONTINUOUS
 62
   18
 10
1489.3387333333335
 20
1148.1676
 11
1470.8937333333333
 21
1140.4357333333335
  0
LINE
  8
_0-0_LAYER001
  6
CONTINUOUS
 62
   18
 10
1489.3387333333335
 20
1148.1676
 11
1474.7596666666668
 21
1131.2131999999999
  0
TEXT
  8
_0-0_LAYER001
 62
    7
 10
1276.4562510304465
 20
1258.2143757545825
 40
20
 41
1
 50
24.227693000000027
  1
280
  0
TEXT
  8
_0-0_LAYER001
 62
    7
 10
1127.7749859711407
 20
1168.2559632817254
 40
20
 41
1
 50
24.227692999999974
  1
280
  0
TEXT
  8
_0-0_LAYER001
 62
    7
 10
952.85585060725168
 20
1082.0458179952373
 40
20
 41
1
 50
24.227692999999999
  1
280
  0
TEXT
  8
_0-0_LAYER001
 62
    7
 10
1571.3199363581452
 20
1304.4430043864677
 40
20
 41
1
 50
0
  1
棟押え：カラー鋼板0.35ｍｍ以上
  0
TEXT
  8
_0-0_LAYER001
 62
    7
 10
1583.8141603127087
 20
1258.2143757545825
 40
20
 41
1
 50
0
  1
笠木：15x90
  0
TEXT
  8
_0-0_LAYER001
 62
    7
 10
1588.8118498945341
 20
1223.2305486818047
 40
20
 41
1
 50
0
  1
弾性シール材
  0
LINE
  8
_0-0_LAYER001
  6
CONTINUOUS
 62
    7
 10
1726.2671999999998
 20
1295.4810666666665
 11
1913.6616727131852
 21
1295.4810666666665
  0
LINE
  8
_0-0_LAYER001
  6
CONTINUOUS
 62
    7
 10
1678.2080666666666
 20
1251.8103333333331
 11
1702.5092878810619
 21
1251.8103333333331
  0
LINE
  8
_0-0_LAYER001
  6
CONTINUOUS
 62
    7
 10
1649.2944
 20
1215.2122666666669
 11
1720.0012014174508
 21
1215.2122666666669
  0
LINE
  8
_0-0_LAYER001
  6
CONTINUOUS
 62
    7
 10
1325.0133333333333
 20
814.83513333333337
 11
1480.1121014898317
 21
814.83513333333337
  0
LINE
  8
_0-0_LAYER001
  6
CONTINUOUS
 62
    7
 10
1841.0299333333332
 20
1123.1188666666667
 11
1876.1790008494947
 21
1123.1188666666667
  0
TEXT
  8
_0-0_LAYER001
 62
    7
 10
1186.4978385575891
 20
819.66711494940364
 40
20
 41
1
 50
0
  1
　瓦桟：１５ｘ３０以上
  0
TEXT
  8
_0-0_LAYER001
 62
    7
 10
1812.4584586812207
 20
1130.7732914180349
 40
20
 41
1
 50
0
  1
桟　瓦
  0
LINE
  8
_0-0_LAYER001
  6
CONTINUOUS
 62
    2
 10
1142.6474666666668
 20
985.82799999999997
 11
1197.5483853494281
 21
780.93502069025681
  0
LINE
  8
_0-1_ADD_LINE
  6
CONTINUOUS
 62
   18
 10
1142.6474666666668
 20
985.82799999999997
 11
1197.5483853494281
 21
780.93502069025681
  0
LINE
  8
_0-0_LAYER001
  6
CONTINUOUS
 62
    7
 10
1197.5483853494281
 20
780.93502069025681
 11
1527.590152517173
 21
780.93502069025681
  0
TEXT
  8
_0-0_LAYER001
 62
    7
 10
1207.7380192803471
 20
783.43386548116951
 40
20
 41
1
 50
0
  1
　下葺材：ルーフィング
  0
ENDSEC
  0
EOF
