  0
SECTION
  2
HEADER
  9
$ACADVER
  1
AC1009
  9
$INSBASE
 10
0
 20
0
 30
0
  9
$EXTMIN
 10
0
 20
0
  9
$EXTMAX
 10
2970
 20
2100
  9
$LIMMIN
 10
0
 20
0
  9
$LIMMAX
 10
2970
 20
2100
  9
$LTSCALE
 40
10
  0
ENDSEC
  0
SECTION
  2
TABLES
  0
TABLE
  2
LTYPE
 70
     9
  0
LTYPE
  2
CONTINUOUS
 70
    64
  3
実線
 72
    65
 73
     0
 40
0.0
  0
LTYPE
  2
DASHED1
 70
    64
  3
--  --  --  --  --  --  --  --  
 72
    65
 73
     2
 40
2.5
 49
1.25
 49
-1.25
  0
LTYPE
  2
DASHED2
 70
    64
  3
----    ----    ----    ----    
 72
    65
 73
     2
 40
5.0
 49
2.5
 49
-2.5
  0
LTYPE
  2
DASHED3
 70
    64
  3
------  ------  ------  ------  
 72
    65
 73
     2
 40
5.0
 49
3.75
 49
-1.25
  0
LTYPE
  2
CENTER1
 70
    64
  3
----- - ----- - ----- - ----- - 
 72
    65
 73
     4
 40
10.0
 49
6.25
 49
-1.25
 49
1.25
 49
-1.25
  0
LTYPE
  2
CENTER2
 70
    64
  3
----------  --  ----------  --  
 72
    65
 73
     4
 40
20.0
 49
12.5
 49
-2.5
 49
2.5
 49
-2.5
  0
LTYPE
  2
PHANTOM1
 70
    64
  3
--- - - --- - - --- - - --- - - 
 72
    65
 73
     6
 40
10.0
 49
3.25
 49
-1.25
 49
1.25
 49
-1.25
 49
1.25
 49
-1.25
  0
LTYPE
  2
PHANTOM2
 70
    64
  3
--------  -  -  --------  -  -  
 72
    65
 73
     6
 40
20.0
 49
10.0
 49
-2.5
 49
1.25
 49
-2.5
 49
1.25
 49
-2.5
  0
LTYPE
  2
DOT
 70
    64
  3
-   -   -   -   -   -   -   -   
 72
    65
 73
     2
 40
2.5
 49
0.625
 49
-1.875
  0
LTYPE
  2
DUMMY
 70
    64
  3
ダミー
 72
    65
 73
     0
 40
0.0
  0
LTYPE
  2
RAND1
 70
    64
  3
ランダム線1
 72
    65
 73
     4
 40
10.0
 49
1.0
 49
-2.0
 49
3.0
 49
-4.0
  0
LTYPE
  2
RAND2
 70
    64
  3
ランダム線2
 72
    65
 73
     4
 40
14.0
 49
2.0
 49
-3.0
 49
4.0
 49
-5.0
  0
LTYPE
  2
RAND3
 70
    64
  3
ランダム線3
 72
    65
 73
     4
 40
18.0
 49
3.0
 49
-4.0
 49
5.0
 49
-6.0
  0
LTYPE
  2
RAND4
 70
    64
  3
ランダム線4
 72
    65
 73
     4
 40
22.0
 49
4.0
 49
-5.0
 49
6.0
 49
-7.0
  0
LTYPE
  2
RAND5
 70
    64
  3
ランダム線5
 72
    65
 73
     4
 40
26.0
 49
5.0
 49
-6.0
 49
7.0
 49
-8.0
  0
LTYPE
  2
LONG1
 70
    64
  3
----------  --  ----------  --  
 72
    65
 73
     4
 40
40.0
 49
32.5
 49
-2.5
 49
2.5
 49
-2.5
  0
LTYPE
  2
LONG2
 70
    64
  3
--------  -  -  --------  -  -  
 72
    65
 73
     6
 40
40.0
 49
30.0
 49
-2.5
 49
1.25
 49
-2.5
 49
1.25
 49
-2.5
  0
LTYPE
  2
LONG3
 70
    64
  3
+++++++++++++++..+++++++++++++++
 72
    65
 73
     2
 40
40.0
 49
37.5
 49
-2.5
  0
LTYPE
  2
LONG4
 70
    64
  3
+++++++++++++++..+++++++++++++++
 72
    65
 73
     2
 40
80.0
 49
75.0
 49
-5.0
  0
LTYPE
  2
LONG5
 70
    64
  3
----------  --  ----------  --  
 72
    65
 73
     4
 40
60.0
 49
37.5
 49
-7.5
 49
7.5
 49
-7.5
  0
LTYPE
  2
dashed
 70
   64
  3
-------   -------------   ------
 72
   65
 73
    2
 40
7.5
 49
6
 49
-1.5
  0
LTYPE
  2
dashed_spaced
 70
   64
  3
----        --------        ----
 72
   65
 73
    2
 40
12
 49
6
 49
-6
  0
LTYPE
  2
long_dashed_dotted
 70
   64
  3
------------- --- --------------
 72
   65
 73
    4
 40
15.25
 49
12
 49
-1.5
 49
0.25
 49
-1.5
  0
LTYPE
  2
long_dashed_double-dotted
 70
   64
  3
----------- --- --- ------------
 72
   65
 73
    6
 40
17
 49
12
 49
-1.5
 49
0.25
 49
-1.5
 49
0.25
 49
-1.5
  0
LTYPE
  2
long_dashed_triplicate-dotted
 70
   64
  3
--------- --- --- --- ----------
 72
   65
 73
    8
 40
18.75
 49
12
 49
-1.5
 49
0.25
 49
-1.5
 49
0.25
 49
-1.5
 49
0.25
 49
-1.5
  0
LTYPE
  2
dotted
 70
   64
  3
   -       -       -       -    
 72
   65
 73
    2
 40
1.75
 49
0.25
 49
-1.5
  0
LTYPE
  2
chain
 70
   64
  3
-------------- -- --------------
 72
   65
 73
    4
 40
18.5
 49
12
 49
-1.5
 49
3.5
 49
-1.5
  0
LTYPE
  2
chain_double_dash
 70
   64
  3
------------ -- -- -------------
 72
   65
 73
    6
 40
23.5
 49
12
 49
-1.5
 49
3.5
 49
-1.5
 49
3.5
 49
-1.5
  0
LTYPE
  2
dashed_dotted
 70
   64
  3
-----------     -     ----------
 72
   65
 73
    4
 40
9.25
 49
6
 49
-1.5
 49
0.25
 49
-1.5
  0
LTYPE
  2
double-dashed_dotted
 70
   64
  3
------   -----------   -   -----
 72
   65
 73
    6
 40
16.75
 49
6
 49
-1.5
 49
6
 49
-1.5
 49
0.25
 49
-1.5
  0
LTYPE
  2
dashed_double-dotted
 70
   64
  3
---------    -    -    ---------
 72
   65
 73
    6
 40
11
 49
6
 49
-1.5
 49
0.25
 49
-1.5
 49
0.25
 49
-1.5
  0
LTYPE
  2
double-dashed_double-dotted
 70
   64
  3
-----   ---------   -   -   ----
 72
   65
 73
    8
 40
18.5
 49
6
 49
-1.5
 49
6
 49
-1.5
 49
0.25
 49
-1.5
 49
0.25
 49
-1.5
  0
LTYPE
  2
dashed_triplicate-dotted
 70
   64
  3
-------    -    -    -    ------
 72
   65
 73
    8
 40
12.75
 49
6
 49
-1.5
 49
0.25
 49
-1.5
 49
0.25
 49
-1.5
 49
0.25
 49
-1.5
  0
LTYPE
  2
double-dashed_triplicate-dotted
 70
   64
  3
-----  ---------  -  -  -  -----
 72
   65
 73
   10
 40
20.25
 49
6
 49
-1.5
 49
6
 49
-1.5
 49
0.25
 49
-1.5
 49
0.25
 49
-1.5
 49
0.25
 49
-1.5
  0
LTYPE
  2
undefined
 70
   64
  3
--------------------------------
 72
   65
 73
    0
 40
0
  0
ENDTAB
  0
TABLE
  2
STYLE
  5
3
100
AcDbSymbolTable
 70
     1
  0
STYLE
  5
10
100
AcDbSymbolTableRecord
100
AcDbTextStyleTableRecord
  2
STANDARD
 70
     0
 40
0.0
 41
1.0
 50
0.0
 71
     0
 42
0.2
  3
txt
  4
bigfont.shx
  0
STYLE
  5
26
100
AcDbSymbolTableRecord
100
AcDbTextStyleTableRecord
  2
TATEGAKI
 70
    68
 40
0.0
 41
1.0
 50
0.0
 71
     0
 42
1.0
  3
txt
  4
bigfont.shx
  0
ENDTAB
  0
TABLE
  2
LAYER
 70
    5
  0
LAYER
  2
_0-0_LAYER001
 70
   64
 62
    7
  6
CONTINUOUS
  0
LAYER
  2
_0-1_LAYER003
 70
   64
 62
    7
  6
CONTINUOUS
  0
LAYER
  2
_0-2_LAYER004
 70
   64
 62
    7
  6
CONTINUOUS
  0
LAYER
  2
_0-3_LAYER006
 70
   64
 62
    7
  6
CONTINUOUS
  0
LAYER
  2
ADD_LINE
 70
   64
 62
    7
  6
CONTINUOUS
  0
ENDTAB
  0
ENDSEC
  0
SECTION
  2
BLOCKS
  0
ENDSEC
  0
SECTION
  2
ENTITIES
  0
LINE
  8
_0-0_LAYER001
  6
CONTINUOUS
 62
    2
 10
1499.4696000000001
 20
1150.7882666666665
 11
1441.0727333333332
 21
1124.6636000000001
  0
LINE
  8
_0-0_LAYER001
  6
CONTINUOUS
 62
    2
 10
1504.5592666666666
 20
1231.5693333333334
 11
1502.3912666666665
 21
1232.9427999999998
  0
LINE
  8
_0-0_LAYER001
  6
CONTINUOUS
 62
    2
 10
1504.5710666666669
 20
1190.8833999999999
 11
1506.2004666666664
 21
1183.1164000000001
  0
LINE
  8
_0-0_LAYER001
  6
CONTINUOUS
 62
    2
 10
1506.2004666666664
 20
1183.1164000000001
 11
1507.6784
 21
1189.9703333333334
  0
LINE
  8
_0-2_LAYER004
  6
CONTINUOUS
 62
    2
 10
1491.7309333333333
 20
1180.3825333333334
 11
1491.7309333333333
 21
1209.0491999999999
  0
LINE
  8
_0-2_LAYER004
  6
CONTINUOUS
 62
    2
 10
1520.3977333333332
 20
1209.0491999999999
 11
1520.3977333333332
 21
1180.3825333333334
  0
LINE
  8
_0-2_LAYER004
  6
CONTINUOUS
 62
    2
 10
1520.3977333333332
 20
1180.3825333333334
 11
1491.7309333333333
 21
1180.3825333333334
  0
LINE
  8
_0-1_LAYER003
  6
CONTINUOUS
 62
    2
 10
1521.7310666666665
 20
1179.0491999999999
 11
1490.3974000000003
 21
1179.0491999999999
  0
LINE
  8
_0-1_LAYER003
  6
CONTINUOUS
 62
    2
 10
1490.3974000000003
 20
1197.3753333333334
 11
1491.7309333333333
 21
1197.3753333333334
  0
LINE
  8
_0-1_LAYER003
  6
CONTINUOUS
 62
    2
 10
1490.3974000000003
 20
1179.0491999999999
 11
1490.3974000000003
 21
1197.3753333333334
  0
LINE
  8
_0-1_LAYER003
  6
CONTINUOUS
 62
    2
 10
1520.3977333333332
 20
1197.3753333333334
 11
1521.7310666666665
 21
1197.3753333333334
  0
LINE
  8
_0-1_LAYER003
  6
CONTINUOUS
 62
    2
 10
1521.7310666666665
 20
1197.3753333333334
 11
1521.7310666666665
 21
1179.0491999999999
  0
LINE
  8
_0-0_LAYER001
  6
CONTINUOUS
 62
    2
 10
1504.5598666666669
 20
1229.9792666666667
 11
1504.5710666666669
 21
1190.8833999999999
  0
LINE
  8
_0-0_LAYER001
  6
CONTINUOUS
 62
    2
 10
1507.6787333333332
 20
1229.9646666666667
 11
1507.6784
 21
1189.9703333333334
  0
LINE
  8
_0-0_LAYER001
  6
CONTINUOUS
 62
    2
 10
1503.0674666666666
 20
1231.5696666666665
 11
1503.0674666666666
 21
1229.9576666666667
  0
LINE
  8
_0-0_LAYER001
  6
CONTINUOUS
 62
    2
 10
1503.0674666666666
 20
1229.9576666666667
 11
1508.9996000000001
 21
1229.9576666666667
  0
LINE
  8
_0-0_LAYER001
  6
CONTINUOUS
 62
    2
 10
1508.9996000000001
 20
1229.9576666666667
 11
1508.9996000000001
 21
1231.5696666666665
  0
LINE
  8
_0-0_LAYER001
  6
CONTINUOUS
 62
    2
 10
1508.9996000000001
 20
1231.5696666666665
 11
1503.0674666666666
 21
1231.5696666666665
  0
LINE
  8
_0-0_LAYER001
  6
CONTINUOUS
 62
    2
 10
1507.6787333333332
 20
1231.5236
 11
1510.0688666666667
 21
1232.9427999999998
  0
LINE
  8
_0-0_LAYER001
  6
CONTINUOUS
 62
    2
 10
1502.3912666666665
 20
1232.9427999999998
 11
1510.0688666666667
 21
1232.9427999999998
  0
LINE
  8
_0-0_LAYER001
  6
CONTINUOUS
 62
    2
 10
1499.4696000000001
 20
1161.5756666666666
 11
1512.8029333333334
 21
1161.5756666666666
  0
LINE
  8
_0-0_LAYER001
  6
CONTINUOUS
 62
    2
 10
1499.4696000000001
 20
1150.7882666666665
 11
1499.4696000000001
 21
1161.5756666666666
  0
LINE
  8
_0-0_LAYER001
  6
CONTINUOUS
 62
    2
 10
1506.1364666666666
 20
1153.0403333333334
 11
1441.3448666666668
 21
1124.0550000000001
  0
LINE
  8
_0-0_LAYER001
  6
CONTINUOUS
 62
    2
 10
1500.1362666666669
 20
1150.3560666666667
 11
1500.1362666666669
 21
1160.9089333333332
  0
LINE
  8
_0-0_LAYER001
  6
CONTINUOUS
 62
    2
 10
1500.1362666666669
 20
1160.9089333333332
 11
1512.1363333333331
 21
1160.9089333333332
  0
LINE
  8
_0-0_LAYER001
  6
CONTINUOUS
 62
    2
 10
1441.0727333333332
 20
1124.6636000000001
 11
1441.3448666666668
 21
1124.0550000000001
  0
LINE
  8
_0-0_LAYER001
  6
CONTINUOUS
 62
    2
 10
1571.1999333333333
 20
1124.6636000000001
 11
1570.9277333333332
 21
1124.0550000000001
  0
LINE
  8
_0-0_LAYER001
  6
CONTINUOUS
 62
    2
 10
1512.8029333333334
 20
1150.7883333333332
 11
1571.1999333333333
 21
1124.6636000000001
  0
LINE
  8
_0-0_LAYER001
  6
CONTINUOUS
 62
    2
 10
1512.8029333333334
 20
1161.5756666666666
 11
1512.8029333333334
 21
1150.7883333333332
  0
LINE
  8
_0-0_LAYER001
  6
CONTINUOUS
 62
    2
 10
1506.1364666666666
 20
1153.0403333333334
 11
1570.9277333333332
 21
1124.0550000000001
  0
LINE
  8
_0-0_LAYER001
  6
CONTINUOUS
 62
    2
 10
1512.1363333333331
 20
1160.9089333333332
 11
1512.1363333333331
 21
1150.3561999999999
  0
LINE
  8
_0-1_LAYER003
  6
CONTINUOUS
 62
    2
 10
1506.1486000000002
 20
1117.1864
 11
1503.4697333333334
 21
1139.9334666666666
  0
LINE
  8
_0-1_LAYER003
  6
CONTINUOUS
 62
    2
 10
1506.1486000000002
 20
1117.1864
 11
1508.8029333333334
 21
1139.7250666666669
  0
LINE
  8
_0-1_LAYER003
  6
CONTINUOUS
 62
    2
 10
1503.4697333333334
 20
1179.0491999999999
 11
1503.4697333333334
 21
1139.9334666666666
  0
LINE
  8
_0-1_LAYER003
  6
CONTINUOUS
 62
    2
 10
1508.8029333333334
 20
1179.0491999999999
 11
1508.8029333333334
 21
1139.7250666666669
  0
LINE
  8
_0-3_LAYER006
  6
CONTINUOUS
 62
    2
 10
1520.3977333333332
 20
1209.0491999999999
 11
1491.7309333333333
 21
1180.3825333333334
  0
LINE
  8
_0-3_LAYER006
  6
CONTINUOUS
 62
    2
 10
1491.7309333333333
 20
1209.0491999999999
 11
1520.3977333333332
 21
1180.3825333333334
  0
LINE
  8
_0-2_LAYER004
  6
CONTINUOUS
 62
    2
 10
1491.7309333333333
 20
1209.0491999999999
 11
1520.3977333333332
 21
1209.0491999999999
  0
LINE
  8
_0-3_LAYER006
  6
CONTINUOUS
 62
    2
 10
1503.9044000000001
 20
1190.7048
 11
1508.3450666666668
 21
1191.8946666666668
  0
LINE
  8
_0-3_LAYER006
  6
CONTINUOUS
 62
    2
 10
1503.9044000000001
 20
1193.3714666666667
 11
1508.3450666666668
 21
1194.5613333333333
  0
LINE
  8
_0-3_LAYER006
  6
CONTINUOUS
 62
    2
 10
1503.9044000000001
 20
1196.0381333333335
 11
1508.3450666666668
 21
1197.2280000000001
  0
LINE
  8
_0-3_LAYER006
  6
CONTINUOUS
 62
    2
 10
1503.9044000000001
 20
1198.7048
 11
1508.3450666666668
 21
1199.8946666666668
  0
LINE
  8
_0-3_LAYER006
  6
CONTINUOUS
 62
    2
 10
1503.9044000000001
 20
1201.3714666666667
 11
1508.3450666666668
 21
1202.5613333333333
  0
LINE
  8
_0-3_LAYER006
  6
CONTINUOUS
 62
    2
 10
1503.9044000000001
 20
1204.0381333333332
 11
1508.3450666666668
 21
1205.2280000000001
  0
LINE
  8
_0-3_LAYER006
  6
CONTINUOUS
 62
    2
 10
1503.9044000000001
 20
1206.7048
 11
1508.3450666666668
 21
1207.8946666666666
  0
LINE
  8
_0-3_LAYER006
  6
CONTINUOUS
 62
    2
 10
1503.9044000000001
 20
1209.3714666666667
 11
1508.3450666666668
 21
1210.5613333333333
  0
LINE
  8
_0-3_LAYER006
  6
CONTINUOUS
 62
    2
 10
1503.9044000000001
 20
1212.0381333333332
 11
1508.3450666666668
 21
1213.2280000000001
  0
LINE
  8
_0-3_LAYER006
  6
CONTINUOUS
 62
    2
 10
1503.9044000000001
 20
1214.7048
 11
1508.3450666666668
 21
1215.8946666666668
  0
LINE
  8
_0-3_LAYER006
  6
CONTINUOUS
 62
    2
 10
1503.9044000000001
 20
1217.3714666666665
 11
1508.3450666666668
 21
1218.5613333333333
  0
ARC
  8
_0-0_LAYER001
  6
CONTINUOUS
 62
    2
 10
1506.23
 20
1228.2180666666666
 40
6.0876506666666668
 50
50.907179999999997
 51
129.09278
  0
LINE
  8
_0-0_LAYER001
  6
CONTINUOUS
 62
    4
 10
1433.4849333333332
 20
1168.9253333333334
 11
1443.3329999999999
 21
1170.6618666666666
  0
LINE
  8
_0-0_LAYER001
  6
CONTINUOUS
 62
    4
 10
1443.3329999999999
 20
1170.6618666666666
 11
1443.7397333333333
 21
1175.3107333333335
  0
LINE
  8
_0-0_LAYER001
  6
CONTINUOUS
 62
    4
 10
1433.4849333333332
 20
1168.9253333333334
 11
1435.0537333333332
 21
1186.8568666666667
  0
LINE
  8
_0-0_LAYER001
  6
CONTINUOUS
 62
    4
 10
1578.8182666666669
 20
1168.9253333333334
 11
1568.9702
 21
1170.6618000000001
  0
LINE
  8
_0-0_LAYER001
  6
CONTINUOUS
 62
    4
 10
1568.9702
 20
1170.6618000000001
 11
1568.5634666666667
 21
1175.3107333333335
  0
LINE
  8
_0-0_LAYER001
  6
CONTINUOUS
 62
    4
 10
1578.8182666666669
 20
1168.9253333333334
 11
1577.2494666666669
 21
1186.8568666666667
  0
LINE
  8
_0-0_LAYER001
  6
CONTINUOUS
 62
    4
 10
1577.2494666666669
 20
1186.8568666666667
 11
1520.0918666666666
 21
1234.8177999999998
  0
LINE
  8
_0-0_LAYER001
  6
CONTINUOUS
 62
    4
 10
1435.0537333333332
 20
1186.8568666666667
 11
1492.2114000000001
 21
1234.8177999999998
  0
ARC
  8
_0-0_LAYER001
  6
CONTINUOUS
 62
    4
 10
1506.1516000000001
 20
1219.6798666666666
 40
20.578792
 50
47.358561000000002
 51
132.64142000000001
  0
LINE
  8
_0-0_LAYER001
  6
CONTINUOUS
 62
    4
 10
1568.5634666666667
 20
1175.3107333333335
 11
1520.6505333333334
 21
1215.5144666666665
  0
LINE
  8
_0-0_LAYER001
  6
CONTINUOUS
 62
    4
 10
1443.7397333333333
 20
1175.3107333333335
 11
1495.1926666666668
 21
1218.4848666666667
  0
ARC
  8
_0-0_LAYER001
  6
CONTINUOUS
 62
    4
 10
1506.1516000000001
 20
1201.8298666666667
 40
19.937060666666667
 50
43.344959000000003
 51
123.34497000000002
  0
LINE
  8
_0-0_LAYER001
  6
DASHED3
 62
    2
 10
934.17386666666675
 20
895.04626666666672
 11
1505.7260666666666
 21
1152.2449333333334
  0
LINE
  8
_0-0_LAYER001
  6
DASHED3
 62
    2
 10
2080.3762000000002
 20
894.02119999999991
 11
1506.5468000000001
 21
1152.2449333333334
  0
LINE
  8
_0-0_LAYER001
  6
CONTINUOUS
 62
    2
 10
1506.1364666666666
 20
1151.3329999999999
 11
2080.0174666666662
 21
893.08639999999991
  0
LINE
  8
_0-0_LAYER001
  6
CONTINUOUS
 62
    2
 10
1506.1364666666666
 20
1151.3329999999999
 11
934.5841999999999
 21
894.1343333333333
  0
LINE
  8
_0-0_LAYER001
  6
CONTINUOUS
 62
    2
 10
1567.8927999999999
 20
1177.1417999999999
 11
1564.3572666666664
 21
1173.6062666666667
  0
LINE
  8
_0-0_LAYER001
  6
CONTINUOUS
 62
    2
 10
1564.3572666666664
 20
1173.6062666666667
 11
1565.6514000000002
 21
1178.4359333333332
  0
LINE
  8
_0-0_LAYER001
  6
CONTINUOUS
 62
    2
 10
1528.9081999999999
 20
1225.4018666666666
 11
1525.3726666666669
 21
1221.8663333333334
  0
LINE
  8
_0-0_LAYER001
  6
CONTINUOUS
 62
    2
 10
1525.3726666666669
 20
1221.8663333333334
 11
1526.6667333333335
 21
1226.6959333333332
  0
LINE
  8
_0-0_LAYER001
  6
CONTINUOUS
 62
    2
 10
1776.5161333333333
 20
1064.5969333333333
 11
1772.9805999999999
 21
1061.0614
  0
LINE
  8
_0-0_LAYER001
  6
CONTINUOUS
 62
    2
 10
1772.9805999999999
 20
1061.0614
 11
1774.2747333333332
 21
1065.8910666666666
  0
LINE
  8
_0-0_LAYER001
  6
CONTINUOUS
 62
    2
 10
1772.9805999999999
 20
1061.0614
 11
1814.0299333333332
 21
1132.1609333333333
  0
LINE
  8
_0-0_LAYER001
  6
CONTINUOUS
 62
    2
 10
1814.0299333333332
 20
1132.1609333333333
 11
1841.0299333333332
 21
1132.1609333333333
  0
LINE
  8
_0-0_LAYER001
  6
CONTINUOUS
 62
    2
 10
1506.1364666666666
 20
1122.0907333333332
 11
2069.0744
 21
868.76846666666665
  0
LINE
  8
_0-0_LAYER001
  6
CONTINUOUS
 62
    2
 10
1506.1364666666666
 20
1122.0907333333332
 11
945.52726666666672
 21
869.81639999999993
  0
LINE
  8
_0-0_LAYER001
  6
CONTINUOUS
 62
    2
 10
1506.1364666666666
 20
1012.4321333333335
 11
986.56380000000013
 21
778.6242666666667
  0
LINE
  8
_0-0_LAYER001
  6
CONTINUOUS
 62
    2
 10
1506.1364666666666
 20
1012.4321333333335
 11
2028.0378666666666
 21
777.57633333333331
  0
LINE
  8
_0-0_LAYER001
  6
CONTINUOUS
 62
    2
 10
1266.4151333333334
 20
904.55746666666664
 11
1465.7944666666665
 21
1103.9367999999999
  0
LINE
  8
_0-0_LAYER001
  6
CONTINUOUS
 62
    2
 10
969.96039999999994
 20
815.5207333333334
 11
1088.6706666666666
 21
934.23099999999999
  0
LINE
  8
_0-0_LAYER001
  6
CONTINUOUS
 62
    2
 10
1249.2731333333334
 20
896.84359999999992
 11
1448.6524666666664
 21
1096.2229333333332
  0
LINE
  8
_0-0_LAYER001
  6
CONTINUOUS
 62
    2
 10
967.03440000000001
 20
822.0228666666668
 11
1071.5286666666666
 21
926.51706666666655
  0
LINE
  8
_0-0_LAYER001
  6
CONTINUOUS
 62
    2
 10
1232.1311333333333
 20
889.12966666666671
 11
1431.5104666666666
 21
1088.509
  0
LINE
  8
_0-0_LAYER001
  6
CONTINUOUS
 62
    2
 10
964.1084666666668
 20
828.52499999999986
 11
1054.3866666666665
 21
918.80319999999995
  0
LINE
  8
_0-0_LAYER001
  6
CONTINUOUS
 62
    1
 10
2066.9451333333332
 20
869.72666666666669
 11
2071.5754666666662
 21
874.35699999999997
  0
LINE
  8
_0-0_LAYER001
  6
CONTINUOUS
 62
    1
 10
2062.0685333333331
 20
871.92113333333327
 11
2077.3038666666666
 21
887.15646666666657
  0
LINE
  8
_0-0_LAYER001
  6
CONTINUOUS
 62
    1
 10
2057.1919333333331
 20
874.11559999999997
 11
2078.1121333333335
 21
895.03573333333338
  0
LINE
  8
_0-0_LAYER001
  6
CONTINUOUS
 62
    1
 10
2052.3154
 20
876.31006666666667
 11
2073.2291333333333
 21
897.22379999999998
  0
LINE
  8
_0-0_LAYER001
  6
CONTINUOUS
 62
    1
 10
2047.4387999999999
 20
878.50453333333348
 11
2068.346066666667
 21
899.41180000000008
  0
LINE
  8
_0-0_LAYER001
  6
CONTINUOUS
 62
    1
 10
2042.5621999999998
 20
880.69900000000007
 11
2063.4630666666662
 21
901.59986666666668
  0
LINE
  8
_0-0_LAYER001
  6
CONTINUOUS
 62
    1
 10
2037.6856
 20
882.89346666666677
 11
2058.5799999999999
 21
903.78793333333329
  0
LINE
  8
_0-0_LAYER001
  6
CONTINUOUS
 62
    1
 10
2032.8089999999997
 20
885.08793333333347
 11
2053.6970000000001
 21
905.97593333333339
  0
LINE
  8
_0-0_LAYER001
  6
CONTINUOUS
 62
    1
 10
2027.9323999999999
 20
887.28240000000005
 11
2048.8139999999999
 21
908.16399999999999
  0
LINE
  8
_0-0_LAYER001
  6
CONTINUOUS
 62
    1
 10
2023.0558000000001
 20
889.47686666666664
 11
2043.9309333333333
 21
910.3520666666667
  0
LINE
  8
_0-0_LAYER001
  6
CONTINUOUS
 62
    1
 10
2018.1791999999998
 20
891.67133333333345
 11
2039.0479333333333
 21
912.54006666666669
  0
LINE
  8
_0-0_LAYER001
  6
CONTINUOUS
 62
    1
 10
2013.3026
 20
893.86580000000004
 11
2034.1648666666665
 21
914.72813333333329
  0
LINE
  8
_0-0_LAYER001
  6
CONTINUOUS
 62
    1
 10
2008.4259999999999
 20
896.06026666666662
 11
2029.2818666666665
 21
916.91613333333339
  0
LINE
  8
_0-0_LAYER001
  6
CONTINUOUS
 62
    1
 10
2003.5493999999999
 20
898.25473333333332
 11
2024.3988666666667
 21
919.10419999999999
  0
LINE
  8
_0-0_LAYER001
  6
CONTINUOUS
 62
    1
 10
1998.6727999999998
 20
900.44920000000002
 11
2019.5158000000001
 21
921.29226666666671
  0
LINE
  8
_0-0_LAYER001
  6
CONTINUOUS
 62
    1
 10
1993.7961999999998
 20
902.6436666666666
 11
2014.6327999999999
 21
923.48026666666669
  0
LINE
  8
_0-0_LAYER001
  6
CONTINUOUS
 62
    1
 10
1988.9195999999997
 20
904.8381333333333
 11
2009.7497333333333
 21
925.66833333333329
  0
LINE
  8
_0-0_LAYER001
  6
CONTINUOUS
 62
    1
 10
1984.0429999999997
 20
907.03266666666661
 11
2004.8667333333333
 21
927.8563333333334
  0
LINE
  8
_0-0_LAYER001
  6
CONTINUOUS
 62
    1
 10
1979.1664000000001
 20
909.22713333333331
 11
1999.9837333333335
 21
930.0444
  0
LINE
  8
_0-0_LAYER001
  6
CONTINUOUS
 62
    1
 10
1974.2897999999996
 20
911.4215999999999
 11
1995.1006666666667
 21
932.23246666666671
  0
LINE
  8
_0-0_LAYER001
  6
CONTINUOUS
 62
    1
 10
1969.4132
 20
913.6160666666666
 11
1990.2176666666669
 21
934.4204666666667
  0
LINE
  8
_0-0_LAYER001
  6
CONTINUOUS
 62
    1
 10
1964.5366000000001
 20
915.8105333333333
 11
1985.3345999999999
 21
936.6085333333333
  0
LINE
  8
_0-0_LAYER001
  6
CONTINUOUS
 62
    1
 10
1959.6599999999999
 20
918.005
 11
1980.4516000000001
 21
938.79660000000001
  0
LINE
  8
_0-0_LAYER001
  6
CONTINUOUS
 62
    1
 10
1954.7834
 20
920.19946666666669
 11
1975.5685999999996
 21
940.98459999999989
  0
LINE
  8
_0-0_LAYER001
  6
CONTINUOUS
 62
    1
 10
1949.9068
 20
922.39393333333328
 11
1970.6855333333333
 21
943.17266666666671
  0
LINE
  8
_0-0_LAYER001
  6
CONTINUOUS
 62
    1
 10
1945.0301999999999
 20
924.58839999999998
 11
1965.802533333333
 21
945.3606666666667
  0
LINE
  8
_0-0_LAYER001
  6
CONTINUOUS
 62
    1
 10
1940.1535999999999
 20
926.78286666666668
 11
1960.9194666666665
 21
947.5487333333333
  0
LINE
  8
_0-0_LAYER001
  6
CONTINUOUS
 62
    1
 10
1935.2769999999998
 20
928.97733333333326
 11
1956.0364666666667
 21
949.73680000000002
  0
LINE
  8
_0-0_LAYER001
  6
CONTINUOUS
 62
    1
 10
1930.4004
 20
931.17180000000008
 11
1951.1534666666666
 21
951.92479999999989
  0
LINE
  8
_0-0_LAYER001
  6
CONTINUOUS
 62
    1
 10
1925.5238666666669
 20
933.36626666666677
 11
1946.2703999999999
 21
954.11286666666672
  0
LINE
  8
_0-0_LAYER001
  6
CONTINUOUS
 62
    1
 10
1920.6472666666664
 20
935.56073333333347
 11
1941.3873999999998
 21
956.30086666666671
  0
LINE
  8
_0-0_LAYER001
  6
CONTINUOUS
 62
    1
 10
1915.7706666666668
 20
937.75520000000006
 11
1936.5043333333333
 21
958.48893333333331
  0
LINE
  8
_0-0_LAYER001
  6
CONTINUOUS
 62
    1
 10
1910.8940666666667
 20
939.94966666666664
 11
1931.621333333333
 21
960.67700000000002
  0
LINE
  8
_0-0_LAYER001
  6
CONTINUOUS
 62
    1
 10
1906.0174666666667
 20
942.14413333333346
 11
1926.7383333333332
 21
962.8649999999999
  0
LINE
  8
_0-0_LAYER001
  6
CONTINUOUS
 62
    1
 10
1901.1408666666666
 20
944.33860000000004
 11
1921.8552666666667
 21
965.05306666666672
  0
LINE
  8
_0-0_LAYER001
  6
CONTINUOUS
 62
    1
 10
1896.2642666666668
 20
946.53313333333335
 11
1916.9722666666667
 21
967.24113333333321
  0
LINE
  8
_0-0_LAYER001
  6
CONTINUOUS
 62
    1
 10
1891.3876666666665
 20
948.72759999999994
 11
1912.0892000000001
 21
969.42913333333331
  0
LINE
  8
_0-0_LAYER001
  6
CONTINUOUS
 62
    1
 10
1886.5110666666667
 20
950.92206666666675
 11
1907.2062000000001
 21
971.61720000000003
  0
LINE
  8
_0-0_LAYER001
  6
CONTINUOUS
 62
    1
 10
1881.6344666666669
 20
953.11653333333334
 11
1902.3232000000003
 21
973.8051999999999
  0
LINE
  8
_0-0_LAYER001
  6
CONTINUOUS
 62
    1
 10
1876.7578666666668
 20
955.31099999999992
 11
1897.4401333333333
 21
975.99326666666673
  0
LINE
  8
_0-0_LAYER001
  6
CONTINUOUS
 62
    1
 10
1871.8812666666668
 20
957.50546666666662
 11
1892.5571333333335
 21
978.18133333333321
  0
LINE
  8
_0-0_LAYER001
  6
CONTINUOUS
 62
    1
 10
1867.0046666666667
 20
959.69993333333332
 11
1887.6740666666665
 21
980.36933333333332
  0
LINE
  8
_0-0_LAYER001
  6
CONTINUOUS
 62
    1
 10
1862.1280666666667
 20
961.89439999999991
 11
1882.7910666666667
 21
982.55740000000003
  0
LINE
  8
_0-0_LAYER001
  6
CONTINUOUS
 62
    1
 10
1857.2514666666666
 20
964.0888666666666
 11
1877.9080666666664
 21
984.74546666666652
  0
LINE
  8
_0-0_LAYER001
  6
CONTINUOUS
 62
    1
 10
1852.3748666666665
 20
966.2833333333333
 11
1873.0250000000001
 21
986.93346666666673
  0
LINE
  8
_0-0_LAYER001
  6
CONTINUOUS
 62
    1
 10
1847.4982666666667
 20
968.4778
 11
1868.1420000000003
 21
989.12153333333322
  0
LINE
  8
_0-0_LAYER001
  6
CONTINUOUS
 62
    1
 10
1842.6216666666664
 20
970.6722666666667
 11
1863.2589333333331
 21
991.30953333333332
  0
LINE
  8
_0-0_LAYER001
  6
CONTINUOUS
 62
    1
 10
1837.7450666666666
 20
972.86673333333329
 11
1858.3759333333333
 21
993.49760000000003
  0
LINE
  8
_0-0_LAYER001
  6
CONTINUOUS
 62
    1
 10
1832.8684666666668
 20
975.06119999999999
 11
1853.4929333333332
 21
995.68566666666652
  0
LINE
  8
_0-0_LAYER001
  6
CONTINUOUS
 62
    1
 10
1827.9918666666665
 20
977.25566666666668
 11
1848.6098666666667
 21
997.87366666666674
  0
LINE
  8
_0-0_LAYER001
  6
CONTINUOUS
 62
    1
 10
1823.1152666666667
 20
979.45013333333327
 11
1843.7268666666664
 21
1000.0617333333333
  0
LINE
  8
_0-0_LAYER001
  6
CONTINUOUS
 62
    1
 10
1818.2386666666666
 20
981.64459999999985
 11
1838.8437999999999
 21
1002.2497333333333
  0
LINE
  8
_0-0_LAYER001
  6
CONTINUOUS
 62
    1
 10
1813.3620666666666
 20
983.83913333333339
 11
1833.9608000000001
 21
1004.4378
  0
LINE
  8
_0-0_LAYER001
  6
CONTINUOUS
 62
    1
 10
1808.4854666666665
 20
986.03360000000009
 11
1829.0778
 21
1006.6258666666665
  0
LINE
  8
_0-0_LAYER001
  6
CONTINUOUS
 62
    1
 10
1803.6089333333334
 20
988.22806666666679
 11
1824.1947333333335
 21
1008.8138666666667
  0
LINE
  8
_0-0_LAYER001
  6
CONTINUOUS
 62
    1
 10
1798.7323333333334
 20
990.42253333333338
 11
1819.3117333333334
 21
1011.0019333333333
  0
LINE
  8
_0-0_LAYER001
  6
CONTINUOUS
 62
    1
 10
1793.8557333333335
 20
992.61700000000008
 11
1814.4286666666667
 21
1013.1900000000001
  0
LINE
  8
_0-0_LAYER001
  6
CONTINUOUS
 62
    1
 10
1788.9791333333333
 20
994.81146666666677
 11
1809.5456666666666
 21
1015.378
  0
LINE
  8
_0-0_LAYER001
  6
CONTINUOUS
 62
    1
 10
1784.1025333333334
 20
997.00593333333336
 11
1804.6626666666668
 21
1017.5660666666665
  0
LINE
  8
_0-0_LAYER001
  6
CONTINUOUS
 62
    1
 10
1779.2259333333334
 20
999.20039999999995
 11
1799.7796000000003
 21
1019.7540666666667
  0
LINE
  8
_0-0_LAYER001
  6
CONTINUOUS
 62
    1
 10
1774.3493333333333
 20
1001.3948666666668
 11
1794.8966
 21
1021.9421333333333
  0
LINE
  8
_0-0_LAYER001
  6
CONTINUOUS
 62
    1
 10
1769.4727333333333
 20
1003.5893333333333
 11
1790.0135333333333
 21
1024.1302000000001
  0
LINE
  8
_0-0_LAYER001
  6
CONTINUOUS
 62
    1
 10
1764.5961333333335
 20
1005.7837999999999
 11
1785.1305333333335
 21
1026.3182000000002
  0
LINE
  8
_0-0_LAYER001
  6
CONTINUOUS
 62
    1
 10
1759.7195333333332
 20
1007.9782666666666
 11
1780.2475333333332
 21
1028.5062666666665
  0
LINE
  8
_0-0_LAYER001
  6
CONTINUOUS
 62
    1
 10
1754.8429333333333
 20
1010.1727333333333
 11
1775.3644666666664
 21
1030.6943333333334
  0
LINE
  8
_0-0_LAYER001
  6
CONTINUOUS
 62
    1
 10
1749.9663333333333
 20
1012.3672
 11
1770.4814666666666
 21
1032.8823333333335
  0
LINE
  8
_0-0_LAYER001
  6
CONTINUOUS
 62
    1
 10
1745.0897333333332
 20
1014.5616666666666
 11
1765.5983999999999
 21
1035.0704000000001
  0
LINE
  8
_0-0_LAYER001
  6
CONTINUOUS
 62
    1
 10
1740.2131333333332
 20
1016.7561333333333
 11
1760.7154
 21
1037.2584000000002
  0
LINE
  8
_0-0_LAYER001
  6
CONTINUOUS
 62
    1
 10
1735.3365333333336
 20
1018.9506
 11
1755.8323999999998
 21
1039.4464666666665
  0
LINE
  8
_0-0_LAYER001
  6
CONTINUOUS
 62
    1
 10
1730.4599333333331
 20
1021.1450666666666
 11
1750.9493333333332
 21
1041.6345333333334
  0
LINE
  8
_0-0_LAYER001
  6
CONTINUOUS
 62
    1
 10
1725.5833333333335
 20
1023.3395999999999
 11
1746.0663333333332
 21
1043.8225333333335
  0
LINE
  8
_0-0_LAYER001
  6
CONTINUOUS
 62
    1
 10
1720.7067333333334
 20
1025.5340666666666
 11
1741.1832666666667
 21
1046.0106000000001
  0
LINE
  8
_0-0_LAYER001
  6
CONTINUOUS
 62
    1
 10
1715.8301333333334
 20
1027.7285333333334
 11
1736.3002666666669
 21
1048.1986000000002
  0
LINE
  8
_0-0_LAYER001
  6
CONTINUOUS
 62
    1
 10
1710.9535333333333
 20
1029.9229999999998
 11
1731.4172666666668
 21
1050.3866666666665
  0
LINE
  8
_0-0_LAYER001
  6
CONTINUOUS
 62
    1
 10
1706.0769333333335
 20
1032.1174666666666
 11
1726.5342000000001
 21
1052.5747333333334
  0
LINE
  8
_0-0_LAYER001
  6
CONTINUOUS
 62
    1
 10
1701.2003333333332
 20
1034.3119333333334
 11
1721.6512
 21
1054.7627333333335
  0
LINE
  8
_0-0_LAYER001
  6
CONTINUOUS
 62
    1
 10
1696.3237333333334
 20
1036.5064000000002
 11
1716.7681333333335
 21
1056.9508000000001
  0
LINE
  8
_0-0_LAYER001
  6
CONTINUOUS
 62
    1
 10
1691.4471333333336
 20
1038.7008666666666
 11
1711.8851333333332
 21
1059.1388666666667
  0
LINE
  8
_0-0_LAYER001
  6
CONTINUOUS
 62
    1
 10
1686.5705333333333
 20
1040.8953333333334
 11
1707.0021333333334
 21
1061.3268666666665
  0
LINE
  8
_0-0_LAYER001
  6
CONTINUOUS
 62
    1
 10
1681.6939333333335
 20
1043.0898
 11
1702.1190666666666
 21
1063.5149333333334
  0
LINE
  8
_0-0_LAYER001
  6
CONTINUOUS
 62
    1
 10
1676.8173999999999
 20
1045.2842666666668
 11
1697.2360666666668
 21
1065.7029333333335
  0
LINE
  8
_0-0_LAYER001
  6
CONTINUOUS
 62
    1
 10
1671.9407999999999
 20
1047.4787333333334
 11
1692.3530000000001
 21
1067.8909999999998
  0
LINE
  8
_0-0_LAYER001
  6
CONTINUOUS
 62
    1
 10
1667.0642
 20
1049.6732
 11
1687.4699999999998
 21
1070.0790666666667
  0
LINE
  8
_0-0_LAYER001
  6
CONTINUOUS
 62
    1
 10
1662.1875999999997
 20
1051.8676666666668
 11
1682.587
 21
1072.2670666666666
  0
LINE
  8
_0-0_LAYER001
  6
CONTINUOUS
 62
    1
 10
1657.3109999999999
 20
1054.0621333333333
 11
1677.7039333333332
 21
1074.4551333333334
  0
LINE
  8
_0-0_LAYER001
  6
CONTINUOUS
 62
    1
 10
1652.4344000000001
 20
1056.2565999999999
 11
1672.8209333333334
 21
1076.6431333333335
  0
LINE
  8
_0-0_LAYER001
  6
CONTINUOUS
 62
    1
 10
1647.5577999999998
 20
1058.4510666666667
 11
1667.9378666666667
 21
1078.8311999999999
  0
LINE
  8
_0-0_LAYER001
  6
CONTINUOUS
 62
    1
 10
1642.6812
 20
1060.6455333333333
 11
1663.0548666666666
 21
1081.0192666666667
  0
LINE
  8
_0-0_LAYER001
  6
CONTINUOUS
 62
    1
 10
1637.8045999999999
 20
1062.8400666666666
 11
1658.1718666666666
 21
1083.2072666666666
  0
LINE
  8
_0-0_LAYER001
  6
CONTINUOUS
 62
    1
 10
1632.9279999999999
 20
1065.0345333333332
 11
1653.2888
 21
1085.3953333333334
  0
LINE
  8
_0-0_LAYER001
  6
CONTINUOUS
 62
    1
 10
1628.0513999999998
 20
1067.229
 11
1648.4058000000002
 21
1087.5834
  0
LINE
  8
_0-0_LAYER001
  6
CONTINUOUS
 62
    1
 10
1623.1748000000002
 20
1069.4234666666666
 11
1643.5227333333332
 21
1089.7713999999999
  0
LINE
  8
_0-0_LAYER001
  6
CONTINUOUS
 62
    1
 10
1618.2981999999997
 20
1071.6179333333334
 11
1638.6397333333334
 21
1091.9594666666667
  0
LINE
  8
_0-0_LAYER001
  6
CONTINUOUS
 62
    1
 10
1613.4216000000001
 20
1073.8123999999998
 11
1633.7567333333334
 21
1094.1474666666666
  0
LINE
  8
_0-0_LAYER001
  6
CONTINUOUS
 62
    1
 10
1608.5450000000001
 20
1076.0068666666666
 11
1628.8736666666668
 21
1096.3355333333334
  0
LINE
  8
_0-0_LAYER001
  6
CONTINUOUS
 62
    1
 10
1603.6684
 20
1078.2013333333334
 11
1623.9906666666666
 21
1098.5236
  0
LINE
  8
_0-0_LAYER001
  6
CONTINUOUS
 62
    1
 10
1598.7918
 20
1080.3957999999998
 11
1619.1075999999998
 21
1100.7115999999999
  0
LINE
  8
_0-0_LAYER001
  6
CONTINUOUS
 62
    1
 10
1593.9152000000001
 20
1082.5902666666666
 11
1614.2246
 21
1102.8996666666667
  0
LINE
  8
_0-0_LAYER001
  6
CONTINUOUS
 62
    1
 10
1589.0385999999999
 20
1084.7847333333334
 11
1609.3416000000002
 21
1105.0877333333333
  0
LINE
  8
_0-0_LAYER001
  6
CONTINUOUS
 62
    1
 10
1584.162
 20
1086.9792000000002
 11
1604.4585333333334
 21
1107.2757333333334
  0
LINE
  8
_0-0_LAYER001
  6
CONTINUOUS
 62
    1
 10
1579.2854
 20
1089.1736666666666
 11
1599.5755333333332
 21
1109.4638
  0
LINE
  8
_0-0_LAYER001
  6
CONTINUOUS
 62
    1
 10
1574.4087999999999
 20
1091.3681333333334
 11
1594.6924666666666
 21
1111.6517999999999
  0
LINE
  8
_0-0_LAYER001
  6
CONTINUOUS
 62
    1
 10
1569.5321999999999
 20
1093.5626
 11
1589.8094666666666
 21
1113.8398666666667
  0
LINE
  8
_0-0_LAYER001
  6
CONTINUOUS
 62
    1
 10
1564.6556
 20
1095.7570666666668
 11
1584.9264666666668
 21
1116.0279333333333
  0
LINE
  8
_0-0_LAYER001
  6
CONTINUOUS
 62
    1
 10
1559.779
 20
1097.9515333333334
 11
1580.0433999999998
 21
1118.2159333333334
  0
LINE
  8
_0-0_LAYER001
  6
CONTINUOUS
 62
    1
 10
1554.9024666666669
 20
1100.1460666666667
 11
1575.1604
 21
1120.404
  0
LINE
  8
_0-0_LAYER001
  6
CONTINUOUS
 62
    1
 10
1550.0258666666664
 20
1102.3405333333333
 11
1570.2773333333334
 21
1122.5919999999999
  0
LINE
  8
_0-0_LAYER001
  6
CONTINUOUS
 62
    1
 10
1545.1492666666668
 20
1104.5350000000001
 11
1565.3943333333334
 21
1124.7800666666667
  0
LINE
  8
_0-0_LAYER001
  6
CONTINUOUS
 62
    1
 10
1540.2726666666667
 20
1106.7294666666667
 11
1560.5113333333334
 21
1126.9681333333333
  0
LINE
  8
_0-0_LAYER001
  6
CONTINUOUS
 62
    1
 10
1535.3960666666667
 20
1108.9239333333333
 11
1555.6282666666666
 21
1129.1561333333334
  0
LINE
  8
_0-0_LAYER001
  6
CONTINUOUS
 62
    1
 10
1530.5194666666666
 20
1111.1184000000001
 11
1550.7452666666668
 21
1131.3442
  0
LINE
  8
_0-0_LAYER001
  6
CONTINUOUS
 62
    1
 10
1525.6428666666668
 20
1113.3128666666667
 11
1545.8622
 21
1133.5322666666666
  0
LINE
  8
_0-0_LAYER001
  6
CONTINUOUS
 62
    1
 10
1520.7662666666665
 20
1115.5073333333332
 11
1540.9792000000002
 21
1135.7202666666667
  0
LINE
  8
_0-0_LAYER001
  6
CONTINUOUS
 62
    1
 10
1515.8896666666667
 20
1117.7018
 11
1536.0962
 21
1137.9083333333333
  0
LINE
  8
_0-0_LAYER001
  6
CONTINUOUS
 62
    1
 10
1511.0130666666666
 20
1119.8962666666666
 11
1531.2131333333334
 21
1140.0963333333334
  0
LINE
  8
_0-0_LAYER001
  6
CONTINUOUS
 62
    1
 10
1506.1364666666666
 20
1122.0907333333332
 11
1526.3301333333332
 21
1142.2844
  0
LINE
  8
_0-0_LAYER001
  6
CONTINUOUS
 62
    1
 10
1493.2799333333332
 20
1116.3053333333335
 11
1521.4470666666666
 21
1144.4724666666666
  0
LINE
  8
_0-0_LAYER001
  6
CONTINUOUS
 62
    1
 10
1480.4234666666666
 20
1110.5198666666665
 11
1516.5640666666668
 21
1146.6604666666667
  0
LINE
  8
_0-0_LAYER001
  6
CONTINUOUS
 62
    1
 10
1467.567
 20
1104.7344666666665
 11
1511.6810666666665
 21
1148.8485333333333
  0
LINE
  8
_0-0_LAYER001
  6
CONTINUOUS
 62
    1
 10
1454.7104666666667
 20
1098.9490000000001
 11
1506.798
 21
1151.0366000000001
  0
LINE
  8
_0-0_LAYER001
  6
CONTINUOUS
 62
    1
 10
1441.8539999999998
 20
1093.1636000000001
 11
1495.0218
 21
1146.3314
  0
LINE
  8
_0-0_LAYER001
  6
CONTINUOUS
 62
    1
 10
1428.9974666666667
 20
1087.3782000000001
 11
1482.1653333333334
 21
1140.5459999999998
  0
LINE
  8
_0-0_LAYER001
  6
CONTINUOUS
 62
    1
 10
1416.1409999999998
 20
1081.5927333333334
 11
1469.3088
 21
1134.7606000000001
  0
LINE
  8
_0-0_LAYER001
  6
CONTINUOUS
 62
    1
 10
1403.2845333333332
 20
1075.8073333333332
 11
1456.4523333333332
 21
1128.9751333333334
  0
LINE
  8
_0-0_LAYER001
  6
CONTINUOUS
 62
    1
 10
1390.4279999999999
 20
1070.0218666666665
 11
1443.5958666666668
 21
1123.1897333333334
  0
LINE
  8
_0-0_LAYER001
  6
CONTINUOUS
 62
    1
 10
1377.5715333333333
 20
1064.2364666666667
 11
1430.7393333333332
 21
1117.4042666666667
  0
LINE
  8
_0-0_LAYER001
  6
CONTINUOUS
 62
    1
 10
1364.7149999999999
 20
1058.4510666666667
 11
1417.8828666666666
 21
1111.6188666666667
  0
LINE
  8
_0-0_LAYER001
  6
CONTINUOUS
 62
    1
 10
1351.8585333333335
 20
1052.6656
 11
1405.0263333333332
 21
1105.8334666666667
  0
LINE
  8
_0-0_LAYER001
  6
CONTINUOUS
 62
    1
 10
1339.002
 20
1046.8802000000001
 11
1392.1698666666666
 21
1100.0479999999998
  0
LINE
  8
_0-0_LAYER001
  6
CONTINUOUS
 62
    1
 10
1326.1455333333333
 20
1041.0947333333334
 11
1379.3133333333333
 21
1094.2626
  0
LINE
  8
_0-0_LAYER001
  6
CONTINUOUS
 62
    1
 10
1313.2890666666667
 20
1035.3093333333331
 11
1366.4568666666669
 21
1088.4771333333333
  0
LINE
  8
_0-0_LAYER001
  6
CONTINUOUS
 62
    1
 10
1300.4325333333331
 20
1029.5239333333334
 11
1353.6004
 21
1082.6917333333333
  0
LINE
  8
_0-0_LAYER001
  6
CONTINUOUS
 62
    1
 10
1287.5760666666667
 20
1023.7384666666667
 11
1340.7438666666667
 21
1076.9063333333334
  0
LINE
  8
_0-0_LAYER001
  6
CONTINUOUS
 62
    1
 10
1274.7195333333334
 20
1017.9530666666666
 11
1327.8874000000001
 21
1071.1208666666666
  0
LINE
  8
_0-0_LAYER001
  6
CONTINUOUS
 62
    1
 10
1261.8630666666668
 20
1012.1676000000001
 11
1315.0308666666665
 21
1065.3354666666669
  0
LINE
  8
_0-0_LAYER001
  6
CONTINUOUS
 62
    1
 10
1249.0065999999999
 20
1006.3822
 11
1302.1744000000001
 21
1059.55
  0
LINE
  8
_0-0_LAYER001
  6
CONTINUOUS
 62
    1
 10
1236.1500666666668
 20
1000.5968
 11
1289.3178666666665
 21
1053.7646
  0
LINE
  8
_0-0_LAYER001
  6
CONTINUOUS
 62
    1
 10
1223.2936
 20
994.81133333333332
 11
1276.4614000000001
 21
1047.9792
  0
LINE
  8
_0-0_LAYER001
  6
CONTINUOUS
 62
    1
 10
1210.4370666666669
 20
989.02593333333334
 11
1263.6049333333333
 21
1042.1937333333333
  0
LINE
  8
_0-0_LAYER001
  6
CONTINUOUS
 62
    1
 10
1197.5806
 20
983.24046666666663
 11
1250.7483999999999
 21
1036.4083333333333
  0
LINE
  8
_0-0_LAYER001
  6
CONTINUOUS
 62
    1
 10
1184.7240666666667
 20
977.45506666666665
 11
1237.8919333333333
 21
1030.6228666666666
  0
LINE
  8
_0-0_LAYER001
  6
CONTINUOUS
 62
    1
 10
1171.8676
 20
971.66966666666667
 11
1225.0354000000002
 21
1024.8374666666668
  0
LINE
  8
_0-0_LAYER001
  6
CONTINUOUS
 62
    1
 10
1159.0111333333332
 20
965.88419999999996
 11
1212.1789333333334
 21
1019.0520666666666
  0
LINE
  8
_0-0_LAYER001
  6
CONTINUOUS
 62
    1
 10
1146.1546000000001
 20
960.0988000000001
 11
1199.3224666666667
 21
1013.2665999999999
  0
LINE
  8
_0-0_LAYER001
  6
CONTINUOUS
 62
    1
 10
1133.2981333333332
 20
954.31333333333328
 11
1186.4659333333334
 21
1007.4811999999999
  0
LINE
  8
_0-0_LAYER001
  6
CONTINUOUS
 62
    1
 10
1120.4416000000001
 20
948.52793333333329
 11
1173.6094666666665
 21
1001.6957333333334
  0
LINE
  8
_0-0_LAYER001
  6
CONTINUOUS
 62
    1
 10
1107.5851333333335
 20
942.74253333333331
 11
1160.7529333333334
 21
995.91033333333348
  0
LINE
  8
_0-0_LAYER001
  6
CONTINUOUS
 62
    1
 10
1094.7286000000001
 20
936.95706666666661
 11
1147.8964666666666
 21
990.12493333333339
  0
LINE
  8
_0-0_LAYER001
  6
CONTINUOUS
 62
    1
 10
1081.8721333333333
 20
931.17166666666662
 11
1135.0399333333335
 21
984.33946666666657
  0
LINE
  8
_0-0_LAYER001
  6
CONTINUOUS
 62
    1
 10
1069.0156666666667
 20
925.38620000000014
 11
1122.1834666666668
 21
978.55406666666681
  0
LINE
  8
_0-0_LAYER001
  6
CONTINUOUS
 62
    1
 10
1056.1591333333333
 20
919.60080000000005
 11
1109.3270000000002
 21
972.76859999999999
  0
LINE
  8
_0-0_LAYER001
  6
CONTINUOUS
 62
    1
 10
1043.3026666666665
 20
913.81539999999995
 11
1096.4704666666667
 21
966.9831999999999
  0
LINE
  8
_0-0_LAYER001
  6
CONTINUOUS
 62
    1
 10
1030.4461333333334
 20
908.02993333333347
 11
1083.614
 21
961.19780000000003
  0
LINE
  8
_0-0_LAYER001
  6
CONTINUOUS
 62
    1
 10
1017.5896666666666
 20
902.24453333333327
 11
1070.7574666666667
 21
955.41233333333344
  0
LINE
  8
_0-0_LAYER001
  6
CONTINUOUS
 62
    1
 10
1004.7332
 20
896.45906666666656
 11
1057.9009999999998
 21
949.62693333333334
  0
LINE
  8
_0-0_LAYER001
  6
CONTINUOUS
 62
    1
 10
991.87666666666678
 20
890.67366666666669
 11
1045.0445333333334
 21
943.84146666666652
  0
LINE
  8
_0-0_LAYER001
  6
CONTINUOUS
 62
    1
 10
979.02019999999993
 20
884.88826666666671
 11
1032.1880000000001
 21
938.05606666666677
  0
LINE
  8
_0-0_LAYER001
  6
CONTINUOUS
 62
    1
 10
966.16366666666659
 20
879.1028
 11
1019.3315333333334
 21
932.27066666666656
  0
LINE
  8
_0-0_LAYER001
  6
CONTINUOUS
 62
    1
 10
953.30720000000019
 20
873.31740000000013
 11
1006.4750000000001
 21
926.48519999999985
  0
LINE
  8
_0-0_LAYER001
  6
CONTINUOUS
 62
    1
 10
944.66073333333327
 20
871.74200000000019
 11
993.61853333333329
 21
920.69979999999998
  0
LINE
  8
_0-0_LAYER001
  6
CONTINUOUS
 62
    1
 10
942.46626666666668
 20
876.6185999999999
 11
980.76199999999994
 21
914.91433333333339
  0
LINE
  8
_0-0_LAYER001
  6
CONTINUOUS
 62
    1
 10
940.27179999999998
 20
881.49519999999995
 11
967.90553333333355
 21
909.12893333333341
  0
LINE
  8
_0-0_LAYER001
  6
CONTINUOUS
 62
    1
 10
938.0773333333334
 20
886.37180000000001
 11
955.0490666666667
 21
903.34353333333343
  0
LINE
  8
_0-0_LAYER001
  6
CONTINUOUS
 62
    1
 10
935.88286666666681
 20
891.24839999999995
 11
942.19253333333336
 21
897.55806666666672
  0
LINE
  8
_0-0_LAYER001
  6
CONTINUOUS
 62
    1
 10
939.97853333333319
 20
882.14693333333332
 11
950.20433333333335
 21
871.92113333333327
  0
LINE
  8
_0-0_LAYER001
  6
CONTINUOUS
 62
    1
 10
934.91386666666676
 20
894.28266666666673
 11
955.08093333333341
 21
874.11559999999997
  0
LINE
  8
_0-0_LAYER001
  6
CONTINUOUS
 62
    1
 10
939.79046666666682
 20
896.47713333333331
 11
959.95753333333346
 21
876.31006666666667
  0
LINE
  8
_0-0_LAYER001
  6
CONTINUOUS
 62
    1
 10
944.66706666666687
 20
898.67160000000001
 11
964.83413333333328
 21
878.50453333333348
  0
LINE
  8
_0-0_LAYER001
  6
CONTINUOUS
 62
    1
 10
949.54366666666658
 20
900.86606666666671
 11
969.71073333333334
 21
880.69900000000007
  0
LINE
  8
_0-0_LAYER001
  6
CONTINUOUS
 62
    1
 10
954.42026666666663
 20
903.0605333333333
 11
974.58733333333339
 21
882.89346666666677
  0
LINE
  8
_0-0_LAYER001
  6
CONTINUOUS
 62
    1
 10
959.29686666666669
 20
905.25499999999988
 11
979.46393333333333
 21
885.08793333333347
  0
LINE
  8
_0-0_LAYER001
  6
CONTINUOUS
 62
    1
 10
964.17346666666674
 20
907.44946666666669
 11
984.34053333333338
 21
887.28240000000005
  0
LINE
  8
_0-0_LAYER001
  6
CONTINUOUS
 62
    1
 10
969.05006666666679
 20
909.64393333333328
 11
989.21713333333344
 21
889.47686666666664
  0
LINE
  8
_0-0_LAYER001
  6
CONTINUOUS
 62
    1
 10
973.92666666666685
 20
911.83839999999987
 11
994.09373333333338
 21
891.67133333333345
  0
LINE
  8
_0-0_LAYER001
  6
CONTINUOUS
 62
    1
 10
978.80326666666656
 20
914.0329333333334
 11
998.97033333333343
 21
893.86580000000004
  0
LINE
  8
_0-0_LAYER001
  6
CONTINUOUS
 62
    1
 10
983.67986666666661
 20
916.2274000000001
 11
1003.8469333333335
 21
896.06026666666662
  0
LINE
  8
_0-0_LAYER001
  6
CONTINUOUS
 62
    1
 10
988.55646666666667
 20
918.4218666666668
 11
1008.7235333333333
 21
898.25473333333332
  0
LINE
  8
_0-0_LAYER001
  6
CONTINUOUS
 62
    1
 10
993.43306666666672
 20
920.61633333333339
 11
1013.6001333333334
 21
900.44920000000002
  0
LINE
  8
_0-0_LAYER001
  6
CONTINUOUS
 62
    1
 10
998.30960000000005
 20
922.81079999999997
 11
1018.4767333333333
 21
902.6436666666666
  0
LINE
  8
_0-0_LAYER001
  6
CONTINUOUS
 62
    1
 10
1003.1862
 20
925.00526666666678
 11
1023.3533333333334
 21
904.8381333333333
  0
LINE
  8
_0-0_LAYER001
  6
CONTINUOUS
 62
    1
 10
1008.0628
 20
927.19973333333337
 11
1028.2299333333335
 21
907.03266666666661
  0
LINE
  8
_0-0_LAYER001
  6
CONTINUOUS
 62
    1
 10
1012.9394000000001
 20
929.39419999999996
 11
1033.1065333333333
 21
909.22713333333331
  0
LINE
  8
_0-0_LAYER001
  6
CONTINUOUS
 62
    1
 10
1017.816
 20
931.58866666666665
 11
1037.9831333333334
 21
911.4215999999999
  0
LINE
  8
_0-0_LAYER001
  6
CONTINUOUS
 62
    1
 10
1022.6926000000001
 20
933.78313333333335
 11
1042.8597333333335
 21
913.6160666666666
  0
LINE
  8
_0-0_LAYER001
  6
CONTINUOUS
 62
    1
 10
1027.5692000000001
 20
935.97759999999994
 11
1047.7363333333333
 21
915.8105333333333
  0
LINE
  8
_0-0_LAYER001
  6
CONTINUOUS
 62
    1
 10
1032.4458
 20
938.17206666666664
 11
1052.6129333333333
 21
918.005
  0
LINE
  8
_0-0_LAYER001
  6
CONTINUOUS
 62
    1
 10
1037.3224
 20
940.36653333333334
 11
1057.4895333333334
 21
920.19946666666669
  0
LINE
  8
_0-0_LAYER001
  6
CONTINUOUS
 62
    1
 10
1042.1990000000001
 20
942.56100000000004
 11
1062.3660666666665
 21
922.39393333333328
  0
LINE
  8
_0-0_LAYER001
  6
CONTINUOUS
 62
    1
 10
1047.0756000000001
 20
944.75546666666673
 11
1067.2426666666665
 21
924.58839999999998
  0
LINE
  8
_0-0_LAYER001
  6
CONTINUOUS
 62
    1
 10
1051.9522000000002
 20
946.94993333333332
 11
1072.1192666666666
 21
926.78286666666668
  0
LINE
  8
_0-0_LAYER001
  6
CONTINUOUS
 62
    1
 10
1056.8288
 20
949.14440000000002
 11
1076.9958666666666
 21
928.97733333333326
  0
LINE
  8
_0-0_LAYER001
  6
CONTINUOUS
 62
    1
 10
1061.7054000000001
 20
951.33893333333333
 11
1081.8724666666667
 21
931.17180000000008
  0
LINE
  8
_0-0_LAYER001
  6
CONTINUOUS
 62
    1
 10
1066.5820000000001
 20
953.53340000000003
 11
1086.7490666666665
 21
933.36626666666677
  0
LINE
  8
_0-0_LAYER001
  6
CONTINUOUS
 62
    1
 10
1071.4585999999999
 20
955.72786666666661
 11
1091.6256666666666
 21
935.56073333333347
  0
LINE
  8
_0-0_LAYER001
  6
CONTINUOUS
 62
    1
 10
1076.3352
 20
957.92233333333331
 11
1096.5022666666666
 21
937.75520000000006
  0
LINE
  8
_0-0_LAYER001
  6
CONTINUOUS
 62
    1
 10
1081.2118
 20
960.11680000000001
 11
1101.3788666666667
 21
939.94966666666664
  0
LINE
  8
_0-0_LAYER001
  6
CONTINUOUS
 62
    1
 10
1086.0884000000001
 20
962.3112666666666
 11
1106.2554666666667
 21
942.14413333333346
  0
LINE
  8
_0-0_LAYER001
  6
CONTINUOUS
 62
    1
 10
1090.9650000000001
 20
964.50573333333318
 11
1111.1320666666668
 21
944.33860000000004
  0
LINE
  8
_0-0_LAYER001
  6
CONTINUOUS
 62
    1
 10
1095.8416000000002
 20
966.70020000000011
 11
1116.0086666666666
 21
946.53313333333335
  0
LINE
  8
_0-0_LAYER001
  6
CONTINUOUS
 62
    1
 10
1100.7182
 20
968.89466666666681
 11
1120.8852666666667
 21
948.72759999999994
  0
LINE
  8
_0-0_LAYER001
  6
CONTINUOUS
 62
    1
 10
1105.5948000000001
 20
971.08913333333339
 11
1125.7618666666667
 21
950.92206666666675
  0
LINE
  8
_0-0_LAYER001
  6
CONTINUOUS
 62
    1
 10
1110.4714000000001
 20
973.28359999999998
 11
1130.6384666666665
 21
953.11653333333334
  0
LINE
  8
_0-0_LAYER001
  6
CONTINUOUS
 62
    1
 10
1115.348
 20
975.47806666666679
 11
1135.5150666666666
 21
955.31099999999992
  0
LINE
  8
_0-0_LAYER001
  6
CONTINUOUS
 62
    1
 10
1120.2246
 20
977.67253333333338
 11
1140.3916666666667
 21
957.50546666666662
  0
LINE
  8
_0-0_LAYER001
  6
CONTINUOUS
 62
    1
 10
1125.1011333333331
 20
979.86699999999996
 11
1145.2682666666667
 21
959.69993333333332
  0
LINE
  8
_0-0_LAYER001
  6
CONTINUOUS
 62
    1
 10
1129.9777333333332
 20
982.06146666666666
 11
1150.1448666666668
 21
961.89439999999991
  0
LINE
  8
_0-0_LAYER001
  6
CONTINUOUS
 62
    1
 10
1134.8543333333332
 20
984.25593333333336
 11
1155.0214666666668
 21
964.0888666666666
  0
LINE
  8
_0-0_LAYER001
  6
CONTINUOUS
 62
    1
 10
1139.7309333333333
 20
986.45039999999995
 11
1159.8980666666666
 21
966.2833333333333
  0
LINE
  8
_0-0_LAYER001
  6
CONTINUOUS
 62
    1
 10
1144.6075333333333
 20
988.64486666666664
 11
1164.7746666666667
 21
968.4778
  0
LINE
  8
_0-0_LAYER001
  6
CONTINUOUS
 62
    1
 10
1149.4841333333334
 20
990.83939999999996
 11
1169.6512666666667
 21
970.6722666666667
  0
LINE
  8
_0-0_LAYER001
  6
CONTINUOUS
 62
    1
 10
1154.3607333333332
 20
993.03386666666665
 11
1174.5278666666668
 21
972.86673333333329
  0
LINE
  8
_0-0_LAYER001
  6
CONTINUOUS
 62
    1
 10
1159.2373333333333
 20
995.22833333333324
 11
1179.4044666666668
 21
975.06119999999999
  0
LINE
  8
_0-0_LAYER001
  6
CONTINUOUS
 62
    1
 10
1164.1139333333333
 20
997.42279999999994
 11
1184.2810666666667
 21
977.25566666666668
  0
LINE
  8
_0-0_LAYER001
  6
CONTINUOUS
 62
    1
 10
1168.9905333333334
 20
999.61726666666664
 11
1189.1576
 21
979.45013333333327
  0
LINE
  8
_0-0_LAYER001
  6
CONTINUOUS
 62
    1
 10
1173.8671333333334
 20
1001.8117333333333
 11
1194.0342000000001
 21
981.64459999999985
  0
LINE
  8
_0-0_LAYER001
  6
CONTINUOUS
 62
    1
 10
1178.7437333333335
 20
1004.0062
 11
1198.9108000000001
 21
983.83913333333339
  0
LINE
  8
_0-0_LAYER001
  6
CONTINUOUS
 62
    1
 10
1183.6203333333333
 20
1006.2006666666666
 11
1203.7874000000002
 21
986.03360000000009
  0
LINE
  8
_0-0_LAYER001
  6
CONTINUOUS
 62
    1
 10
1188.4969333333333
 20
1008.3951333333333
 11
1208.6640000000002
 21
988.22806666666679
  0
LINE
  8
_0-0_LAYER001
  6
CONTINUOUS
 62
    1
 10
1193.3735333333334
 20
1010.5896
 11
1213.5406
 21
990.42253333333338
  0
LINE
  8
_0-0_LAYER001
  6
CONTINUOUS
 62
    1
 10
1198.2501333333332
 20
1012.7840666666666
 11
1218.4172000000001
 21
992.61700000000008
  0
LINE
  8
_0-0_LAYER001
  6
CONTINUOUS
 62
    1
 10
1203.1267333333333
 20
1014.9785333333332
 11
1223.2938000000001
 21
994.81146666666677
  0
LINE
  8
_0-0_LAYER001
  6
CONTINUOUS
 62
    1
 10
1208.0033333333333
 20
1017.173
 11
1228.1704
 21
997.00593333333336
  0
LINE
  8
_0-0_LAYER001
  6
CONTINUOUS
 62
    1
 10
1212.8799333333334
 20
1019.3674666666668
 11
1233.047
 21
999.20039999999995
  0
LINE
  8
_0-0_LAYER001
  6
CONTINUOUS
 62
    1
 10
1217.7565333333334
 20
1021.5619333333334
 11
1237.9236000000001
 21
1001.3948666666668
  0
LINE
  8
_0-0_LAYER001
  6
CONTINUOUS
 62
    1
 10
1222.6331333333333
 20
1023.7564
 11
1242.8002000000001
 21
1003.5893333333333
  0
LINE
  8
_0-0_LAYER001
  6
CONTINUOUS
 62
    1
 10
1227.5097333333333
 20
1025.9508666666668
 11
1247.6768000000002
 21
1005.7837999999999
  0
LINE
  8
_0-0_LAYER001
  6
CONTINUOUS
 62
    1
 10
1232.3863333333334
 20
1028.1453333333334
 11
1252.5533999999998
 21
1007.9782666666666
  0
LINE
  8
_0-0_LAYER001
  6
CONTINUOUS
 62
    1
 10
1237.2629333333334
 20
1030.3398666666667
 11
1257.4299999999998
 21
1010.1727333333333
  0
LINE
  8
_0-0_LAYER001
  6
CONTINUOUS
 62
    1
 10
1242.1395333333335
 20
1032.5343333333333
 11
1262.3065999999999
 21
1012.3672
  0
LINE
  8
_0-0_LAYER001
  6
CONTINUOUS
 62
    1
 10
1247.0160666666668
 20
1034.7288000000001
 11
1267.1831999999999
 21
1014.5616666666666
  0
LINE
  8
_0-0_LAYER001
  6
CONTINUOUS
 62
    1
 10
1251.8926666666666
 20
1036.9232666666667
 11
1272.0598
 21
1016.7561333333333
  0
LINE
  8
_0-0_LAYER001
  6
CONTINUOUS
 62
    1
 10
1256.7692666666667
 20
1039.1177333333333
 11
1276.9364
 21
1018.9506
  0
LINE
  8
_0-0_LAYER001
  6
CONTINUOUS
 62
    1
 10
1261.6458666666667
 20
1041.3122000000001
 11
1281.8129999999999
 21
1021.1450666666666
  0
LINE
  8
_0-0_LAYER001
  6
CONTINUOUS
 62
    1
 10
1266.5224666666668
 20
1043.5066666666667
 11
1286.6895999999999
 21
1023.3395999999999
  0
LINE
  8
_0-0_LAYER001
  6
CONTINUOUS
 62
    1
 10
1271.3990666666668
 20
1045.7011333333335
 11
1291.5662
 21
1025.5340666666666
  0
LINE
  8
_0-0_LAYER001
  6
CONTINUOUS
 62
    1
 10
1276.2756666666667
 20
1047.8955999999998
 11
1296.4427999999998
 21
1027.7285333333334
  0
LINE
  8
_0-0_LAYER001
  6
CONTINUOUS
 62
    1
 10
1281.1522666666667
 20
1050.0900666666666
 11
1301.3193999999999
 21
1029.9229999999998
  0
LINE
  8
_0-0_LAYER001
  6
CONTINUOUS
 62
    1
 10
1286.0288666666668
 20
1052.2845333333335
 11
1306.1959999999999
 21
1032.1174666666666
  0
LINE
  8
_0-0_LAYER001
  6
CONTINUOUS
 62
    1
 10
1290.9054666666666
 20
1054.4789999999998
 11
1311.0725333333335
 21
1034.3119333333334
  0
LINE
  8
_0-0_LAYER001
  6
CONTINUOUS
 62
    1
 10
1295.7820666666667
 20
1056.6734666666666
 11
1315.9491333333335
 21
1036.5064000000002
  0
LINE
  8
_0-0_LAYER001
  6
CONTINUOUS
 62
    1
 10
1300.6586666666667
 20
1058.8679333333332
 11
1320.8257333333333
 21
1038.7008666666666
  0
LINE
  8
_0-0_LAYER001
  6
CONTINUOUS
 62
    1
 10
1305.5352666666668
 20
1061.0624
 11
1325.7023333333334
 21
1040.8953333333334
  0
LINE
  8
_0-0_LAYER001
  6
CONTINUOUS
 62
    1
 10
1310.4118666666668
 20
1063.2568666666666
 11
1330.5789333333335
 21
1043.0898
  0
LINE
  8
_0-0_LAYER001
  6
CONTINUOUS
 62
    1
 10
1315.2884666666669
 20
1065.4513333333332
 11
1335.4555333333333
 21
1045.2842666666668
  0
LINE
  8
_0-0_LAYER001
  6
CONTINUOUS
 62
    1
 10
1320.1650666666665
 20
1067.6458
 11
1340.3321333333333
 21
1047.4787333333334
  0
LINE
  8
_0-0_LAYER001
  6
CONTINUOUS
 62
    1
 10
1325.0416666666665
 20
1069.8403333333335
 11
1345.2087333333334
 21
1049.6732
  0
LINE
  8
_0-0_LAYER001
  6
CONTINUOUS
 62
    1
 10
1329.9182666666666
 20
1072.0347999999999
 11
1350.0853333333334
 21
1051.8676666666668
  0
LINE
  8
_0-0_LAYER001
  6
CONTINUOUS
 62
    1
 10
1334.7948666666666
 20
1074.2292666666667
 11
1354.9619333333335
 21
1054.0621333333333
  0
LINE
  8
_0-0_LAYER001
  6
CONTINUOUS
 62
    1
 10
1339.6714666666667
 20
1076.4237333333333
 11
1359.8385333333335
 21
1056.2565999999999
  0
LINE
  8
_0-0_LAYER001
  6
CONTINUOUS
 62
    1
 10
1344.5480666666667
 20
1078.6182000000001
 11
1364.7151333333331
 21
1058.4510666666667
  0
LINE
  8
_0-0_LAYER001
  6
CONTINUOUS
 62
    1
 10
1349.4246666666666
 20
1080.8126666666667
 11
1369.5917333333332
 21
1060.6455333333333
  0
LINE
  8
_0-0_LAYER001
  6
CONTINUOUS
 62
    1
 10
1354.3012666666666
 20
1083.0071333333333
 11
1374.4683333333332
 21
1062.8400666666666
  0
LINE
  8
_0-0_LAYER001
  6
CONTINUOUS
 62
    1
 10
1359.1778666666667
 20
1085.2016000000001
 11
1379.3449333333333
 21
1065.0345333333332
  0
LINE
  8
_0-0_LAYER001
  6
CONTINUOUS
 62
    1
 10
1364.0544666666665
 20
1087.3960666666667
 11
1384.2215333333334
 21
1067.229
  0
LINE
  8
_0-0_LAYER001
  6
CONTINUOUS
 62
    1
 10
1368.9310666666665
 20
1089.5905333333333
 11
1389.0981333333334
 21
1069.4234666666666
  0
LINE
  8
_0-0_LAYER001
  6
CONTINUOUS
 62
    1
 10
1373.8076000000001
 20
1091.7850000000001
 11
1393.9747333333332
 21
1071.6179333333334
  0
LINE
  8
_0-0_LAYER001
  6
CONTINUOUS
 62
    1
 10
1378.6842000000001
 20
1093.9794666666667
 11
1398.8513333333333
 21
1073.8123999999998
  0
LINE
  8
_0-0_LAYER001
  6
CONTINUOUS
 62
    1
 10
1383.5608000000002
 20
1096.1739333333333
 11
1403.7279333333333
 21
1076.0068666666666
  0
LINE
  8
_0-0_LAYER001
  6
CONTINUOUS
 62
    1
 10
1388.4374
 20
1098.3683999999998
 11
1408.6045333333334
 21
1078.2013333333334
  0
LINE
  8
_0-0_LAYER001
  6
CONTINUOUS
 62
    1
 10
1393.3140000000001
 20
1100.5628666666667
 11
1413.4811333333334
 21
1080.3957999999998
  0
LINE
  8
_0-0_LAYER001
  6
CONTINUOUS
 62
    1
 10
1398.1906000000001
 20
1102.7573333333335
 11
1418.3577333333333
 21
1082.5902666666666
  0
LINE
  8
_0-0_LAYER001
  6
CONTINUOUS
 62
    1
 10
1403.0672
 20
1104.9518
 11
1423.2343333333333
 21
1084.7847333333334
  0
LINE
  8
_0-0_LAYER001
  6
CONTINUOUS
 62
    1
 10
1407.9438
 20
1107.1463333333331
 11
1428.1109333333334
 21
1086.9792000000002
  0
LINE
  8
_0-0_LAYER001
  6
CONTINUOUS
 62
    1
 10
1412.8204000000001
 20
1109.3407999999999
 11
1432.9875333333334
 21
1089.1736666666666
  0
LINE
  8
_0-0_LAYER001
  6
CONTINUOUS
 62
    1
 10
1417.6970000000001
 20
1111.5352666666668
 11
1437.8640666666665
 21
1091.3681333333334
  0
LINE
  8
_0-0_LAYER001
  6
CONTINUOUS
 62
    1
 10
1422.5736000000002
 20
1113.7297333333333
 11
1442.7406666666666
 21
1093.5626
  0
LINE
  8
_0-0_LAYER001
  6
CONTINUOUS
 62
    1
 10
1427.4502000000002
 20
1115.9241999999999
 11
1447.6172666666666
 21
1095.7570666666668
  0
LINE
  8
_0-0_LAYER001
  6
CONTINUOUS
 62
    1
 10
1432.3267999999998
 20
1118.1186666666667
 11
1452.4938666666667
 21
1097.9515333333334
  0
LINE
  8
_0-0_LAYER001
  6
CONTINUOUS
 62
    1
 10
1437.2033999999999
 20
1120.3131333333336
 11
1457.3704666666665
 21
1100.1460666666667
  0
LINE
  8
_0-0_LAYER001
  6
CONTINUOUS
 62
    1
 10
1442.0799999999999
 20
1122.5076000000001
 11
1462.2470666666668
 21
1102.3405333333333
  0
LINE
  8
_0-0_LAYER001
  6
CONTINUOUS
 62
    1
 10
1446.9566
 20
1124.7020666666667
 11
1467.1236666666666
 21
1104.5350000000001
  0
LINE
  8
_0-0_LAYER001
  6
CONTINUOUS
 62
    1
 10
1451.8332
 20
1126.8965333333333
 11
1472.0002666666667
 21
1106.7294666666667
  0
LINE
  8
_0-0_LAYER001
  6
CONTINUOUS
 62
    1
 10
1456.7097999999999
 20
1129.0910000000001
 11
1476.8768666666667
 21
1108.9239333333333
  0
LINE
  8
_0-0_LAYER001
  6
CONTINUOUS
 62
    1
 10
1461.5864000000001
 20
1131.2854666666667
 11
1481.7534666666668
 21
1111.1184000000001
  0
LINE
  8
_0-0_LAYER001
  6
CONTINUOUS
 62
    1
 10
1466.463
 20
1133.4799333333333
 11
1486.6300666666666
 21
1113.3128666666667
  0
LINE
  8
_0-0_LAYER001
  6
CONTINUOUS
 62
    1
 10
1471.3396
 20
1135.6744000000001
 11
1491.5066666666669
 21
1115.5073333333332
  0
LINE
  8
_0-0_LAYER001
  6
CONTINUOUS
 62
    1
 10
1476.2162000000001
 20
1137.8688666666667
 11
1496.3832666666667
 21
1117.7018
  0
LINE
  8
_0-0_LAYER001
  6
CONTINUOUS
 62
    1
 10
1481.0928000000001
 20
1140.0633333333333
 11
1501.2598666666665
 21
1119.8962666666666
  0
LINE
  8
_0-0_LAYER001
  6
CONTINUOUS
 62
    1
 10
1485.9694
 20
1142.2578000000001
 11
1506.1364666666666
 21
1122.0907333333332
  0
LINE
  8
_0-0_LAYER001
  6
CONTINUOUS
 62
    1
 10
1490.846
 20
1144.4522666666667
 11
1518.9929333333334
 21
1116.3053333333335
  0
LINE
  8
_0-0_LAYER001
  6
CONTINUOUS
 62
    1
 10
1495.7225333333331
 20
1146.6468
 11
1531.8494666666666
 21
1110.5198666666665
  0
LINE
  8
_0-0_LAYER001
  6
CONTINUOUS
 62
    1
 10
1500.5991333333336
 20
1148.8412666666666
 11
1544.7059333333334
 21
1104.7344666666665
  0
LINE
  8
_0-0_LAYER001
  6
CONTINUOUS
 62
    1
 10
1505.4757333333332
 20
1151.0357333333334
 11
1557.5624666666668
 21
1098.9490000000001
  0
LINE
  8
_0-0_LAYER001
  6
CONTINUOUS
 62
    1
 10
1517.2126666666666
 20
1146.3698666666667
 11
1570.4189333333334
 21
1093.1636000000001
  0
LINE
  8
_0-0_LAYER001
  6
CONTINUOUS
 62
    1
 10
1530.0247333333334
 20
1140.6288666666665
 11
1583.2754
 21
1087.3782000000001
  0
LINE
  8
_0-0_LAYER001
  6
CONTINUOUS
 62
    1
 10
1542.8367333333333
 20
1134.8879333333332
 11
1596.1319333333336
 21
1081.5927333333334
  0
LINE
  8
_0-0_LAYER001
  6
CONTINUOUS
 62
    1
 10
1555.6487333333334
 20
1129.1469999999999
 11
1608.9883999999997
 21
1075.8073333333332
  0
LINE
  8
_0-0_LAYER001
  6
CONTINUOUS
 62
    1
 10
1568.4608000000001
 20
1123.4059999999999
 11
1621.8449333333333
 21
1070.0218666666665
  0
LINE
  8
_0-0_LAYER001
  6
CONTINUOUS
 62
    1
 10
1581.2728000000002
 20
1117.6650666666665
 11
1634.7013999999999
 21
1064.2364666666667
  0
LINE
  8
_0-0_LAYER001
  6
CONTINUOUS
 62
    1
 10
1594.0848000000001
 20
1111.9241333333332
 11
1647.557933333333
 21
1058.4510666666667
  0
LINE
  8
_0-0_LAYER001
  6
CONTINUOUS
 62
    1
 10
1606.8968666666665
 20
1106.1831333333334
 11
1660.4143999999999
 21
1052.6656
  0
LINE
  8
_0-0_LAYER001
  6
CONTINUOUS
 62
    1
 10
1619.7088666666664
 20
1100.4422
 11
1673.2708666666667
 21
1046.8802000000001
  0
LINE
  8
_0-0_LAYER001
  6
CONTINUOUS
 62
    1
 10
1632.5208666666667
 20
1094.7012666666665
 11
1686.1274000000001
 21
1041.0947333333334
  0
LINE
  8
_0-0_LAYER001
  6
CONTINUOUS
 62
    1
 10
1645.3329333333336
 20
1088.9602666666665
 11
1698.9838666666669
 21
1035.3093333333331
  0
LINE
  8
_0-0_LAYER001
  6
CONTINUOUS
 62
    1
 10
1658.1449333333333
 20
1083.2193333333335
 11
1711.8404
 21
1029.5239333333334
  0
LINE
  8
_0-0_LAYER001
  6
CONTINUOUS
 62
    1
 10
1670.9569333333332
 20
1077.4784
 11
1724.6968666666669
 21
1023.7384666666667
  0
LINE
  8
_0-0_LAYER001
  6
CONTINUOUS
 62
    1
 10
1683.7689999999998
 20
1071.7374666666665
 11
1737.5533333333333
 21
1017.9530666666666
  0
LINE
  8
_0-0_LAYER001
  6
CONTINUOUS
 62
    1
 10
1696.5810000000001
 20
1065.9964666666665
 11
1750.4098666666664
 21
1012.1676000000001
  0
LINE
  8
_0-0_LAYER001
  6
CONTINUOUS
 62
    1
 10
1709.393
 20
1060.2555333333335
 11
1763.2663333333335
 21
1006.3822
  0
LINE
  8
_0-0_LAYER001
  6
CONTINUOUS
 62
    1
 10
1722.2050666666667
 20
1054.5146
 11
1776.1228666666666
 21
1000.5968
  0
LINE
  8
_0-0_LAYER001
  6
CONTINUOUS
 62
    1
 10
1735.0170666666668
 20
1048.7736
 11
1788.9793333333332
 21
994.81133333333332
  0
LINE
  8
_0-0_LAYER001
  6
CONTINUOUS
 62
    1
 10
1747.8290666666667
 20
1043.0326666666665
 11
1801.8358666666666
 21
989.02593333333334
  0
LINE
  8
_0-0_LAYER001
  6
CONTINUOUS
 62
    1
 10
1760.6411333333333
 20
1037.2917333333335
 11
1814.6923333333334
 21
983.24046666666663
  0
LINE
  8
_0-0_LAYER001
  6
CONTINUOUS
 62
    1
 10
1773.4531333333334
 20
1031.5507333333333
 11
1827.5487999999998
 21
977.45506666666665
  0
LINE
  8
_0-0_LAYER001
  6
CONTINUOUS
 62
    1
 10
1786.2651333333333
 20
1025.8098
 11
1840.4053333333334
 21
971.66966666666667
  0
LINE
  8
_0-0_LAYER001
  6
CONTINUOUS
 62
    1
 10
1799.0772000000002
 20
1020.0688666666666
 11
1853.2618
 21
965.88419999999996
  0
LINE
  8
_0-0_LAYER001
  6
CONTINUOUS
 62
    1
 10
1811.8892000000001
 20
1014.3278666666668
 11
1866.1183333333333
 21
960.0988000000001
  0
LINE
  8
_0-0_LAYER001
  6
CONTINUOUS
 62
    1
 10
1824.7012
 20
1008.5869333333334
 11
1878.9748
 21
954.31333333333328
  0
LINE
  8
_0-0_LAYER001
  6
CONTINUOUS
 62
    1
 10
1837.5132666666664
 20
1002.846
 11
1891.8312666666668
 21
948.52793333333329
  0
LINE
  8
_0-0_LAYER001
  6
CONTINUOUS
 62
    1
 10
1850.3252666666667
 20
997.10500000000002
 11
1904.6877999999997
 21
942.74253333333331
  0
LINE
  8
_0-0_LAYER001
  6
CONTINUOUS
 62
    1
 10
1863.1372666666666
 20
991.36406666666676
 11
1917.5442666666668
 21
936.95706666666661
  0
LINE
  8
_0-0_LAYER001
  6
CONTINUOUS
 62
    1
 10
1875.9493333333332
 20
985.62313333333339
 11
1930.4007999999999
 21
931.17166666666662
  0
LINE
  8
_0-0_LAYER001
  6
CONTINUOUS
 62
    1
 10
1888.7613333333331
 20
979.88220000000001
 11
1943.2572666666667
 21
925.38620000000014
  0
LINE
  8
_0-0_LAYER001
  6
CONTINUOUS
 62
    1
 10
1901.5733333333333
 20
974.14120000000003
 11
1956.1138000000001
 21
919.60080000000005
  0
LINE
  8
_0-0_LAYER001
  6
CONTINUOUS
 62
    1
 10
1914.3853999999999
 20
968.40026666666677
 11
1968.9702666666665
 21
913.81539999999995
  0
LINE
  8
_0-0_LAYER001
  6
CONTINUOUS
 62
    1
 10
1927.1974
 20
962.65933333333339
 11
1981.8267333333333
 21
908.02993333333347
  0
LINE
  8
_0-0_LAYER001
  6
CONTINUOUS
 62
    1
 10
1940.0093999999999
 20
956.91833333333329
 11
1994.6832666666664
 21
902.24453333333327
  0
LINE
  8
_0-0_LAYER001
  6
CONTINUOUS
 62
    1
 10
1952.8214666666665
 20
951.17740000000003
 11
2007.5397333333333
 21
896.45906666666656
  0
LINE
  8
_0-0_LAYER001
  6
CONTINUOUS
 62
    1
 10
1965.6334666666669
 20
945.43646666666677
 11
2020.3962666666666
 21
890.67366666666669
  0
LINE
  8
_0-0_LAYER001
  6
CONTINUOUS
 62
    1
 10
1978.4454666666668
 20
939.69546666666679
 11
2033.2527333333335
 21
884.88826666666671
  0
LINE
  8
_0-0_LAYER001
  6
CONTINUOUS
 62
    1
 10
1991.2575333333334
 20
933.9545333333333
 11
2046.1092666666668
 21
879.1028
  0
LINE
  8
_0-0_LAYER001
  6
CONTINUOUS
 62
    1
 10
2004.0695333333333
 20
928.21360000000004
 11
2058.9657333333334
 21
873.31740000000013
  0
LINE
  8
_0-0_LAYER001
  6
CONTINUOUS
 62
    1
 10
2016.8815333333332
 20
922.47260000000006
 11
2069.5416666666665
 21
869.81253333333348
  0
LINE
  8
_0-0_LAYER001
  6
CONTINUOUS
 62
    1
 10
2029.6936000000001
 20
916.7316666666668
 11
2071.7278666666666
 21
874.69740000000002
  0
LINE
  8
_0-0_LAYER001
  6
CONTINUOUS
 62
    1
 10
2042.5056
 20
910.99073333333331
 11
2073.9140666666667
 21
879.58226666666656
  0
LINE
  8
_0-0_LAYER001
  6
CONTINUOUS
 62
    1
 10
2055.3175999999999
 20
905.24973333333332
 11
2076.1002666666668
 21
884.46713333333355
  0
LINE
  8
_0-0_LAYER001
  6
CONTINUOUS
 62
    1
 10
2068.1296666666667
 20
899.50880000000006
 11
2078.2864666666665
 21
889.35193333333336
  0
LINE
  8
_0-0_LAYER001
  6
CONTINUOUS
 62
    4
 10
923.21699999999987
 20
919.39480000000003
 11
979.79853333333324
 21
937.2686666666666
  0
LINE
  8
_0-0_LAYER001
  6
CONTINUOUS
 62
    4
 10
975.74586666666676
 20
950.09773333333328
 11
960.15586666666672
 21
945.17286666666666
  0
LINE
  8
_0-0_LAYER001
  6
CONTINUOUS
 62
    4
 10
918.39653333333342
 20
930.10693333333336
 11
958.54966666666667
 21
942.79113333333328
  0
ARC
  8
_0-0_LAYER001
  6
CONTINUOUS
 62
    4
 10
962.30353333333346
 20
941.80453333333332
 40
3.8813426666666659
 50
113.70193000000002
 51
165.27368000000001
  0
LINE
  8
_0-0_LAYER001
  6
CONTINUOUS
 62
    4
 10
980.56920000000014
 20
924.52793333333329
 11
979.39480000000003
 21
928.24540000000002
  0
LINE
  8
_0-0_LAYER001
  6
CONTINUOUS
 62
    4
 10
975.74586666666676
 20
950.09773333333328
 11
983.52800000000002
 21
925.46260000000007
  0
LINE
  8
_0-0_LAYER001
  6
CONTINUOUS
 62
    4
 10
980.56920000000014
 20
924.52793333333329
 11
983.52800000000002
 21
925.46260000000007
  0
LINE
  8
_0-0_LAYER001
  6
CONTINUOUS
 62
    4
 10
926.72186666666664
 20
911.60626666666667
 11
979.39480000000003
 21
928.24540000000002
  0
LINE
  8
_0-0_LAYER001
  6
CONTINUOUS
 62
    2
 10
964.3294666666668
 20
910.61993333333339
 11
982.70979999999997
 21
918.50433333333331
  0
LINE
  8
_0-0_LAYER001
  6
CONTINUOUS
 62
    2
 10
982.70979999999997
 20
918.50433333333331
 11
978.7675333333334
 21
927.69453333333331
  0
LINE
  8
_0-0_LAYER001
  6
CONTINUOUS
 62
    2
 10
978.7675333333334
 20
927.69453333333331
 11
960.38726666666662
 21
919.81006666666656
  0
LINE
  8
_0-0_LAYER001
  6
CONTINUOUS
 62
    2
 10
960.38726666666662
 20
919.81006666666656
 11
964.3294666666668
 21
910.61993333333339
  0
LINE
  8
_0-0_LAYER001
  6
CONTINUOUS
 62
    2
 10
978.7675333333334
 20
927.69453333333331
 11
964.3294666666668
 21
910.61993333333339
  0
LINE
  8
_0-0_LAYER001
  6
CONTINUOUS
 62
    4
 10
929.33940000000007
 20
948.66300000000001
 11
933.08506666666676
 21
949.81220000000008
  0
ARC
  8
_0-0_LAYER001
  6
CONTINUOUS
 62
    4
 10
944.28399999999999
 20
950.86180000000002
 40
11.248011333333332
 50
102.88244
 51
185.35433
  0
LINE
  8
_0-0_LAYER001
  6
CONTINUOUS
 62
    4
 10
945.38033333333351
 20
950.72900000000004
 11
1150.0238666666669
 21
1013.5152666666665
  0
LINE
  8
_0-0_LAYER001
  6
CONTINUOUS
 62
    4
 10
1146.0776666666668
 20
1026.3774666666668
 11
1130.4474
 21
1021.5819333333334
  0
LINE
  8
_0-0_LAYER001
  6
CONTINUOUS
 62
    4
 10
941.7761999999999
 20
961.8266666666666
 11
1128.8215333333333
 21
1019.2136
  0
ARC
  8
_0-0_LAYER001
  6
CONTINUOUS
 62
    4
 10
1132.5670666666667
 20
1018.1959333333333
 40
3.8813426666666659
 50
113.22723000000001
 51
164.79898000000003
  0
LINE
  8
_0-0_LAYER001
  6
CONTINUOUS
 62
    4
 10
929.33333333333337
 20
948.68286666666677
 11
933.15240000000006
 21
936.23506666666663
  0
ARC
  8
_0-0_LAYER001
  6
CONTINUOUS
 62
    4
 10
947.88813333333337
 20
939.76413333333323
 40
11.248011333333332
 50
102.88244
 51
192.21985000000001
  0
LINE
  8
_0-0_LAYER001
  6
CONTINUOUS
 62
    4
 10
1150.6889333333334
 20
1000.7686000000001
 11
1149.5454666666665
 21
1004.4956666666667
  0
LINE
  8
_0-0_LAYER001
  6
CONTINUOUS
 62
    4
 10
1146.0776666666668
 20
1026.3774666666668
 11
1153.6553999999999
 21
1001.6787333333333
  0
LINE
  8
_0-0_LAYER001
  6
CONTINUOUS
 62
    4
 10
1150.6889333333334
 20
1000.7686000000001
 11
1153.6553999999999
 21
1001.6787333333333
  0
LINE
  8
_0-0_LAYER001
  6
CONTINUOUS
 62
    4
 10
936.89493333333326
 20
937.38333333333344
 11
933.15240000000006
 21
936.23506666666663
  0
LINE
  8
_0-0_LAYER001
  6
CONTINUOUS
 62
    4
 10
936.66286666666679
 20
939.18166666666662
 11
1149.5454666666665
 21
1004.4956666666667
  0
LINE
  8
_0-0_LAYER001
  6
CONTINUOUS
 62
    2
 10
1134.3345999999999
 20
986.99560000000008
 11
1152.7796000000001
 21
994.72746666666671
  0
LINE
  8
_0-0_LAYER001
  6
CONTINUOUS
 62
    2
 10
1152.7796000000001
 20
994.72746666666671
 11
1148.9136666666668
 21
1003.9499999999999
  0
LINE
  8
_0-0_LAYER001
  6
CONTINUOUS
 62
    2
 10
1148.9136666666668
 20
1003.9499999999999
 11
1130.4686666666666
 21
996.2181333333333
  0
LINE
  8
_0-0_LAYER001
  6
CONTINUOUS
 62
    2
 10
1130.4686666666666
 20
996.2181333333333
 11
1134.3345999999999
 21
986.99560000000008
  0
LINE
  8
_0-0_LAYER001
  6
CONTINUOUS
 62
    2
 10
1148.9136666666668
 20
1003.9499999999999
 11
1134.3345999999999
 21
986.99560000000008
  0
LINE
  8
_0-0_LAYER001
  6
CONTINUOUS
 62
    4
 10
1099.5520000000001
 20
1025.2927999999999
 11
1103.2976000000001
 21
1026.442
  0
ARC
  8
_0-0_LAYER001
  6
CONTINUOUS
 62
    4
 10
1114.4965333333332
 20
1027.4916000000001
 40
11.248011333333332
 50
102.88244
 51
185.35433
  0
LINE
  8
_0-0_LAYER001
  6
CONTINUOUS
 62
    4
 10
1115.5929333333333
 20
1027.3588666666665
 11
1320.2364666666667
 21
1090.1450666666667
  0
LINE
  8
_0-0_LAYER001
  6
CONTINUOUS
 62
    4
 10
1316.2901999999999
 20
1103.0072666666665
 11
1300.6600000000001
 21
1098.2118
  0
LINE
  8
_0-0_LAYER001
  6
CONTINUOUS
 62
    4
 10
1111.9888000000001
 20
1038.4565333333333
 11
1299.0340666666666
 21
1095.8434666666667
  0
ARC
  8
_0-0_LAYER001
  6
CONTINUOUS
 62
    4
 10
1302.7796000000001
 20
1094.8257333333331
 40
3.8813426666666659
 50
113.22723000000001
 51
164.79898000000003
  0
LINE
  8
_0-0_LAYER001
  6
CONTINUOUS
 62
    4
 10
1099.5458666666668
 20
1025.3126666666667
 11
1103.3649333333333
 21
1012.8649333333333
  0
ARC
  8
_0-0_LAYER001
  6
CONTINUOUS
 62
    4
 10
1118.1006666666667
 20
1016.394
 40
11.248011333333332
 50
102.88244
 51
192.21985000000001
  0
LINE
  8
_0-0_LAYER001
  6
CONTINUOUS
 62
    4
 10
1320.9015333333332
 20
1077.3984
 11
1319.7579999999998
 21
1081.1255333333334
  0
LINE
  8
_0-0_LAYER001
  6
CONTINUOUS
 62
    4
 10
1316.2901999999999
 20
1103.0072666666665
 11
1323.8679999999999
 21
1078.3085333333333
  0
LINE
  8
_0-0_LAYER001
  6
CONTINUOUS
 62
    4
 10
1320.9015333333332
 20
1077.3984
 11
1323.8679999999999
 21
1078.3085333333333
  0
LINE
  8
_0-0_LAYER001
  6
CONTINUOUS
 62
    4
 10
1107.1075333333333
 20
1014.0132
 11
1103.3649333333333
 21
1012.8649333333333
  0
LINE
  8
_0-0_LAYER001
  6
CONTINUOUS
 62
    4
 10
1106.8754000000001
 20
1015.8114666666667
 11
1319.7579999999998
 21
1081.1255333333334
  0
LINE
  8
_0-0_LAYER001
  6
CONTINUOUS
 62
    2
 10
1304.5471333333332
 20
1063.6254666666669
 11
1322.9921333333334
 21
1071.3573333333334
  0
LINE
  8
_0-0_LAYER001
  6
CONTINUOUS
 62
    2
 10
1322.9921333333334
 20
1071.3573333333334
 11
1319.1262000000002
 21
1080.5798
  0
LINE
  8
_0-0_LAYER001
  6
CONTINUOUS
 62
    2
 10
1319.1262000000002
 20
1080.5798
 11
1300.6812
 21
1072.8479333333332
  0
LINE
  8
_0-0_LAYER001
  6
CONTINUOUS
 62
    2
 10
1300.6812
 20
1072.8479333333332
 11
1304.5471333333332
 21
1063.6254666666669
  0
LINE
  8
_0-0_LAYER001
  6
CONTINUOUS
 62
    2
 10
1319.1262000000002
 20
1080.5798
 11
1304.5471333333332
 21
1063.6254666666669
  0
LINE
  8
_0-0_LAYER001
  6
CONTINUOUS
 62
    4
 10
1269.7645333333335
 20
1101.9226666666666
 11
1273.5101333333334
 21
1103.0718666666667
  0
ARC
  8
_0-0_LAYER001
  6
CONTINUOUS
 62
    4
 10
1284.7090666666668
 20
1104.1214666666667
 40
11.248011333333332
 50
102.88244
 51
185.35433
  0
LINE
  8
_0-0_LAYER001
  6
CONTINUOUS
 62
    4
 10
1285.8054666666667
 20
1103.9886666666666
 11
1490.4489999999998
 21
1166.7749333333334
  0
LINE
  8
_0-0_LAYER001
  6
CONTINUOUS
 62
    4
 10
1486.5027999999998
 20
1179.6371333333334
 11
1470.8725333333332
 21
1174.8416
  0
LINE
  8
_0-0_LAYER001
  6
CONTINUOUS
 62
    4
 10
1282.2013333333334
 20
1115.0863333333334
 11
1469.2466666666667
 21
1172.4732666666666
  0
ARC
  8
_0-0_LAYER001
  6
CONTINUOUS
 62
    4
 10
1472.9921999999999
 20
1171.4555999999998
 40
3.8813426666666659
 50
113.22723000000001
 51
164.79898000000003
  0
LINE
  8
_0-0_LAYER001
  6
CONTINUOUS
 62
    4
 10
1269.7584666666667
 20
1101.9425333333334
 11
1273.5775333333333
 21
1089.4947333333332
  0
ARC
  8
_0-0_LAYER001
  6
CONTINUOUS
 62
    4
 10
1288.3132000000001
 20
1093.0237999999999
 40
11.248011333333332
 50
102.88244
 51
192.21985000000001
  0
LINE
  8
_0-0_LAYER001
  6
CONTINUOUS
 62
    4
 10
1491.1140666666668
 20
1154.0282666666667
 11
1489.9705333333336
 21
1157.7553333333333
  0
LINE
  8
_0-0_LAYER001
  6
CONTINUOUS
 62
    4
 10
1486.5027999999998
 20
1179.6371333333334
 11
1494.0805333333335
 21
1154.9384
  0
LINE
  8
_0-0_LAYER001
  6
CONTINUOUS
 62
    4
 10
1491.1140666666668
 20
1154.0282666666667
 11
1494.0805333333335
 21
1154.9384
  0
LINE
  8
_0-0_LAYER001
  6
CONTINUOUS
 62
    4
 10
1277.3200666666667
 20
1090.643
 11
1273.5775333333333
 21
1089.4947333333332
  0
LINE
  8
_0-0_LAYER001
  6
CONTINUOUS
 62
    4
 10
1277.0879333333335
 20
1092.4413333333334
 11
1489.9705333333336
 21
1157.7553333333333
  0
LINE
  8
_0-0_LAYER001
  6
CONTINUOUS
 62
    2
 10
1474.7596666666668
 20
1140.2552666666668
 11
1493.2046666666665
 21
1147.9871333333333
  0
LINE
  8
_0-0_LAYER001
  6
CONTINUOUS
 62
    2
 10
1493.2046666666665
 20
1147.9871333333333
 11
1489.3387333333335
 21
1157.2096666666666
  0
LINE
  8
_0-0_LAYER001
  6
CONTINUOUS
 62
    2
 10
1489.3387333333335
 20
1157.2096666666666
 11
1470.8937333333333
 21
1149.4777999999999
  0
LINE
  8
_0-0_LAYER001
  6
CONTINUOUS
 62
    2
 10
1470.8937333333333
 20
1149.4777999999999
 11
1474.7596666666668
 21
1140.2552666666668
  0
LINE
  8
_0-0_LAYER001
  6
CONTINUOUS
 62
    2
 10
1489.3387333333335
 20
1157.2096666666666
 11
1474.7596666666668
 21
1140.2552666666668
  0
LINE
  8
_0-0_LAYER001
  6
CONTINUOUS
 62
    2
 10
876.12360000000012
 20
1024.0467333333331
 11
890.68799999999999
 21
1030.6007333333334
  0
CIRCLE
  8
_0-0_LAYER001
  6
CONTINUOUS
 62
    2
 10
890.68799999999999
 20
1030.6007333333334
 40
1.1333333333333331
  0
LINE
  8
_0-0_LAYER001
  6
CONTINUOUS
 62
    2
 10
890.00406666666674
 20
1032.1206000000002
 11
904.36680000000001
 21
1000.2033333333334
  0
LINE
  8
_0-0_LAYER001
  6
CONTINUOUS
 62
    2
 10
884.53253333333339
 20
1044.2795333333333
 11
898.89526666666688
 21
1012.3622666666666
  0
CIRCLE
  8
_0-0_LAYER001
  6
CONTINUOUS
 62
    2
 10
885.21646666666675
 20
1042.7596666666666
 40
1.1333333333333331
  0
LINE
  8
_0-0_LAYER001
  6
CONTINUOUS
 62
    2
 10
885.21646666666675
 20
1042.7596666666666
 11
1055.4418666666668
 21
1119.3609333333334
  0
CIRCLE
  8
_0-0_LAYER001
  6
CONTINUOUS
 62
    2
 10
1055.4418666666668
 20
1119.3609333333334
 40
1.1333333333333331
  0
LINE
  8
_0-0_LAYER001
  6
CONTINUOUS
 62
    2
 10
1054.7579333333333
 20
1120.8808000000001
 11
1069.1206666666667
 21
1088.9635333333333
  0
LINE
  8
_0-0_LAYER001
  6
CONTINUOUS
 62
    2
 10
1049.2864
 20
1133.0397333333333
 11
1063.6491333333333
 21
1101.1224666666667
  0
CIRCLE
  8
_0-0_LAYER001
  6
CONTINUOUS
 62
    2
 10
1049.9703333333334
 20
1131.5198666666668
 40
1.1333333333333331
  0
LINE
  8
_0-0_LAYER001
  6
CONTINUOUS
 62
    2
 10
1049.9703333333334
 20
1131.5198666666668
 11
1220.1958
 21
1208.1211333333335
  0
CIRCLE
  8
_0-0_LAYER001
  6
CONTINUOUS
 62
    2
 10
1220.1958
 20
1208.1211333333335
 40
1.1333333333333331
  0
LINE
  8
_0-0_LAYER001
  6
CONTINUOUS
 62
    2
 10
1219.5118
 20
1209.6409999999998
 11
1233.8746000000001
 21
1177.7237333333335
  0
LINE
  8
_0-0_LAYER001
  6
CONTINUOUS
 62
    2
 10
1214.0403333333334
 20
1221.7999333333332
 11
1228.4030666666667
 21
1189.8826666666669
  0
CIRCLE
  8
_0-0_LAYER001
  6
CONTINUOUS
 62
    2
 10
1214.7242666666666
 20
1220.2800666666667
 40
1.1333333333333331
  0
LINE
  8
_0-0_LAYER001
  6
CONTINUOUS
 62
    2
 10
1214.7242666666666
 20
1220.2800666666667
 11
1384.9496666666666
 21
1296.8813333333333
  0
CIRCLE
  8
_0-0_LAYER001
  6
CONTINUOUS
 62
    2
 10
1384.9496666666666
 20
1296.8813333333333
 40
1.1333333333333331
  0
LINE
  8
_0-0_LAYER001
  6
CONTINUOUS
 62
    2
 10
1384.2657333333332
 20
1298.4011999999998
 11
1398.6284666666668
 21
1266.4839333333334
  0
LINE
  8
_0-0_LAYER001
  6
CONTINUOUS
 62
    4
 10
2089.0558666666666
 20
919.39480000000003
 11
2032.4743333333333
 21
937.2686666666666
  0
LINE
  8
_0-0_LAYER001
  6
CONTINUOUS
 62
    4
 10
2036.5269999999998
 20
950.09773333333328
 11
2052.1169999999997
 21
945.17286666666666
  0
LINE
  8
_0-0_LAYER001
  6
CONTINUOUS
 62
    4
 10
2093.8763333333332
 20
930.10693333333336
 11
2053.7231999999999
 21
942.79113333333328
  0
ARC
  8
_0-0_LAYER001
  6
CONTINUOUS
 62
    4
 10
2049.9693333333335
 20
941.80453333333332
 40
3.8813426666666659
 50
14.726318000000001
 51
66.298061999999987
  0
LINE
  8
_0-0_LAYER001
  6
CONTINUOUS
 62
    4
 10
2031.7037333333335
 20
924.52793333333329
 11
2032.8780666666669
 21
928.24540000000002
  0
LINE
  8
_0-0_LAYER001
  6
CONTINUOUS
 62
    4
 10
2036.5269999999998
 20
950.09773333333328
 11
2028.7448666666664
 21
925.46260000000007
  0
LINE
  8
_0-0_LAYER001
  6
CONTINUOUS
 62
    4
 10
2031.7037333333335
 20
924.52793333333329
 11
2028.7448666666664
 21
925.46260000000007
  0
LINE
  8
_0-0_LAYER001
  6
CONTINUOUS
 62
    4
 10
2085.5509999999999
 20
911.60626666666667
 11
2032.8780666666669
 21
928.24540000000002
  0
LINE
  8
_0-0_LAYER001
  6
CONTINUOUS
 62
    2
 10
2047.9434000000001
 20
910.61993333333339
 11
2029.5631333333333
 21
918.50433333333331
  0
LINE
  8
_0-0_LAYER001
  6
CONTINUOUS
 62
    2
 10
2029.5631333333333
 20
918.50433333333331
 11
2033.5053333333331
 21
927.69453333333331
  0
LINE
  8
_0-0_LAYER001
  6
CONTINUOUS
 62
    2
 10
2033.5053333333331
 20
927.69453333333331
 11
2051.8856000000001
 21
919.81006666666656
  0
LINE
  8
_0-0_LAYER001
  6
CONTINUOUS
 62
    2
 10
2051.8856000000001
 20
919.81006666666656
 11
2047.9434000000001
 21
910.61993333333339
  0
LINE
  8
_0-0_LAYER001
  6
CONTINUOUS
 62
    2
 10
2033.5053333333331
 20
927.69453333333331
 11
2047.9434000000001
 21
910.61993333333339
  0
LINE
  8
_0-0_LAYER001
  6
CONTINUOUS
 62
    4
 10
2082.9334666666664
 20
948.66300000000001
 11
2079.1878000000002
 21
949.81220000000008
  0
ARC
  8
_0-0_LAYER001
  6
CONTINUOUS
 62
    4
 10
2067.9888666666666
 20
950.86180000000002
 40
11.248011333333332
 50
354.64566000000008
 51
77.117553000000044
  0
LINE
  8
_0-0_LAYER001
  6
CONTINUOUS
 62
    4
 10
2066.8925333333336
 20
950.72900000000004
 11
1862.2489999999998
 21
1013.5152666666665
  0
LINE
  8
_0-0_LAYER001
  6
CONTINUOUS
 62
    4
 10
1866.1952000000001
 20
1026.3774666666668
 11
1881.8254666666667
 21
1021.5819333333334
  0
LINE
  8
_0-0_LAYER001
  6
CONTINUOUS
 62
    4
 10
2070.4966666666669
 20
961.8266666666666
 11
1883.4513333333334
 21
1019.2136
  0
ARC
  8
_0-0_LAYER001
  6
CONTINUOUS
 62
    4
 10
1879.7057999999997
 20
1018.1959333333333
 40
3.8813426666666659
 50
15.201020000000003
 51
66.772764000000009
  0
LINE
  8
_0-0_LAYER001
  6
CONTINUOUS
 62
    4
 10
2082.9395333333332
 20
948.68286666666677
 11
2079.1204666666663
 21
936.23506666666663
  0
ARC
  8
_0-0_LAYER001
  6
CONTINUOUS
 62
    4
 10
2064.3847333333333
 20
939.76413333333323
 40
11.248011333333332
 50
347.78015000000005
 51
77.117553000000029
  0
LINE
  8
_0-0_LAYER001
  6
CONTINUOUS
 62
    4
 10
1861.5839333333333
 20
1000.7686000000001
 11
1862.7274
 21
1004.4956666666667
  0
LINE
  8
_0-0_LAYER001
  6
CONTINUOUS
 62
    4
 10
1866.1952000000001
 20
1026.3774666666668
 11
1858.6174666666666
 21
1001.6787333333333
  0
LINE
  8
_0-0_LAYER001
  6
CONTINUOUS
 62
    4
 10
1861.5839333333333
 20
1000.7686000000001
 11
1858.6174666666666
 21
1001.6787333333333
  0
LINE
  8
_0-0_LAYER001
  6
CONTINUOUS
 62
    4
 10
2075.3779333333332
 20
937.38333333333344
 11
2079.1204666666663
 21
936.23506666666663
  0
LINE
  8
_0-0_LAYER001
  6
CONTINUOUS
 62
    4
 10
2075.6099999999997
 20
939.18166666666662
 11
1862.7274
 21
1004.4956666666667
  0
LINE
  8
_0-0_LAYER001
  6
CONTINUOUS
 62
    2
 10
1877.938333333333
 20
986.99560000000008
 11
1859.4933333333329
 21
994.72746666666671
  0
LINE
  8
_0-0_LAYER001
  6
CONTINUOUS
 62
    2
 10
1859.4933333333329
 20
994.72746666666671
 11
1863.3592666666666
 21
1003.9499999999999
  0
LINE
  8
_0-0_LAYER001
  6
CONTINUOUS
 62
    2
 10
1863.3592666666666
 20
1003.9499999999999
 11
1881.8042666666668
 21
996.2181333333333
  0
LINE
  8
_0-0_LAYER001
  6
CONTINUOUS
 62
    2
 10
1881.8042666666668
 20
996.2181333333333
 11
1877.938333333333
 21
986.99560000000008
  0
LINE
  8
_0-0_LAYER001
  6
CONTINUOUS
 62
    2
 10
1863.3592666666666
 20
1003.9499999999999
 11
1877.938333333333
 21
986.99560000000008
  0
LINE
  8
_0-0_LAYER001
  6
CONTINUOUS
 62
    4
 10
1912.7208666666666
 20
1025.2927999999999
 11
1908.9752666666666
 21
1026.442
  0
ARC
  8
_0-0_LAYER001
  6
CONTINUOUS
 62
    4
 10
1897.7763333333332
 20
1027.4916000000001
 40
11.248011333333332
 50
354.64566000000008
 51
77.117553000000044
  0
LINE
  8
_0-0_LAYER001
  6
CONTINUOUS
 62
    4
 10
1896.6799333333329
 20
1027.3588666666665
 11
1692.0364
 21
1090.1450666666667
  0
LINE
  8
_0-0_LAYER001
  6
CONTINUOUS
 62
    4
 10
1695.9826666666668
 20
1103.0072666666665
 11
1711.6129333333333
 21
1098.2118
  0
LINE
  8
_0-0_LAYER001
  6
CONTINUOUS
 62
    4
 10
1900.2841333333333
 20
1038.4565333333333
 11
1713.2388000000001
 21
1095.8434666666667
  0
ARC
  8
_0-0_LAYER001
  6
CONTINUOUS
 62
    4
 10
1709.4932666666668
 20
1094.8257333333331
 40
3.8813426666666659
 50
15.201020000000003
 51
66.772764000000009
  0
LINE
  8
_0-0_LAYER001
  6
CONTINUOUS
 62
    4
 10
1912.7269999999999
 20
1025.3126666666667
 11
1908.9079333333329
 21
1012.8649333333333
  0
ARC
  8
_0-0_LAYER001
  6
CONTINUOUS
 62
    4
 10
1894.1722
 20
1016.394
 40
11.248011333333332
 50
347.78015000000005
 51
77.117553000000029
  0
LINE
  8
_0-0_LAYER001
  6
CONTINUOUS
 62
    4
 10
1691.3714
 20
1077.3984
 11
1692.5148666666666
 21
1081.1255333333334
  0
LINE
  8
_0-0_LAYER001
  6
CONTINUOUS
 62
    4
 10
1695.9826666666668
 20
1103.0072666666665
 11
1688.4048666666667
 21
1078.3085333333333
  0
LINE
  8
_0-0_LAYER001
  6
CONTINUOUS
 62
    4
 10
1691.3714
 20
1077.3984
 11
1688.4048666666667
 21
1078.3085333333333
  0
LINE
  8
_0-0_LAYER001
  6
CONTINUOUS
 62
    4
 10
1905.1653999999999
 20
1014.0132
 11
1908.9079333333329
 21
1012.8649333333333
  0
LINE
  8
_0-0_LAYER001
  6
CONTINUOUS
 62
    4
 10
1905.3974666666663
 20
1015.8114666666667
 11
1692.5148666666666
 21
1081.1255333333334
  0
LINE
  8
_0-0_LAYER001
  6
CONTINUOUS
 62
    2
 10
1707.7257333333332
 20
1063.6254666666669
 11
1689.2807333333335
 21
1071.3573333333334
  0
LINE
  8
_0-0_LAYER001
  6
CONTINUOUS
 62
    2
 10
1689.2807333333335
 20
1071.3573333333334
 11
1693.1466666666665
 21
1080.5798
  0
LINE
  8
_0-0_LAYER001
  6
CONTINUOUS
 62
    2
 10
1693.1466666666665
 20
1080.5798
 11
1711.5916666666667
 21
1072.8479333333332
  0
LINE
  8
_0-0_LAYER001
  6
CONTINUOUS
 62
    2
 10
1711.5916666666667
 20
1072.8479333333332
 11
1707.7257333333332
 21
1063.6254666666669
  0
LINE
  8
_0-0_LAYER001
  6
CONTINUOUS
 62
    2
 10
1693.1466666666665
 20
1080.5798
 11
1707.7257333333332
 21
1063.6254666666669
  0
LINE
  8
_0-0_LAYER001
  6
CONTINUOUS
 62
    4
 10
1742.5083333333332
 20
1101.9226666666666
 11
1738.7627333333332
 21
1103.0718666666667
  0
ARC
  8
_0-0_LAYER001
  6
CONTINUOUS
 62
    4
 10
1727.5637999999999
 20
1104.1214666666667
 40
11.248011333333332
 50
354.64566000000008
 51
77.117553000000044
  0
LINE
  8
_0-0_LAYER001
  6
CONTINUOUS
 62
    4
 10
1726.4674000000002
 20
1103.9886666666666
 11
1521.8238666666666
 21
1166.7749333333334
  0
LINE
  8
_0-0_LAYER001
  6
CONTINUOUS
 62
    4
 10
1525.7700666666667
 20
1179.6371333333334
 11
1541.4003333333333
 21
1174.8416
  0
LINE
  8
_0-0_LAYER001
  6
CONTINUOUS
 62
    4
 10
1730.0715333333335
 20
1115.0863333333334
 11
1543.0262666666667
 21
1172.4732666666666
  0
ARC
  8
_0-0_LAYER001
  6
CONTINUOUS
 62
    4
 10
1539.2806666666665
 20
1171.4555999999998
 40
3.8813426666666659
 50
15.201020000000003
 51
66.772764000000009
  0
LINE
  8
_0-0_LAYER001
  6
CONTINUOUS
 62
    4
 10
1742.5144666666665
 20
1101.9425333333334
 11
1738.6954000000001
 21
1089.4947333333332
  0
ARC
  8
_0-0_LAYER001
  6
CONTINUOUS
 62
    4
 10
1723.9596666666666
 20
1093.0237999999999
 40
11.248011333333332
 50
347.78015000000005
 51
77.117553000000029
  0
LINE
  8
_0-0_LAYER001
  6
CONTINUOUS
 62
    4
 10
1521.1587999999997
 20
1154.0282666666667
 11
1522.3023333333333
 21
1157.7553333333333
  0
LINE
  8
_0-0_LAYER001
  6
CONTINUOUS
 62
    4
 10
1525.7700666666667
 20
1179.6371333333334
 11
1518.1923333333334
 21
1154.9384
  0
LINE
  8
_0-0_LAYER001
  6
CONTINUOUS
 62
    4
 10
1521.1587999999997
 20
1154.0282666666667
 11
1518.1923333333334
 21
1154.9384
  0
LINE
  8
_0-0_LAYER001
  6
CONTINUOUS
 62
    4
 10
1734.9528
 20
1090.643
 11
1738.6954000000001
 21
1089.4947333333332
  0
LINE
  8
_0-0_LAYER001
  6
CONTINUOUS
 62
    4
 10
1735.1849333333334
 20
1092.4413333333334
 11
1522.3023333333333
 21
1157.7553333333333
  0
LINE
  8
_0-0_LAYER001
  6
CONTINUOUS
 62
    2
 10
1537.5131999999999
 20
1140.2552666666668
 11
1519.0682000000002
 21
1147.9871333333333
  0
LINE
  8
_0-0_LAYER001
  6
CONTINUOUS
 62
    2
 10
1519.0682000000002
 20
1147.9871333333333
 11
1522.9341333333332
 21
1157.2096666666666
  0
LINE
  8
_0-0_LAYER001
  6
CONTINUOUS
 62
    2
 10
1522.9341333333332
 20
1157.2096666666666
 11
1541.3791333333334
 21
1149.4777999999999
  0
LINE
  8
_0-0_LAYER001
  6
CONTINUOUS
 62
    2
 10
1541.3791333333334
 20
1149.4777999999999
 11
1537.5131999999999
 21
1140.2552666666668
  0
LINE
  8
_0-0_LAYER001
  6
CONTINUOUS
 62
    2
 10
1522.9341333333332
 20
1157.2096666666666
 11
1537.5131999999999
 21
1140.2552666666668
  0
LINE
  8
_0-0_LAYER001
  6
CONTINUOUS
 62
    2
 10
1450.1844666666666
 20
1180.7185333333334
 11
1455.0237999999999
 21
1168.1096
  0
ARC
  8
_0-0_LAYER001
  6
CONTINUOUS
 62
    2
 10
1429.7246
 20
1160.3935333333334
 40
15.875335333333332
 50
16.897987000000001
 51
39.238689000000001
  0
LINE
  8
_0-0_LAYER001
  6
CONTINUOUS
 62
    1
 10
1450.4409333333333
 20
1166.7035333333333
 11
1450.5305333333333
 21
1166.7931333333333
  0
LINE
  8
_0-0_LAYER001
  6
CONTINUOUS
 62
    1
 10
1447.0406666666665
 20
1165.6603333333333
 11
1449.8768
 21
1168.4964
  0
LINE
  8
_0-0_LAYER001
  6
CONTINUOUS
 62
    1
 10
1444.663
 20
1165.6396666666665
 11
1449.2230666666669
 21
1170.1997333333334
  0
LINE
  8
_0-0_LAYER001
  6
CONTINUOUS
 62
    1
 10
1443.9737333333335
 20
1167.3073999999999
 11
1448.5693333333334
 21
1171.903
  0
LINE
  8
_0-0_LAYER001
  6
CONTINUOUS
 62
    1
 10
1443.1043333333334
 20
1168.7950000000001
 11
1447.9156
 21
1173.6062666666667
  0
LINE
  8
_0-0_LAYER001
  6
CONTINUOUS
 62
    1
 10
1442.1665333333335
 20
1170.2142666666666
 11
1442.4643333333333
 21
1170.5120666666667
  0
LINE
  8
_0-0_LAYER001
  6
CONTINUOUS
 62
    1
 10
1443.4019333333333
 20
1171.4496666666669
 11
1447.2618666666667
 21
1175.3096
  0
LINE
  8
_0-0_LAYER001
  6
CONTINUOUS
 62
    1
 10
1443.6279333333334
 20
1174.0326666666667
 11
1446.6081333333332
 21
1177.0128666666667
  0
LINE
  8
_0-0_LAYER001
  6
CONTINUOUS
 62
    1
 10
1446.4035333333334
 20
1177.5459333333333
 11
1450.5518666666667
 21
1166.7375999999999
  0
LINE
  8
_0-0_LAYER001
  6
CONTINUOUS
 62
    1
 10
1450.1844666666666
 20
1180.7185333333334
 11
1451.2867333333334
 21
1166.9630666666667
  0
LINE
  8
_0-0_LAYER001
  6
CONTINUOUS
 62
    1
 10
1454.2734
 20
1167.8793999999998
 11
1446.4035333333334
 21
1177.5459333333333
  0
LINE
  8
_0-0_LAYER001
  6
CONTINUOUS
 62
    2
 10
1562.0883999999999
 20
1180.7185333333334
 11
1557.2490666666667
 21
1168.1096
  0
ARC
  8
_0-0_LAYER001
  6
CONTINUOUS
 62
    2
 10
1582.5482666666667
 20
1160.3935333333334
 40
15.875335333333332
 50
140.76131000000001
 51
163.10201000000001
  0
LINE
  8
_0-0_LAYER001
  6
CONTINUOUS
 62
    1
 10
1561.8319333333332
 20
1166.7035333333333
 11
1561.7423333333331
 21
1166.7931333333333
  0
LINE
  8
_0-0_LAYER001
  6
CONTINUOUS
 62
    1
 10
1565.2322000000001
 20
1165.6603333333333
 11
1562.3960666666665
 21
1168.4964
  0
LINE
  8
_0-0_LAYER001
  6
CONTINUOUS
 62
    1
 10
1567.6098666666667
 20
1165.6396666666665
 11
1563.0498
 21
1170.1997333333334
  0
LINE
  8
_0-0_LAYER001
  6
CONTINUOUS
 62
    1
 10
1568.2992000000002
 20
1167.3073999999999
 11
1563.7035333333333
 21
1171.903
  0
LINE
  8
_0-0_LAYER001
  6
CONTINUOUS
 62
    1
 10
1569.1685333333335
 20
1168.7950000000001
 11
1564.3572666666664
 21
1173.6062666666667
  0
LINE
  8
_0-0_LAYER001
  6
CONTINUOUS
 62
    1
 10
1570.1063333333334
 20
1170.2142666666666
 11
1569.8085333333333
 21
1170.5120666666667
  0
LINE
  8
_0-0_LAYER001
  6
CONTINUOUS
 62
    1
 10
1568.8709333333331
 20
1171.4496666666669
 11
1565.011
 21
1175.3096
  0
LINE
  8
_0-0_LAYER001
  6
CONTINUOUS
 62
    1
 10
1568.6449333333335
 20
1174.0326666666667
 11
1565.6647333333333
 21
1177.0128666666667
  0
LINE
  8
_0-0_LAYER001
  6
CONTINUOUS
 62
    1
 10
1565.8693333333335
 20
1177.5459333333333
 11
1561.7210666666667
 21
1166.7375999999999
  0
LINE
  8
_0-0_LAYER001
  6
CONTINUOUS
 62
    1
 10
1562.0883999999999
 20
1180.7185333333334
 11
1560.9861333333336
 21
1166.9630666666667
  0
LINE
  8
_0-0_LAYER001
  6
CONTINUOUS
 62
    1
 10
1557.9994666666666
 20
1167.8793999999998
 11
1565.8693333333335
 21
1177.5459333333333
  0
LINE
  8
_0-0_LAYER001
  6
CONTINUOUS
 62
    2
 10
1515.6718666666666
 20
1164.4444666666666
 11
1512.1363333333331
 21
1160.9089333333332
  0
LINE
  8
_0-0_LAYER001
  6
CONTINUOUS
 62
    2
 10
1512.1363333333331
 20
1160.9089333333332
 11
1513.4304666666667
 21
1165.7385999999999
  0
LINE
  8
_0-0_LAYER001
  6
CONTINUOUS
 62
    2
 10
1512.1363333333331
 20
1160.9089333333332
 11
1561.4757999999997
 21
1246.3673999999999
  0
CIRCLE
  8
_0-2_LAYER004
  6
CONTINUOUS
 62
    3
 10
1495.5715999999998
 20
1128.2918666666665
 40
0.8699479999999999
  0
LINE
  8
_0-2_LAYER004
  6
CONTINUOUS
 62
    3
 10
941.73106666666683
 20
878.25240000000008
 11
1499.0654
 21
1129.0531333333333
  0
CIRCLE
  8
_0-2_LAYER004
  6
CONTINUOUS
 62
    3
 10
948.41880000000003
 20
882.07280000000014
 40
0.8699479999999999
  0
CIRCLE
  8
_0-2_LAYER004
  6
CONTINUOUS
 62
    3
 10
1039.6109333333334
 20
923.10933333333332
 40
0.8699479999999999
  0
CIRCLE
  8
_0-2_LAYER004
  6
CONTINUOUS
 62
    3
 10
1130.8030666666668
 20
964.14586666666673
 40
0.8699479999999999
  0
CIRCLE
  8
_0-2_LAYER004
  6
CONTINUOUS
 62
    3
 10
1221.9952000000001
 20
1005.1823333333334
 40
0.8699479999999999
  0
CIRCLE
  8
_0-2_LAYER004
  6
CONTINUOUS
 62
    3
 10
1313.1873333333333
 20
1046.2188666666666
 40
0.8699479999999999
  0
CIRCLE
  8
_0-2_LAYER004
  6
CONTINUOUS
 62
    3
 10
1404.3794666666668
 20
1087.2553333333333
 40
0.8699479999999999
  0
LINE
  8
_0-2_LAYER004
  6
DASHED1
 62
    2
 10
1318.0520000000001
 20
995.0963333333334
 11
1315.3700000000001
 21
1001.1997333333334
  0
LINE
  8
_0-2_LAYER004
  6
DASHED1
 62
    2
 10
1285.3111333333334
 20
1036.5092
 11
1303.1808666666666
 21
995.8434666666667
  0
LINE
  8
_0-2_LAYER004
  6
DASHED1
 62
    2
 10
1279.2077333333332
 20
1033.8272000000002
 11
1299.7595333333334
 21
987.0580666666666
  0
LINE
  8
_0-2_LAYER004
  6
DASHED1
 62
    2
 10
1303.1808666666666
 20
995.8434666666667
 11
1315.3700000000001
 21
1001.1997333333334
  0
LINE
  8
_0-2_LAYER004
  6
DASHED1
 62
    2
 10
1299.7595333333334
 20
987.0580666666666
 11
1318.0520000000001
 21
995.0963333333334
  0
LINE
  8
_0-2_LAYER004
  6
DASHED1
 62
    2
 10
1285.3111333333334
 20
1036.5092
 11
1279.2077333333332
 21
1033.8272000000002
  0
CIRCLE
  8
_0-2_LAYER004
  6
CONTINUOUS
 62
    3
 10
1516.7013333333334
 20
1128.2918666666665
 40
0.8699479999999999
  0
LINE
  8
_0-2_LAYER004
  6
CONTINUOUS
 62
    3
 10
2072.2962000000002
 20
877.46293333333347
 11
1513.2075333333332
 21
1129.0531333333333
  0
CIRCLE
  8
_0-2_LAYER004
  6
CONTINUOUS
 62
    3
 10
2063.8541333333333
 20
882.07280000000014
 40
0.8699479999999999
  0
CIRCLE
  8
_0-2_LAYER004
  6
CONTINUOUS
 62
    3
 10
1972.662
 20
923.10933333333332
 40
0.8699479999999999
  0
CIRCLE
  8
_0-2_LAYER004
  6
CONTINUOUS
 62
    3
 10
1881.4698666666666
 20
964.14586666666673
 40
0.8699479999999999
  0
CIRCLE
  8
_0-2_LAYER004
  6
CONTINUOUS
 62
    3
 10
1790.2777333333333
 20
1005.1823333333334
 40
0.8699479999999999
  0
CIRCLE
  8
_0-2_LAYER004
  6
CONTINUOUS
 62
    3
 10
1699.0855999999999
 20
1046.2188666666666
 40
0.8699479999999999
  0
CIRCLE
  8
_0-2_LAYER004
  6
CONTINUOUS
 62
    3
 10
1607.8934666666669
 20
1087.2553333333333
 40
0.8699479999999999
  0
LINE
  8
_0-2_LAYER004
  6
DASHED1
 62
    2
 10
1694.2209333333335
 20
995.0963333333334
 11
1696.9029333333333
 21
1001.1997333333334
  0
LINE
  8
_0-2_LAYER004
  6
DASHED1
 62
    2
 10
1726.9618
 20
1036.5092
 11
1709.0920666666668
 21
995.8434666666667
  0
LINE
  8
_0-2_LAYER004
  6
DASHED1
 62
    2
 10
1733.0652
 20
1033.8272000000002
 11
1712.5134000000003
 21
987.0580666666666
  0
LINE
  8
_0-2_LAYER004
  6
DASHED1
 62
    2
 10
1709.0920666666668
 20
995.8434666666667
 11
1696.9029333333333
 21
1001.1997333333334
  0
LINE
  8
_0-2_LAYER004
  6
DASHED1
 62
    2
 10
1712.5134000000003
 20
987.0580666666666
 11
1694.2209333333335
 21
995.0963333333334
  0
LINE
  8
_0-2_LAYER004
  6
DASHED1
 62
    2
 10
1726.9618
 20
1036.5092
 11
1733.0652
 21
1033.8272000000002
  0
LINE
  8
_0-2_LAYER004
  6
CONTINUOUS
 62
    2
 10
1715.9236000000001
 20
994.67606666666666
 11
1714.6295333333333
 21
999.50573333333318
  0
LINE
  8
_0-2_LAYER004
  6
CONTINUOUS
 62
    2
 10
1714.6295333333333
 20
999.50573333333318
 11
1718.1650666666667
 21
995.97019999999998
  0
LINE
  8
_0-2_LAYER004
  6
CONTINUOUS
 62
    2
 10
1667.7180666666666
 20
1054.3967333333333
 11
1671.2536
 21
1057.9322666666667
  0
LINE
  8
_0-2_LAYER004
  6
CONTINUOUS
 62
    2
 10
1671.2536
 20
1057.9322666666667
 11
1669.9595333333332
 21
1053.1026666666667
  0
LINE
  8
_0-2_LAYER004
  6
CONTINUOUS
 62
    2
 10
1671.2536
 20
1057.9322666666667
 11
1653.3317333333334
 21
1026.8906666666667
  0
LINE
  8
_0-2_LAYER004
  6
CONTINUOUS
 62
    2
 10
1653.3317333333334
 20
1026.8906666666667
 11
1613.3317333333334
 21
1026.8906666666667
  0
LINE
  8
_0-0_LAYER001
  6
CONTINUOUS
 62
    2
 10
1495.3596000000002
 20
1207.7642666666668
 11
1496.6537333333331
 21
1202.9346666666668
  0
LINE
  8
_0-0_LAYER001
  6
CONTINUOUS
 62
    2
 10
1496.6537333333331
 20
1202.9346666666668
 11
1493.1181999999999
 21
1206.4702
  0
LINE
  8
_0-0_LAYER001
  6
CONTINUOUS
 62
    2
 10
1496.6537333333331
 20
1202.9346666666668
 11
1433.5348666666666
 21
1312.2597333333333
  0
LINE
  8
_0-0_LAYER001
  6
CONTINUOUS
 62
    2
 10
1433.5348666666666
 20
1312.2597333333333
 11
1320.0398
 21
1312.2597333333333
  0
LINE
  8
_0-0_LAYER001
  6
CONTINUOUS
 62
    2
 10
1508.0953999999999
 20
1233.5148000000002
 11
1504.5598666666669
 21
1229.9792666666667
  0
LINE
  8
_0-0_LAYER001
  6
CONTINUOUS
 62
    2
 10
1504.5598666666669
 20
1229.9792666666667
 11
1505.8539333333333
 21
1234.8088666666667
  0
LINE
  8
_0-0_LAYER001
  6
CONTINUOUS
 62
    2
 10
1504.5598666666669
 20
1229.9792666666667
 11
1547.4231999999997
 21
1304.2208000000001
  0
LINE
  8
_0-0_LAYER001
  6
CONTINUOUS
 62
    2
 10
1547.4231999999997
 20
1304.2208000000001
 11
1670.7223333333334
 21
1304.2208000000001
  0
LINE
  8
_0-0_LAYER001
  6
CONTINUOUS
 62
    2
 10
1193.8229333333334
 20
796.1371333333334
 11
1357.0691333333332
 21
796.1371333333334
  0
LINE
  8
_0-0_LAYER001
  6
CONTINUOUS
 62
    2
 10
1140.7224666666666
 20
990.92673333333335
 11
1140.7224666666666
 21
995.92673333333335
  0
LINE
  8
_0-0_LAYER001
  6
CONTINUOUS
 62
    2
 10
1140.7224666666666
 20
995.92673333333335
 11
1143.2224666666666
 21
991.59666666666669
  0
LINE
  8
_0-2_LAYER004
  6
CONTINUOUS
 62
    7
 10
885.68154973895184
 20
1041.7261570245644
 11
904.36680000000001
 21
1000.2033333333334
  0
LINE
  8
_0-2_LAYER004
  6
CONTINUOUS
 62
    7
 10
884.75139177840288
 20
1043.7931799915691
 11
885.68154973895184
 21
1041.7261570245644
  0
LINE
  8
_0-2_LAYER004
  6
CONTINUOUS
 62
    7
 10
885.21647075867702
 20
1042.7596685080673
 11
1055.4418666666668
 21
1119.3609333333334
  0
LINE
  8
_0-2_LAYER004
  6
CONTINUOUS
 62
    7
 10
1069.1206666666667
 20
1088.9635333333333
 11
1049.5052584450696
 21
1132.553379991569
  0
LINE
  8
_0-2_LAYER004
  6
CONTINUOUS
 62
    7
 10
1049.9703379636542
 20
1131.5198687503057
 11
1220.1958
 21
1208.1211333333335
  0
LINE
  8
_0-2_LAYER004
  6
CONTINUOUS
 62
    7
 10
1233.8746000000001
 20
1177.7237333333335
 11
1214.259191778403
 21
1221.313579991569
  0
LINE
  8
_0-2_LAYER004
  6
CONTINUOUS
 62
    7
 10
1214.7242666666666
 20
1220.2800666666667
 11
1384.9496666666666
 21
1296.8813333333333
  0
LINE
  8
_0-2_LAYER004
  6
CONTINUOUS
 62
    7
 10
1384.4845917784028
 20
1297.9148466582355
 11
1398.6284666666668
 21
1266.4839333333334
  0
LINE
  8
_0-2_LAYER004
  6
CONTINUOUS
 62
    7
 10
1320.0398
 20
1312.2597333333333
 11
1433.5348666666666
 21
1312.2597333333333
  0
LINE
  8
_0-2_LAYER004
  6
CONTINUOUS
 62
    7
 10
1433.5348666666666
 20
1312.2597333333333
 11
1496.6537333333331
 21
1202.9346666666668
  0
LINE
  8
_0-2_LAYER004
  6
CONTINUOUS
 62
    7
 10
1496.6537333333331
 20
1202.9346666666668
 11
1493.1235053082062
 21
1209.0491999999999
  0
LINE
  8
_0-2_LAYER004
  6
CONTINUOUS
 62
    7
 10
1496.6537333333331
 20
1202.9346666666668
 11
1495.3596000000002
 21
1207.7642666666668
  0
LINE
  8
_0-2_LAYER004
  6
CONTINUOUS
 62
    7
 10
1496.6537333333331
 20
1202.9346666666668
 11
1493.1181999999999
 21
1206.4702
  0
LINE
  8
_0-2_LAYER004
  6
CONTINUOUS
 62
    7
 10
1491.7309333333333
 20
1209.0491999999999
 11
1491.7309333333333
 21
1180.3825333333334
  0
LINE
  8
_0-2_LAYER004
  6
CONTINUOUS
 62
    7
 10
1490.3974000000003
 20
1179.0491999999999
 11
1490.3974000000003
 21
1197.3753333333334
  0
LINE
  8
_0-2_LAYER004
  6
CONTINUOUS
 62
    7
 10
1490.3974000000003
 20
1197.3753333333334
 11
1491.7309333333333
 21
1197.3753333333334
  0
LINE
  8
_0-2_LAYER004
  6
CONTINUOUS
 62
    7
 10
1491.7309333333333
 20
1209.0491999999999
 11
1520.3977333333332
 21
1209.0491999999999
  0
LINE
  8
_0-2_LAYER004
  6
CONTINUOUS
 62
    7
 10
1520.3977333333332
 20
1209.0491999999999
 11
1520.3977333333332
 21
1180.3825333333334
  0
LINE
  8
_0-2_LAYER004
  6
CONTINUOUS
 62
    7
 10
1520.3977333333332
 20
1180.3825333333334
 11
1491.7309333333333
 21
1209.0491999999999
  0
LINE
  8
_0-2_LAYER004
  6
CONTINUOUS
 62
    7
 10
1491.7309333333333
 20
1209.0491999999999
 11
1520.3977333333332
 21
1209.0491999999999
  0
LINE
  8
_0-2_LAYER004
  6
CONTINUOUS
 62
    7
 10
1520.3977333333332
 20
1209.0491999999999
 11
1491.7309333333333
 21
1180.3825333333334
  0
LINE
  8
_0-2_LAYER004
  6
CONTINUOUS
 62
    7
 10
1491.7309333333333
 20
1180.3825333333334
 11
1520.3977333333332
 21
1180.3825333333334
  0
LINE
  8
_0-2_LAYER004
  6
CONTINUOUS
 62
    7
 10
1490.3974000000003
 20
1179.0491999999999
 11
1521.7310666666665
 21
1179.0491999999999
  0
LINE
  8
_0-2_LAYER004
  6
CONTINUOUS
 62
    7
 10
1521.7310666666665
 20
1179.0491999999999
 11
1521.7310666666665
 21
1197.3753333333334
  0
LINE
  8
_0-2_LAYER004
  6
CONTINUOUS
 62
    7
 10
1521.7310666666665
 20
1197.3753333333334
 11
1520.3977333333332
 21
1197.3753333333334
  0
LINE
  8
_0-2_LAYER004
  6
CONTINUOUS
 62
    7
 10
1506.1486000000002
 20
1117.1864
 11
1508.6927072837912
 21
1138.7891072837913
  0
LINE
  8
_0-2_LAYER004
  6
CONTINUOUS
 62
    7
 10
1506.1486000000002
 20
1117.1864
 11
1503.4697333333334
 21
1139.9334666666666
  0
LINE
  8
_0-2_LAYER004
  6
CONTINUOUS
 62
    7
 10
1508.6927072837912
 20
1138.7891072837913
 11
1508.8029333333334
 21
1139.7250666666669
  0
LINE
  8
_0-2_LAYER004
  6
CONTINUOUS
 62
    7
 10
1508.8029333333334
 20
1139.7250666666669
 11
1508.8029333333334
 21
1179.0491999999999
  0
LINE
  8
_0-2_LAYER004
  6
CONTINUOUS
 62
    7
 10
1503.4697333333334
 20
1139.9334666666666
 11
1503.4697333333334
 21
1179.0491999999999
  0
LINE
  8
_0-2_LAYER004
  6
CONTINUOUS
 62
    7
 10
1470.8937333333333
 20
1149.4777999999999
 11
1474.7596666666668
 21
1140.2552666666668
  0
LINE
  8
_0-2_LAYER004
  6
CONTINUOUS
 62
    7
 10
1470.8937333333333
 20
1149.4777999999999
 11
1489.3387333333335
 21
1157.2096666666666
  0
LINE
  8
_0-2_LAYER004
  6
CONTINUOUS
 62
    7
 10
1489.3387333333335
 20
1157.2096666666666
 11
1493.2046666666665
 21
1147.9871333333333
  0
LINE
  8
_0-2_LAYER004
  6
CONTINUOUS
 62
    7
 10
1489.3387333333335
 20
1157.2096666666666
 11
1474.7596666666668
 21
1140.2552666666668
  0
LINE
  8
_0-2_LAYER004
  6
CONTINUOUS
 62
    7
 10
1670.7223333333334
 20
1304.2208000000001
 11
1547.4231999999997
 21
1304.2208000000001
  0
LINE
  8
_0-2_LAYER004
  6
CONTINUOUS
 62
    7
 10
1564.3572755352895
 20
1173.6062577980438
 11
1567.8927999999999
 21
1177.1417999999999
  0
LINE
  8
_0-2_LAYER004
  6
CONTINUOUS
 62
    7
 10
1564.3572666666664
 20
1173.6062666666667
 11
1565.6514000000002
 21
1178.4359333333332
  0
LINE
  8
_0-2_LAYER004
  6
CONTINUOUS
 62
    7
 10
1570.0888791266293
 20
1170.2317208733707
 11
1567.6098666666667
 21
1165.6396666666665
  0
LINE
  8
_0-2_LAYER004
  6
CONTINUOUS
 62
    7
 10
1557.2490666666667
 20
1168.1096
 11
1562.0883999999999
 21
1180.7185333333334
  0
LINE
  8
_0-2_LAYER004
  6
CONTINUOUS
 62
    7
 10
1547.4231999999997
 20
1304.2208000000001
 11
1504.5598666666669
 21
1229.9792666666667
  0
LINE
  8
_0-2_LAYER004
  6
CONTINUOUS
 62
    7
 10
1504.5598666666669
 20
1229.9792666666667
 11
1505.8539333333333
 21
1234.8088666666667
  0
LINE
  8
_0-2_LAYER004
  6
CONTINUOUS
 62
    7
 10
1504.5598666666669
 20
1229.9792666666667
 11
1508.0953999999999
 21
1233.5148000000002
  0
LINE
  8
_0-2_LAYER004
  6
CONTINUOUS
 62
    7
 10
1525.3726666666669
 20
1221.8663333333334
 11
1526.6667333333335
 21
1226.6959333333332
  0
LINE
  8
_0-2_LAYER004
  6
CONTINUOUS
 62
    7
 10
1525.3726666666669
 20
1221.8663333333334
 11
1528.9081999999999
 21
1225.4018666666666
  0
LINE
  8
_0-2_LAYER004
  6
CONTINUOUS
 62
    7
 10
1513.4304666666667
 20
1165.7385999999999
 11
1512.1363333333331
 21
1160.9089333333332
  0
LINE
  8
_0-2_LAYER004
  6
CONTINUOUS
 62
    7
 10
1512.1363333333331
 20
1160.9089333333332
 11
1515.6718666666666
 21
1164.4444666666666
  0
LINE
  8
_0-2_LAYER004
  6
CONTINUOUS
 62
    7
 10
1512.1363333333331
 20
1160.9089333333332
 11
1561.4757999999997
 21
1246.3673999999999
  0
LINE
  8
_0-0_LAYER001
  6
CONTINUOUS
 62
    2
 10
1561.4757999999997
 20
1246.3673999999999
 11
1617.7184627299014
 21
1246.3673999999999
  0
LINE
  8
_0-2_LAYER004
  6
CONTINUOUS
 62
    7
 10
1617.7184627299014
 20
1246.3673999999999
 11
1561.4757999999997
 21
1246.3673999999999
  0
LINE
  8
_0-2_LAYER004
  6
CONTINUOUS
 62
    7
 10
1522.9341333333332
 20
1157.2096666666666
 11
1519.0682000000002
 21
1147.9871333333333
  0
LINE
  8
_0-2_LAYER004
  6
CONTINUOUS
 62
    7
 10
1522.9341333333332
 20
1157.2096666666666
 11
1541.3791333333334
 21
1149.4777999999999
  0
LINE
  8
_0-2_LAYER004
  6
CONTINUOUS
 62
    7
 10
1541.3791333333334
 20
1149.4777999999999
 11
1537.5131999999999
 21
1140.2552666666668
  0
LINE
  8
_0-2_LAYER004
  6
CONTINUOUS
 62
    7
 10
1537.5131999999999
 20
1140.2552666666668
 11
1519.0682000000002
 21
1147.9871333333333
  0
LINE
  8
_0-2_LAYER004
  6
CONTINUOUS
 62
    7
 10
1537.5131999999999
 20
1140.2552666666668
 11
1522.9341333333332
 21
1157.2096666666666
  0
LINE
  8
_0-2_LAYER004
  6
CONTINUOUS
 62
    7
 10
1512.8029333333334
 20
1150.7883333333332
 11
1512.8029333333334
 21
1161.5755333333336
  0
LINE
  8
_0-2_LAYER004
  6
CONTINUOUS
 62
    7
 10
1512.8029333333334
 20
1161.5755333333336
 11
1499.4696000000001
 21
1161.5756666666666
  0
LINE
  8
_0-2_LAYER004
  6
CONTINUOUS
 62
    7
 10
1499.4696000000001
 20
1161.5756666666666
 11
1499.4696000000001
 21
1150.7882666666665
  0
LINE
  8
_0-2_LAYER004
  6
CONTINUOUS
 62
    7
 10
1499.4696000000001
 20
1150.7882666666665
 11
1499.4696000000001
 21
1161.5756666666666
  0
LINE
  8
_0-2_LAYER004
  6
CONTINUOUS
 62
    7
 10
1500.1362666666669
 20
1150.4234211670062
 11
1500.1362666666669
 21
1160.9089333333332
  0
LINE
  8
_0-2_LAYER004
  6
CONTINUOUS
 62
    7
 10
1500.1362666666669
 20
1160.9089333333332
 11
1512.1363333333331
 21
1160.9089333333332
  0
LINE
  8
_0-2_LAYER004
  6
CONTINUOUS
 62
    7
 10
1512.1363333333331
 20
1160.9089333333332
 11
1512.1363333333331
 21
1150.4235558211881
  0
LINE
  8
_0-2_LAYER004
  6
CONTINUOUS
 62
    7
 10
1512.8029333333334
 20
1150.7883333333332
 11
1571.1999333333333
 21
1124.6636000000001
  0
LINE
  8
_0-2_LAYER004
  6
CONTINUOUS
 62
    7
 10
1512.1363333333331
 20
1150.4235558211881
 11
1570.9277333333332
 21
1124.0550000000001
  0
LINE
  8
_0-2_LAYER004
  6
CONTINUOUS
 62
    7
 10
1570.9277333333332
 20
1124.0550000000001
 11
1571.1999333333333
 21
1124.6636000000001
  0
LINE
  8
_0-2_LAYER004
  6
CONTINUOUS
 62
    7
 10
1571.1999333333333
 20
1124.6636000000001
 11
1512.8029333333334
 21
1150.7883333333332
  0
LINE
  8
_0-2_LAYER004
  6
CONTINUOUS
 62
    7
 10
1512.1363333333331
 20
1150.4235558211881
 11
1506.1364666666666
 21
1153.0403333333334
  0
LINE
  8
_0-2_LAYER004
  6
CONTINUOUS
 62
    7
 10
1499.4696000000001
 20
1150.7882666666665
 11
1441.0727333333332
 21
1124.6636000000001
  0
LINE
  8
_0-2_LAYER004
  6
CONTINUOUS
 62
    7
 10
1441.0727333333332
 20
1124.6636000000001
 11
1441.3448666666668
 21
1124.0550000000001
  0
LINE
  8
_0-2_LAYER004
  6
CONTINUOUS
 62
    7
 10
1441.3448666666668
 20
1124.0550000000001
 11
1500.1362666666669
 21
1150.3560687517106
  0
LINE
  8
_0-2_LAYER004
  6
CONTINUOUS
 62
    7
 10
1441.0727333333332
 20
1124.6636000000001
 11
1499.4696000000001
 21
1150.7882666666665
  0
LINE
  8
_0-2_LAYER004
  6
CONTINUOUS
 62
    7
 10
1493.2046666666665
 20
1147.9871333333333
 11
1474.7596666666668
 21
1140.2552666666668
  0
LINE
  8
_0-2_LAYER004
  6
CONTINUOUS
 62
    7
 10
1506.1364666666666
 20
1153.0403333333334
 11
1500.1362666666669
 21
1150.3560687517106
  0
LINE
  8
_0-2_LAYER004
  6
CONTINUOUS
 62
    7
 10
1505.7260666666666
 20
1152.2449333333334
 11
934.17386666666675
 21
895.04626666666672
  0
LINE
  8
_0-2_LAYER004
  6
CONTINUOUS
 62
    7
 10
934.5841999999999
 20
894.1343333333333
 11
1506.1364666666666
 21
1151.3329999999999
  0
LINE
  8
_0-2_LAYER004
  6
CONTINUOUS
 62
    7
 10
1506.5468000000001
 20
1152.2449333333334
 11
2080.3762000000002
 21
894.02119999999991
  0
LINE
  8
_0-2_LAYER004
  6
CONTINUOUS
 62
    7
 10
2080.0174666666662
 20
893.08639999999991
 11
1506.1364666666666
 21
1151.3329999999999
  0
LINE
  8
_0-2_LAYER004
  6
CONTINUOUS
 62
    7
 10
1506.1364666666666
 20
1122.0907333333332
 11
2069.0744
 21
868.76846666666665
  0
LINE
  8
_0-2_LAYER004
  6
CONTINUOUS
 62
    7
 10
2028.0378666666666
 20
777.57633333333331
 11
1506.1364666666666
 21
1012.4321333333335
  0
LINE
  8
_0-2_LAYER004
  6
CONTINUOUS
 62
    7
 10
1506.1364666666666
 20
1012.4321333333335
 11
986.56380000000013
 21
778.6242666666667
  0
LINE
  8
_0-2_LAYER004
  6
CONTINUOUS
 62
    7
 10
1506.1364666666666
 20
1122.0907333333332
 11
945.52726666666672
 21
869.81639999999993
  0
LINE
  8
_0-2_LAYER004
  6
CONTINUOUS
 62
    7
 10
969.96039999999994
 20
815.5207333333334
 11
1088.6706666666666
 21
934.23099999999999
  0
LINE
  8
_0-2_LAYER004
  6
CONTINUOUS
 62
    7
 10
967.03440000000001
 20
822.0228666666668
 11
1071.5286666666666
 21
926.51706666666655
  0
LINE
  8
_0-2_LAYER004
  6
CONTINUOUS
 62
    7
 10
1054.3866076513061
 20
918.80314098463941
 11
964.1084666666668
 21
828.52499999999986
  0
LINE
  8
_0-2_LAYER004
  6
CONTINUOUS
 62
    7
 10
1465.7944666666665
 20
1103.9367999999999
 11
1266.4151333333334
 21
904.55746666666664
  0
LINE
  8
_0-2_LAYER004
  6
CONTINUOUS
 62
    7
 10
1232.1311333333333
 20
889.12966666666671
 11
1431.5104666666666
 21
1088.509
  0
LINE
  8
_0-2_LAYER004
  6
CONTINUOUS
 62
    7
 10
1448.6524306228241
 20
1096.2228972894909
 11
1249.2731333333334
 21
896.84359999999992
  0
LINE
  8
_0-2_LAYER004
  6
CONTINUOUS
 62
    7
 10
1130.4686666666666
 20
996.2181333333333
 11
1134.3345999999999
 21
986.99560000000008
  0
LINE
  8
_0-2_LAYER004
  6
CONTINUOUS
 62
    7
 10
1134.3345999999999
 20
986.99560000000008
 11
1152.7796000000001
 21
994.72746666666671
  0
LINE
  8
_0-2_LAYER004
  6
CONTINUOUS
 62
    7
 10
1152.7796000000001
 20
994.72746666666671
 11
1148.9136666666668
 21
1003.9499999999999
  0
LINE
  8
_0-2_LAYER004
  6
CONTINUOUS
 62
    7
 10
1148.9136666666668
 20
1003.9499999999999
 11
1130.4686666666666
 21
996.2181333333333
  0
LINE
  8
_0-2_LAYER004
  6
CONTINUOUS
 62
    7
 10
1300.6812
 20
1072.8479333333332
 11
1319.1262000000002
 21
1080.5798
  0
LINE
  8
_0-2_LAYER004
  6
CONTINUOUS
 62
    7
 10
1319.1262000000002
 20
1080.5798
 11
1322.9921333333334
 21
1071.3573333333334
  0
LINE
  8
_0-2_LAYER004
  6
CONTINUOUS
 62
    7
 10
1322.9921333333334
 20
1071.3573333333334
 11
1304.5471333333332
 21
1063.6254666666669
  0
LINE
  8
_0-2_LAYER004
  6
CONTINUOUS
 62
    7
 10
1304.5471333333332
 20
1063.6254666666669
 11
1300.6812
 21
1072.8479333333332
  0
LINE
  8
_0-2_LAYER004
  6
CONTINUOUS
 62
    7
 10
1304.5471333333332
 20
1063.6254666666669
 11
1319.1262000000002
 21
1080.5798
  0
LINE
  8
_0-2_LAYER004
  6
CONTINUOUS
 62
    7
 10
960.38726666666662
 20
919.81006666666656
 11
964.3294666666668
 21
910.61993333333339
  0
LINE
  8
_0-2_LAYER004
  6
CONTINUOUS
 62
    7
 10
964.3294666666668
 20
910.61993333333339
 11
982.70979999999997
 21
918.50433333333331
  0
LINE
  8
_0-2_LAYER004
  6
CONTINUOUS
 62
    7
 10
982.70979999999997
 20
918.50433333333331
 11
978.7675333333334
 21
927.69453333333331
  0
LINE
  8
_0-2_LAYER004
  6
CONTINUOUS
 62
    7
 10
978.7675333333334
 20
927.69453333333331
 11
960.38726666666662
 21
919.81006666666656
  0
LINE
  8
_0-2_LAYER004
  6
CONTINUOUS
 62
    7
 10
964.3294666666668
 20
910.61993333333339
 11
978.7675333333334
 21
927.69453333333331
  0
LINE
  8
_0-2_LAYER004
  6
CONTINUOUS
 62
    7
 10
1134.3345999999999
 20
986.99560000000008
 11
1148.9136666666668
 21
1003.9499999999999
  0
LINE
  8
_0-2_LAYER004
  6
CONTINUOUS
 62
    7
 10
1140.7224666666666
 20
990.92673333333335
 11
1140.7224666666666
 21
995.92673333333335
  0
LINE
  8
_0-2_LAYER004
  6
CONTINUOUS
 62
    7
 10
1140.7224666666666
 20
995.92673333333335
 11
1143.2224666666666
 21
991.59666666666669
  0
LINE
  8
_0-2_LAYER004
  6
CONTINUOUS
 62
    7
 10
1194.2559098075747
 20
796.1371333333334
 11
1357.0691333333332
 21
796.1371333333334
  0
LINE
  8
_0-2_LAYER004
  6
CONTINUOUS
 62
    7
 10
1357.0691333333332
 20
796.1371333333334
 11
1194.2559098075747
 21
796.1371333333334
  0
LINE
  8
_0-2_LAYER004
  6
CONTINUOUS
 62
    7
 10
1693.1466666666665
 20
1080.5798
 11
1689.2807333333335
 21
1071.3573333333334
  0
LINE
  8
_0-2_LAYER004
  6
CONTINUOUS
 62
    7
 10
1689.2807333333335
 20
1071.3573333333334
 11
1707.7257333333332
 21
1063.6254666666669
  0
LINE
  8
_0-2_LAYER004
  6
CONTINUOUS
 62
    7
 10
1707.7257333333332
 20
1063.6254666666669
 11
1711.5916666666667
 21
1072.8479333333332
  0
LINE
  8
_0-2_LAYER004
  6
CONTINUOUS
 62
    7
 10
1711.5916666666667
 20
1072.8479333333332
 11
1693.1466666666665
 21
1080.5798
  0
LINE
  8
_0-2_LAYER004
  6
CONTINUOUS
 62
    7
 10
1693.1466666666665
 20
1080.5798
 11
1707.7257333333332
 21
1063.6254666666669
  0
LINE
  8
_0-2_LAYER004
  6
CONTINUOUS
 62
    7
 10
1671.2536
 20
1057.9322666666667
 11
1653.3317333333334
 21
1026.8906666666667
  0
LINE
  8
_0-2_LAYER004
  6
CONTINUOUS
 62
    7
 10
1671.2536
 20
1057.9322666666667
 11
1667.7180666666666
 21
1054.3967333333333
  0
LINE
  8
_0-2_LAYER004
  6
CONTINUOUS
 62
    7
 10
1671.2536
 20
1057.9322666666667
 11
1669.9595333333332
 21
1053.1026666666667
  0
LINE
  8
_0-2_LAYER004
  6
CONTINUOUS
 62
    7
 10
1653.3317333333334
 20
1026.8906666666667
 11
1613.3317333333334
 21
1026.8906666666667
  0
LINE
  8
_0-2_LAYER004
  6
CONTINUOUS
 62
    7
 10
1726.9618
 20
1036.5092
 11
1733.0652
 21
1033.8272000000002
  0
LINE
  8
_0-2_LAYER004
  6
CONTINUOUS
 62
    7
 10
1733.0652
 20
1033.8272000000002
 11
1712.5134000000003
 21
987.0580666666666
  0
LINE
  8
_0-2_LAYER004
  6
CONTINUOUS
 62
    7
 10
1712.5134000000003
 20
987.0580666666666
 11
1694.2209333333335
 21
995.0963333333334
  0
LINE
  8
_0-2_LAYER004
  6
CONTINUOUS
 62
    7
 10
1694.2209333333335
 20
995.0963333333334
 11
1696.9029333333333
 21
1001.1997333333334
  0
LINE
  8
_0-2_LAYER004
  6
CONTINUOUS
 62
    7
 10
1696.9029333333333
 20
1001.1997333333334
 11
1709.0920666666668
 21
995.8434666666667
  0
LINE
  8
_0-2_LAYER004
  6
CONTINUOUS
 62
    7
 10
1709.0920666666668
 20
995.8434666666667
 11
1726.9618
 21
1036.5092
  0
LINE
  8
_0-2_LAYER004
  6
CONTINUOUS
 62
    7
 10
1714.6295333333333
 20
999.50573333333318
 11
1715.8998821431765
 21
994.76458555480144
  0
LINE
  8
_0-2_LAYER004
  6
CONTINUOUS
 62
    7
 10
1714.6295333333333
 20
999.50573333333318
 11
1716.959451027813
 21
997.17581563885358
  0
LINE
  8
_0-2_LAYER004
  6
CONTINUOUS
 62
    7
 10
1716.959451027813
 20
997.17581563885358
 11
1718.1650666666667
 21
995.97019999999998
  0
LINE
  8
_0-2_LAYER004
  6
CONTINUOUS
 62
    7
 10
1863.3592666666666
 20
1003.9499999999999
 11
1859.4933333333329
 21
994.72746666666671
  0
LINE
  8
_0-2_LAYER004
  6
CONTINUOUS
 62
    7
 10
1863.3592666666666
 20
1003.9499999999999
 11
1881.8042666666668
 21
996.2181333333333
  0
LINE
  8
_0-2_LAYER004
  6
CONTINUOUS
 62
    7
 10
1881.8042666666668
 20
996.2181333333333
 11
1877.938333333333
 21
986.99560000000008
  0
LINE
  8
_0-2_LAYER004
  6
CONTINUOUS
 62
    7
 10
1863.3592666666666
 20
1003.9499999999999
 11
1877.938333333333
 21
986.99560000000008
  0
LINE
  8
_0-2_LAYER004
  6
CONTINUOUS
 62
    7
 10
1877.938333333333
 20
986.99560000000008
 11
1859.4933333333329
 21
994.72746666666671
  0
LINE
  8
_0-2_LAYER004
  6
CONTINUOUS
 62
    7
 10
2033.5053333333331
 20
927.69453333333331
 11
2029.5631333333333
 21
918.50433333333331
  0
LINE
  8
_0-2_LAYER004
  6
CONTINUOUS
 62
    7
 10
2029.5631333333333
 20
918.50433333333331
 11
2047.9434000000001
 21
910.61993333333339
  0
LINE
  8
_0-2_LAYER004
  6
CONTINUOUS
 62
    7
 10
2047.9434000000001
 20
910.61993333333339
 11
2051.8856000000001
 21
919.81006666666656
  0
LINE
  8
_0-2_LAYER004
  6
CONTINUOUS
 62
    7
 10
2051.8856000000001
 20
919.81006666666656
 11
2033.5053333333331
 21
927.69453333333331
  0
LINE
  8
_0-2_LAYER004
  6
CONTINUOUS
 62
    7
 10
2033.5053333333331
 20
927.69453333333331
 11
2047.9434000000001
 21
910.61993333333339
  0
LINE
  8
_0-2_LAYER004
  6
CONTINUOUS
 62
    7
 10
1772.9805999999999
 20
1061.0614
 11
1774.2747333333332
 21
1065.8910666666666
  0
LINE
  8
_0-2_LAYER004
  6
CONTINUOUS
 62
    7
 10
1772.9805999999999
 20
1061.0614
 11
1776.5161333333333
 21
1064.5969333333333
  0
LINE
  8
_0-2_LAYER004
  6
CONTINUOUS
 62
    7
 10
1772.9805999999999
 20
1061.0614
 11
1814.0299333333332
 21
1132.1609333333333
  0
LINE
  8
_0-2_LAYER004
  6
CONTINUOUS
 62
    7
 10
1814.0299333333332
 20
1132.1609333333333
 11
1841.0299333333332
 21
1132.1609333333333
  0
LINE
  8
_0-2_LAYER004
  6
CONTINUOUS
 62
    7
 10
1279.2077333333332
 20
1033.8272000000002
 11
1285.3111333333334
 21
1036.5092
  0
LINE
  8
_0-2_LAYER004
  6
CONTINUOUS
 62
    7
 10
1285.3111333333334
 20
1036.5092
 11
1303.1808666666666
 21
995.8434666666667
  0
LINE
  8
_0-2_LAYER004
  6
CONTINUOUS
 62
    7
 10
1303.1808666666666
 20
995.8434666666667
 11
1315.3700000000001
 21
1001.1997333333334
  0
LINE
  8
_0-2_LAYER004
  6
CONTINUOUS
 62
    7
 10
1315.3700000000001
 20
1001.1997333333334
 11
1318.0520000000001
 21
995.0963333333334
  0
LINE
  8
_0-2_LAYER004
  6
CONTINUOUS
 62
    7
 10
1318.0520000000001
 20
995.0963333333334
 11
1299.7595333333334
 21
987.0580666666666
  0
LINE
  8
_0-2_LAYER004
  6
CONTINUOUS
 62
    7
 10
1299.7595333333334
 20
987.0580666666666
 11
1279.2077333333332
 21
1033.8272000000002
  0
LINE
  8
_0-2_LAYER004
  6
CONTINUOUS
 62
    7
 10
1506.1364666666666
 20
1012.4321333333335
 11
1506.1364666666666
 21
1125.6262666666667
  0
LINE
  8
_0-0_LAYER001
  6
CONTINUOUS
 62
    2
 10
1745.8577999999998
 20
904.55746666666664
 11
1546.4784666666665
 21
1103.9367999999999
  0
LINE
  8
_0-0_LAYER001
  6
CONTINUOUS
 62
    2
 10
1780.1417999999999
 20
889.12966666666671
 11
1580.7624666666663
 21
1088.509
  0
LINE
  8
_0-0_LAYER001
  6
CONTINUOUS
 62
    2
 10
1762.9997999999998
 20
896.84359999999992
 11
1563.6204666666663
 21
1096.2229333333332
  0
LINE
  8
_0-0_LAYER001
  6
CONTINUOUS
 62
    2
 10
2045.2385333333332
 20
822.0228666666668
 11
1940.7442666666661
 21
926.51706666666655
  0
LINE
  8
_0-0_LAYER001
  6
CONTINUOUS
 62
    1
 10
2004.210133333333
 20
927.19973333333337
 11
1984.0429999999994
 21
907.03266666666661
  0
LINE
  8
_0-0_LAYER001
  6
CONTINUOUS
 62
    2
 10
2048.1644666666662
 20
828.52499999999986
 11
1957.8862666666664
 21
918.80319999999995
  0
LINE
  8
_0-0_LAYER001
  6
CONTINUOUS
 62
    2
 10
2042.3125333333332
 20
815.5207333333334
 11
1923.6022666666663
 21
934.23099999999999
  0
LINE
  8
_0-2_LAYER004
  6
CONTINUOUS
 62
    7
 10
1546.4784666666665
 20
1103.9367999999999
 11
1745.8577999999998
 21
904.55746666666664
  0
LINE
  8
_0-2_LAYER004
  6
CONTINUOUS
 62
    7
 10
1745.8577999999998
 20
904.55746666666664
 11
1762.9997999999998
 21
896.84359999999992
  0
LINE
  8
_0-2_LAYER004
  6
CONTINUOUS
 62
    7
 10
1762.9997999999998
 20
896.84359999999992
 11
1563.6204666666663
 21
1096.2229333333332
  0
LINE
  8
_0-2_LAYER004
  6
CONTINUOUS
 62
    7
 10
1580.7624666666663
 20
1088.509
 11
1780.1417999999999
 21
889.12966666666671
  0
LINE
  8
_0-2_LAYER004
  6
CONTINUOUS
 62
    7
 10
2042.3125333333332
 20
815.5207333333334
 11
1923.602307596751
 21
934.23095906991534
  0
LINE
  8
_0-2_LAYER004
  6
CONTINUOUS
 62
    7
 10
2045.2385333333332
 20
822.0228666666668
 11
1940.7442666666661
 21
926.51706666666655
  0
LINE
  8
_0-2_LAYER004
  6
CONTINUOUS
 62
    7
 10
2048.1644666666662
 20
828.52499999999986
 11
1957.8862666666664
 21
918.80319999999995
  0
TEXT
  8
_0-0_LAYER001
 62
    7
 10
954.63651282211129
 20
1088.0960028566724
 40
20
 41
1
 50
24.227692999999988
  1
280
  0
TEXT
  8
_0-0_LAYER001
 62
    7
 10
1120.9238655897832
 20
1176.9085662666789
 40
20
 41
1
 50
24.227692999999974
  1
280
  0
TEXT
  8
_0-0_LAYER001
 62
    7
 10
1274.9286298007521
 20
1259.1074281461531
 40
20
 41
1
 50
24.227693000000027
  1
280
  0
LINE
  8
_0-0_LAYER001
  6
CONTINUOUS
 62
    7
 10
1320.0398
 20
1312.2597333333333
 11
1282.4342620929015
 21
1312.2597333333333
  0
LINE
  8
_0-0_LAYER001
  6
CONTINUOUS
 62
    7
 10
1670.7223333333334
 20
1304.2208000000001
 11
1715.5074428605451
 21
1304.2208000000001
  0
LINE
  8
_0-0_LAYER001
  6
CONTINUOUS
 62
    7
 10
1617.7184627299014
 20
1246.3673999999999
 11
1657.9735661885152
 21
1246.3673999999999
  0
LINE
  8
_0-0_LAYER001
  6
CONTINUOUS
 62
    7
 10
1841.0299333333332
 20
1132.1609333333333
 11
1860.9112402680394
 21
1132.1609333333333
  0
LINE
  8
_0-0_LAYER001
  6
CONTINUOUS
 62
    7
 10
1613.3317333333334
 20
1026.8906666666667
 11
1565.9193635132672
 21
1026.8906666666667
  0
LINE
  8
_0-0_LAYER001
  6
CONTINUOUS
 62
    7
 10
1357.0691333333332
 20
796.1371333333334
 11
1444.5751872595313
 21
796.1371333333334
  0
TEXT
  8
_0-0_LAYER001
 62
    7
 10
1197.4137306538535
 20
770.12085085242529
 40
20
 41
1
 50
0
  1
　パーライト系モルタルｔ＝４０
  0
TEXT
  8
_0-0_LAYER001
 62
    7
 10
1811.6533382014045
 20
1134.9419510927892
 40
20
 41
1
 50
0
  1
桟　瓦
  0
TEXT
  8
_0-0_LAYER001
 62
    7
 10
1590.2088699491208
 20
1219.732205833154
 40
20
 41
1
 50
0
  1
弾性シール材
  0
TEXT
  8
_0-0_LAYER001
 62
    7
 10
1568.4828396171397
 20
1249.0019966970729
 40
20
 41
1
 50
0
  1
棟補強金物
  0
TEXT
  8
_0-0_LAYER001
 62
    7
 10
1547.3603101277138
 20
1310.2573322164083
 40
20
 41
1
 50
0
  1
パッキンステンレスネジ
  0
LINE
  8
_0-0_LAYER001
  6
CONTINUOUS
 62
    7
 10
1657.9735661885152
 20
1246.3673999999999
 11
1694.6145157111409
 21
1246.3673999999999
  0
LINE
  8
_0-2_LAYER004
  6
CONTINUOUS
 62
    7
 10
1588.8974751929841
 20
1216.1112007778238
 11
1564.3572755352895
 21
1173.6062577980438
  0
LINE
  8
_0-0_LAYER001
  6
CONTINUOUS
 62
    7
 10
1588.8974751929841
 20
1216.1112007778238
 11
1732.0315679495525
 21
1216.1112007778238
  0
LINE
  8
_0-0_LAYER001
  6
CONTINUOUS
 62
    2
 10
1525.3726666666669
 20
1221.8663333333334
 11
1556.1962165492496
 21
1275.2542833482166
  0
LINE
  8
_0-2_LAYER004
  6
CONTINUOUS
 62
    7
 10
1525.3726666666669
 20
1221.8663333333334
 11
1556.1962165492496
 21
1275.2542833482166
  0
LINE
  8
_0-0_LAYER001
  6
CONTINUOUS
 62
    7
 10
1556.1962165492496
 20
1275.2542833482166
 11
1620.6856624981497
 21
1275.2542833482166
  0
LINE
  8
_0-0_LAYER001
  6
CONTINUOUS
 62
    7
 10
1282.4342620929015
 20
1312.2597333333333
 11
1252.8518989608601
 21
1312.2597333333333
  0
TEXT
  8
_0-0_LAYER001
 62
    7
 10
1257.6799057013004
 20
1315.3870893781259
 40
20
 41
1
 50
0
  1
芯木：40x30以上
  0
LINE
  8
_0-0_LAYER001
  6
CONTINUOUS
 62
    7
 10
1860.9112402680394
 20
1132.1609333333333
 11
1878.0787718478691
 21
1132.1609333333333
  0
LINE
  8
_0-2_LAYER004
  6
CONTINUOUS
 62
    2
 10
1714.6295333333333
 20
999.50573333333318
 11
1732.9518106536862
 21
967.77060406642988
  0
LINE
  8
_0-2_LAYER004
  6
CONTINUOUS
 62
    7
 10
1714.6295333333333
 20
999.50573333333318
 11
1732.9518106536862
 21
967.77060406642988
  0
LINE
  8
_0-0_LAYER001
  6
CONTINUOUS
 62
    7
 10
1732.9518106536862
 20
967.77060406642988
 11
1824.3671968604717
 21
967.77060406642988
  0
TEXT
  8
_0-2_LAYER004
 62
    7
 10
1555.2058210809291
 20
1029.9311908495977
 40
20
 41
1
 50
0
  1
溶接金網
  0
TEXT
  8
_0-0_LAYER001
 62
    7
 10
1733.8420704772175
 20
970.78810827920506
 40
20
 41
1
 50
0
  1
アンカー
  0
LINE
  8
_0-0_LAYER001
  6
CONTINUOUS
 62
    7
 10
1187.1927716097596
 20
828.29029884613021
 11
1442.3029042124276
 21
828.29029884613021
  0
LINE
  8
_0-0_LAYER001
  6
CONTINUOUS
 62
    7
 10
1444.5751872595313
 20
796.1371333333334
 11
1496.9345196072627
 21
796.1371333333334
  0
LINE
  8
_0-2_LAYER004
  6
CONTINUOUS
 62
    7
 10
1140.7224666666666
 20
995.92673333333335
 11
1202.8930066235214
 21
763.90303784507432
  0
LINE
  8
_0-0_LAYER001
  6
CONTINUOUS
 62
    7
 10
1202.8930066235214
 20
763.90303784507432
 11
1537.4204488730779
 21
763.90303784507432
  0
LINE
  8
_0-0_LAYER001
  6
CONTINUOUS
 62
    2
 10
1140.7224666666666
 20
995.92673333333335
 11
1202.8930066235214
 21
763.90303784507432
  0
LINE
  8
_0-1_LAYER003
  6
CONTINUOUS
 62
    7
 10
1202.8930066235214
 20
763.90303784507432
 11
1140.7224666666666
 21
995.92673333333335
  0
LINE
  8
_0-1_LAYER003
  6
CONTINUOUS
 62
    7
 10
1565.9193635132672
 20
1026.8906666666667
 11
1549.5524956843224
 21
1026.8906666666667
  0
TEXT
  8
_0-0_LAYER001
 62
    7
 10
1561.3656756602902
 20
1276.8342143119341
 40
20
 41
1
 50
0
  1
棟瓦　
  0
LINE
  8
_0-1_LAYER003
  6
CONTINUOUS
 62
    7
 10
1715.5074428605451
 20
1304.2208000000001
 11
1787.1286707565662
 21
1304.2208000000001
  0
TEXT
  8
_0-0_LAYER001
 62
    7
 10
1183.6586414445399
 20
838.03955288048144
 40
20
 41
1
 50
0
  1
　瓦桟：１５ｘ３０以上
  0
TEXT
  8
_0-0_LAYER001
 62
    7
 10
1185.0048496932968
 20
799.90216515776115
 40
20
 41
1
 50
0
  1
　下葺材：ルーフィング
  0
ENDSEC
  0
EOF
