  0
SECTION
  2
HEADER
  9
$ACADVER
  1
AC1009
  9
$INSBASE
 10
0
 20
0
 30
0
  9
$EXTMIN
 10
0
 20
0
  9
$EXTMAX
 10
2970
 20
2100
  9
$LIMMIN
 10
0
 20
0
  9
$LIMMAX
 10
2970
 20
2100
  9
$LTSCALE
 40
10
  0
ENDSEC
  0
SECTION
  2
TABLES
  0
TABLE
  2
LTYPE
 70
     9
  0
LTYPE
  2
CONTINUOUS
 70
    64
  3
実線
 72
    65
 73
     0
 40
0.0
  0
LTYPE
  2
DASHED1
 70
    64
  3
--  --  --  --  --  --  --  --  
 72
    65
 73
     2
 40
2.5
 49
1.25
 49
-1.25
  0
LTYPE
  2
DASHED2
 70
    64
  3
----    ----    ----    ----    
 72
    65
 73
     2
 40
5.0
 49
2.5
 49
-2.5
  0
LTYPE
  2
DASHED3
 70
    64
  3
------  ------  ------  ------  
 72
    65
 73
     2
 40
5.0
 49
3.75
 49
-1.25
  0
LTYPE
  2
CENTER1
 70
    64
  3
----- - ----- - ----- - ----- - 
 72
    65
 73
     4
 40
10.0
 49
6.25
 49
-1.25
 49
1.25
 49
-1.25
  0
LTYPE
  2
CENTER2
 70
    64
  3
----------  --  ----------  --  
 72
    65
 73
     4
 40
20.0
 49
12.5
 49
-2.5
 49
2.5
 49
-2.5
  0
LTYPE
  2
PHANTOM1
 70
    64
  3
--- - - --- - - --- - - --- - - 
 72
    65
 73
     6
 40
10.0
 49
3.25
 49
-1.25
 49
1.25
 49
-1.25
 49
1.25
 49
-1.25
  0
LTYPE
  2
PHANTOM2
 70
    64
  3
--------  -  -  --------  -  -  
 72
    65
 73
     6
 40
20.0
 49
10.0
 49
-2.5
 49
1.25
 49
-2.5
 49
1.25
 49
-2.5
  0
LTYPE
  2
DOT
 70
    64
  3
-   -   -   -   -   -   -   -   
 72
    65
 73
     2
 40
2.5
 49
0.625
 49
-1.875
  0
LTYPE
  2
DUMMY
 70
    64
  3
ダミー
 72
    65
 73
     0
 40
0.0
  0
LTYPE
  2
RAND1
 70
    64
  3
ランダム線1
 72
    65
 73
     4
 40
10.0
 49
1.0
 49
-2.0
 49
3.0
 49
-4.0
  0
LTYPE
  2
RAND2
 70
    64
  3
ランダム線2
 72
    65
 73
     4
 40
14.0
 49
2.0
 49
-3.0
 49
4.0
 49
-5.0
  0
LTYPE
  2
RAND3
 70
    64
  3
ランダム線3
 72
    65
 73
     4
 40
18.0
 49
3.0
 49
-4.0
 49
5.0
 49
-6.0
  0
LTYPE
  2
RAND4
 70
    64
  3
ランダム線4
 72
    65
 73
     4
 40
22.0
 49
4.0
 49
-5.0
 49
6.0
 49
-7.0
  0
LTYPE
  2
RAND5
 70
    64
  3
ランダム線5
 72
    65
 73
     4
 40
26.0
 49
5.0
 49
-6.0
 49
7.0
 49
-8.0
  0
LTYPE
  2
LONG1
 70
    64
  3
----------  --  ----------  --  
 72
    65
 73
     4
 40
40.0
 49
32.5
 49
-2.5
 49
2.5
 49
-2.5
  0
LTYPE
  2
LONG2
 70
    64
  3
--------  -  -  --------  -  -  
 72
    65
 73
     6
 40
40.0
 49
30.0
 49
-2.5
 49
1.25
 49
-2.5
 49
1.25
 49
-2.5
  0
LTYPE
  2
LONG3
 70
    64
  3
+++++++++++++++..+++++++++++++++
 72
    65
 73
     2
 40
40.0
 49
37.5
 49
-2.5
  0
LTYPE
  2
LONG4
 70
    64
  3
+++++++++++++++..+++++++++++++++
 72
    65
 73
     2
 40
80.0
 49
75.0
 49
-5.0
  0
LTYPE
  2
LONG5
 70
    64
  3
----------  --  ----------  --  
 72
    65
 73
     4
 40
60.0
 49
37.5
 49
-7.5
 49
7.5
 49
-7.5
  0
LTYPE
  2
dashed
 70
   64
  3
-------   -------------   ------
 72
   65
 73
    2
 40
7.5
 49
6
 49
-1.5
  0
LTYPE
  2
dashed_spaced
 70
   64
  3
----        --------        ----
 72
   65
 73
    2
 40
12
 49
6
 49
-6
  0
LTYPE
  2
long_dashed_dotted
 70
   64
  3
------------- --- --------------
 72
   65
 73
    4
 40
15.25
 49
12
 49
-1.5
 49
0.25
 49
-1.5
  0
LTYPE
  2
long_dashed_double-dotted
 70
   64
  3
----------- --- --- ------------
 72
   65
 73
    6
 40
17
 49
12
 49
-1.5
 49
0.25
 49
-1.5
 49
0.25
 49
-1.5
  0
LTYPE
  2
long_dashed_triplicate-dotted
 70
   64
  3
--------- --- --- --- ----------
 72
   65
 73
    8
 40
18.75
 49
12
 49
-1.5
 49
0.25
 49
-1.5
 49
0.25
 49
-1.5
 49
0.25
 49
-1.5
  0
LTYPE
  2
dotted
 70
   64
  3
   -       -       -       -    
 72
   65
 73
    2
 40
1.75
 49
0.25
 49
-1.5
  0
LTYPE
  2
chain
 70
   64
  3
-------------- -- --------------
 72
   65
 73
    4
 40
18.5
 49
12
 49
-1.5
 49
3.5
 49
-1.5
  0
LTYPE
  2
chain_double_dash
 70
   64
  3
------------ -- -- -------------
 72
   65
 73
    6
 40
23.5
 49
12
 49
-1.5
 49
3.5
 49
-1.5
 49
3.5
 49
-1.5
  0
LTYPE
  2
dashed_dotted
 70
   64
  3
-----------     -     ----------
 72
   65
 73
    4
 40
9.25
 49
6
 49
-1.5
 49
0.25
 49
-1.5
  0
LTYPE
  2
double-dashed_dotted
 70
   64
  3
------   -----------   -   -----
 72
   65
 73
    6
 40
16.75
 49
6
 49
-1.5
 49
6
 49
-1.5
 49
0.25
 49
-1.5
  0
LTYPE
  2
dashed_double-dotted
 70
   64
  3
---------    -    -    ---------
 72
   65
 73
    6
 40
11
 49
6
 49
-1.5
 49
0.25
 49
-1.5
 49
0.25
 49
-1.5
  0
LTYPE
  2
double-dashed_double-dotted
 70
   64
  3
-----   ---------   -   -   ----
 72
   65
 73
    8
 40
18.5
 49
6
 49
-1.5
 49
6
 49
-1.5
 49
0.25
 49
-1.5
 49
0.25
 49
-1.5
  0
LTYPE
  2
dashed_triplicate-dotted
 70
   64
  3
-------    -    -    -    ------
 72
   65
 73
    8
 40
12.75
 49
6
 49
-1.5
 49
0.25
 49
-1.5
 49
0.25
 49
-1.5
 49
0.25
 49
-1.5
  0
LTYPE
  2
double-dashed_triplicate-dotted
 70
   64
  3
-----  ---------  -  -  -  -----
 72
   65
 73
   10
 40
20.25
 49
6
 49
-1.5
 49
6
 49
-1.5
 49
0.25
 49
-1.5
 49
0.25
 49
-1.5
 49
0.25
 49
-1.5
  0
LTYPE
  2
undefined
 70
   64
  3
--------------------------------
 72
   65
 73
    0
 40
0
  0
ENDTAB
  0
TABLE
  2
STYLE
  5
3
100
AcDbSymbolTable
 70
     1
  0
STYLE
  5
10
100
AcDbSymbolTableRecord
100
AcDbTextStyleTableRecord
  2
STANDARD
 70
     0
 40
0.0
 41
1.0
 50
0.0
 71
     0
 42
0.2
  3
txt
  4
bigfont.shx
  0
STYLE
  5
26
100
AcDbSymbolTableRecord
100
AcDbTextStyleTableRecord
  2
TATEGAKI
 70
    68
 40
0.0
 41
1.0
 50
0.0
 71
     0
 42
1.0
  3
txt
  4
bigfont.shx
  0
ENDTAB
  0
TABLE
  2
LAYER
 70
    2
  0
LAYER
  2
_0-0_LAYER002
 70
   64
 62
    7
  6
CONTINUOUS
  0
LAYER
  2
ADD_LINE
 70
   64
 62
    7
  6
CONTINUOUS
  0
ENDTAB
  0
ENDSEC
  0
SECTION
  2
BLOCKS
  0
ENDSEC
  0
SECTION
  2
ENTITIES
  0
LINE
  8
_0-0_LAYER002
  6
CONTINUOUS
 62
    4
 10
1817.1003999999998
 20
812.82980000000009
 11
1911.9330666666667
 21
812.82980000000009
  0
ARC
  8
_0-0_LAYER002
  6
CONTINUOUS
 62
    4
 10
1817.1003999999998
 20
809.60420000000011
 40
3.2255999999999996
 50
90
 51
180
  0
LINE
  8
_0-0_LAYER002
  6
CONTINUOUS
 62
    4
 10
1813.8747999999998
 20
795.41160000000002
 11
1813.8747999999998
 21
809.60420000000011
  0
LINE
  8
_0-0_LAYER002
  6
CONTINUOUS
 62
    4
 10
1813.8747999999998
 20
795.41160000000002
 11
1819.0357999999997
 21
795.41160000000002
  0
LINE
  8
_0-0_LAYER002
  6
CONTINUOUS
 62
    4
 10
1819.0357999999997
 20
796.70180000000005
 11
1819.0357999999997
 21
795.41160000000002
  0
LINE
  8
_0-0_LAYER002
  6
CONTINUOUS
 62
    4
 10
1900.9659999999999
 20
796.70180000000005
 11
1819.0357999999997
 21
796.70180000000005
  0
LINE
  8
_0-0_LAYER002
  6
CONTINUOUS
 62
    4
 10
1911.9330666666667
 20
754.79440000000011
 11
1911.9330666666667
 21
812.82980000000009
  0
ARC
  8
_0-0_LAYER002
  6
CONTINUOUS
 62
    4
 10
1908.7074666666667
 20
754.79440000000011
 40
3.2255999999999996
 50
270
 51
0
  0
LINE
  8
_0-0_LAYER002
  6
CONTINUOUS
 62
    4
 10
1900.9659999999999
 20
751.56880000000001
 11
1908.7074666666667
 21
751.56880000000001
  0
LINE
  8
_0-0_LAYER002
  6
CONTINUOUS
 62
    4
 10
1900.9659999999999
 20
796.70180000000005
 11
1900.9659999999999
 21
751.56880000000001
  0
LINE
  8
_0-0_LAYER002
  6
CONTINUOUS
 62
    4
 10
1867.6339333333331
 20
793.37379999999996
 11
1867.6339333333331
 21
780.7274000000001
  0
LINE
  8
_0-0_LAYER002
  6
CONTINUOUS
 62
    3
 10
1885.6572000000001
 20
710.91554666666661
 11
1892.3131999999998
 21
710.91554666666661
  0
LINE
  8
_0-0_LAYER002
  6
CONTINUOUS
 62
    3
 10
1892.3131999999998
 20
710.91554666666661
 11
1892.3131999999998
 21
717.57154666666668
  0
LINE
  8
_0-0_LAYER002
  6
CONTINUOUS
 62
    3
 10
1892.3131999999998
 20
717.57154666666668
 11
1885.6572000000001
 21
717.57154666666668
  0
LINE
  8
_0-0_LAYER002
  6
CONTINUOUS
 62
    3
 10
1885.6572000000001
 20
717.57154666666668
 11
1885.6572000000001
 21
730.88353333333328
  0
LINE
  8
_0-0_LAYER002
  6
CONTINUOUS
 62
    3
 10
1885.6572000000001
 20
730.88353333333328
 11
1892.3131999999998
 21
730.88353333333328
  0
LINE
  8
_0-0_LAYER002
  6
CONTINUOUS
 62
    3
 10
1892.3131999999998
 20
730.88353333333328
 11
1892.3131999999998
 21
737.53953333333334
  0
LINE
  8
_0-0_LAYER002
  6
CONTINUOUS
 62
    3
 10
1892.3131999999998
 20
737.53953333333334
 11
1885.6572000000001
 21
737.53953333333334
  0
LINE
  8
_0-0_LAYER002
  6
CONTINUOUS
 62
    3
 10
1885.6572000000001
 20
737.53953333333334
 11
1885.6572000000001
 21
759.42819999999995
  0
LINE
  8
_0-0_LAYER002
  6
CONTINUOUS
 62
    2
 10
1885.6572000000001
 20
759.44099999999992
 11
1158.5737333333332
 21
759.44099999999992
  0
LINE
  8
_0-0_LAYER002
  6
CONTINUOUS
 62
    2
 10
1825.9121333333333
 20
762.07460000000015
 11
1158.5737333333332
 21
762.07460000000015
  0
LINE
  8
_0-0_LAYER002
  6
CONTINUOUS
 62
    2
 10
1825.9121333333333
 20
772.07460000000015
 11
1158.5737333333332
 21
772.07460000000015
  0
LINE
  8
_0-0_LAYER002
  6
CONTINUOUS
 62
    2
 10
1825.9121333333333
 20
762.07460000000015
 11
1825.9121333333333
 21
772.07460000000015
  0
LINE
  8
_0-0_LAYER002
  6
CONTINUOUS
 62
    2
 10
1826.3014666666668
 20
761.44099999999992
 11
1826.3014666666668
 21
766.50446666666664
  0
LINE
  8
_0-0_LAYER002
  6
CONTINUOUS
 62
    3
 10
1899.6348
 20
670.91244666666671
 11
1895.9238
 21
668.79700000000014
  0
LINE
  8
_0-0_LAYER002
  6
CONTINUOUS
 62
    3
 10
1895.9238
 20
668.79700000000014
 11
1895.9238
 21
652.5155666666667
  0
LINE
  8
_0-0_LAYER002
  6
CONTINUOUS
 62
    3
 10
1895.9238
 20
652.5155666666667
 11
1885.6572000000001
 21
652.5155666666667
  0
LINE
  8
_0-0_LAYER002
  6
CONTINUOUS
 62
    3
 10
1885.6572000000001
 20
652.5155666666667
 11
1885.6572000000001
 21
665.61552666666671
  0
LINE
  8
_0-0_LAYER002
  6
CONTINUOUS
 62
    3
 10
1885.6572000000001
 20
665.61552666666671
 11
1888.9852000000001
 21
665.61552666666671
  0
LINE
  8
_0-0_LAYER002
  6
CONTINUOUS
 62
    3
 10
1888.9852000000001
 20
665.61552666666671
 11
1888.9852000000001
 21
672.27152666666666
  0
LINE
  8
_0-0_LAYER002
  6
CONTINUOUS
 62
    3
 10
1888.9852000000001
 20
672.27152666666666
 11
1885.6572000000001
 21
672.27152666666666
  0
LINE
  8
_0-0_LAYER002
  6
CONTINUOUS
 62
    3
 10
1885.6572000000001
 20
672.27152666666666
 11
1885.6572000000001
 21
691.86205999999993
  0
LINE
  8
_0-0_LAYER002
  6
CONTINUOUS
 62
    3
 10
1885.6572000000001
 20
691.86205999999993
 11
1892.3131999999998
 21
691.86205999999993
  0
LINE
  8
_0-0_LAYER002
  6
CONTINUOUS
 62
    3
 10
1892.3131999999998
 20
691.86205999999993
 11
1892.3131999999998
 21
698.5180600000001
  0
LINE
  8
_0-0_LAYER002
  6
CONTINUOUS
 62
    3
 10
1885.6572000000001
 20
698.5180600000001
 11
1885.6572000000001
 21
708.50206000000014
  0
LINE
  8
_0-0_LAYER002
  6
CONTINUOUS
 62
    3
 10
1899.6348
 20
759.42819999999995
 11
1899.6348
 21
670.91244666666671
  0
LINE
  8
_0-0_LAYER002
  6
CONTINUOUS
 62
    1
 10
1896.9477333333334
 20
780.48980000000006
 11
1894.1102000000001
 21
781.25013333333322
  0
LINE
  8
_0-0_LAYER002
  6
CONTINUOUS
 62
    1
 10
1898.5764666666664
 20
812.26980000000003
 11
1898.5764666666664
 21
812.82980000000009
  0
LINE
  8
_0-0_LAYER002
  6
CONTINUOUS
 62
    1
 10
1898.5764666666664
 20
812.82980000000009
 11
1893.0014666666666
 21
812.82980000000009
  0
LINE
  8
_0-0_LAYER002
  6
CONTINUOUS
 62
    1
 10
1893.0014666666666
 20
812.26980000000003
 11
1893.0014666666666
 21
812.82980000000009
  0
LINE
  8
_0-0_LAYER002
  6
CONTINUOUS
 62
    1
 10
1898.5764666666664
 20
812.26980000000003
 11
1893.0014666666666
 21
812.26980000000003
  0
LINE
  8
_0-0_LAYER002
  6
CONTINUOUS
 62
    1
 10
1894.9501999999998
 20
812.26980000000003
 11
1894.9501999999998
 21
780.90980000000002
  0
LINE
  8
_0-0_LAYER002
  6
CONTINUOUS
 62
    1
 10
1895.7902000000001
 20
775.86979999999994
 11
1894.9501999999998
 21
780.90980000000002
  0
LINE
  8
_0-0_LAYER002
  6
CONTINUOUS
 62
    1
 10
1896.6301999999998
 20
780.90980000000002
 11
1896.6301999999998
 21
812.26980000000003
  0
LINE
  8
_0-0_LAYER002
  6
CONTINUOUS
 62
    1
 10
1895.7902000000001
 20
775.86979999999994
 11
1896.6301999999998
 21
780.90980000000002
  0
LINE
  8
_0-0_LAYER002
  6
CONTINUOUS
 62
    1
 10
1897.1902
 20
799.46486666666669
 11
1894.3902000000003
 21
800.21513333333337
  0
LINE
  8
_0-0_LAYER002
  6
CONTINUOUS
 62
    1
 10
1897.1902
 20
798.34486666666658
 11
1894.3902000000003
 21
799.09513333333337
  0
LINE
  8
_0-0_LAYER002
  6
CONTINUOUS
 62
    1
 10
1897.1902
 20
797.22486666666668
 11
1894.3902000000003
 21
797.97513333333336
  0
LINE
  8
_0-0_LAYER002
  6
CONTINUOUS
 62
    1
 10
1897.1902
 20
796.10486666666679
 11
1894.3902000000003
 21
796.85513333333336
  0
LINE
  8
_0-0_LAYER002
  6
CONTINUOUS
 62
    1
 10
1897.1902
 20
794.98486666666679
 11
1894.3902000000003
 21
795.73513333333324
  0
LINE
  8
_0-0_LAYER002
  6
CONTINUOUS
 62
    1
 10
1897.1902
 20
793.86486666666667
 11
1894.3902000000003
 21
794.61513333333346
  0
LINE
  8
_0-0_LAYER002
  6
CONTINUOUS
 62
    1
 10
1897.1902
 20
792.74486666666667
 11
1894.3902000000003
 21
793.49513333333334
  0
LINE
  8
_0-0_LAYER002
  6
CONTINUOUS
 62
    1
 10
1897.1902
 20
791.62486666666666
 11
1894.3902000000003
 21
792.37513333333345
  0
LINE
  8
_0-0_LAYER002
  6
CONTINUOUS
 62
    1
 10
1897.1902
 20
790.50486666666666
 11
1894.3902000000003
 21
791.25513333333345
  0
LINE
  8
_0-0_LAYER002
  6
CONTINUOUS
 62
    1
 10
1897.1902
 20
789.38486666666665
 11
1894.3902000000003
 21
790.13513333333333
  0
LINE
  8
_0-0_LAYER002
  6
CONTINUOUS
 62
    1
 10
1897.1902
 20
788.26486666666688
 11
1894.3902000000003
 21
789.01513333333332
  0
LINE
  8
_0-0_LAYER002
  6
CONTINUOUS
 62
    1
 10
1897.1902
 20
787.14486666666676
 11
1894.3902000000003
 21
787.89513333333332
  0
LINE
  8
_0-0_LAYER002
  6
CONTINUOUS
 62
    1
 10
1897.1902
 20
786.02486666666664
 11
1894.3902000000003
 21
786.77513333333332
  0
LINE
  8
_0-0_LAYER002
  6
CONTINUOUS
 62
    1
 10
1897.1902
 20
784.90486666666675
 11
1894.3902000000003
 21
785.65513333333342
  0
LINE
  8
_0-0_LAYER002
  6
CONTINUOUS
 62
    1
 10
1897.1902
 20
783.78486666666674
 11
1894.3902000000003
 21
784.53513333333331
  0
LINE
  8
_0-0_LAYER002
  6
CONTINUOUS
 62
    1
 10
1897.1902
 20
782.66486666666663
 11
1894.3902000000003
 21
783.41513333333319
  0
LINE
  8
_0-0_LAYER002
  6
CONTINUOUS
 62
    1
 10
1897.1902
 20
781.54486666666662
 11
1894.3902000000003
 21
782.29513333333341
  0
LINE
  8
_0-0_LAYER002
  6
CONTINUOUS
 62
    1
 10
1879.5930666666666
 20
767.71373333333349
 11
1880.3533333333335
 21
770.55119999999999
  0
LINE
  8
_0-0_LAYER002
  6
CONTINUOUS
 62
    1
 10
1911.3730666666665
 20
766.08500000000004
 11
1911.9330666666667
 21
766.08500000000004
  0
LINE
  8
_0-0_LAYER002
  6
CONTINUOUS
 62
    1
 10
1911.9330666666667
 20
766.08500000000004
 11
1911.9330666666667
 21
771.65999999999997
  0
LINE
  8
_0-0_LAYER002
  6
CONTINUOUS
 62
    1
 10
1911.3730666666665
 20
771.65999999999997
 11
1911.9330666666667
 21
771.65999999999997
  0
LINE
  8
_0-0_LAYER002
  6
CONTINUOUS
 62
    1
 10
1911.3730666666665
 20
766.08500000000004
 11
1911.3730666666665
 21
771.65999999999997
  0
LINE
  8
_0-0_LAYER002
  6
CONTINUOUS
 62
    1
 10
1911.3730666666665
 20
769.71120000000019
 11
1880.0130666666666
 21
769.71120000000019
  0
LINE
  8
_0-0_LAYER002
  6
CONTINUOUS
 62
    1
 10
1874.9730666666667
 20
768.87120000000004
 11
1880.0130666666666
 21
769.71120000000019
  0
LINE
  8
_0-0_LAYER002
  6
CONTINUOUS
 62
    1
 10
1880.0130666666666
 20
768.03120000000013
 11
1911.3730666666665
 21
768.03120000000013
  0
LINE
  8
_0-0_LAYER002
  6
CONTINUOUS
 62
    1
 10
1874.9730666666667
 20
768.87120000000004
 11
1880.0130666666666
 21
768.03120000000013
  0
LINE
  8
_0-0_LAYER002
  6
CONTINUOUS
 62
    1
 10
1898.5680666666667
 20
767.47119999999995
 11
1899.3183333333332
 21
770.27119999999991
  0
LINE
  8
_0-0_LAYER002
  6
CONTINUOUS
 62
    1
 10
1897.4480666666664
 20
767.47119999999995
 11
1898.1983333333335
 21
770.27119999999991
  0
LINE
  8
_0-0_LAYER002
  6
CONTINUOUS
 62
    1
 10
1896.3280666666665
 20
767.47119999999995
 11
1897.0783333333334
 21
770.27119999999991
  0
LINE
  8
_0-0_LAYER002
  6
CONTINUOUS
 62
    1
 10
1895.2080666666666
 20
767.47119999999995
 11
1895.9583333333333
 21
770.27119999999991
  0
LINE
  8
_0-0_LAYER002
  6
CONTINUOUS
 62
    1
 10
1894.0880666666662
 20
767.47119999999995
 11
1894.8383333333334
 21
770.27119999999991
  0
LINE
  8
_0-0_LAYER002
  6
CONTINUOUS
 62
    1
 10
1892.9680666666668
 20
767.47119999999995
 11
1893.7183333333332
 21
770.27119999999991
  0
LINE
  8
_0-0_LAYER002
  6
CONTINUOUS
 62
    1
 10
1891.8480666666667
 20
767.47119999999995
 11
1892.5983333333334
 21
770.27119999999991
  0
LINE
  8
_0-0_LAYER002
  6
CONTINUOUS
 62
    1
 10
1890.7280666666666
 20
767.47119999999995
 11
1891.4783333333335
 21
770.27119999999991
  0
LINE
  8
_0-0_LAYER002
  6
CONTINUOUS
 62
    1
 10
1889.6080666666667
 20
767.47119999999995
 11
1890.3583333333333
 21
770.27119999999991
  0
LINE
  8
_0-0_LAYER002
  6
CONTINUOUS
 62
    1
 10
1888.4880666666668
 20
767.47119999999995
 11
1889.2383333333332
 21
770.27119999999991
  0
LINE
  8
_0-0_LAYER002
  6
CONTINUOUS
 62
    1
 10
1887.3680666666667
 20
767.47119999999995
 11
1888.1183333333331
 21
770.27119999999991
  0
LINE
  8
_0-0_LAYER002
  6
CONTINUOUS
 62
    1
 10
1886.2480666666668
 20
767.47119999999995
 11
1886.9983333333334
 21
770.27119999999991
  0
LINE
  8
_0-0_LAYER002
  6
CONTINUOUS
 62
    1
 10
1885.1280666666667
 20
767.47119999999995
 11
1885.8783333333331
 21
770.27119999999991
  0
LINE
  8
_0-0_LAYER002
  6
CONTINUOUS
 62
    1
 10
1884.0080666666665
 20
767.47119999999995
 11
1884.7583333333332
 21
770.27119999999991
  0
LINE
  8
_0-0_LAYER002
  6
CONTINUOUS
 62
    1
 10
1882.8880666666669
 20
767.47119999999995
 11
1883.6383333333333
 21
770.27119999999991
  0
LINE
  8
_0-0_LAYER002
  6
CONTINUOUS
 62
    1
 10
1881.7680666666665
 20
767.47119999999995
 11
1882.5183333333334
 21
770.27119999999991
  0
LINE
  8
_0-0_LAYER002
  6
CONTINUOUS
 62
    1
 10
1880.6480666666666
 20
767.47119999999995
 11
1881.3983333333331
 21
770.27119999999991
  0
LINE
  8
_0-0_LAYER002
  6
CONTINUOUS
 62
    2
 10
1900.9289333333334
 20
697.61171999999999
 11
1899.6348
 21
702.44135333333338
  0
LINE
  8
_0-0_LAYER002
  6
CONTINUOUS
 62
    2
 10
1899.6348
 20
702.44135333333338
 11
1903.1703333333335
 21
698.90582000000006
  0
LINE
  8
_0-0_LAYER002
  6
CONTINUOUS
 62
    2
 10
1899.6348
 20
702.44135333333338
 11
1940.7843999999998
 21
631.16814666666664
  0
LINE
  8
_0-0_LAYER002
  6
CONTINUOUS
 62
    2
 10
1940.7843999999998
 20
631.16814666666664
 11
1972.7844
 21
631.16814666666664
  0
LINE
  8
_0-0_LAYER002
  6
CONTINUOUS
 62
    2
 10
1898.4857333333332
 20
809.30553333333341
 11
1894.9501999999998
 21
805.76999999999998
  0
LINE
  8
_0-0_LAYER002
  6
CONTINUOUS
 62
    2
 10
1894.9501999999998
 20
805.76999999999998
 11
1896.2443333333335
 21
810.59960000000001
  0
LINE
  8
_0-0_LAYER002
  6
CONTINUOUS
 62
    2
 10
1894.9501999999998
 20
805.76999999999998
 11
1927.7006000000001
 21
862.49533333333329
  0
LINE
  8
_0-0_LAYER002
  6
CONTINUOUS
 62
    2
 10
1927.7006000000001
 20
862.49533333333329
 11
1959.7005999999999
 21
862.49533333333329
  0
LINE
  8
_0-0_LAYER002
  6
CONTINUOUS
 62
    2
 10
1541.5189999999998
 20
796.90933333333328
 11
1537.9834666666666
 21
793.37379999999996
  0
LINE
  8
_0-0_LAYER002
  6
CONTINUOUS
 62
    2
 10
1537.9834666666666
 20
793.37379999999996
 11
1539.2776000000001
 21
798.2034666666666
  0
LINE
  8
_0-0_LAYER002
  6
CONTINUOUS
 62
    2
 10
1537.9834666666666
 20
793.37379999999996
 11
1567.9190666666668
 21
845.22373333333348
  0
LINE
  8
_0-0_LAYER002
  6
CONTINUOUS
 62
    2
 10
1567.9190666666668
 20
845.22373333333348
 11
1594.9190666666666
 21
845.22373333333348
  0
LINE
  8
_0-0_LAYER002
  6
CONTINUOUS
 62
    2
 10
1831.5285333333331
 20
801.53146666666669
 11
1832.8226
 21
796.70180000000005
  0
LINE
  8
_0-0_LAYER002
  6
CONTINUOUS
 62
    2
 10
1832.8226
 20
796.70180000000005
 11
1829.2870666666668
 21
800.23733333333337
  0
LINE
  8
_0-0_LAYER002
  6
CONTINUOUS
 62
    2
 10
1832.8226
 20
796.70180000000005
 11
1799.2724666666666
 21
854.81240000000003
  0
LINE
  8
_0-0_LAYER002
  6
CONTINUOUS
 62
    2
 10
1799.2724666666666
 20
854.81240000000003
 11
1734.2724666666666
 21
854.81240000000003
  0
LINE
  8
_0-0_LAYER002
  6
CONTINUOUS
 62
    2
 10
1841.8794666666668
 20
796.70320000000004
 11
1841.8794666666668
 21
793.37519999999995
  0
LINE
  8
_0-0_LAYER002
  6
CONTINUOUS
 62
    2
 10
1826.3598
 20
796.70320000000004
 11
1826.3598
 21
793.37519999999995
  0
LINE
  8
_0-0_LAYER002
  6
CONTINUOUS
 62
    2
 10
1826.3598
 20
793.37660000000005
 11
1841.8794666666668
 21
793.37660000000005
  0
LINE
  8
_0-0_LAYER002
  6
CONTINUOUS
 62
    2
 10
1826.3598
 20
794.20793333333336
 11
1841.8794666666668
 21
794.20793333333336
  0
LINE
  8
_0-0_LAYER002
  6
CONTINUOUS
 62
    2
 10
1826.3598
 20
795.03920000000005
 11
1841.8794666666668
 21
795.03920000000005
  0
LINE
  8
_0-0_LAYER002
  6
CONTINUOUS
 62
    2
 10
1826.3598
 20
795.87053333333347
 11
1841.8794666666668
 21
795.87053333333347
  0
LINE
  8
_0-0_LAYER002
  6
CONTINUOUS
 62
    2
 10
1826.3598
 20
796.70180000000005
 11
1841.8794666666668
 21
796.70180000000005
  0
LINE
  8
_0-0_LAYER002
  6
CONTINUOUS
 62
    2
 10
1878.9905333333331
 20
666.10771999999997
 11
1158.5737333333332
 21
666.10771999999997
  0
LINE
  8
_0-0_LAYER002
  6
CONTINUOUS
 62
    2
 10
1878.9905333333331
 20
759.44099999999992
 11
1878.9905333333331
 21
666.10771999999997
  0
LINE
  8
_0-0_LAYER002
  6
CONTINUOUS
 62
    3
 10
1885.6572000000001
 20
698.5180600000001
 11
1885.6572000000001
 21
710.91554666666661
  0
LINE
  8
_0-0_LAYER002
  6
CONTINUOUS
 62
    3
 10
1892.3131999999998
 20
698.5180600000001
 11
1885.6572000000001
 21
698.5180600000001
  0
LINE
  8
_0-0_LAYER002
  6
CONTINUOUS
 62
    2
 10
1878.9905333333331
 20
666.10771999999997
 11
1885.6572000000001
 21
666.10771999999997
  0
LINE
  8
_0-0_LAYER002
  6
CONTINUOUS
 62
    2
 10
1878.9905333333331
 20
659.44105333333346
 11
1158.5737333333332
 21
659.44105333333346
  0
LINE
  8
_0-0_LAYER002
  6
CONTINUOUS
 62
    2
 10
1878.9905333333331
 20
666.10771999999997
 11
1878.9905333333331
 21
659.44105333333346
  0
ARC
  8
_0-0_LAYER002
  6
CONTINUOUS
 62
    2
 10
1882.1710666666668
 20
654.50188666666668
 40
5.8746233333333331
 50
54.115524000000001
 51
122.77923999999999
  0
LINE
  8
_0-0_LAYER002
  6
CONTINUOUS
 62
    1
 10
1878.9905333333331
 20
666.10771999999997
 11
1885.6308666666666
 21
666.10771999999997
  0
LINE
  8
_0-0_LAYER002
  6
CONTINUOUS
 62
    1
 10
1885.6308666666666
 20
666.10771999999997
 11
1885.6308666666666
 21
663.41797333333352
  0
LINE
  8
_0-0_LAYER002
  6
CONTINUOUS
 62
    1
 10
1885.6308666666666
 20
663.41797333333352
 11
1878.9905333333331
 21
663.41797333333352
  0
LINE
  8
_0-0_LAYER002
  6
CONTINUOUS
 62
    1
 10
1878.9905333333331
 20
663.41797333333352
 11
1878.9905333333331
 21
666.10771999999997
  0
LINE
  8
_0-0_LAYER002
  6
CONTINUOUS
 62
    1
 10
1878.9905333333331
 20
663.41797333333352
 11
1885.6572000000001
 21
666.10771999999997
  0
LINE
  8
_0-0_LAYER002
  6
CONTINUOUS
 62
    1
 10
1884.4755333333333
 20
659.90564666666671
 11
1885.6308666666666
 21
661.06095333333326
  0
LINE
  8
_0-0_LAYER002
  6
CONTINUOUS
 62
    1
 10
1882.5754666666667
 20
660.36257333333333
 11
1885.6308666666666
 21
663.41797333333352
  0
LINE
  8
_0-0_LAYER002
  6
CONTINUOUS
 62
    1
 10
1879.2969333333331
 20
659.44105333333346
 11
1883.2738666666664
 21
663.41797333333352
  0
LINE
  8
_0-0_LAYER002
  6
CONTINUOUS
 62
    1
 10
1878.9905333333331
 20
661.49169333333339
 11
1880.9168
 21
663.41797333333352
  0
LINE
  8
_0-0_LAYER002
  6
CONTINUOUS
 62
    2
 10
1836.5567999999998
 20
758.03693333333342
 11
1840.0923333333333
 21
761.57246666666663
  0
LINE
  8
_0-0_LAYER002
  6
CONTINUOUS
 62
    2
 10
1840.0923333333333
 20
761.57246666666663
 11
1838.7982
 21
756.7428000000001
  0
LINE
  8
_0-0_LAYER002
  6
CONTINUOUS
 62
    2
 10
1840.0923333333333
 20
761.57246666666663
 11
1750.7851333333335
 21
606.88791333333336
  0
LINE
  8
_0-0_LAYER002
  6
CONTINUOUS
 62
    2
 10
1750.7851333333335
 20
606.88791333333336
 11
1605.7851333333335
 21
606.88791333333336
  0
LINE
  8
_0-0_LAYER002
  6
CONTINUOUS
 62
    2
 10
1713.8246666666669
 20
666.10771999999997
 11
1807.1451999999999
 21
759.42819999999995
  0
LINE
  8
_0-0_LAYER002
  6
CONTINUOUS
 62
    2
 10
1506.4066666666668
 20
666.10771999999997
 11
1599.7271999999998
 21
759.42819999999995
  0
LINE
  8
_0-0_LAYER002
  6
CONTINUOUS
 62
    2
 10
1298.9886666666666
 20
666.10771999999997
 11
1392.3091999999999
 21
759.42819999999995
  0
LINE
  8
_0-0_LAYER002
  6
CONTINUOUS
 62
    2
 10
1158.5737333333332
 20
733.11073333333343
 11
1184.8912666666665
 21
759.42819999999995
  0
LINE
  8
_0-0_LAYER002
  6
CONTINUOUS
 62
    2
 10
1704.3966
 20
666.10771999999997
 11
1797.7171333333331
 21
759.42819999999995
  0
LINE
  8
_0-0_LAYER002
  6
CONTINUOUS
 62
    2
 10
1496.9786000000001
 20
666.10771999999997
 11
1590.2991333333332
 21
759.42819999999995
  0
LINE
  8
_0-0_LAYER002
  6
CONTINUOUS
 62
    2
 10
1289.5605999999998
 20
666.10771999999997
 11
1382.8811333333333
 21
759.42819999999995
  0
LINE
  8
_0-0_LAYER002
  6
CONTINUOUS
 62
    2
 10
1158.5737333333332
 20
742.53880000000004
 11
1175.4631333333332
 21
759.42819999999995
  0
LINE
  8
_0-0_LAYER002
  6
CONTINUOUS
 62
    2
 10
1694.9684666666667
 20
666.10771999999997
 11
1788.289
 21
759.42819999999995
  0
LINE
  8
_0-0_LAYER002
  6
CONTINUOUS
 62
    2
 10
1487.5505333333333
 20
666.10771999999997
 11
1580.8710666666666
 21
759.42819999999995
  0
LINE
  8
_0-0_LAYER002
  6
CONTINUOUS
 62
    2
 10
1280.1325333333332
 20
666.10771999999997
 11
1373.4530666666665
 21
759.42819999999995
  0
LINE
  8
_0-0_LAYER002
  6
CONTINUOUS
 62
    2
 10
1158.5737333333332
 20
751.96686666666665
 11
1166.0350666666668
 21
759.42819999999995
  0
LINE
  8
_0-0_LAYER002
  6
CONTINUOUS
 62
    2
 10
1895.1614
 20
763.20159999999998
 11
1893.8673333333331
 21
768.03120000000013
  0
LINE
  8
_0-0_LAYER002
  6
CONTINUOUS
 62
    2
 10
1893.8673333333331
 20
768.03120000000013
 11
1897.4028666666666
 21
764.49566666666669
  0
LINE
  8
_0-0_LAYER002
  6
CONTINUOUS
 62
    2
 10
1893.8673333333331
 20
768.03120000000013
 11
1946.7212
 21
676.48570000000007
  0
LINE
  8
_0-0_LAYER002
  6
CONTINUOUS
 62
    2
 10
1946.7212
 20
676.48570000000007
 11
2044.7212
 21
676.48570000000007
  0
LINE
  8
_0-0_LAYER002
  6
CONTINUOUS
 62
    2
 10
1871.5843333333332
 20
761.44099999999992
 11
1826.3014666666668
 21
761.44099999999992
  0
LINE
  8
_0-0_LAYER002
  6
CONTINUOUS
 62
    2
 10
1898.8338666666664
 20
760.44100000000003
 11
1158.5737333333332
 21
760.44100000000003
  0
LINE
  8
_0-0_LAYER002
  6
CONTINUOUS
 62
    2
 10
1269.6572000000001
 20
931.43239999999992
 11
1269.6572000000001
 21
896.43239999999992
  0
CIRCLE
  8
_0-0_LAYER002
  6
CONTINUOUS
 62
    2
 10
1269.6572000000001
 20
929.7657333333334
 40
0.8333333333333332
  0
LINE
  8
_0-0_LAYER002
  6
CONTINUOUS
 62
    2
 10
1269.6572000000001
 20
929.7657333333334
 11
1474.9905333333334
 21
929.7657333333334
  0
CIRCLE
  8
_0-0_LAYER002
  6
CONTINUOUS
 62
    2
 10
1474.9905333333334
 20
929.7657333333334
 40
0.8333333333333332
  0
LINE
  8
_0-0_LAYER002
  6
CONTINUOUS
 62
    2
 10
1474.9905333333334
 20
931.43239999999992
 11
1474.9905333333334
 21
896.43239999999992
  0
CIRCLE
  8
_0-0_LAYER002
  6
CONTINUOUS
 62
    2
 10
1474.9905333333334
 20
929.7657333333334
 40
0.8333333333333332
  0
LINE
  8
_0-0_LAYER002
  6
CONTINUOUS
 62
    2
 10
1474.9905333333334
 20
929.7657333333334
 11
1680.3238666666666
 21
929.7657333333334
  0
CIRCLE
  8
_0-0_LAYER002
  6
CONTINUOUS
 62
    2
 10
1680.3238666666666
 20
929.7657333333334
 40
0.8333333333333332
  0
LINE
  8
_0-0_LAYER002
  6
CONTINUOUS
 62
    2
 10
1680.3238666666666
 20
931.43239999999992
 11
1680.3238666666666
 21
896.43239999999992
  0
LINE
  8
_0-0_LAYER002
  6
CONTINUOUS
 62
    2
 10
1505.8939999999998
 20
760.09766666666678
 11
1509.4295333333332
 21
763.63320000000022
  0
LINE
  8
_0-0_LAYER002
  6
CONTINUOUS
 62
    2
 10
1509.4295333333332
 20
763.63320000000022
 11
1508.1354000000001
 21
758.80353333333346
  0
LINE
  8
_0-0_LAYER002
  6
CONTINUOUS
 62
    2
 10
1509.4295333333332
 20
763.63320000000022
 11
1409.8120666666669
 21
591.09071999999992
  0
LINE
  8
_0-0_LAYER002
  6
CONTINUOUS
 62
    2
 10
1409.8120666666669
 20
591.09071999999992
 11
1253.3293999999999
 21
591.09071999999992
  0
LINE
  8
_0-0_LAYER002
  6
CONTINUOUS
 62
    2
 10
1295.8691333333331
 20
803.8663333333335
 11
1295.8691333333331
 21
797.05393333333336
  0
LINE
  8
_0-0_LAYER002
  6
CONTINUOUS
 62
    2
 10
1295.8691333333331
 20
803.8663333333335
 11
1269.6572000000001
 21
803.8663333333335
  0
LINE
  8
_0-0_LAYER002
  6
CONTINUOUS
 62
    2
 10
1294.3238666666666
 20
797.05393333333336
 11
1294.3238666666666
 21
802.53513333333331
  0
LINE
  8
_0-0_LAYER002
  6
CONTINUOUS
 62
    2
 10
1294.3238666666666
 20
802.53513333333331
 11
1268.3238666666666
 21
802.53513333333331
  0
LINE
  8
_0-0_LAYER002
  6
CONTINUOUS
 62
    2
 10
1501.2024666666666
 20
803.8663333333335
 11
1501.2024666666666
 21
797.05393333333336
  0
LINE
  8
_0-0_LAYER002
  6
CONTINUOUS
 62
    2
 10
1501.2024666666666
 20
803.8663333333335
 11
1474.9905333333334
 21
803.8663333333335
  0
LINE
  8
_0-0_LAYER002
  6
CONTINUOUS
 62
    2
 10
1499.6572000000001
 20
797.05393333333336
 11
1499.6572000000001
 21
802.53513333333331
  0
LINE
  8
_0-0_LAYER002
  6
CONTINUOUS
 62
    2
 10
1499.6572000000001
 20
802.53513333333331
 11
1473.6571999999999
 21
802.53513333333331
  0
LINE
  8
_0-0_LAYER002
  6
CONTINUOUS
 62
    2
 10
1706.5358000000001
 20
803.8663333333335
 11
1680.3238666666666
 21
803.8663333333335
  0
LINE
  8
_0-0_LAYER002
  6
CONTINUOUS
 62
    2
 10
1706.5358000000001
 20
803.8663333333335
 11
1706.5358000000001
 21
797.05393333333336
  0
LINE
  8
_0-0_LAYER002
  6
CONTINUOUS
 62
    2
 10
1704.9905333333334
 20
797.05393333333336
 11
1704.9905333333334
 21
802.53513333333331
  0
LINE
  8
_0-0_LAYER002
  6
CONTINUOUS
 62
    2
 10
1704.9905333333334
 20
802.53513333333331
 11
1678.9905333333331
 21
802.53513333333331
  0
LINE
  8
_0-0_LAYER002
  6
CONTINUOUS
 62
    2
 10
1474.9905333333334
 20
817.17833333333328
 11
1474.9905333333334
 21
803.8663333333335
  0
LINE
  8
_0-0_LAYER002
  6
CONTINUOUS
 62
    2
 10
1678.9905333333331
 20
817.17833333333328
 11
1678.9905333333331
 21
802.53513333333331
  0
LINE
  8
_0-0_LAYER002
  6
CONTINUOUS
 62
    2
 10
1268.3238666666666
 20
817.17833333333328
 11
1268.3238666666666
 21
802.53513333333331
  0
LINE
  8
_0-0_LAYER002
  6
CONTINUOUS
 62
    2
 10
1269.6572000000001
 20
817.17833333333328
 11
1269.6572000000001
 21
803.8663333333335
  0
LINE
  8
_0-0_LAYER002
  6
CONTINUOUS
 62
    2
 10
1473.6571999999999
 20
817.17833333333328
 11
1473.6571999999999
 21
802.53513333333331
  0
LINE
  8
_0-0_LAYER002
  6
CONTINUOUS
 62
    2
 10
1473.6571999999999
 20
817.17833333333328
 11
1473.6571999999999
 21
803.8663333333335
  0
LINE
  8
_0-0_LAYER002
  6
CONTINUOUS
 62
    2
 10
1811.6319333333333
 20
797.05393333333336
 11
1706.5358000000001
 21
797.05393333333336
  0
LINE
  8
_0-0_LAYER002
  6
CONTINUOUS
 62
    2
 10
1704.9905333333334
 20
797.05393333333336
 11
1501.2024666666666
 21
797.05393333333336
  0
LINE
  8
_0-0_LAYER002
  6
CONTINUOUS
 62
    2
 10
1499.6572000000001
 20
797.05393333333336
 11
1295.8691333333331
 21
797.05393333333336
  0
LINE
  8
_0-0_LAYER002
  6
CONTINUOUS
 62
    2
 10
1294.3238666666666
 20
797.05393333333336
 11
1158.5737333333332
 21
797.05393333333336
  0
LINE
  8
_0-0_LAYER002
  6
CONTINUOUS
 62
    2
 10
1680.3238666666666
 20
817.17833333333328
 11
1680.3238666666666
 21
803.8663333333335
  0
LINE
  8
_0-0_LAYER002
  6
CONTINUOUS
 62
    2
 10
1811.6319333333333
 20
817.17833333333328
 11
1680.3238666666666
 21
817.17833333333328
  0
LINE
  8
_0-0_LAYER002
  6
CONTINUOUS
 62
    2
 10
1678.9905333333331
 20
817.17833333333328
 11
1474.9905333333334
 21
817.17833333333328
  0
LINE
  8
_0-0_LAYER002
  6
CONTINUOUS
 62
    2
 10
1473.6571999999999
 20
817.17833333333328
 11
1269.6572000000001
 21
817.17833333333328
  0
LINE
  8
_0-0_LAYER002
  6
CONTINUOUS
 62
    2
 10
1268.3238666666666
 20
817.17833333333328
 11
1158.5737333333332
 21
817.17833333333328
  0
LINE
  8
_0-0_LAYER002
  6
CONTINUOUS
 62
    2
 10
1818.3273333333332
 20
830.24806666666677
 11
1913.1599999999999
 21
830.24806666666677
  0
ARC
  8
_0-0_LAYER002
  6
CONTINUOUS
 62
    2
 10
1818.3273333333332
 20
827.02246666666667
 40
3.2255999999999996
 50
90
 51
180
  0
LINE
  8
_0-0_LAYER002
  6
CONTINUOUS
 62
    2
 10
1815.1017333333334
 20
812.82980000000009
 11
1815.1017333333334
 21
827.02246666666667
  0
LINE
  8
_0-0_LAYER002
  6
CONTINUOUS
 62
    2
 10
1815.1017333333334
 20
812.82980000000009
 11
1820.2627333333335
 21
812.82980000000009
  0
LINE
  8
_0-0_LAYER002
  6
CONTINUOUS
 62
    2
 10
1820.2627333333335
 20
814.12006666666673
 11
1820.2627333333335
 21
812.82980000000009
  0
LINE
  8
_0-0_LAYER002
  6
CONTINUOUS
 62
    2
 10
1902.1929333333333
 20
814.12006666666673
 11
1820.2627333333335
 21
814.12006666666673
  0
LINE
  8
_0-0_LAYER002
  6
CONTINUOUS
 62
    2
 10
1913.1599999999999
 20
772.21260000000007
 11
1913.1599999999999
 21
830.24806666666677
  0
ARC
  8
_0-0_LAYER002
  6
CONTINUOUS
 62
    2
 10
1909.9344000000001
 20
772.21260000000007
 40
3.2255999999999996
 50
308.28845000000001
 51
0.0000000000000254
  0
LINE
  8
_0-0_LAYER002
  6
CONTINUOUS
 62
    2
 10
1902.1929333333333
 20
814.12006666666673
 11
1902.1929333333333
 21
812.63753333333341
  0
LINE
  8
_0-0_LAYER002
  6
CONTINUOUS
 62
    4
 10
1720.9393333333333
 20
780.7274000000001
 11
1717.1471333333332
 21
770.32686666666666
  0
LINE
  8
_0-0_LAYER002
  6
CONTINUOUS
 62
    4
 10
1705.1261999999999
 20
782.05860000000007
 11
1680.3238666666666
 21
782.05860000000007
  0
LINE
  8
_0-0_LAYER002
  6
CONTINUOUS
 62
    4
 10
1705.1261999999999
 20
782.05860000000007
 11
1709.6102666666666
 21
769.88813333333337
  0
LINE
  8
_0-0_LAYER002
  6
CONTINUOUS
 62
    4
 10
1867.6339333333331
 20
780.7274000000001
 11
1842.0508
 21
780.7274000000001
  0
LINE
  8
_0-0_LAYER002
  6
CONTINUOUS
 62
    4
 10
1836.7259999999999
 20
780.7274000000001
 11
1805.4428000000003
 21
780.7274000000001
  0
LINE
  8
_0-0_LAYER002
  6
CONTINUOUS
 62
    4
 10
1800.1179999999999
 20
780.7274000000001
 11
1764.8412000000003
 21
780.7274000000001
  0
LINE
  8
_0-0_LAYER002
  6
CONTINUOUS
 62
    4
 10
1759.5164
 20
780.7274000000001
 11
1720.9393333333333
 21
780.7274000000001
  0
LINE
  8
_0-0_LAYER002
  6
CONTINUOUS
 62
    4
 10
1754.2054666666668
 20
793.37379999999996
 11
1867.6339333333331
 21
793.37379999999996
  0
LINE
  8
_0-0_LAYER002
  6
CONTINUOUS
 62
    4
 10
1680.3238666666666
 20
793.37379999999996
 11
1754.2054666666668
 21
793.37379999999996
  0
LINE
  8
_0-0_LAYER002
  6
CONTINUOUS
 62
    4
 10
1759.5164
 20
780.7274000000001
 11
1759.5164
 21
773.4058
  0
LINE
  8
_0-0_LAYER002
  6
CONTINUOUS
 62
    4
 10
1764.8412000000003
 20
773.4058
 11
1759.5164
 21
773.4058
  0
LINE
  8
_0-0_LAYER002
  6
CONTINUOUS
 62
    4
 10
1764.8412000000003
 20
780.7274000000001
 11
1764.8412000000003
 21
773.4058
  0
LINE
  8
_0-0_LAYER002
  6
CONTINUOUS
 62
    4
 10
1800.1179999999999
 20
780.7274000000001
 11
1800.1179999999999
 21
773.4058
  0
LINE
  8
_0-0_LAYER002
  6
CONTINUOUS
 62
    4
 10
1805.4428000000003
 20
773.4058
 11
1800.1179999999999
 21
773.4058
  0
LINE
  8
_0-0_LAYER002
  6
CONTINUOUS
 62
    4
 10
1805.4428000000003
 20
780.7274000000001
 11
1805.4428000000003
 21
773.4058
  0
LINE
  8
_0-0_LAYER002
  6
CONTINUOUS
 62
    4
 10
1836.7259999999999
 20
780.7274000000001
 11
1836.7259999999999
 21
773.4058
  0
LINE
  8
_0-0_LAYER002
  6
CONTINUOUS
 62
    4
 10
1842.0508
 20
773.4058
 11
1836.7259999999999
 21
773.4058
  0
LINE
  8
_0-0_LAYER002
  6
CONTINUOUS
 62
    4
 10
1842.0508
 20
773.4058
 11
1842.0508
 21
780.7274000000001
  0
LINE
  8
_0-0_LAYER002
  6
CONTINUOUS
 62
    4
 10
1680.3238666666666
 20
793.37379999999996
 11
1680.3238666666666
 21
782.05860000000007
  0
ARC
  8
_0-0_LAYER002
  6
CONTINUOUS
 62
    4
 10
1713.2533999999998
 20
771.40899999999999
 40
3.9935999999999998
 50
199.47121999999999
 51
344.27760999999998
  0
ARC
  8
_0-0_LAYER002
  6
CONTINUOUS
 62
    4
 10
1671.0277333333333
 20
771.40899999999999
 40
3.9935999999999998
 50
199.47121999999999
 51
344.27760999999998
  0
LINE
  8
_0-0_LAYER002
  6
CONTINUOUS
 62
    4
 10
1663.3414666666667
 20
780.7274000000001
 11
1667.3350666666665
 21
769.88813333333337
  0
LINE
  8
_0-0_LAYER002
  6
CONTINUOUS
 62
    4
 10
1515.606
 20
780.7274000000001
 11
1511.8137999999999
 21
770.32686666666666
  0
LINE
  8
_0-0_LAYER002
  6
CONTINUOUS
 62
    4
 10
1675.751866666667
 20
772.74020000000007
 11
1674.8719333333333
 21
770.32686666666666
  0
LINE
  8
_0-0_LAYER002
  6
CONTINUOUS
 62
    4
 10
1499.7928666666667
 20
782.05860000000007
 11
1474.9905333333334
 21
782.05860000000007
  0
LINE
  8
_0-0_LAYER002
  6
CONTINUOUS
 62
    4
 10
1499.7928666666667
 20
782.05860000000007
 11
1504.2769333333333
 21
769.88813333333337
  0
LINE
  8
_0-0_LAYER002
  6
CONTINUOUS
 62
    4
 10
1663.3414666666667
 20
780.7274000000001
 11
1636.7174666666665
 21
780.7274000000001
  0
LINE
  8
_0-0_LAYER002
  6
CONTINUOUS
 62
    4
 10
1631.3926666666666
 20
780.7274000000001
 11
1600.1094666666668
 21
780.7274000000001
  0
LINE
  8
_0-0_LAYER002
  6
CONTINUOUS
 62
    4
 10
1594.7846666666669
 20
780.7274000000001
 11
1559.5078666666668
 21
780.7274000000001
  0
LINE
  8
_0-0_LAYER002
  6
CONTINUOUS
 62
    4
 10
1554.1830666666667
 20
780.7274000000001
 11
1515.606
 21
780.7274000000001
  0
LINE
  8
_0-0_LAYER002
  6
CONTINUOUS
 62
    4
 10
1548.8721333333333
 20
793.37379999999996
 11
1678.9905333333331
 21
793.37379999999996
  0
LINE
  8
_0-0_LAYER002
  6
CONTINUOUS
 62
    4
 10
1474.9905333333334
 20
793.37379999999996
 11
1548.8721333333333
 21
793.37379999999996
  0
LINE
  8
_0-0_LAYER002
  6
CONTINUOUS
 62
    4
 10
1554.1830666666667
 20
780.7274000000001
 11
1554.1830666666667
 21
773.4058
  0
LINE
  8
_0-0_LAYER002
  6
CONTINUOUS
 62
    4
 10
1559.5078666666668
 20
773.4058
 11
1554.1830666666667
 21
773.4058
  0
LINE
  8
_0-0_LAYER002
  6
CONTINUOUS
 62
    4
 10
1559.5078666666668
 20
780.7274000000001
 11
1559.5078666666668
 21
773.4058
  0
LINE
  8
_0-0_LAYER002
  6
CONTINUOUS
 62
    4
 10
1594.7846666666669
 20
780.7274000000001
 11
1594.7846666666669
 21
773.4058
  0
LINE
  8
_0-0_LAYER002
  6
CONTINUOUS
 62
    4
 10
1600.1094666666668
 20
773.4058
 11
1594.7846666666669
 21
773.4058
  0
LINE
  8
_0-0_LAYER002
  6
CONTINUOUS
 62
    4
 10
1600.1094666666668
 20
780.7274000000001
 11
1600.1094666666668
 21
773.4058
  0
LINE
  8
_0-0_LAYER002
  6
CONTINUOUS
 62
    4
 10
1631.3926666666666
 20
780.7274000000001
 11
1631.3926666666666
 21
773.4058
  0
LINE
  8
_0-0_LAYER002
  6
CONTINUOUS
 62
    4
 10
1636.7174666666665
 20
773.4058
 11
1631.3926666666666
 21
773.4058
  0
LINE
  8
_0-0_LAYER002
  6
CONTINUOUS
 62
    4
 10
1636.7174666666665
 20
773.4058
 11
1636.7174666666665
 21
780.7274000000001
  0
LINE
  8
_0-0_LAYER002
  6
CONTINUOUS
 62
    4
 10
1474.9905333333334
 20
793.37379999999996
 11
1474.9905333333334
 21
782.05860000000007
  0
ARC
  8
_0-0_LAYER002
  6
CONTINUOUS
 62
    4
 10
1507.9200666666666
 20
771.40899999999999
 40
3.9935999999999998
 50
199.47121999999999
 51
344.27760999999998
  0
LINE
  8
_0-0_LAYER002
  6
CONTINUOUS
 62
    4
 10
1678.9905333333331
 20
793.37379999999996
 11
1678.9905333333331
 21
780.7274000000001
  0
LINE
  8
_0-0_LAYER002
  6
CONTINUOUS
 62
    4
 10
1678.9905333333331
 20
793.37379999999996
 11
1678.9905333333331
 21
782.05860000000007
  0
LINE
  8
_0-0_LAYER002
  6
CONTINUOUS
 62
    4
 10
1704.9905333333334
 20
772.74020000000007
 11
1675.751866666667
 21
772.74020000000007
  0
LINE
  8
_0-0_LAYER002
  6
CONTINUOUS
 62
    4
 10
1704.9905333333334
 20
772.74020000000007
 11
1704.9905333333334
 21
780.7274000000001
  0
LINE
  8
_0-0_LAYER002
  6
CONTINUOUS
 62
    4
 10
1704.9905333333334
 20
780.7274000000001
 11
1678.9905333333331
 21
780.7274000000001
  0
ARC
  8
_0-0_LAYER002
  6
CONTINUOUS
 62
    4
 10
1465.6944000000001
 20
771.40899999999999
 40
3.9935999999999998
 50
199.47121999999999
 51
344.27760999999998
  0
LINE
  8
_0-0_LAYER002
  6
CONTINUOUS
 62
    4
 10
1458.0081333333333
 20
780.7274000000001
 11
1462.001733333333
 21
769.88813333333337
  0
LINE
  8
_0-0_LAYER002
  6
CONTINUOUS
 62
    4
 10
1310.2726666666667
 20
780.7274000000001
 11
1306.4804666666669
 21
770.32686666666666
  0
LINE
  8
_0-0_LAYER002
  6
CONTINUOUS
 62
    4
 10
1470.4185333333335
 20
772.74020000000007
 11
1469.5385999999999
 21
770.32686666666666
  0
LINE
  8
_0-0_LAYER002
  6
CONTINUOUS
 62
    4
 10
1294.4595333333334
 20
782.05860000000007
 11
1269.6572000000001
 21
782.05860000000007
  0
LINE
  8
_0-0_LAYER002
  6
CONTINUOUS
 62
    4
 10
1294.4595333333334
 20
782.05860000000007
 11
1298.9436000000001
 21
769.88813333333337
  0
LINE
  8
_0-0_LAYER002
  6
CONTINUOUS
 62
    4
 10
1458.0081333333333
 20
780.7274000000001
 11
1431.3841333333332
 21
780.7274000000001
  0
LINE
  8
_0-0_LAYER002
  6
CONTINUOUS
 62
    4
 10
1426.0593333333331
 20
780.7274000000001
 11
1394.7761333333333
 21
780.7274000000001
  0
LINE
  8
_0-0_LAYER002
  6
CONTINUOUS
 62
    4
 10
1389.4513333333334
 20
780.7274000000001
 11
1354.1745333333333
 21
780.7274000000001
  0
LINE
  8
_0-0_LAYER002
  6
CONTINUOUS
 62
    4
 10
1348.8497333333335
 20
780.7274000000001
 11
1310.2726666666667
 21
780.7274000000001
  0
LINE
  8
_0-0_LAYER002
  6
CONTINUOUS
 62
    4
 10
1343.7131999999999
 20
793.37379999999996
 11
1473.6571999999999
 21
793.37379999999996
  0
LINE
  8
_0-0_LAYER002
  6
CONTINUOUS
 62
    4
 10
1269.6572000000001
 20
793.37379999999996
 11
1343.5388
 21
793.37379999999996
  0
LINE
  8
_0-0_LAYER002
  6
CONTINUOUS
 62
    4
 10
1348.8497333333335
 20
780.7274000000001
 11
1348.8497333333335
 21
773.4058
  0
LINE
  8
_0-0_LAYER002
  6
CONTINUOUS
 62
    4
 10
1354.1745333333333
 20
773.4058
 11
1348.8497333333335
 21
773.4058
  0
LINE
  8
_0-0_LAYER002
  6
CONTINUOUS
 62
    4
 10
1354.1745333333333
 20
780.7274000000001
 11
1354.1745333333333
 21
773.4058
  0
LINE
  8
_0-0_LAYER002
  6
CONTINUOUS
 62
    4
 10
1389.4513333333334
 20
780.7274000000001
 11
1389.4513333333334
 21
773.4058
  0
LINE
  8
_0-0_LAYER002
  6
CONTINUOUS
 62
    4
 10
1394.7761333333333
 20
773.4058
 11
1389.4513333333334
 21
773.4058
  0
LINE
  8
_0-0_LAYER002
  6
CONTINUOUS
 62
    4
 10
1394.7761333333333
 20
780.7274000000001
 11
1394.7761333333333
 21
773.4058
  0
LINE
  8
_0-0_LAYER002
  6
CONTINUOUS
 62
    4
 10
1426.0593333333331
 20
780.7274000000001
 11
1426.0593333333331
 21
773.4058
  0
LINE
  8
_0-0_LAYER002
  6
CONTINUOUS
 62
    4
 10
1431.3841333333332
 20
773.4058
 11
1426.0593333333331
 21
773.4058
  0
LINE
  8
_0-0_LAYER002
  6
CONTINUOUS
 62
    4
 10
1431.3841333333332
 20
773.4058
 11
1431.3841333333332
 21
780.7274000000001
  0
LINE
  8
_0-0_LAYER002
  6
CONTINUOUS
 62
    4
 10
1269.6572000000001
 20
793.37379999999996
 11
1269.6572000000001
 21
782.05860000000007
  0
ARC
  8
_0-0_LAYER002
  6
CONTINUOUS
 62
    4
 10
1302.5867333333335
 20
771.40899999999999
 40
3.9935999999999998
 50
199.47121999999999
 51
344.27760999999998
  0
LINE
  8
_0-0_LAYER002
  6
CONTINUOUS
 62
    4
 10
1473.6571999999999
 20
793.37379999999996
 11
1473.6571999999999
 21
780.7274000000001
  0
LINE
  8
_0-0_LAYER002
  6
CONTINUOUS
 62
    4
 10
1473.6571999999999
 20
793.37379999999996
 11
1473.6571999999999
 21
782.05860000000007
  0
LINE
  8
_0-0_LAYER002
  6
CONTINUOUS
 62
    4
 10
1499.6572000000001
 20
772.74020000000007
 11
1470.4185333333335
 21
772.74020000000007
  0
LINE
  8
_0-0_LAYER002
  6
CONTINUOUS
 62
    4
 10
1499.6572000000001
 20
772.74020000000007
 11
1499.6572000000001
 21
780.7274000000001
  0
LINE
  8
_0-0_LAYER002
  6
CONTINUOUS
 62
    4
 10
1499.6572000000001
 20
780.7274000000001
 11
1473.6571999999999
 21
780.7274000000001
  0
ARC
  8
_0-0_LAYER002
  6
CONTINUOUS
 62
    4
 10
1260.3610666666666
 20
771.40899999999999
 40
3.9935999999999998
 50
199.47121999999999
 51
344.27760999999998
  0
LINE
  8
_0-0_LAYER002
  6
CONTINUOUS
 62
    4
 10
1252.6748
 20
780.7274000000001
 11
1256.6684
 21
769.88813333333337
  0
LINE
  8
_0-0_LAYER002
  6
CONTINUOUS
 62
    4
 10
1265.0852
 20
772.74020000000007
 11
1264.2052666666668
 21
770.32686666666666
  0
LINE
  8
_0-0_LAYER002
  6
CONTINUOUS
 62
    4
 10
1252.6748
 20
780.7274000000001
 11
1226.0508
 21
780.7274000000001
  0
LINE
  8
_0-0_LAYER002
  6
CONTINUOUS
 62
    4
 10
1220.7259999999999
 20
780.7274000000001
 11
1189.4427999999998
 21
780.7274000000001
  0
LINE
  8
_0-0_LAYER002
  6
CONTINUOUS
 62
    4
 10
1184.1179999999999
 20
780.7274000000001
 11
1158.5737333333332
 21
780.7274000000001
  0
LINE
  8
_0-0_LAYER002
  6
CONTINUOUS
 62
    4
 10
1158.5737333333332
 20
793.37379999999996
 11
1268.3238666666666
 21
793.37379999999996
  0
LINE
  8
_0-0_LAYER002
  6
CONTINUOUS
 62
    4
 10
1184.1179999999999
 20
780.7274000000001
 11
1184.1179999999999
 21
773.4058
  0
LINE
  8
_0-0_LAYER002
  6
CONTINUOUS
 62
    4
 10
1189.4427999999998
 20
773.4058
 11
1184.1179999999999
 21
773.4058
  0
LINE
  8
_0-0_LAYER002
  6
CONTINUOUS
 62
    4
 10
1189.4427999999998
 20
780.7274000000001
 11
1189.4427999999998
 21
773.4058
  0
LINE
  8
_0-0_LAYER002
  6
CONTINUOUS
 62
    4
 10
1220.7259999999999
 20
780.7274000000001
 11
1220.7259999999999
 21
773.4058
  0
LINE
  8
_0-0_LAYER002
  6
CONTINUOUS
 62
    4
 10
1226.0508
 20
773.4058
 11
1220.7259999999999
 21
773.4058
  0
LINE
  8
_0-0_LAYER002
  6
CONTINUOUS
 62
    4
 10
1226.0508
 20
773.4058
 11
1226.0508
 21
780.7274000000001
  0
LINE
  8
_0-0_LAYER002
  6
CONTINUOUS
 62
    4
 10
1268.3238666666666
 20
793.37379999999996
 11
1268.3238666666666
 21
780.7274000000001
  0
LINE
  8
_0-0_LAYER002
  6
CONTINUOUS
 62
    4
 10
1268.3238666666666
 20
793.37379999999996
 11
1268.3238666666666
 21
782.05860000000007
  0
LINE
  8
_0-0_LAYER002
  6
CONTINUOUS
 62
    4
 10
1294.3238666666666
 20
772.74020000000007
 11
1265.0852
 21
772.74020000000007
  0
LINE
  8
_0-0_LAYER002
  6
CONTINUOUS
 62
    4
 10
1294.3238666666666
 20
772.74020000000007
 11
1294.3238666666666
 21
780.7274000000001
  0
LINE
  8
_0-0_LAYER002
  6
CONTINUOUS
 62
    4
 10
1294.3238666666666
 20
780.7274000000001
 11
1268.3238666666666
 21
780.7274000000001
  0
LINE
  8
_0-0_LAYER002
  6
CONTINUOUS
 62
    3
 10
1899.6348
 20
762.09486666666658
 11
1899.6348
 21
788.76153333333332
  0
LINE
  8
_0-0_LAYER002
  6
CONTINUOUS
 62
    3
 10
1899.6348
 20
788.76153333333332
 11
1872.9681333333335
 21
788.76153333333332
  0
LINE
  8
_0-0_LAYER002
  6
CONTINUOUS
 62
    3
 10
1899.6348
 20
762.09486666666658
 11
1872.9681333333335
 21
762.09486666666658
  0
LINE
  8
_0-0_LAYER002
  6
CONTINUOUS
 62
    3
 10
1872.9681333333335
 20
762.09486666666658
 11
1872.9681333333335
 21
788.76153333333332
  0
LINE
  8
_0-0_LAYER002
  6
CONTINUOUS
 62
    3
 10
1885.6572000000001
 20
759.44099999999992
 11
1899.6348
 21
759.42819999999995
  0
LINE
  8
_0-0_LAYER002
  6
CONTINUOUS
 62
    2
 10
1899.6345333333331
 20
782.08359999999993
 11
1892.9554000000003
 21
788.76273333333324
  0
LINE
  8
_0-0_LAYER002
  6
CONTINUOUS
 62
    2
 10
1899.6345333333331
 20
772.08980000000008
 11
1882.9616666666666
 21
788.76273333333324
  0
LINE
  8
_0-0_LAYER002
  6
CONTINUOUS
 62
    2
 10
1899.6345333333331
 20
762.09606666666673
 11
1872.9678666666666
 21
788.76273333333324
  0
LINE
  8
_0-0_LAYER002
  6
CONTINUOUS
 62
    2
 10
1889.6407333333332
 20
762.09606666666673
 11
1872.9678666666666
 21
778.76893333333328
  0
LINE
  8
_0-0_LAYER002
  6
CONTINUOUS
 62
    2
 10
1879.6469999999999
 20
762.09606666666673
 11
1872.9678666666666
 21
768.77513333333343
  0
LINE
  8
_0-0_LAYER002
  6
CONTINUOUS
 62
    2
 10
1871.5843333333332
 20
761.44099999999992
 11
1871.5843333333332
 21
790.10766666666666
  0
LINE
  8
_0-0_LAYER002
  6
CONTINUOUS
 62
    2
 10
1871.5843333333332
 20
790.10766666666666
 11
1900.2509999999997
 21
790.10766666666666
  0
LINE
  8
_0-0_LAYER002
  6
CONTINUOUS
 62
    2
 10
1900.2509999999997
 20
790.10766666666666
 11
1900.2509999999997
 21
780.10766666666666
  0
LINE
  8
_0-0_LAYER002
  6
CONTINUOUS
 62
    7
 10
1269.6572000000001
 20
896.43239999999992
 11
1269.6572000000001
 21
930.59906666666666
  0
LINE
  8
_0-0_LAYER002
  6
CONTINUOUS
 62
    7
 10
1269.6572000000001
 20
929.7657333333334
 11
1680.3238666666666
 21
929.7657333333334
  0
LINE
  8
_0-0_LAYER002
  6
CONTINUOUS
 62
    7
 10
1680.3238666666666
 20
930.59906666666666
 11
1680.3238666666666
 21
896.43239999999992
  0
LINE
  8
_0-0_LAYER002
  6
CONTINUOUS
 62
    7
 10
1680.3238666666666
 20
896.43239999999992
 11
1680.3238666666666
 21
929.7657333333334
  0
LINE
  8
_0-0_LAYER002
  6
CONTINUOUS
 62
    7
 10
1474.9905333333334
 20
929.7657333333334
 11
1474.9905333333334
 21
930.59906666666666
  0
LINE
  8
_0-0_LAYER002
  6
CONTINUOUS
 62
    7
 10
1474.9905333333334
 20
930.59906666666666
 11
1474.9905333333334
 21
896.43239999999992
  0
LINE
  8
_0-0_LAYER002
  6
CONTINUOUS
 62
    7
 10
1734.2724666666666
 20
854.81240000000003
 11
1799.2724666666666
 21
854.81240000000003
  0
LINE
  8
_0-0_LAYER002
  6
CONTINUOUS
 62
    7
 10
1799.2724666666666
 20
854.81240000000003
 11
1832.8226
 21
796.70180000000005
  0
LINE
  8
_0-0_LAYER002
  6
CONTINUOUS
 62
    7
 10
1832.8226
 20
796.70180000000005
 11
1831.5285333333331
 21
801.53146666666669
  0
LINE
  8
_0-0_LAYER002
  6
CONTINUOUS
 62
    7
 10
1829.2870666666668
 20
800.23733333333337
 11
1832.8226
 21
796.70180000000005
  0
LINE
  8
_0-0_LAYER002
  6
CONTINUOUS
 62
    7
 10
1826.3598
 20
796.70320000000004
 11
1826.3598
 21
793.37660000000005
  0
LINE
  8
_0-0_LAYER002
  6
CONTINUOUS
 62
    7
 10
1826.3598
 20
795.87053333333347
 11
1841.8794666666668
 21
795.87053333333347
  0
LINE
  8
_0-0_LAYER002
  6
CONTINUOUS
 62
    7
 10
1841.8794666666668
 20
796.70320000000004
 11
1841.8794666666668
 21
793.37660000000005
  0
LINE
  8
_0-0_LAYER002
  6
CONTINUOUS
 62
    7
 10
1826.3598
 20
795.03920000000005
 11
1841.8794666666668
 21
795.03920000000005
  0
LINE
  8
_0-0_LAYER002
  6
CONTINUOUS
 62
    7
 10
1826.3598
 20
794.20793333333336
 11
1841.8794666666668
 21
794.20793333333336
  0
LINE
  8
_0-0_LAYER002
  6
CONTINUOUS
 62
    7
 10
1826.3598
 20
796.70320000000004
 11
1841.8794666666668
 21
796.70320000000004
  0
LINE
  8
_0-0_LAYER002
  6
CONTINUOUS
 62
    7
 10
1871.5843333333332
 20
790.10766666666666
 11
1900.2509999999997
 21
790.10766666666666
  0
LINE
  8
_0-0_LAYER002
  6
CONTINUOUS
 62
    7
 10
1900.2509999999997
 20
790.10766666666666
 11
1900.2509999999997
 21
780.10766666666666
  0
LINE
  8
_0-0_LAYER002
  6
CONTINUOUS
 62
    7
 10
1871.5843333333332
 20
790.10766666666666
 11
1871.5843333333332
 21
761.44099999999992
  0
LINE
  8
_0-0_LAYER002
  6
CONTINUOUS
 62
    7
 10
1894.1205844533763
 20
767.59255658804091
 11
1895.1614
 21
763.20159999999998
  0
LINE
  8
_0-0_LAYER002
  6
CONTINUOUS
 62
    7
 10
1894.0967350216113
 20
767.63386497838849
 11
1897.4028666666666
 21
764.49566666666669
  0
LINE
  8
_0-0_LAYER002
  6
CONTINUOUS
 62
    7
 10
1893.9287998529217
 20
767.8018001470781
 11
1946.7212
 21
676.48570000000007
  0
LINE
  8
_0-0_LAYER002
  6
CONTINUOUS
 62
    7
 10
1946.7212
 20
676.48570000000007
 11
2044.7212
 21
676.48570000000007
  0
LINE
  8
_0-0_LAYER002
  6
CONTINUOUS
 62
    7
 10
1972.7844
 20
631.16814666666664
 11
1940.7843999999998
 21
631.16814666666664
  0
LINE
  8
_0-0_LAYER002
  6
CONTINUOUS
 62
    7
 10
1940.7843999999998
 20
631.16814666666664
 11
1899.6348
 21
702.44135333333338
  0
LINE
  8
_0-0_LAYER002
  6
CONTINUOUS
 62
    7
 10
1899.6348
 20
702.44135333333338
 11
1900.9289333333334
 21
697.61171999999999
  0
LINE
  8
_0-0_LAYER002
  6
CONTINUOUS
 62
    7
 10
1899.6348
 20
702.44135333333338
 11
1903.1703333333335
 21
698.90582000000006
  0
LINE
  8
_0-0_LAYER002
  6
CONTINUOUS
 62
    7
 10
1878.9905333333331
 20
659.44105333333346
 11
1878.9905333333331
 21
666.10771999999997
  0
LINE
  8
_0-0_LAYER002
  6
CONTINUOUS
 62
    7
 10
1878.9905243752314
 20
659.44105157998308
 11
1158.5737333333332
 21
659.44105333333346
  0
LINE
  8
_0-0_LAYER002
  6
CONTINUOUS
 62
    7
 10
1158.5737333333332
 20
666.10771999999997
 11
1878.9905333333331
 21
666.10771999999997
  0
LINE
  8
_0-0_LAYER002
  6
CONTINUOUS
 62
    7
 10
1878.9905333333331
 20
666.10771999999997
 11
1878.9905333333331
 21
759.44099999999992
  0
LINE
  8
_0-0_LAYER002
  6
CONTINUOUS
 62
    7
 10
1878.9905333333331
 20
759.44099999999992
 11
1885.6572000000001
 21
759.42819999999995
  0
LINE
  8
_0-0_LAYER002
  6
CONTINUOUS
 62
    7
 10
1898.2495412930184
 20
760.44100000000003
 11
1158.5737333333332
 21
760.44100000000003
  0
LINE
  8
_0-0_LAYER002
  6
CONTINUOUS
 62
    7
 10
1158.5737333333332
 20
759.44099999999992
 11
1878.9905333333331
 21
759.44099999999992
  0
LINE
  8
_0-0_LAYER002
  6
CONTINUOUS
 62
    7
 10
1825.9121333333333
 20
772.07460000000015
 11
1158.5737333333332
 21
772.07460000000015
  0
LINE
  8
_0-0_LAYER002
  6
CONTINUOUS
 62
    7
 10
1825.9121333333333
 20
762.07460000000015
 11
1158.5737333333332
 21
762.07460000000015
  0
LINE
  8
_0-0_LAYER002
  6
CONTINUOUS
 62
    7
 10
1166.0350666666668
 20
759.42819999999995
 11
1158.5737333333332
 21
751.96686666666665
  0
LINE
  8
_0-0_LAYER002
  6
CONTINUOUS
 62
    7
 10
1175.4631333333332
 20
759.42819999999995
 11
1158.5737333333332
 21
742.53880000000004
  0
LINE
  8
_0-0_LAYER002
  6
CONTINUOUS
 62
    7
 10
1184.8912666666665
 20
759.42819999999995
 11
1158.5737333333332
 21
733.11073333333343
  0
LINE
  8
_0-0_LAYER002
  6
CONTINUOUS
 62
    7
 10
1373.4530666666665
 20
759.42819999999995
 11
1280.1325333333332
 21
666.10771999999997
  0
LINE
  8
_0-0_LAYER002
  6
CONTINUOUS
 62
    7
 10
1289.5605999999998
 20
666.10771999999997
 11
1382.8811333333333
 21
759.42819999999995
  0
LINE
  8
_0-0_LAYER002
  6
CONTINUOUS
 62
    7
 10
1298.9886666666666
 20
666.10771999999997
 11
1392.3091999999999
 21
759.42819999999995
  0
LINE
  8
_0-0_LAYER002
  6
CONTINUOUS
 62
    7
 10
1253.3293999999999
 20
591.09071999999992
 11
1409.8120666666669
 21
591.09071999999992
  0
LINE
  8
_0-0_LAYER002
  6
CONTINUOUS
 62
    7
 10
1509.4295333333332
 20
763.63320000000022
 11
1505.8939999999998
 21
760.09766666666678
  0
LINE
  8
_0-0_LAYER002
  6
CONTINUOUS
 62
    7
 10
1509.4295333333332
 20
763.63320000000022
 11
1508.1354000000001
 21
758.80353333333346
  0
LINE
  8
_0-0_LAYER002
  6
CONTINUOUS
 62
    7
 10
1825.9121333333333
 20
762.07460000000015
 11
1825.9121333333333
 21
772.07460000000015
  0
LINE
  8
_0-0_LAYER002
  6
CONTINUOUS
 62
    7
 10
1826.3014666666668
 20
766.50446666666664
 11
1826.3014666666668
 21
761.44099999999992
  0
LINE
  8
_0-0_LAYER002
  6
CONTINUOUS
 62
    7
 10
1826.3014666666668
 20
761.44099999999992
 11
1871.5843333333332
 21
761.44099999999992
  0
LINE
  8
_0-0_LAYER002
  6
CONTINUOUS
 62
    7
 10
1840.0571061826213
 20
761.44099999999992
 11
1836.5567999999998
 21
758.03693333333342
  0
LINE
  8
_0-0_LAYER002
  6
CONTINUOUS
 62
    7
 10
1840.0923333333333
 20
761.57246666666663
 11
1838.7982
 21
756.7428000000001
  0
LINE
  8
_0-0_LAYER002
  6
CONTINUOUS
 62
    7
 10
1839.9608666666666
 20
761.44099999999992
 11
1750.7851333333335
 21
606.88791333333336
  0
LINE
  8
_0-0_LAYER002
  6
CONTINUOUS
 62
    7
 10
1750.7851333333335
 20
606.88791333333336
 11
1605.7851333333335
 21
606.88791333333336
  0
LINE
  8
_0-0_LAYER002
  6
CONTINUOUS
 62
    7
 10
1713.8246666666669
 20
666.10771999999997
 11
1807.1451999999999
 21
759.42819999999995
  0
LINE
  8
_0-0_LAYER002
  6
CONTINUOUS
 62
    7
 10
1797.7171333333331
 20
759.42819999999995
 11
1704.3966
 21
666.10771999999997
  0
LINE
  8
_0-0_LAYER002
  6
CONTINUOUS
 62
    7
 10
1694.9684666666667
 20
666.10771999999997
 11
1788.289
 21
759.42819999999995
  0
LINE
  8
_0-0_LAYER002
  6
CONTINUOUS
 62
    7
 10
1599.7271999999998
 20
759.42819999999995
 11
1506.4066666666668
 21
666.10771999999997
  0
LINE
  8
_0-0_LAYER002
  6
CONTINUOUS
 62
    7
 10
1496.9786000000001
 20
666.10771999999997
 11
1590.2991333333332
 21
759.42819999999995
  0
LINE
  8
_0-0_LAYER002
  6
CONTINUOUS
 62
    7
 10
1580.8710666666666
 20
759.42819999999995
 11
1487.5505333333333
 21
666.10771999999997
  0
LINE
  8
_0-0_LAYER002
  6
CONTINUOUS
 62
    7
 10
1487.5505333333333
 20
666.10771999999997
 11
1580.8710666666666
 21
759.42819999999995
  0
LINE
  8
_0-0_LAYER002
  6
CONTINUOUS
 62
    7
 10
1158.5737333333332
 20
817.17833333333328
 11
1268.3238666666666
 21
817.17833333333328
  0
LINE
  8
_0-0_LAYER002
  6
CONTINUOUS
 62
    7
 10
1268.3238666666666
 20
817.17833333333328
 11
1268.3238666666666
 21
802.53513333333331
  0
LINE
  8
_0-0_LAYER002
  6
CONTINUOUS
 62
    7
 10
1268.3238666666666
 20
802.53513333333331
 11
1294.3238666666666
 21
802.53513333333331
  0
LINE
  8
_0-0_LAYER002
  6
CONTINUOUS
 62
    7
 10
1294.3238666666666
 20
802.53513333333331
 11
1294.3238666666666
 21
797.05393333333336
  0
LINE
  8
_0-0_LAYER002
  6
CONTINUOUS
 62
    7
 10
1294.3238666666666
 20
797.05393333333336
 11
1158.5737333333332
 21
797.05393333333336
  0
LINE
  8
_0-0_LAYER002
  6
CONTINUOUS
 62
    7
 10
1268.3238666666666
 20
817.17833333333328
 11
1268.3238666666666
 21
802.53513333333331
  0
LINE
  8
_0-0_LAYER002
  6
CONTINUOUS
 62
    7
 10
1269.6572000000001
 20
817.17833333333328
 11
1269.6572000000001
 21
803.8663333333335
  0
LINE
  8
_0-0_LAYER002
  6
CONTINUOUS
 62
    7
 10
1269.6572000000001
 20
803.8663333333335
 11
1295.8691333333331
 21
803.8663333333335
  0
LINE
  8
_0-0_LAYER002
  6
CONTINUOUS
 62
    7
 10
1295.8691333333331
 20
803.8663333333335
 11
1295.8691333333331
 21
797.05393333333336
  0
LINE
  8
_0-0_LAYER002
  6
CONTINUOUS
 62
    7
 10
1269.6572000000001
 20
817.17833333333328
 11
1473.6571999999999
 21
817.17833333333328
  0
LINE
  8
_0-0_LAYER002
  6
CONTINUOUS
 62
    7
 10
1473.6571999999999
 20
817.17833333333328
 11
1473.6571999999999
 21
802.53513333333331
  0
LINE
  8
_0-0_LAYER002
  6
CONTINUOUS
 62
    7
 10
1473.6571999999999
 20
802.53513333333331
 11
1499.6572000000001
 21
802.53513333333331
  0
LINE
  8
_0-0_LAYER002
  6
CONTINUOUS
 62
    7
 10
1499.6572000000001
 20
802.53513333333331
 11
1499.6572000000001
 21
797.05393333333336
  0
LINE
  8
_0-0_LAYER002
  6
CONTINUOUS
 62
    7
 10
1499.6572000000001
 20
797.05393333333336
 11
1295.8691333333331
 21
797.05393333333336
  0
LINE
  8
_0-0_LAYER002
  6
CONTINUOUS
 62
    7
 10
1474.9905333333334
 20
817.17833333333328
 11
1474.9905333333334
 21
803.8663333333335
  0
LINE
  8
_0-0_LAYER002
  6
CONTINUOUS
 62
    7
 10
1474.9905333333334
 20
803.8663333333335
 11
1501.2024666666666
 21
803.8663333333335
  0
LINE
  8
_0-0_LAYER002
  6
CONTINUOUS
 62
    7
 10
1501.2024666666666
 20
803.8663333333335
 11
1501.2024666666666
 21
797.05393333333336
  0
LINE
  8
_0-0_LAYER002
  6
CONTINUOUS
 62
    7
 10
1474.9905333333334
 20
817.17833333333328
 11
1678.9905333333331
 21
817.17833333333328
  0
LINE
  8
_0-0_LAYER002
  6
CONTINUOUS
 62
    7
 10
1678.9905333333331
 20
817.17833333333328
 11
1678.9905333333331
 21
802.53513333333331
  0
LINE
  8
_0-0_LAYER002
  6
CONTINUOUS
 62
    7
 10
1678.9905333333331
 20
802.53513333333331
 11
1704.9905333333334
 21
802.53513333333331
  0
LINE
  8
_0-0_LAYER002
  6
CONTINUOUS
 62
    7
 10
1704.9905333333334
 20
802.53513333333331
 11
1704.9905333333334
 21
797.05393333333336
  0
LINE
  8
_0-0_LAYER002
  6
CONTINUOUS
 62
    7
 10
1704.9905333333334
 20
797.05393333333336
 11
1501.2024666666666
 21
797.05393333333336
  0
LINE
  8
_0-0_LAYER002
  6
CONTINUOUS
 62
    7
 10
1538.9695767952699
 20
797.05393333333336
 11
1537.9834666666666
 21
793.37379999999996
  0
LINE
  8
_0-0_LAYER002
  6
CONTINUOUS
 62
    7
 10
1537.9834666666666
 20
793.37379999999996
 11
1541.5189999999998
 21
796.90933333333328
  0
LINE
  8
_0-0_LAYER002
  6
CONTINUOUS
 62
    7
 10
1538.9695767952699
 20
797.05393333333336
 11
1539.2776000000001
 21
798.2034666666666
  0
LINE
  8
_0-0_LAYER002
  6
CONTINUOUS
 62
    7
 10
1537.9834666666666
 20
793.37379999999996
 11
1567.9190666666668
 21
845.22373333333348
  0
LINE
  8
_0-0_LAYER002
  6
CONTINUOUS
 62
    7
 10
1567.9190666666668
 20
845.22373333333348
 11
1594.9190666666666
 21
845.22373333333348
  0
LINE
  8
_0-0_LAYER002
  6
CONTINUOUS
 62
    7
 10
1680.3238666666666
 20
817.17833333333328
 11
1680.3238666666666
 21
803.8663333333335
  0
LINE
  8
_0-0_LAYER002
  6
CONTINUOUS
 62
    7
 10
1680.3238666666666
 20
803.8663333333335
 11
1706.5358000000001
 21
803.8663333333335
  0
LINE
  8
_0-0_LAYER002
  6
CONTINUOUS
 62
    7
 10
1706.5358000000001
 20
803.8663333333335
 11
1706.5358000000001
 21
797.05393333333336
  0
LINE
  8
_0-0_LAYER002
  6
CONTINUOUS
 62
    7
 10
1706.5358000000001
 20
797.05393333333336
 11
1811.6319333333333
 21
797.05393333333336
  0
LINE
  8
_0-0_LAYER002
  6
CONTINUOUS
 62
    7
 10
1811.6319333333333
 20
817.17833333333328
 11
1680.3238666666666
 21
817.17833333333328
  0
LINE
  8
_0-0_LAYER002
  6
CONTINUOUS
 62
    7
 10
1815.1017333333334
 20
812.82980000000009
 11
1820.2627333333335
 21
812.82980000000009
  0
LINE
  8
_0-0_LAYER002
  6
CONTINUOUS
 62
    7
 10
1820.2627333333335
 20
812.82980000000009
 11
1820.2627333333335
 21
814.12006666666673
  0
LINE
  8
_0-0_LAYER002
  6
CONTINUOUS
 62
    7
 10
1820.2627333333335
 20
814.12006666666673
 11
1902.1929333333333
 21
814.12006666666673
  0
LINE
  8
_0-0_LAYER002
  6
CONTINUOUS
 62
    7
 10
1902.1929333333333
 20
814.12006666666673
 11
1902.1929333333333
 21
812.82980000000009
  0
LINE
  8
_0-0_LAYER002
  6
CONTINUOUS
 62
    7
 10
1927.7006000000001
 20
862.49533333333329
 11
1959.7005999999999
 21
862.49533333333329
  0
LINE
  8
_0-0_LAYER002
  6
CONTINUOUS
 62
    7
 10
1927.7006000000001
 20
862.49533333333329
 11
1894.9501999999998
 21
805.76999999999998
  0
LINE
  8
_0-0_LAYER002
  6
CONTINUOUS
 62
    7
 10
1896.2443333333335
 20
810.59960000000001
 11
1894.9501999999998
 21
805.76999999999998
  0
LINE
  8
_0-0_LAYER002
  6
CONTINUOUS
 62
    7
 10
1894.9501999999998
 20
805.76999999999998
 11
1898.4857333333332
 21
809.30553333333341
  0
LINE
  8
_0-0_LAYER002
  6
CONTINUOUS
 62
    7
 10
1913.1599999999999
 20
830.24806666666677
 11
1818.3273333333332
 21
830.24806666666655
  0
LINE
  8
_0-0_LAYER002
  6
CONTINUOUS
 62
    7
 10
1815.1017333333334
 20
812.82980000000009
 11
1815.1017333333334
 21
827.02246666666667
  0
ARC
  8
_0-0_LAYER002
  6
CONTINUOUS
 62
    7
 10
1818.098456308333
 20
827.25134369166665
 40
3.0054505954124808
 50
85.63246985659994
 51
184.3675301434001
  0
LINE
  8
_0-0_LAYER002
  6
CONTINUOUS
 62
    7
 10
1913.1599999999999
 20
830.24806666666677
 11
1913.1599999999999
 21
772.21260000000007
  0
ARC
  8
_0-0_LAYER002
  6
CONTINUOUS
 62
    7
 10
1909.7502566441326
 20
772.30183962718775
 40
3.4109109434200349
 50
309.78764994503751
 51
358.50080005496483
  0
TEXT
  8
_0-0_LAYER002
 62
    7
 10
1940.5084539303175
 20
635.33112101473296
 40
20
 41
1
 50
0
  1
破風板
  0
TEXT
  8
_0-0_LAYER002
 62
    7
 10
1573.4937995769531
 20
848.74334595354128
 40
20
 41
1
 50
0
  1
桟　瓦
  0
TEXT
  8
_0-0_LAYER002
 62
    7
 10
1948.6643351381701
 20
684.26640826184837
 40
20
 41
1
 50
0
  1
登り淀（防腐処理）
  0
TEXT
  8
_0-0_LAYER002
 62
    7
 10
1932.3525727224649
 20
867.77373543853048
 40
20
 41
1
 50
0
  1
右袖瓦
  0
TEXT
  8
_0-0_LAYER002
 62
    7
 10
1665.9271199326154
 20
858.25854069603577
 40
20
 41
1
 50
0
  1
弾性シール材
  0
TEXT
  8
_0-0_LAYER002
 62
    7
 10
1149.387976768621
 20
598.62965557939663
 40
20
 41
1
 50
0
  1
　瓦桟：１５ｘ３０以上　　
  0
LINE
  8
_0-0_LAYER002
  6
CONTINUOUS
 62
    7
 10
1253.3293999999999
 20
591.09071999999992
 11
1158.9031715111155
 21
591.09071999999992
  0
LINE
  8
_0-0_LAYER002
  6
CONTINUOUS
 62
    7
 10
1605.7851333333335
 20
606.88791333333336
 11
1453.8742085284491
 21
606.88791333333336
  0
LINE
  8
_0-0_LAYER002
  6
CONTINUOUS
 62
    7
 10
1594.9190666666666
 20
845.22373333333348
 11
1650.9746710515524
 21
845.22373333333348
  0
LINE
  8
_0-0_LAYER002
  6
CONTINUOUS
 62
    7
 10
1734.2724666666666
 20
854.81240000000003
 11
1667.2864334672572
 21
854.81240000000003
  0
LINE
  8
_0-0_LAYER002
  6
CONTINUOUS
 62
    7
 10
1959.7005999999999
 20
862.49533333333329
 11
1998.9589359199274
 21
862.49533333333329
  0
LINE
  8
_0-0_LAYER002
  6
CONTINUOUS
 62
    7
 10
2044.7212
 20
676.48570000000007
 11
2137.6089164534205
 21
676.48570000000007
  0
LINE
  8
_0-0_LAYER002
  6
CONTINUOUS
 62
    7
 10
1972.7844
 20
631.16814666666664
 11
2007.11481712778
 21
631.16814666666664
  0
TEXT
  8
_0-0_LAYER002
 62
    7
 10
1356.0036340342187
 20
937.09872570527705
 40
20
 41
1
 50
0
  1
308
  0
TEXT
  8
_0-0_LAYER002
 62
    7
 10
1569.4158589730271
 20
937.09872570527705
 40
20
 41
1
 50
0
  1
308
  0
LINE
  8
_0-0_LAYER002
  6
CONTINUOUS
 62
    7
 10
1114.0458248679265
 20
552.41299540156547
 11
1387.4814676111353
 21
552.41299540156547
  0
LINE
  8
_0-0_LAYER002
  6
CONTINUOUS
 62
    7
 10
1387.4814676111353
 20
552.41299540156547
 11
1509.4295333333332
 21
763.63320000000022
  0
TEXT
  8
_0-0_LAYER002
 62
    7
 10
1439.4091960538524
 20
613.5934717551736
 40
20
 41
1
 50
0
  1
捨水切カラー鋼板0.35ｍｍ以上
  0
TEXT
  8
_0-0_LAYER002
 62
    7
 10
1078.7036729672323
 20
560.568876609418
 40
20
 41
1
 50
0
  1
　下葺材：ルーフィング
  0
ENDSEC
  0
EOF
